  0
SECTION
  2
HEADER
  9
$EXTMIN
 10
-210.0
 20
-148.5
  9
$EXTMAX
 10
210.0
 20
148.5
  9
$PDMODE
 70
    32
  9
$PDSIZE
 40
1.5
  9
$LTSCALE
 40
10.0
  0
ENDSEC
  0
SECTION
  2
TABLES
  0
TABLE
  2
LTYPE
 70
    15
  0
LTYPE
  2
CONTINUOUS
 70
    64
  3
実線
 72
    65
 73
     0
 40
0.0
  0
LTYPE
  2
DASHED
 70
    64
  3
破線A
 72
    65
 73
     2
 40
0.6
 49
0.4
 49
-0.2
  0
LTYPE
  2
DASHEDX2
 70
    64
  3
破線B
 72
    65
 73
     2
 40
1.3
 49
0.9
 49
-0.4
  0
LTYPE
  2
DASHDOT
 70
    64
  3
１点鎖線A
 72
    65
 73
     4
 40
0.5375
 49
0.375
 49
-0.05
 49
0.0625
 49
-0.05
  0
LTYPE
  2
DASHDOTX2
 70
    64
  3
１点鎖線B
 72
    65
 73
     4
 40
1.075
 49
0.75
 49
-0.1
 49
0.125
 49
-0.1
  0
LTYPE
  2
DIVIDE2
 70
    64
  3
２点鎖線A
 72
    65
 73
     6
 40
0.5125
 49
0.3
 49
-0.0375
 49
0.05
 49
-0.0375
 49
0.05
 49
-0.0375
  0
LTYPE
  2
DIVIDE
 70
    64
  3
２点鎖線B
 72
    65
 73
     6
 40
1.05
 49
0.55
 49
-0.1
 49
0.1
 49
-0.1
 49
0.1
 49
-0.1
  0
LTYPE
  2
DOT
 70
    64
  3
点線A
 72
    65
 73
     2
 40
0.1125
 49
0.0625
 49
-0.05
  0
LTYPE
  2
DOTX2
 70
    64
  3
点線B
 72
    65
 73
     2
 40
0.275
 49
0.15
 49
-0.125
  0
LTYPE
  2
CONTINUOUS
 70
    64
  3
実線
 72
    65
 73
     0
 40
0.0
  0
LTYPE
  2
CONTINUOUS
 70
    64
  3
実線
 72
    65
 73
     0
 40
0.0
  0
LTYPE
  2
CONTINUOUS
 70
    64
  3
実線
 72
    65
 73
     0
 40
0.0
  0
LTYPE
  2
CONTINUOUS
 70
    64
  3
実線
 72
    65
 73
     0
 40
0.0
  0
LTYPE
  2
CONTINUOUS
 70
    64
  3
実線
 72
    65
 73
     0
 40
0.0
  0
LTYPE
  2
CONTINUOUS
 70
    64
  3
実線
 72
    65
 73
     0
 40
0.0
  0
ENDTAB
  0
TABLE
  2
LAYER
 70
    34
  0
LAYER
  2
通り芯
 70
     0
 62
    15
  6
CONTINUOUS
  0
LAYER
  2
補助線
 70
     0
 62
    16
  6
DOT
  0
LAYER
  2
躯体
 70
     0
 62
    31
  6
CONTINUOUS
  0
LAYER
  2
型材
 70
     0
 62
    32
  6
CONTINUOUS
  0
LAYER
  2
型材断面
 70
     0
 62
    47
  6
CONTINUOUS
  0
LAYER
  2
ガラス
 70
     0
 62
    48
  6
CONTINUOUS
  0
LAYER
  2
ゴム等
 70
     0
 62
    63
  6
CONTINUOUS
  0
LAYER
  2
ボルト／ビス
 70
     0
 62
    64
  6
CONTINUOUS
  0
LAYER
  2
文字
 70
     0
 62
    79
  6
CONTINUOUS
  0
LAYER
  2
寸法
 70
     0
 62
    80
  6
CONTINUOUS
  0
LAYER
  2
ﾊｯﾁﾝｸﾞ
 70
     0
 62
    95
  6
CONTINUOUS
  0
LAYER
  2
別途部材
 70
     0
 62
    96
  6
CONTINUOUS
  0
LAYER
  2
曲げ物
 70
     0
 62
   111
  6
CONTINUOUS
  0
LAYER
  2
鉄骨等
 70
     0
 62
   112
  6
CONTINUOUS
  0
LAYER
  2
St
 70
     0
 62
   127
  6
CONTINUOUS
  0
LAYER
  2
その他部品等
 70
     0
 62
   128
  6
CONTINUOUS
  0
LAYER
  2
ｶﾞｽｹｯﾄ
 70
     0
 62
   143
  6
CONTINUOUS
  0
LAYER
  2
ｽｹｯﾁ
 70
     0
 62
    14
  6
CONTINUOUS
  0
LAYER
  2
0
 70
     0
 62
    17
  6
CONTINUOUS
  0
LAYER
  2
1
 70
     0
 62
    30
  6
CONTINUOUS
  0
LAYER
  2
4
 70
     0
 62
    33
  6
CONTINUOUS
  0
LAYER
  2
ﾚｲﾔ3
 70
     0
 62
    46
  6
CONTINUOUS
  0
LAYER
  2
外形線
 70
     0
 62
    49
  6
CONTINUOUS
  0
LAYER
  2
部品
 70
     0
 62
    14
  6
CONTINUOUS
  0
LAYER
  2
サッシ芯
 70
     0
 62
    17
  6
DASHDOTX2
  0
LAYER
  2
寸法線
 70
     0
 62
    62
  6
CONTINUOUS
  0
LAYER
  2
姿図外形線
 70
     0
 62
    65
  6
CONTINUOUS
  0
LAYER
  2
姿補助線
 70
     0
 62
    30
  6
CONTINUOUS
  0
LAYER
  2
透視線
 70
     0
 62
    78
  6
DOT
  0
LAYER
  2
用紙
 70
     0
 62
    81
  6
CONTINUOUS
  0
LAYER
  2
実線図枠
 70
     0
 62
    94
  6
CONTINUOUS
  0
LAYER
  2
補助図枠
 70
     0
 62
    97
  6
CONTINUOUS
  0
LAYER
  2
建具記号
 70
     0
 62
   110
  6
CONTINUOUS
  0
LAYER
  2
補助文字
 70
     0
 62
   113
  6
CONTINUOUS
  0
ENDTAB
  0
TABLE
  2
STYLE
 70
    10
  0
STYLE
  2
STANDARD
 70
     0
 40
1.0
 41
1.0
 42
1.0
 50
0.0
 71
     0
  3
TXT
  4
BIGFONT
  0
STYLE
  2
TATE
 70
     4
 40
1.0
 41
1.0
 42
1.0
 50
0.0
 71
     0
  3
TXT
  4
BIGFONT
  0
STYLE
  2
TextStyle03
 70
     0
 40
1.0
 41
1.0
 42
1.0
 50
0.0
 71
     0
  3
MONOTXT
  4
BIGFONT
  0
STYLE
  2
TextStyle04
 70
     0
 40
1.0
 41
1.0
 42
1.0
 50
0.0
 71
     0
  3
MONOTXT
  4
BIGFONT
  0
STYLE
  2
TextStyle05
 70
     0
 40
1.0
 41
1.0
 42
1.0
 50
0.0
 71
     0
  3
MONOTXT
  4
BIGFONT
  0
STYLE
  2
TextStyle06
 70
     0
 40
1.0
 41
1.0
 42
1.0
 50
0.0
 71
     0
  3
MONOTXT
  4
BIGFONT
  0
STYLE
  2
TextStyle07
 70
     0
 40
1.0
 41
1.0
 42
1.0
 50
0.0
 71
     0
  3
MONOTXT
  4
BIGFONT
  0
STYLE
  2
TextStyle08
 70
     0
 40
1.0
 41
1.0
 42
1.0
 50
0.0
 71
     0
  3
MONOTXT
  4
BIGFONT
  0
STYLE
  2
TextStyle09
 70
     0
 40
1.0
 41
1.0
 42
1.0
 50
0.0
 71
     0
  3
MONOTXT
  4
BIGFONT
  0
STYLE
  2
TextStyle10
 70
     0
 40
1.0
 41
1.0
 42
1.0
 50
0.0
 71
     0
  3
MONOTXT
  4
BIGFONT
  0
ENDTAB
  0
ENDSEC
  0
SECTION
  2
BLOCKS
  0
BLOCK
  2
*GRP_0001
 70
    65
 10
0.0
 20
0.0
  0
LINE
  8
型材断面
  6
CONTINUOUS
 10
195.0
 20
133.5
 11
195.0
 21
-133.5
  0
LINE
  8
型材断面
  6
CONTINUOUS
 10
195.0
 20
-133.5
 11
-185.0
 21
-133.5
  0
LINE
  8
型材断面
  6
CONTINUOUS
 10
-185.0
 20
-133.5
 11
-185.0
 21
133.5
  0
LINE
  8
型材断面
  6
CONTINUOUS
 10
195.0
 20
133.5
 11
-185.0
 21
133.5
  0
LINE
  8
型材断面
  6
CONTINUOUS
 10
145.0
 20
-133.5
 11
145.0
 21
-118.5
  0
LINE
  8
型材断面
  6
CONTINUOUS
 10
195.0
 20
-118.5
 11
145.0
 21
-118.5
  0
ENDBLK
  0
BLOCK
  2
*DIM_0002
 70
    65
 10
0.0
 20
0.0
  0
LINE
  8
寸法
  6
BYBLOCK
 62
     0
 10
37.224393
 20
-64.87628
 11
62.194043
 21
-64.87628
  0
LINE
  8
寸法
  6
BYBLOCK
 62
     0
 10
62.194043
 20
-70.209613
 11
62.194043
 21
-64.87628
  0
POINT
  8
寸法
 62
     0
 10
62.194043
 20
-70.209613
  0
POINT
  8
寸法
 62
     0
 10
62.194043
 20
-64.87628
  0
TEXT
  7
TextStyle03
  8
寸法
  6
CONTINUOUS
 62
     0
 10
61.8
 20
-69.9875
  1
160
 40
3.0
 50
90.0
 72
     5
 11
61.8
 21
-65.1125
  0
ENDBLK
  0
BLOCK
  2
*DIM_0003
 70
    65
 10
0.0
 20
0.0
  0
LINE
  8
寸法
  6
BYBLOCK
 62
     0
 10
46.224393
 20
-13.121378
 11
-103.775608
 21
-13.121378
  0
POINT
  8
寸法
 62
     0
 10
46.224393
 20
-13.121378
  0
POINT
  8
寸法
 62
     0
 10
-103.775608
 20
-13.121378
  0
TEXT
  7
TextStyle03
  8
寸法
  6
CONTINUOUS
 62
     0
 10
-40.51875
 20
-12.75
  1
呼称寸法　4500
 40
3.0
 72
     5
 11
-17.08125
 21
-12.75
  0
ENDBLK
  0
BLOCK
  2
*DIM_0004
 70
    65
 10
0.0
 20
0.0
  0
LINE
  8
寸法
  6
BYBLOCK
 62
     0
 10
-87.10894
 20
19.183902
 11
-87.10894
 21
14.03092
  0
LINE
  8
寸法
  6
BYBLOCK
 62
     0
 10
-28.775608
 20
19.183905
 11
-28.775608
 21
14.03092
  0
LINE
  8
寸法
  6
BYBLOCK
 62
     0
 10
-87.10894
 20
14.03092
 11
-28.775608
 21
14.03092
  0
POINT
  8
寸法
 62
     0
 10
-87.10894
 20
14.03092
  0
POINT
  8
寸法
 62
     0
 10
-28.775608
 20
14.03092
  0
TEXT
  7
TextStyle03
  8
寸法
  6
CONTINUOUS
 62
     0
 10
-61.23125
 20
14.4
  1
1750
 40
3.0
 72
     5
 11
-54.66875
 21
14.4
  0
ENDBLK
  0
BLOCK
  2
*DIM_0005
 70
    65
 10
0.0
 20
0.0
  0
LINE
  8
寸法
  6
BYBLOCK
 62
     0
 10
29.557725
 20
19.183902
 11
29.557725
 21
14.03092
  0
LINE
  8
寸法
  6
BYBLOCK
 62
     0
 10
-28.775608
 20
14.03092
 11
29.557725
 21
14.03092
  0
POINT
  8
寸法
 62
     0
 10
29.557725
 20
14.03092
  0
TEXT
  7
TextStyle03
  8
寸法
  6
CONTINUOUS
 62
     0
 10
-2.90625
 20
14.4
  1
1750
 40
3.0
 72
     5
 11
3.65625
 21
14.4
  0
ENDBLK
  0
BLOCK
  2
*DIM_0006
 70
    65
 10
0.0
 20
0.0
  0
LINE
  8
寸法
  6
BYBLOCK
 62
     0
 10
47.224393
 20
42.814035
 11
56.948675
 21
42.814035
  0
LINE
  8
寸法
  6
BYBLOCK
 62
     0
 10
49.854522
 20
39.114035
 11
56.948675
 21
39.114035
  0
LINE
  8
寸法
  6
BYBLOCK
 62
     0
 10
56.948675
 20
42.814035
 11
56.948675
 21
39.114035
  0
POINT
  8
寸法
 62
     0
 10
56.948675
 20
42.814035
  0
POINT
  8
寸法
 62
     0
 10
56.948675
 20
39.114035
  0
TEXT
  7
TextStyle03
  8
寸法
  6
CONTINUOUS
 62
     0
 10
56.625
 20
43.8125
  1
111
 40
3.0
 50
90.0
 72
     5
 11
56.625
 21
48.6875
  0
ENDBLK
  0
BLOCK
  2
*DIM_0007
 70
    65
 10
0.0
 20
0.0
  0
LINE
  8
寸法
  6
BYBLOCK
 62
     0
 10
47.224393
 20
22.81403
 11
56.948675
 21
22.814027
  0
LINE
  8
寸法
  6
BYBLOCK
 62
     0
 10
49.854522
 20
26.51403
 11
56.948675
 21
26.514027
  0
LINE
  8
寸法
  6
BYBLOCK
 62
     0
 10
56.948675
 20
22.814027
 11
56.948675
 21
26.514027
  0
POINT
  8
寸法
 62
     0
 10
56.948675
 20
22.814027
  0
POINT
  8
寸法
 62
     0
 10
56.948675
 20
26.514027
  0
TEXT
  7
TextStyle03
  8
寸法
  6
CONTINUOUS
 62
     0
 10
56.95
 20
16.5625
  1
111
 40
3.0
 50
90.0
 72
     5
 11
56.95
 21
21.4375
  0
ENDBLK
  0
BLOCK
  2
*GRP_0008
 70
    65
 10
0.0
 20
0.0
  0
LINE
  8
別途部材
  6
CONTINUOUS
 62
    96
 10
-105.442273
 20
-70.209613
 11
-105.842273
 21
-71.209613
  0
LINE
  8
別途部材
  6
CONTINUOUS
 62
    96
 10
-105.442273
 20
-70.209613
 11
-28.775608
 21
-70.209613
  0
LINE
  8
別途部材
  6
CONTINUOUS
 10
-105.842273
 20
-71.209613
 11
-28.775608
 21
-71.209613
  0
LINE
  8
別途部材
  6
CONTINUOUS
 10
-29.275608
 20
-63.87628
 11
-30.275608
 21
-64.87628
  0
LINE
  8
別途部材
  6
CONTINUOUS
 10
-31.275608
 20
-64.87628
 11
-32.275608
 21
-63.87628
  0
LINE
  8
別途部材
  6
CONTINUOUS
 10
-33.275608
 20
-63.87628
 11
-34.275608
 21
-64.87628
  0
LINE
  8
別途部材
  6
CONTINUOUS
 10
-32.275608
 20
-63.87628
 11
-33.275608
 21
-63.87628
  0
LINE
  8
別途部材
  6
CONTINUOUS
 10
-29.275608
 20
-63.87628
 11
-28.775608
 21
-63.87628
  0
LINE
  8
別途部材
  6
CONTINUOUS
 10
-35.275608
 20
-64.87628
 11
-36.275608
 21
-63.87628
  0
LINE
  8
別途部材
  6
CONTINUOUS
 10
-37.275608
 20
-63.87628
 11
-38.275608
 21
-64.87628
  0
LINE
  8
別途部材
  6
CONTINUOUS
 10
-36.275608
 20
-63.87628
 11
-37.275608
 21
-63.87628
  0
LINE
  8
別途部材
  6
CONTINUOUS
 10
-39.275608
 20
-64.87628
 11
-40.275608
 21
-63.87628
  0
LINE
  8
別途部材
  6
CONTINUOUS
 10
-41.275608
 20
-63.87628
 11
-42.275608
 21
-64.87628
  0
LINE
  8
別途部材
  6
CONTINUOUS
 10
-40.275608
 20
-63.87628
 11
-41.275608
 21
-63.87628
  0
LINE
  8
別途部材
  6
CONTINUOUS
 10
-43.275608
 20
-64.87628
 11
-44.275608
 21
-63.87628
  0
LINE
  8
別途部材
  6
CONTINUOUS
 10
-45.275608
 20
-63.87628
 11
-46.275608
 21
-64.87628
  0
LINE
  8
別途部材
  6
CONTINUOUS
 10
-44.275608
 20
-63.87628
 11
-45.275608
 21
-63.87628
  0
LINE
  8
別途部材
  6
CONTINUOUS
 10
-47.275608
 20
-64.87628
 11
-48.275608
 21
-63.87628
  0
LINE
  8
別途部材
  6
CONTINUOUS
 10
-49.275608
 20
-63.87628
 11
-50.275608
 21
-64.87628
  0
LINE
  8
別途部材
  6
CONTINUOUS
 10
-48.275608
 20
-63.87628
 11
-49.275608
 21
-63.87628
  0
LINE
  8
別途部材
  6
CONTINUOUS
 10
-51.275608
 20
-64.87628
 11
-52.275608
 21
-63.87628
  0
LINE
  8
別途部材
  6
CONTINUOUS
 10
-53.275608
 20
-63.87628
 11
-54.275608
 21
-64.87628
  0
LINE
  8
別途部材
  6
CONTINUOUS
 10
-52.275608
 20
-63.87628
 11
-53.275608
 21
-63.87628
  0
LINE
  8
別途部材
  6
CONTINUOUS
 10
-55.275608
 20
-64.87628
 11
-56.275608
 21
-63.87628
  0
LINE
  8
別途部材
  6
CONTINUOUS
 10
-57.275608
 20
-63.87628
 11
-58.275608
 21
-64.87628
  0
LINE
  8
別途部材
  6
CONTINUOUS
 10
-56.275608
 20
-63.87628
 11
-57.275608
 21
-63.87628
  0
LINE
  8
別途部材
  6
CONTINUOUS
 10
-59.275608
 20
-64.87628
 11
-60.275608
 21
-63.87628
  0
LINE
  8
別途部材
  6
CONTINUOUS
 10
-61.275608
 20
-63.87628
 11
-62.275608
 21
-64.87628
  0
LINE
  8
別途部材
  6
CONTINUOUS
 10
-60.275608
 20
-63.87628
 11
-61.275608
 21
-63.87628
  0
LINE
  8
別途部材
  6
CONTINUOUS
 10
-63.275608
 20
-64.87628
 11
-64.275608
 21
-63.87628
  0
LINE
  8
別途部材
  6
CONTINUOUS
 10
-65.275608
 20
-63.87628
 11
-66.275608
 21
-64.87628
  0
LINE
  8
別途部材
  6
CONTINUOUS
 10
-64.275608
 20
-63.87628
 11
-65.275608
 21
-63.87628
  0
LINE
  8
別途部材
  6
CONTINUOUS
 10
-67.275608
 20
-64.87628
 11
-68.275608
 21
-63.87628
  0
LINE
  8
別途部材
  6
CONTINUOUS
 10
-69.275608
 20
-63.87628
 11
-70.275608
 21
-64.87628
  0
LINE
  8
別途部材
  6
CONTINUOUS
 10
-68.275608
 20
-63.87628
 11
-69.275608
 21
-63.87628
  0
LINE
  8
別途部材
  6
CONTINUOUS
 10
-71.275608
 20
-64.87628
 11
-72.275608
 21
-63.87628
  0
LINE
  8
別途部材
  6
CONTINUOUS
 10
-73.275608
 20
-63.87628
 11
-74.275608
 21
-64.87628
  0
LINE
  8
別途部材
  6
CONTINUOUS
 10
-72.275608
 20
-63.87628
 11
-73.275608
 21
-63.87628
  0
LINE
  8
別途部材
  6
CONTINUOUS
 10
-70.275608
 20
-64.87628
 11
-71.275608
 21
-64.87628
  0
LINE
  8
別途部材
  6
CONTINUOUS
 10
-66.275608
 20
-64.87628
 11
-67.275608
 21
-64.87628
  0
LINE
  8
別途部材
  6
CONTINUOUS
 10
-62.275608
 20
-64.87628
 11
-63.275608
 21
-64.87628
  0
LINE
  8
別途部材
  6
CONTINUOUS
 10
-58.275608
 20
-64.87628
 11
-59.275608
 21
-64.87628
  0
LINE
  8
別途部材
  6
CONTINUOUS
 10
-54.275608
 20
-64.87628
 11
-55.275608
 21
-64.87628
  0
LINE
  8
別途部材
  6
CONTINUOUS
 10
-50.275608
 20
-64.87628
 11
-51.275608
 21
-64.87628
  0
LINE
  8
別途部材
  6
CONTINUOUS
 10
-46.275608
 20
-64.87628
 11
-47.275608
 21
-64.87628
  0
LINE
  8
別途部材
  6
CONTINUOUS
 10
-42.275608
 20
-64.87628
 11
-43.275608
 21
-64.87628
  0
LINE
  8
別途部材
  6
CONTINUOUS
 10
-38.275608
 20
-64.87628
 11
-39.275608
 21
-64.87628
  0
LINE
  8
別途部材
  6
CONTINUOUS
 10
-34.275608
 20
-64.87628
 11
-35.275608
 21
-64.87628
  0
LINE
  8
別途部材
  6
CONTINUOUS
 10
-31.275608
 20
-64.87628
 11
-30.275608
 21
-64.87628
  0
LINE
  8
別途部材
  6
CONTINUOUS
 10
-75.275608
 20
-64.87628
 11
-76.275608
 21
-63.87628
  0
LINE
  8
別途部材
  6
CONTINUOUS
 10
-77.275608
 20
-63.87628
 11
-78.275608
 21
-64.87628
  0
LINE
  8
別途部材
  6
CONTINUOUS
 10
-76.275608
 20
-63.87628
 11
-77.275608
 21
-63.87628
  0
LINE
  8
別途部材
  6
CONTINUOUS
 10
-79.275608
 20
-64.87628
 11
-80.275608
 21
-63.87628
  0
LINE
  8
別途部材
  6
CONTINUOUS
 10
-81.275608
 20
-63.87628
 11
-82.275608
 21
-64.87628
  0
LINE
  8
別途部材
  6
CONTINUOUS
 10
-80.275608
 20
-63.87628
 11
-81.275608
 21
-63.87628
  0
LINE
  8
別途部材
  6
CONTINUOUS
 10
-83.275608
 20
-64.87628
 11
-84.275608
 21
-63.87628
  0
LINE
  8
別途部材
  6
CONTINUOUS
 10
-85.275608
 20
-63.87628
 11
-86.275608
 21
-64.87628
  0
LINE
  8
別途部材
  6
CONTINUOUS
 10
-84.275608
 20
-63.87628
 11
-85.275608
 21
-63.87628
  0
LINE
  8
別途部材
  6
CONTINUOUS
 10
-87.275608
 20
-64.87628
 11
-88.275608
 21
-63.87628
  0
LINE
  8
別途部材
  6
CONTINUOUS
 10
-89.275608
 20
-63.87628
 11
-90.275608
 21
-64.87628
  0
LINE
  8
別途部材
  6
CONTINUOUS
 10
-88.275608
 20
-63.87628
 11
-89.275608
 21
-63.87628
  0
LINE
  8
別途部材
  6
CONTINUOUS
 10
-91.275608
 20
-64.87628
 11
-92.275608
 21
-63.87628
  0
LINE
  8
別途部材
  6
CONTINUOUS
 10
-93.275608
 20
-63.87628
 11
-94.275608
 21
-64.87628
  0
LINE
  8
別途部材
  6
CONTINUOUS
 10
-92.275608
 20
-63.87628
 11
-93.275608
 21
-63.87628
  0
LINE
  8
別途部材
  6
CONTINUOUS
 10
-90.275608
 20
-64.87628
 11
-91.275608
 21
-64.87628
  0
LINE
  8
別途部材
  6
CONTINUOUS
 10
-86.275608
 20
-64.87628
 11
-87.275608
 21
-64.87628
  0
LINE
  8
別途部材
  6
CONTINUOUS
 10
-82.275608
 20
-64.87628
 11
-83.275608
 21
-64.87628
  0
LINE
  8
別途部材
  6
CONTINUOUS
 10
-78.275608
 20
-64.87628
 11
-79.275608
 21
-64.87628
  0
LINE
  8
別途部材
  6
CONTINUOUS
 10
-74.275608
 20
-64.87628
 11
-75.275608
 21
-64.87628
  0
LINE
  8
別途部材
  6
CONTINUOUS
 10
-93.275608
 20
-63.87628
 11
-93.275608
 21
-70.209613
  0
LINE
  8
別途部材
  6
CONTINUOUS
 10
-94.275608
 20
-64.87628
 11
-94.275608
 21
-70.209613
  0
LINE
  8
別途部材
  6
CONTINUOUS
 10
-91.275608
 20
-64.87628
 11
-91.275608
 21
-70.209613
  0
LINE
  8
別途部材
  6
CONTINUOUS
 10
-92.275608
 20
-63.87628
 11
-92.275608
 21
-70.209613
  0
LINE
  8
別途部材
  6
CONTINUOUS
 10
-90.275608
 20
-64.87628
 11
-90.275608
 21
-70.209613
  0
LINE
  8
別途部材
  6
CONTINUOUS
 10
-88.275608
 20
-63.87628
 11
-88.275608
 21
-70.209613
  0
LINE
  8
別途部材
  6
CONTINUOUS
 10
-89.275608
 20
-63.87628
 11
-89.275608
 21
-70.209613
  0
LINE
  8
別途部材
  6
CONTINUOUS
 10
-87.275608
 20
-64.87628
 11
-87.275608
 21
-70.209613
  0
LINE
  8
別途部材
  6
CONTINUOUS
 10
-86.275608
 20
-64.87628
 11
-86.275608
 21
-70.209613
  0
LINE
  8
別途部材
  6
CONTINUOUS
 10
-85.275608
 20
-63.87628
 11
-85.275608
 21
-70.209613
  0
LINE
  8
別途部材
  6
CONTINUOUS
 10
-84.275608
 20
-63.87628
 11
-84.275608
 21
-70.209613
  0
LINE
  8
別途部材
  6
CONTINUOUS
 10
-81.275608
 20
-63.87628
 11
-81.275608
 21
-70.209613
  0
LINE
  8
別途部材
  6
CONTINUOUS
 10
-79.275608
 20
-64.87628
 11
-79.275608
 21
-70.209613
  0
LINE
  8
別途部材
  6
CONTINUOUS
 10
-80.275608
 20
-63.87628
 11
-80.275608
 21
-70.209613
  0
LINE
  8
別途部材
  6
CONTINUOUS
 10
-82.275608
 20
-64.87628
 11
-82.275608
 21
-70.209613
  0
LINE
  8
別途部材
  6
CONTINUOUS
 10
-83.275608
 20
-64.87628
 11
-83.275608
 21
-70.209613
  0
LINE
  8
別途部材
  6
CONTINUOUS
 10
-78.275608
 20
-64.87628
 11
-78.275608
 21
-70.209613
  0
LINE
  8
別途部材
  6
CONTINUOUS
 10
-76.275608
 20
-63.87628
 11
-76.275608
 21
-70.209613
  0
LINE
  8
別途部材
  6
CONTINUOUS
 10
-77.275608
 20
-63.87628
 11
-77.275608
 21
-70.209613
  0
LINE
  8
別途部材
  6
CONTINUOUS
 10
-75.275608
 20
-64.87628
 11
-75.275608
 21
-70.209613
  0
LINE
  8
別途部材
  6
CONTINUOUS
 10
-73.275608
 20
-63.87628
 11
-73.275608
 21
-70.209613
  0
LINE
  8
別途部材
  6
CONTINUOUS
 10
-74.275608
 20
-64.87628
 11
-74.275608
 21
-70.209613
  0
LINE
  8
別途部材
  6
CONTINUOUS
 10
-72.275608
 20
-63.87628
 11
-72.275608
 21
-70.209613
  0
LINE
  8
別途部材
  6
CONTINUOUS
 10
-71.275608
 20
-64.87628
 11
-71.275608
 21
-70.209613
  0
LINE
  8
別途部材
  6
CONTINUOUS
 10
-69.275608
 20
-63.87628
 11
-69.275608
 21
-70.209613
  0
LINE
  8
別途部材
  6
CONTINUOUS
 10
-70.275608
 20
-64.87628
 11
-70.275608
 21
-70.209613
  0
LINE
  8
別途部材
  6
CONTINUOUS
 10
-66.275608
 20
-64.87628
 11
-66.275608
 21
-70.209613
  0
LINE
  8
別途部材
  6
CONTINUOUS
 10
-67.275608
 20
-64.87628
 11
-67.275608
 21
-70.209613
  0
LINE
  8
別途部材
  6
CONTINUOUS
 10
-68.275608
 20
-63.87628
 11
-68.275608
 21
-70.209613
  0
LINE
  8
別途部材
  6
CONTINUOUS
 10
-65.275608
 20
-63.87628
 11
-65.275608
 21
-70.209613
  0
LINE
  8
別途部材
  6
CONTINUOUS
 10
-64.275608
 20
-63.87628
 11
-64.275608
 21
-70.209613
  0
LINE
  8
別途部材
  6
CONTINUOUS
 10
-63.275608
 20
-64.87628
 11
-63.275608
 21
-70.209613
  0
LINE
  8
別途部材
  6
CONTINUOUS
 10
-61.275608
 20
-63.87628
 11
-61.275608
 21
-70.209613
  0
LINE
  8
別途部材
  6
CONTINUOUS
 10
-57.275608
 20
-63.87628
 11
-57.275608
 21
-70.209613
  0
LINE
  8
別途部材
  6
CONTINUOUS
 10
-58.275608
 20
-64.87628
 11
-58.275608
 21
-70.209613
  0
LINE
  8
別途部材
  6
CONTINUOUS
 10
-59.275608
 20
-64.87628
 11
-59.275608
 21
-70.209613
  0
LINE
  8
別途部材
  6
CONTINUOUS
 10
-60.275608
 20
-63.87628
 11
-60.275608
 21
-70.209613
  0
LINE
  8
別途部材
  6
CONTINUOUS
 10
-62.275608
 20
-64.87628
 11
-62.275608
 21
-70.209613
  0
LINE
  8
別途部材
  6
CONTINUOUS
 10
-55.275608
 20
-64.87628
 11
-55.275608
 21
-70.209613
  0
LINE
  8
別途部材
  6
CONTINUOUS
 10
-56.275608
 20
-63.87628
 11
-56.275608
 21
-70.209613
  0
LINE
  8
別途部材
  6
CONTINUOUS
 10
-54.275608
 20
-64.87628
 11
-54.275608
 21
-70.209613
  0
LINE
  8
別途部材
  6
CONTINUOUS
 10
-53.275608
 20
-63.87628
 11
-53.275608
 21
-70.209613
  0
LINE
  8
別途部材
  6
CONTINUOUS
 10
-49.275608
 20
-63.87628
 11
-49.275608
 21
-70.209613
  0
LINE
  8
別途部材
  6
CONTINUOUS
 10
-48.275608
 20
-63.87628
 11
-48.275608
 21
-70.209613
  0
LINE
  8
別途部材
  6
CONTINUOUS
 10
-50.275608
 20
-64.87628
 11
-50.275608
 21
-70.209613
  0
LINE
  8
別途部材
  6
CONTINUOUS
 10
-51.275608
 20
-64.87628
 11
-51.275608
 21
-70.209613
  0
LINE
  8
別途部材
  6
CONTINUOUS
 10
-52.275608
 20
-63.87628
 11
-52.275608
 21
-70.209613
  0
LINE
  8
別途部材
  6
CONTINUOUS
 10
-47.275608
 20
-64.87628
 11
-47.275608
 21
-70.209613
  0
LINE
  8
別途部材
  6
CONTINUOUS
 10
-45.275608
 20
-63.87628
 11
-45.275608
 21
-70.209613
  0
LINE
  8
別途部材
  6
CONTINUOUS
 10
-44.275608
 20
-63.87628
 11
-44.275608
 21
-70.209613
  0
LINE
  8
別途部材
  6
CONTINUOUS
 10
-43.275608
 20
-64.87628
 11
-43.275608
 21
-70.209613
  0
LINE
  8
別途部材
  6
CONTINUOUS
 10
-42.275608
 20
-64.87628
 11
-42.275608
 21
-70.209613
  0
LINE
  8
別途部材
  6
CONTINUOUS
 10
-41.275608
 20
-63.87628
 11
-41.275608
 21
-70.209613
  0
LINE
  8
別途部材
  6
CONTINUOUS
 10
-46.275608
 20
-64.87628
 11
-46.275608
 21
-70.209613
  0
LINE
  8
別途部材
  6
CONTINUOUS
 10
-40.275608
 20
-63.87628
 11
-40.275608
 21
-70.209613
  0
LINE
  8
別途部材
  6
CONTINUOUS
 10
-39.275608
 20
-64.87628
 11
-39.275608
 21
-70.209613
  0
LINE
  8
別途部材
  6
CONTINUOUS
 10
-38.275608
 20
-64.87628
 11
-38.275608
 21
-70.209613
  0
LINE
  8
別途部材
  6
CONTINUOUS
 10
-36.275608
 20
-63.87628
 11
-36.275608
 21
-70.209613
  0
LINE
  8
別途部材
  6
CONTINUOUS
 10
-34.275608
 20
-64.87628
 11
-34.275608
 21
-70.209613
  0
LINE
  8
別途部材
  6
CONTINUOUS
 10
-33.275608
 20
-63.87628
 11
-33.275608
 21
-70.209613
  0
LINE
  8
別途部材
  6
CONTINUOUS
 10
-31.275608
 20
-64.87628
 11
-31.275608
 21
-70.209613
  0
LINE
  8
別途部材
  6
CONTINUOUS
 10
-30.275608
 20
-64.87628
 11
-30.275608
 21
-70.209613
  0
LINE
  8
別途部材
  6
CONTINUOUS
 10
-29.275608
 20
-63.87628
 11
-29.275608
 21
-70.209613
  0
LINE
  8
別途部材
  6
CONTINUOUS
 10
-32.275608
 20
-63.87628
 11
-32.275608
 21
-70.209613
  0
LINE
  8
別途部材
  6
CONTINUOUS
 10
-35.275608
 20
-64.87628
 11
-35.275608
 21
-70.209613
  0
LINE
  8
別途部材
  6
CONTINUOUS
 10
-37.275608
 20
-63.87628
 11
-37.275608
 21
-70.209613
  0
ARC
  8
別途部材
  6
CONTINUOUS
 10
-93.775605
 20
-76.917949
 40
12.041668
 50
92.379756
 51
146.144967
  0
LINE
  8
別途部材
  6
CONTINUOUS
 62
    96
 10
47.89106
 20
-70.209613
 11
48.29106
 21
-71.209613
  0
LINE
  8
別途部材
  6
CONTINUOUS
 62
    96
 10
47.89106
 20
-70.209613
 11
-28.775608
 21
-70.209613
  0
LINE
  8
別途部材
  6
CONTINUOUS
 10
48.29106
 20
-71.209613
 11
-28.775608
 21
-71.209613
  0
LINE
  8
別途部材
  6
CONTINUOUS
 10
-28.275608
 20
-63.87628
 11
-27.275608
 21
-64.87628
  0
LINE
  8
別途部材
  6
CONTINUOUS
 10
-26.275608
 20
-64.87628
 11
-25.275608
 21
-63.87628
  0
LINE
  8
別途部材
  6
CONTINUOUS
 10
-24.275608
 20
-63.87628
 11
-23.275608
 21
-64.87628
  0
LINE
  8
別途部材
  6
CONTINUOUS
 10
-25.275608
 20
-63.87628
 11
-24.275608
 21
-63.87628
  0
LINE
  8
別途部材
  6
CONTINUOUS
 10
-28.275608
 20
-63.87628
 11
-28.775608
 21
-63.87628
  0
LINE
  8
別途部材
  6
CONTINUOUS
 10
-22.275608
 20
-64.87628
 11
-21.275608
 21
-63.87628
  0
LINE
  8
別途部材
  6
CONTINUOUS
 10
-20.275608
 20
-63.87628
 11
-19.275608
 21
-64.87628
  0
LINE
  8
別途部材
  6
CONTINUOUS
 10
-21.275608
 20
-63.87628
 11
-20.275608
 21
-63.87628
  0
LINE
  8
別途部材
  6
CONTINUOUS
 10
-18.275608
 20
-64.87628
 11
-17.275608
 21
-63.87628
  0
LINE
  8
別途部材
  6
CONTINUOUS
 10
-16.275608
 20
-63.87628
 11
-15.275608
 21
-64.87628
  0
LINE
  8
別途部材
  6
CONTINUOUS
 10
-17.275608
 20
-63.87628
 11
-16.275608
 21
-63.87628
  0
LINE
  8
別途部材
  6
CONTINUOUS
 10
-14.275608
 20
-64.87628
 11
-13.275608
 21
-63.87628
  0
LINE
  8
別途部材
  6
CONTINUOUS
 10
-12.275608
 20
-63.87628
 11
-11.275608
 21
-64.87628
  0
LINE
  8
別途部材
  6
CONTINUOUS
 10
-13.275608
 20
-63.87628
 11
-12.275608
 21
-63.87628
  0
LINE
  8
別途部材
  6
CONTINUOUS
 10
-10.275608
 20
-64.87628
 11
-9.275608
 21
-63.87628
  0
LINE
  8
別途部材
  6
CONTINUOUS
 10
-8.275608
 20
-63.87628
 11
-7.275608
 21
-64.87628
  0
LINE
  8
別途部材
  6
CONTINUOUS
 10
-9.275608
 20
-63.87628
 11
-8.275608
 21
-63.87628
  0
LINE
  8
別途部材
  6
CONTINUOUS
 10
-6.275608
 20
-64.87628
 11
-5.275608
 21
-63.87628
  0
LINE
  8
別途部材
  6
CONTINUOUS
 10
-4.275608
 20
-63.87628
 11
-3.275608
 21
-64.87628
  0
LINE
  8
別途部材
  6
CONTINUOUS
 10
-5.275608
 20
-63.87628
 11
-4.275608
 21
-63.87628
  0
LINE
  8
別途部材
  6
CONTINUOUS
 10
-2.275608
 20
-64.87628
 11
-1.275608
 21
-63.87628
  0
LINE
  8
別途部材
  6
CONTINUOUS
 10
-0.275608
 20
-63.87628
 11
0.724393
 21
-64.87628
  0
LINE
  8
別途部材
  6
CONTINUOUS
 10
-1.275608
 20
-63.87628
 11
-0.275608
 21
-63.87628
  0
LINE
  8
別途部材
  6
CONTINUOUS
 10
1.724393
 20
-64.87628
 11
2.724393
 21
-63.87628
  0
LINE
  8
別途部材
  6
CONTINUOUS
 10
3.724393
 20
-63.87628
 11
4.724393
 21
-64.87628
  0
LINE
  8
別途部材
  6
CONTINUOUS
 10
2.724393
 20
-63.87628
 11
3.724393
 21
-63.87628
  0
LINE
  8
別途部材
  6
CONTINUOUS
 10
5.724393
 20
-64.87628
 11
6.724393
 21
-63.87628
  0
LINE
  8
別途部材
  6
CONTINUOUS
 10
7.724393
 20
-63.87628
 11
8.724393
 21
-64.87628
  0
LINE
  8
別途部材
  6
CONTINUOUS
 10
6.724393
 20
-63.87628
 11
7.724393
 21
-63.87628
  0
LINE
  8
別途部材
  6
CONTINUOUS
 10
9.724393
 20
-64.87628
 11
10.724393
 21
-63.87628
  0
LINE
  8
別途部材
  6
CONTINUOUS
 10
11.724393
 20
-63.87628
 11
12.724393
 21
-64.87628
  0
LINE
  8
別途部材
  6
CONTINUOUS
 10
10.724393
 20
-63.87628
 11
11.724393
 21
-63.87628
  0
LINE
  8
別途部材
  6
CONTINUOUS
 10
13.724393
 20
-64.87628
 11
14.724393
 21
-63.87628
  0
LINE
  8
別途部材
  6
CONTINUOUS
 10
15.724393
 20
-63.87628
 11
16.724393
 21
-64.87628
  0
LINE
  8
別途部材
  6
CONTINUOUS
 10
14.724393
 20
-63.87628
 11
15.724393
 21
-63.87628
  0
LINE
  8
別途部材
  6
CONTINUOUS
 10
12.724393
 20
-64.87628
 11
13.724393
 21
-64.87628
  0
LINE
  8
別途部材
  6
CONTINUOUS
 10
8.724393
 20
-64.87628
 11
9.724393
 21
-64.87628
  0
LINE
  8
別途部材
  6
CONTINUOUS
 10
4.724393
 20
-64.87628
 11
5.724393
 21
-64.87628
  0
LINE
  8
別途部材
  6
CONTINUOUS
 10
0.724393
 20
-64.87628
 11
1.724393
 21
-64.87628
  0
LINE
  8
別途部材
  6
CONTINUOUS
 10
-3.275608
 20
-64.87628
 11
-2.275608
 21
-64.87628
  0
LINE
  8
別途部材
  6
CONTINUOUS
 10
-7.275608
 20
-64.87628
 11
-6.275608
 21
-64.87628
  0
LINE
  8
別途部材
  6
CONTINUOUS
 10
-11.275608
 20
-64.87628
 11
-10.275608
 21
-64.87628
  0
LINE
  8
別途部材
  6
CONTINUOUS
 10
-15.275608
 20
-64.87628
 11
-14.275608
 21
-64.87628
  0
LINE
  8
別途部材
  6
CONTINUOUS
 10
-19.275608
 20
-64.87628
 11
-18.275608
 21
-64.87628
  0
LINE
  8
別途部材
  6
CONTINUOUS
 10
-23.275608
 20
-64.87628
 11
-22.275608
 21
-64.87628
  0
LINE
  8
別途部材
  6
CONTINUOUS
 10
-26.275608
 20
-64.87628
 11
-27.275608
 21
-64.87628
  0
LINE
  8
別途部材
  6
CONTINUOUS
 10
17.724393
 20
-64.87628
 11
18.724393
 21
-63.87628
  0
LINE
  8
別途部材
  6
CONTINUOUS
 10
19.724393
 20
-63.87628
 11
20.724393
 21
-64.87628
  0
LINE
  8
別途部材
  6
CONTINUOUS
 10
18.724393
 20
-63.87628
 11
19.724393
 21
-63.87628
  0
LINE
  8
別途部材
  6
CONTINUOUS
 10
21.724393
 20
-64.87628
 11
22.724393
 21
-63.87628
  0
LINE
  8
別途部材
  6
CONTINUOUS
 10
23.724393
 20
-63.87628
 11
24.724393
 21
-64.87628
  0
LINE
  8
別途部材
  6
CONTINUOUS
 10
22.724393
 20
-63.87628
 11
23.724393
 21
-63.87628
  0
LINE
  8
別途部材
  6
CONTINUOUS
 10
25.724393
 20
-64.87628
 11
26.724393
 21
-63.87628
  0
LINE
  8
別途部材
  6
CONTINUOUS
 10
27.724393
 20
-63.87628
 11
28.724393
 21
-64.87628
  0
LINE
  8
別途部材
  6
CONTINUOUS
 10
26.724393
 20
-63.87628
 11
27.724393
 21
-63.87628
  0
LINE
  8
別途部材
  6
CONTINUOUS
 10
29.724393
 20
-64.87628
 11
30.724393
 21
-63.87628
  0
LINE
  8
別途部材
  6
CONTINUOUS
 10
31.724393
 20
-63.87628
 11
32.724393
 21
-64.87628
  0
LINE
  8
別途部材
  6
CONTINUOUS
 10
30.724393
 20
-63.87628
 11
31.724393
 21
-63.87628
  0
LINE
  8
別途部材
  6
CONTINUOUS
 10
33.724393
 20
-64.87628
 11
34.724393
 21
-63.87628
  0
LINE
  8
別途部材
  6
CONTINUOUS
 10
35.724393
 20
-63.87628
 11
36.724393
 21
-64.87628
  0
LINE
  8
別途部材
  6
CONTINUOUS
 10
34.724393
 20
-63.87628
 11
35.724393
 21
-63.87628
  0
LINE
  8
別途部材
  6
CONTINUOUS
 10
32.724393
 20
-64.87628
 11
33.724393
 21
-64.87628
  0
LINE
  8
別途部材
  6
CONTINUOUS
 10
28.724393
 20
-64.87628
 11
29.724393
 21
-64.87628
  0
LINE
  8
別途部材
  6
CONTINUOUS
 10
24.724393
 20
-64.87628
 11
25.724393
 21
-64.87628
  0
LINE
  8
別途部材
  6
CONTINUOUS
 10
20.724393
 20
-64.87628
 11
21.724393
 21
-64.87628
  0
LINE
  8
別途部材
  6
CONTINUOUS
 10
16.724393
 20
-64.87628
 11
17.724393
 21
-64.87628
  0
LINE
  8
別途部材
  6
CONTINUOUS
 10
35.724393
 20
-63.87628
 11
35.724393
 21
-70.209613
  0
LINE
  8
別途部材
  6
CONTINUOUS
 10
36.724393
 20
-64.87628
 11
36.724393
 21
-70.209613
  0
LINE
  8
別途部材
  6
CONTINUOUS
 10
33.724393
 20
-64.87628
 11
33.724393
 21
-70.209613
  0
LINE
  8
別途部材
  6
CONTINUOUS
 10
34.724393
 20
-63.87628
 11
34.724393
 21
-70.209613
  0
LINE
  8
別途部材
  6
CONTINUOUS
 10
32.724393
 20
-64.87628
 11
32.724393
 21
-70.209613
  0
LINE
  8
別途部材
  6
CONTINUOUS
 10
30.724393
 20
-63.87628
 11
30.724393
 21
-70.209613
  0
LINE
  8
別途部材
  6
CONTINUOUS
 10
31.724393
 20
-63.87628
 11
31.724393
 21
-70.209613
  0
LINE
  8
別途部材
  6
CONTINUOUS
 10
29.724393
 20
-64.87628
 11
29.724393
 21
-70.209613
  0
LINE
  8
別途部材
  6
CONTINUOUS
 10
28.724393
 20
-64.87628
 11
28.724393
 21
-70.209613
  0
LINE
  8
別途部材
  6
CONTINUOUS
 10
27.724393
 20
-63.87628
 11
27.724393
 21
-70.209613
  0
LINE
  8
別途部材
  6
CONTINUOUS
 10
26.724393
 20
-63.87628
 11
26.724393
 21
-70.209613
  0
LINE
  8
別途部材
  6
CONTINUOUS
 10
23.724393
 20
-63.87628
 11
23.724393
 21
-70.209613
  0
LINE
  8
別途部材
  6
CONTINUOUS
 10
21.724393
 20
-64.87628
 11
21.724393
 21
-70.209613
  0
LINE
  8
別途部材
  6
CONTINUOUS
 10
22.724393
 20
-63.87628
 11
22.724393
 21
-70.209613
  0
LINE
  8
別途部材
  6
CONTINUOUS
 10
24.724393
 20
-64.87628
 11
24.724393
 21
-70.209613
  0
LINE
  8
別途部材
  6
CONTINUOUS
 10
25.724393
 20
-64.87628
 11
25.724393
 21
-70.209613
  0
LINE
  8
別途部材
  6
CONTINUOUS
 10
20.724393
 20
-64.87628
 11
20.724393
 21
-70.209613
  0
LINE
  8
別途部材
  6
CONTINUOUS
 10
18.724393
 20
-63.87628
 11
18.724393
 21
-70.209613
  0
LINE
  8
別途部材
  6
CONTINUOUS
 10
19.724393
 20
-63.87628
 11
19.724393
 21
-70.209613
  0
LINE
  8
別途部材
  6
CONTINUOUS
 10
17.724393
 20
-64.87628
 11
17.724393
 21
-70.209613
  0
LINE
  8
別途部材
  6
CONTINUOUS
 10
15.724393
 20
-63.87628
 11
15.724393
 21
-70.209613
  0
LINE
  8
別途部材
  6
CONTINUOUS
 10
16.724393
 20
-64.87628
 11
16.724393
 21
-70.209613
  0
LINE
  8
別途部材
  6
CONTINUOUS
 10
14.724393
 20
-63.87628
 11
14.724393
 21
-70.209613
  0
LINE
  8
別途部材
  6
CONTINUOUS
 10
13.724393
 20
-64.87628
 11
13.724393
 21
-70.209613
  0
LINE
  8
別途部材
  6
CONTINUOUS
 10
11.724393
 20
-63.87628
 11
11.724393
 21
-70.209613
  0
LINE
  8
別途部材
  6
CONTINUOUS
 10
12.724393
 20
-64.87628
 11
12.724393
 21
-70.209613
  0
LINE
  8
別途部材
  6
CONTINUOUS
 10
8.724393
 20
-64.87628
 11
8.724393
 21
-70.209613
  0
LINE
  8
別途部材
  6
CONTINUOUS
 10
9.724393
 20
-64.87628
 11
9.724393
 21
-70.209613
  0
LINE
  8
別途部材
  6
CONTINUOUS
 10
10.724393
 20
-63.87628
 11
10.724393
 21
-70.209613
  0
LINE
  8
別途部材
  6
CONTINUOUS
 10
7.724393
 20
-63.87628
 11
7.724393
 21
-70.209613
  0
LINE
  8
別途部材
  6
CONTINUOUS
 10
6.724393
 20
-63.87628
 11
6.724393
 21
-70.209613
  0
LINE
  8
別途部材
  6
CONTINUOUS
 10
5.724393
 20
-64.87628
 11
5.724393
 21
-70.209613
  0
LINE
  8
別途部材
  6
CONTINUOUS
 10
3.724393
 20
-63.87628
 11
3.724393
 21
-70.209613
  0
LINE
  8
別途部材
  6
CONTINUOUS
 10
-0.275608
 20
-63.87628
 11
-0.275608
 21
-70.209613
  0
LINE
  8
別途部材
  6
CONTINUOUS
 10
0.724393
 20
-64.87628
 11
0.724393
 21
-70.209613
  0
LINE
  8
別途部材
  6
CONTINUOUS
 10
1.724393
 20
-64.87628
 11
1.724393
 21
-70.209613
  0
LINE
  8
別途部材
  6
CONTINUOUS
 10
2.724393
 20
-63.87628
 11
2.724393
 21
-70.209613
  0
LINE
  8
別途部材
  6
CONTINUOUS
 10
4.724393
 20
-64.87628
 11
4.724393
 21
-70.209613
  0
LINE
  8
別途部材
  6
CONTINUOUS
 10
-2.275608
 20
-64.87628
 11
-2.275608
 21
-70.209613
  0
LINE
  8
別途部材
  6
CONTINUOUS
 10
-1.275608
 20
-63.87628
 11
-1.275608
 21
-70.209613
  0
LINE
  8
別途部材
  6
CONTINUOUS
 10
-3.275608
 20
-64.87628
 11
-3.275608
 21
-70.209613
  0
LINE
  8
別途部材
  6
CONTINUOUS
 10
-4.275608
 20
-63.87628
 11
-4.275608
 21
-70.209613
  0
LINE
  8
別途部材
  6
CONTINUOUS
 10
-8.275608
 20
-63.87628
 11
-8.275608
 21
-70.209613
  0
LINE
  8
別途部材
  6
CONTINUOUS
 10
-9.275608
 20
-63.87628
 11
-9.275608
 21
-70.209613
  0
LINE
  8
別途部材
  6
CONTINUOUS
 10
-7.275608
 20
-64.87628
 11
-7.275608
 21
-70.209613
  0
LINE
  8
別途部材
  6
CONTINUOUS
 10
-6.275608
 20
-64.87628
 11
-6.275608
 21
-70.209613
  0
LINE
  8
別途部材
  6
CONTINUOUS
 10
-5.275608
 20
-63.87628
 11
-5.275608
 21
-70.209613
  0
LINE
  8
別途部材
  6
CONTINUOUS
 10
-10.275608
 20
-64.87628
 11
-10.275608
 21
-70.209613
  0
LINE
  8
別途部材
  6
CONTINUOUS
 10
-12.275608
 20
-63.87628
 11
-12.275608
 21
-70.209613
  0
LINE
  8
別途部材
  6
CONTINUOUS
 10
-13.275608
 20
-63.87628
 11
-13.275608
 21
-70.209613
  0
LINE
  8
別途部材
  6
CONTINUOUS
 10
-14.275608
 20
-64.87628
 11
-14.275608
 21
-70.209613
  0
LINE
  8
別途部材
  6
CONTINUOUS
 10
-15.275608
 20
-64.87628
 11
-15.275608
 21
-70.209613
  0
LINE
  8
別途部材
  6
CONTINUOUS
 10
-16.275608
 20
-63.87628
 11
-16.275608
 21
-70.209613
  0
LINE
  8
別途部材
  6
CONTINUOUS
 10
-11.275608
 20
-64.87628
 11
-11.275608
 21
-70.209613
  0
LINE
  8
別途部材
  6
CONTINUOUS
 10
-17.275608
 20
-63.87628
 11
-17.275608
 21
-70.209613
  0
LINE
  8
別途部材
  6
CONTINUOUS
 10
-18.275608
 20
-64.87628
 11
-18.275608
 21
-70.209613
  0
LINE
  8
別途部材
  6
CONTINUOUS
 10
-19.275608
 20
-64.87628
 11
-19.275608
 21
-70.209613
  0
LINE
  8
別途部材
  6
CONTINUOUS
 10
-21.275608
 20
-63.87628
 11
-21.275608
 21
-70.209613
  0
LINE
  8
別途部材
  6
CONTINUOUS
 10
-23.275608
 20
-64.87628
 11
-23.275608
 21
-70.209613
  0
LINE
  8
別途部材
  6
CONTINUOUS
 10
-24.275608
 20
-63.87628
 11
-24.275608
 21
-70.209613
  0
LINE
  8
別途部材
  6
CONTINUOUS
 10
-26.275608
 20
-64.87628
 11
-26.275608
 21
-70.209613
  0
LINE
  8
別途部材
  6
CONTINUOUS
 10
-27.275608
 20
-64.87628
 11
-27.275608
 21
-70.209613
  0
LINE
  8
別途部材
  6
CONTINUOUS
 10
-28.275608
 20
-63.87628
 11
-28.275608
 21
-70.209613
  0
LINE
  8
別途部材
  6
CONTINUOUS
 10
-25.275608
 20
-63.87628
 11
-25.275608
 21
-70.209613
  0
LINE
  8
別途部材
  6
CONTINUOUS
 10
-22.275608
 20
-64.87628
 11
-22.275608
 21
-70.209613
  0
LINE
  8
別途部材
  6
CONTINUOUS
 10
-20.275608
 20
-63.87628
 11
-20.275608
 21
-70.209613
  0
ARC
  8
別途部材
  6
CONTINUOUS
 10
36.224392
 20
-76.917949
 40
12.041668
 50
33.855033
 51
87.620244
  0
ENDBLK
  0
BLOCK
  2
*GRP_0009
 70
    65
 10
0.0
 20
0.0
  0
LINE
  8
補助線
  6
BYBLOCK
 62
    64
 10
-83.701145
 20
-75.132365
 11
-83.85007
 21
-75.20719
  0
LINE
  8
補助線
  6
BYBLOCK
 62
    64
 10
-83.81302
 20
-75.095313
 11
-83.738195
 21
-75.24424
  0
LINE
  8
補助線
  6
BYBLOCK
 62
    64
 10
-73.782665
 20
-70.149007
 11
-73.931592
 21
-70.223833
  0
LINE
  8
補助線
  6
BYBLOCK
 62
    64
 10
-73.894542
 20
-70.111955
 11
-73.819718
 21
-70.260883
  0
LINE
  8
補助線
  6
BYBLOCK
 62
    64
 10
-64.013115
 20
-65.240475
 11
-63.864188
 21
-65.16565
  0
LINE
  8
補助線
  6
BYBLOCK
 62
    64
 10
-63.976065
 20
-65.128597
 11
-63.90124
 21
-65.277525
  0
LINE
  8
型材断面
  6
CONTINUOUS
 10
-84.447585
 20
-74.5748
 11
-84.669888
 21
-75.246053
  0
LINE
  8
型材断面
  6
CONTINUOUS
 10
-84.669888
 20
-75.246053
 11
-84.370585
 21
-75.841758
  0
LINE
  8
型材断面
  6
CONTINUOUS
 10
-84.370585
 20
-75.841758
 11
-83.699333
 21
-76.06406
  0
LINE
  8
型材断面
  6
CONTINUOUS
 10
-64.014927
 20
-64.308782
 11
-63.343672
 21
-64.531085
  0
LINE
  8
型材断面
  6
CONTINUOUS
 10
-63.343672
 20
-64.531085
 11
-63.04437
 21
-65.12679
  0
LINE
  8
型材断面
  6
CONTINUOUS
 10
-63.04437
 20
-65.12679
 11
-63.266675
 21
-65.798042
  0
LINE
  8
型材断面
  6
CONTINUOUS
 10
-84.447585
 20
-74.5748
 11
-64.014927
 21
-64.308782
  0
LINE
  8
型材断面
  6
CONTINUOUS
 10
-83.699333
 20
-76.06406
 11
-63.266675
 21
-65.798042
  0
CIRCLE
  8
ボルト／ビス
  6
CONTINUOUS
 10
-83.775608
 20
-75.169777
 40
0.250185
  0
CIRCLE
  8
ボルト／ビス
  6
CONTINUOUS
 10
-83.775608
 20
-75.169777
 40
0.301025
  0
LINE
  8
ボルト／ビス
  6
CONTINUOUS
 62
    64
 10
-84.025372
 20
-75.155275
 11
-83.887928
 21
-74.946225
  0
LINE
  8
ボルト／ビス
  6
CONTINUOUS
 62
    64
 10
-83.638162
 20
-74.960728
 11
-83.887928
 21
-74.946225
  0
LINE
  8
ボルト／ビス
  6
CONTINUOUS
 62
    64
 10
-83.913052
 20
-75.378827
 11
-83.663288
 21
-75.39333
  0
LINE
  8
ボルト／ビス
  6
CONTINUOUS
 62
    64
 10
-83.525842
 20
-75.18428
 11
-83.663288
 21
-75.39333
  0
LINE
  8
ボルト／ビス
  6
CONTINUOUS
 62
    64
 10
-84.025372
 20
-75.155275
 11
-83.913052
 21
-75.378827
  0
LINE
  8
ボルト／ビス
  6
CONTINUOUS
 62
    64
 10
-83.638162
 20
-74.960728
 11
-83.525842
 21
-75.18428
  0
CIRCLE
  8
ボルト／ビス
  6
CONTINUOUS
 62
    64
 10
-83.775608
 20
-75.169777
 40
0.216668
  0
CIRCLE
  8
ボルト／ビス
  6
CONTINUOUS
 10
-73.85713
 20
-70.18642
 40
0.250185
  0
CIRCLE
  8
ボルト／ビス
  6
CONTINUOUS
 10
-73.85713
 20
-70.18642
 40
0.301025
  0
LINE
  8
ボルト／ビス
  6
CONTINUOUS
 62
    64
 10
-74.106895
 20
-70.171915
 11
-73.96945
 21
-69.962865
  0
LINE
  8
ボルト／ビス
  6
CONTINUOUS
 62
    64
 10
-73.719685
 20
-69.977368
 11
-73.96945
 21
-69.962865
  0
LINE
  8
ボルト／ビス
  6
CONTINUOUS
 62
    64
 10
-73.994575
 20
-70.39547
 11
-73.744808
 21
-70.409975
  0
LINE
  8
ボルト／ビス
  6
CONTINUOUS
 62
    64
 10
-73.607365
 20
-70.200925
 11
-73.744808
 21
-70.409975
  0
LINE
  8
ボルト／ビス
  6
CONTINUOUS
 62
    64
 10
-74.106895
 20
-70.171915
 11
-73.994575
 21
-70.39547
  0
LINE
  8
ボルト／ビス
  6
CONTINUOUS
 62
    64
 10
-73.719685
 20
-69.977368
 11
-73.607365
 21
-70.200925
  0
CIRCLE
  8
ボルト／ビス
  6
CONTINUOUS
 62
    64
 10
-73.85713
 20
-70.18642
 40
0.216668
  0
CIRCLE
  8
ボルト／ビス
  6
CONTINUOUS
 10
-63.938652
 20
-65.203063
 40
0.250185
  0
CIRCLE
  8
ボルト／ビス
  6
CONTINUOUS
 10
-63.938652
 20
-65.203063
 40
0.301025
  0
LINE
  8
ボルト／ビス
  6
CONTINUOUS
 62
    64
 10
-63.801207
 20
-64.994013
 11
-64.050972
 21
-64.97951
  0
LINE
  8
ボルト／ビス
  6
CONTINUOUS
 62
    64
 10
-64.188418
 20
-65.18856
 11
-64.050972
 21
-64.97951
  0
LINE
  8
ボルト／ビス
  6
CONTINUOUS
 62
    64
 10
-63.688887
 20
-65.217568
 11
-63.82633
 21
-65.426615
  0
LINE
  8
ボルト／ビス
  6
CONTINUOUS
 62
    64
 10
-64.076098
 20
-65.412112
 11
-63.82633
 21
-65.426615
  0
LINE
  8
ボルト／ビス
  6
CONTINUOUS
 62
    64
 10
-63.801207
 20
-64.994013
 11
-63.688887
 21
-65.217568
  0
LINE
  8
ボルト／ビス
  6
CONTINUOUS
 62
    64
 10
-64.188418
 20
-65.18856
 11
-64.076098
 21
-65.412112
  0
CIRCLE
  8
ボルト／ビス
  6
CONTINUOUS
 62
    64
 10
-63.938652
 20
-65.203063
 40
0.216668
  0
ENDBLK
  0
BLOCK
  2
*GRP_0010
 70
    65
 10
0.0
 20
0.0
  0
LINE
  8
補助線
  6
BYBLOCK
 62
    64
 10
-64.013115
 20
-75.132365
 11
-63.86419
 21
-75.20719
  0
LINE
  8
補助線
  6
BYBLOCK
 62
    64
 10
-63.90124
 20
-75.095313
 11
-63.976065
 21
-75.24424
  0
LINE
  8
補助線
  6
BYBLOCK
 62
    64
 10
-73.931595
 20
-70.149007
 11
-73.782668
 21
-70.223833
  0
LINE
  8
補助線
  6
BYBLOCK
 62
    64
 10
-73.819718
 20
-70.111955
 11
-73.894542
 21
-70.260883
  0
LINE
  8
補助線
  6
BYBLOCK
 62
    64
 10
-83.701145
 20
-65.240475
 11
-83.850072
 21
-65.16565
  0
LINE
  8
補助線
  6
BYBLOCK
 62
    64
 10
-83.738195
 20
-65.128597
 11
-83.81302
 21
-65.277525
  0
LINE
  8
型材断面
  6
CONTINUOUS
 10
-63.266675
 20
-74.5748
 11
-63.044373
 21
-75.246053
  0
LINE
  8
型材断面
  6
CONTINUOUS
 10
-63.044373
 20
-75.246053
 11
-63.343675
 21
-75.841758
  0
LINE
  8
型材断面
  6
CONTINUOUS
 10
-63.343675
 20
-75.841758
 11
-64.014927
 21
-76.06406
  0
LINE
  8
型材断面
  6
CONTINUOUS
 10
-83.699333
 20
-64.308782
 11
-84.370587
 21
-64.531085
  0
LINE
  8
型材断面
  6
CONTINUOUS
 10
-84.370587
 20
-64.531085
 11
-84.66989
 21
-65.12679
  0
LINE
  8
型材断面
  6
CONTINUOUS
 10
-84.66989
 20
-65.12679
 11
-84.447585
 21
-65.798042
  0
LINE
  8
型材断面
  6
CONTINUOUS
 10
-63.266675
 20
-74.5748
 11
-83.699333
 21
-64.308782
  0
LINE
  8
型材断面
  6
CONTINUOUS
 10
-64.014927
 20
-76.06406
 11
-84.447585
 21
-65.798042
  0
CIRCLE
  8
ボルト／ビス
  6
CONTINUOUS
 10
-63.938652
 20
-75.169777
 40
0.250185
  0
CIRCLE
  8
ボルト／ビス
  6
CONTINUOUS
 10
-63.938652
 20
-75.169777
 40
0.301025
  0
LINE
  8
ボルト／ビス
  6
CONTINUOUS
 62
    64
 10
-63.688887
 20
-75.155275
 11
-63.826332
 21
-74.946225
  0
LINE
  8
ボルト／ビス
  6
CONTINUOUS
 62
    64
 10
-64.076098
 20
-74.960728
 11
-63.826332
 21
-74.946225
  0
LINE
  8
ボルト／ビス
  6
CONTINUOUS
 62
    64
 10
-63.801207
 20
-75.378827
 11
-64.050972
 21
-75.39333
  0
LINE
  8
ボルト／ビス
  6
CONTINUOUS
 62
    64
 10
-64.188418
 20
-75.18428
 11
-64.050972
 21
-75.39333
  0
LINE
  8
ボルト／ビス
  6
CONTINUOUS
 62
    64
 10
-63.688887
 20
-75.155275
 11
-63.801207
 21
-75.378827
  0
LINE
  8
ボルト／ビス
  6
CONTINUOUS
 62
    64
 10
-64.076098
 20
-74.960728
 11
-64.188418
 21
-75.18428
  0
CIRCLE
  8
ボルト／ビス
  6
CONTINUOUS
 62
    64
 10
-63.938652
 20
-75.169777
 40
0.216668
  0
CIRCLE
  8
ボルト／ビス
  6
CONTINUOUS
 10
-73.85713
 20
-70.18642
 40
0.250185
  0
CIRCLE
  8
ボルト／ビス
  6
CONTINUOUS
 10
-73.85713
 20
-70.18642
 40
0.301025
  0
LINE
  8
ボルト／ビス
  6
CONTINUOUS
 62
    64
 10
-73.607365
 20
-70.171915
 11
-73.74481
 21
-69.962865
  0
LINE
  8
ボルト／ビス
  6
CONTINUOUS
 62
    64
 10
-73.994575
 20
-69.977368
 11
-73.74481
 21
-69.962865
  0
LINE
  8
ボルト／ビス
  6
CONTINUOUS
 62
    64
 10
-73.719685
 20
-70.39547
 11
-73.969452
 21
-70.409975
  0
LINE
  8
ボルト／ビス
  6
CONTINUOUS
 62
    64
 10
-74.106895
 20
-70.200925
 11
-73.969452
 21
-70.409975
  0
LINE
  8
ボルト／ビス
  6
CONTINUOUS
 62
    64
 10
-73.607365
 20
-70.171915
 11
-73.719685
 21
-70.39547
  0
LINE
  8
ボルト／ビス
  6
CONTINUOUS
 62
    64
 10
-73.994575
 20
-69.977368
 11
-74.106895
 21
-70.200925
  0
CIRCLE
  8
ボルト／ビス
  6
CONTINUOUS
 62
    64
 10
-73.85713
 20
-70.18642
 40
0.216668
  0
CIRCLE
  8
ボルト／ビス
  6
CONTINUOUS
 10
-83.775608
 20
-65.203063
 40
0.250185
  0
CIRCLE
  8
ボルト／ビス
  6
CONTINUOUS
 10
-83.775608
 20
-65.203063
 40
0.301025
  0
LINE
  8
ボルト／ビス
  6
CONTINUOUS
 62
    64
 10
-83.913052
 20
-64.994013
 11
-83.663288
 21
-64.97951
  0
LINE
  8
ボルト／ビス
  6
CONTINUOUS
 62
    64
 10
-83.525842
 20
-65.18856
 11
-83.663288
 21
-64.97951
  0
LINE
  8
ボルト／ビス
  6
CONTINUOUS
 62
    64
 10
-84.025372
 20
-65.217568
 11
-83.88793
 21
-65.426615
  0
LINE
  8
ボルト／ビス
  6
CONTINUOUS
 62
    64
 10
-83.638162
 20
-65.412112
 11
-83.88793
 21
-65.426615
  0
LINE
  8
ボルト／ビス
  6
CONTINUOUS
 62
    64
 10
-83.913052
 20
-64.994013
 11
-84.025372
 21
-65.217568
  0
LINE
  8
ボルト／ビス
  6
CONTINUOUS
 62
    64
 10
-83.525842
 20
-65.18856
 11
-83.638162
 21
-65.412112
  0
CIRCLE
  8
ボルト／ビス
  6
CONTINUOUS
 62
    64
 10
-83.775608
 20
-65.203063
 40
0.216668
  0
ENDBLK
  0
BLOCK
  2
*GRP_0011
 70
    65
 10
0.0
 20
0.0
  0
LINE
  8
補助線
  6
BYBLOCK
 62
    64
 10
26.14993
 20
-75.132365
 11
26.298855
 21
-75.20719
  0
LINE
  8
補助線
  6
BYBLOCK
 62
    64
 10
26.261805
 20
-75.095313
 11
26.18698
 21
-75.24424
  0
LINE
  8
補助線
  6
BYBLOCK
 62
    64
 10
16.23145
 20
-70.149007
 11
16.380378
 21
-70.223833
  0
LINE
  8
補助線
  6
BYBLOCK
 62
    64
 10
16.343327
 20
-70.111955
 11
16.268503
 21
-70.260883
  0
LINE
  8
補助線
  6
BYBLOCK
 62
    64
 10
6.4619
 20
-65.240475
 11
6.312973
 21
-65.16565
  0
LINE
  8
補助線
  6
BYBLOCK
 62
    64
 10
6.42485
 20
-65.128597
 11
6.350025
 21
-65.277525
  0
LINE
  8
型材断面
  6
CONTINUOUS
 10
26.89637
 20
-74.5748
 11
27.118672
 21
-75.246053
  0
LINE
  8
型材断面
  6
CONTINUOUS
 10
27.118672
 20
-75.246053
 11
26.81937
 21
-75.841758
  0
LINE
  8
型材断面
  6
CONTINUOUS
 10
26.81937
 20
-75.841758
 11
26.148118
 21
-76.06406
  0
LINE
  8
型材断面
  6
CONTINUOUS
 10
6.463712
 20
-64.308782
 11
5.792457
 21
-64.531085
  0
LINE
  8
型材断面
  6
CONTINUOUS
 10
5.792457
 20
-64.531085
 11
5.493155
 21
-65.12679
  0
LINE
  8
型材断面
  6
CONTINUOUS
 10
5.493155
 20
-65.12679
 11
5.71546
 21
-65.798042
  0
LINE
  8
型材断面
  6
CONTINUOUS
 10
26.89637
 20
-74.5748
 11
6.463712
 21
-64.308782
  0
LINE
  8
型材断面
  6
CONTINUOUS
 10
26.148118
 20
-76.06406
 11
5.71546
 21
-65.798042
  0
CIRCLE
  8
ボルト／ビス
  6
CONTINUOUS
 10
26.224393
 20
-75.169777
 40
0.250185
  0
CIRCLE
  8
ボルト／ビス
  6
CONTINUOUS
 10
26.224393
 20
-75.169777
 40
0.301025
  0
LINE
  8
ボルト／ビス
  6
CONTINUOUS
 62
    64
 10
26.474158
 20
-75.155275
 11
26.336713
 21
-74.946225
  0
LINE
  8
ボルト／ビス
  6
CONTINUOUS
 62
    64
 10
26.086947
 20
-74.960728
 11
26.336713
 21
-74.946225
  0
LINE
  8
ボルト／ビス
  6
CONTINUOUS
 62
    64
 10
26.361838
 20
-75.378827
 11
26.112073
 21
-75.39333
  0
LINE
  8
ボルト／ビス
  6
CONTINUOUS
 62
    64
 10
25.974627
 20
-75.18428
 11
26.112073
 21
-75.39333
  0
LINE
  8
ボルト／ビス
  6
CONTINUOUS
 62
    64
 10
26.474158
 20
-75.155275
 11
26.361838
 21
-75.378827
  0
LINE
  8
ボルト／ビス
  6
CONTINUOUS
 62
    64
 10
26.086947
 20
-74.960728
 11
25.974627
 21
-75.18428
  0
CIRCLE
  8
ボルト／ビス
  6
CONTINUOUS
 62
    64
 10
26.224393
 20
-75.169777
 40
0.216668
  0
CIRCLE
  8
ボルト／ビス
  6
CONTINUOUS
 10
16.305915
 20
-70.18642
 40
0.250185
  0
CIRCLE
  8
ボルト／ビス
  6
CONTINUOUS
 10
16.305915
 20
-70.18642
 40
0.301025
  0
LINE
  8
ボルト／ビス
  6
CONTINUOUS
 62
    64
 10
16.55568
 20
-70.171915
 11
16.418235
 21
-69.962865
  0
LINE
  8
ボルト／ビス
  6
CONTINUOUS
 62
    64
 10
16.16847
 20
-69.977368
 11
16.418235
 21
-69.962865
  0
LINE
  8
ボルト／ビス
  6
CONTINUOUS
 62
    64
 10
16.44336
 20
-70.39547
 11
16.193592
 21
-70.409975
  0
LINE
  8
ボルト／ビス
  6
CONTINUOUS
 62
    64
 10
16.05615
 20
-70.200925
 11
16.193592
 21
-70.409975
  0
LINE
  8
ボルト／ビス
  6
CONTINUOUS
 62
    64
 10
16.55568
 20
-70.171915
 11
16.44336
 21
-70.39547
  0
LINE
  8
ボルト／ビス
  6
CONTINUOUS
 62
    64
 10
16.16847
 20
-69.977368
 11
16.05615
 21
-70.200925
  0
CIRCLE
  8
ボルト／ビス
  6
CONTINUOUS
 62
    64
 10
16.305915
 20
-70.18642
 40
0.216668
  0
CIRCLE
  8
ボルト／ビス
  6
CONTINUOUS
 10
6.387437
 20
-65.203063
 40
0.250185
  0
CIRCLE
  8
ボルト／ビス
  6
CONTINUOUS
 10
6.387437
 20
-65.203063
 40
0.301025
  0
LINE
  8
ボルト／ビス
  6
CONTINUOUS
 62
    64
 10
6.249993
 20
-64.994013
 11
6.499757
 21
-64.97951
  0
LINE
  8
ボルト／ビス
  6
CONTINUOUS
 62
    64
 10
6.637203
 20
-65.18856
 11
6.499757
 21
-64.97951
  0
LINE
  8
ボルト／ビス
  6
CONTINUOUS
 62
    64
 10
6.137673
 20
-65.217568
 11
6.275115
 21
-65.426615
  0
LINE
  8
ボルト／ビス
  6
CONTINUOUS
 62
    64
 10
6.524883
 20
-65.412112
 11
6.275115
 21
-65.426615
  0
LINE
  8
ボルト／ビス
  6
CONTINUOUS
 62
    64
 10
6.249993
 20
-64.994013
 11
6.137673
 21
-65.217568
  0
LINE
  8
ボルト／ビス
  6
CONTINUOUS
 62
    64
 10
6.637203
 20
-65.18856
 11
6.524883
 21
-65.412112
  0
CIRCLE
  8
ボルト／ビス
  6
CONTINUOUS
 62
    64
 10
6.387437
 20
-65.203063
 40
0.216668
  0
ENDBLK
  0
BLOCK
  2
*GRP_0012
 70
    65
 10
0.0
 20
0.0
  0
LINE
  8
補助線
  6
BYBLOCK
 62
    64
 10
6.4619
 20
-75.132365
 11
6.312975
 21
-75.20719
  0
LINE
  8
補助線
  6
BYBLOCK
 62
    64
 10
6.350025
 20
-75.095313
 11
6.42485
 21
-75.24424
  0
LINE
  8
補助線
  6
BYBLOCK
 62
    64
 10
16.38038
 20
-70.149007
 11
16.231452
 21
-70.223833
  0
LINE
  8
補助線
  6
BYBLOCK
 62
    64
 10
16.268503
 20
-70.111955
 11
16.343327
 21
-70.260883
  0
LINE
  8
補助線
  6
BYBLOCK
 62
    64
 10
26.14993
 20
-65.240475
 11
26.298857
 21
-65.16565
  0
LINE
  8
補助線
  6
BYBLOCK
 62
    64
 10
26.18698
 20
-65.128597
 11
26.261805
 21
-65.277525
  0
LINE
  8
型材断面
  6
CONTINUOUS
 10
5.71546
 20
-74.5748
 11
5.493158
 21
-75.246053
  0
LINE
  8
型材断面
  6
CONTINUOUS
 10
5.493158
 20
-75.246053
 11
5.79246
 21
-75.841758
  0
LINE
  8
型材断面
  6
CONTINUOUS
 10
5.79246
 20
-75.841758
 11
6.463712
 21
-76.06406
  0
LINE
  8
型材断面
  6
CONTINUOUS
 10
26.148118
 20
-64.308782
 11
26.819372
 21
-64.531085
  0
LINE
  8
型材断面
  6
CONTINUOUS
 10
26.819372
 20
-64.531085
 11
27.118675
 21
-65.12679
  0
LINE
  8
型材断面
  6
CONTINUOUS
 10
27.118675
 20
-65.12679
 11
26.89637
 21
-65.798042
  0
LINE
  8
型材断面
  6
CONTINUOUS
 10
5.71546
 20
-74.5748
 11
26.148118
 21
-64.308782
  0
LINE
  8
型材断面
  6
CONTINUOUS
 10
6.463712
 20
-76.06406
 11
26.89637
 21
-65.798042
  0
CIRCLE
  8
ボルト／ビス
  6
CONTINUOUS
 10
6.387437
 20
-75.169777
 40
0.250185
  0
CIRCLE
  8
ボルト／ビス
  6
CONTINUOUS
 10
6.387437
 20
-75.169777
 40
0.301025
  0
LINE
  8
ボルト／ビス
  6
CONTINUOUS
 62
    64
 10
6.137673
 20
-75.155275
 11
6.275117
 21
-74.946225
  0
LINE
  8
ボルト／ビス
  6
CONTINUOUS
 62
    64
 10
6.524883
 20
-74.960728
 11
6.275117
 21
-74.946225
  0
LINE
  8
ボルト／ビス
  6
CONTINUOUS
 62
    64
 10
6.249993
 20
-75.378827
 11
6.499757
 21
-75.39333
  0
LINE
  8
ボルト／ビス
  6
CONTINUOUS
 62
    64
 10
6.637203
 20
-75.18428
 11
6.499757
 21
-75.39333
  0
LINE
  8
ボルト／ビス
  6
CONTINUOUS
 62
    64
 10
6.137673
 20
-75.155275
 11
6.249993
 21
-75.378827
  0
LINE
  8
ボルト／ビス
  6
CONTINUOUS
 62
    64
 10
6.524883
 20
-74.960728
 11
6.637203
 21
-75.18428
  0
CIRCLE
  8
ボルト／ビス
  6
CONTINUOUS
 62
    64
 10
6.387437
 20
-75.169777
 40
0.216668
  0
CIRCLE
  8
ボルト／ビス
  6
CONTINUOUS
 10
16.305915
 20
-70.18642
 40
0.250185
  0
CIRCLE
  8
ボルト／ビス
  6
CONTINUOUS
 10
16.305915
 20
-70.18642
 40
0.301025
  0
LINE
  8
ボルト／ビス
  6
CONTINUOUS
 62
    64
 10
16.05615
 20
-70.171915
 11
16.193595
 21
-69.962865
  0
LINE
  8
ボルト／ビス
  6
CONTINUOUS
 62
    64
 10
16.44336
 20
-69.977368
 11
16.193595
 21
-69.962865
  0
LINE
  8
ボルト／ビス
  6
CONTINUOUS
 62
    64
 10
16.16847
 20
-70.39547
 11
16.418238
 21
-70.409975
  0
LINE
  8
ボルト／ビス
  6
CONTINUOUS
 62
    64
 10
16.55568
 20
-70.200925
 11
16.418238
 21
-70.409975
  0
LINE
  8
ボルト／ビス
  6
CONTINUOUS
 62
    64
 10
16.05615
 20
-70.171915
 11
16.16847
 21
-70.39547
  0
LINE
  8
ボルト／ビス
  6
CONTINUOUS
 62
    64
 10
16.44336
 20
-69.977368
 11
16.55568
 21
-70.200925
  0
CIRCLE
  8
ボルト／ビス
  6
CONTINUOUS
 62
    64
 10
16.305915
 20
-70.18642
 40
0.216668
  0
CIRCLE
  8
ボルト／ビス
  6
CONTINUOUS
 10
26.224393
 20
-65.203063
 40
0.250185
  0
CIRCLE
  8
ボルト／ビス
  6
CONTINUOUS
 10
26.224393
 20
-65.203063
 40
0.301025
  0
LINE
  8
ボルト／ビス
  6
CONTINUOUS
 62
    64
 10
26.361838
 20
-64.994013
 11
26.112073
 21
-64.97951
  0
LINE
  8
ボルト／ビス
  6
CONTINUOUS
 62
    64
 10
25.974627
 20
-65.18856
 11
26.112073
 21
-64.97951
  0
LINE
  8
ボルト／ビス
  6
CONTINUOUS
 62
    64
 10
26.474158
 20
-65.217568
 11
26.336715
 21
-65.426615
  0
LINE
  8
ボルト／ビス
  6
CONTINUOUS
 62
    64
 10
26.086947
 20
-65.412112
 11
26.336715
 21
-65.426615
  0
LINE
  8
ボルト／ビス
  6
CONTINUOUS
 62
    64
 10
26.361838
 20
-64.994013
 11
26.474158
 21
-65.217568
  0
LINE
  8
ボルト／ビス
  6
CONTINUOUS
 62
    64
 10
25.974627
 20
-65.18856
 11
26.086947
 21
-65.412112
  0
CIRCLE
  8
ボルト／ビス
  6
CONTINUOUS
 62
    64
 10
26.224393
 20
-65.203063
 40
0.216668
  0
ENDBLK
  0
BLOCK
  2
*DIM_0013
 70
    65
 10
0.0
 20
0.0
  0
LINE
  8
寸法
  6
BYBLOCK
 62
     0
 10
-106.775608
 20
39.4807
 11
-120.068445
 21
39.4807
  0
LINE
  8
寸法
  6
BYBLOCK
 62
     0
 10
-106.775608
 20
26.147365
 11
-120.068445
 21
26.147365
  0
LINE
  8
寸法
  6
BYBLOCK
 62
     0
 10
-120.068445
 20
39.4807
 11
-120.068445
 21
26.147365
  0
POINT
  8
寸法
 62
     0
 10
-120.068445
 20
39.4807
  0
POINT
  8
寸法
 62
     0
 10
-120.068445
 20
26.147365
  0
TEXT
  7
TextStyle03
  8
寸法
  6
CONTINUOUS
 62
     0
 10
-120.45
 20
30.3625
  1
400
 40
3.0
 50
90.0
 72
     5
 11
-120.45
 21
35.2375
  0
ENDBLK
  0
BLOCK
  2
*DIM_0014
 70
    65
 10
0.0
 20
0.0
  0
LINE
  8
寸法
  6
BYBLOCK
 62
     0
 10
-95.442275
 20
45.814033
 11
-95.442275
 21
74.922105
  0
LINE
  8
寸法
  6
BYBLOCK
 62
     0
 10
-68.775608
 20
45.814033
 11
-68.775608
 21
74.922105
  0
LINE
  8
寸法
  6
BYBLOCK
 62
     0
 10
-95.442275
 20
74.922105
 11
-68.775608
 21
74.922105
  0
POINT
  8
寸法
 62
     0
 10
-95.442275
 20
74.922105
  0
POINT
  8
寸法
 62
     0
 10
-68.775608
 20
74.922105
  0
TEXT
  7
TextStyle03
  8
寸法
  6
CONTINUOUS
 62
     0
 10
-84.5625
 20
75.3
  1
800
 40
3.0
 72
     5
 11
-79.6875
 21
75.3
  0
ENDBLK
  0
BLOCK
  2
*DIM_0015
 70
    65
 10
0.0
 20
0.0
  0
LINE
  8
寸法
  6
BYBLOCK
 62
     0
 10
-42.10894
 20
45.814033
 11
-42.10894
 21
74.922105
  0
LINE
  8
寸法
  6
BYBLOCK
 62
     0
 10
-68.775608
 20
74.922105
 11
-42.10894
 21
74.922105
  0
POINT
  8
寸法
 62
     0
 10
-42.10894
 20
74.922105
  0
TEXT
  7
TextStyle03
  8
寸法
  6
CONTINUOUS
 62
     0
 10
-57.8875
 20
75.3
  1
800
 40
3.0
 72
     5
 11
-53.0125
 21
75.3
  0
ENDBLK
  0
BLOCK
  2
*DIM_0016
 70
    65
 10
0.0
 20
0.0
  0
LINE
  8
寸法
  6
BYBLOCK
 62
     0
 10
-15.442275
 20
45.814033
 11
-15.442275
 21
74.922105
  0
LINE
  8
寸法
  6
BYBLOCK
 62
     0
 10
-42.10894
 20
74.922105
 11
-15.442275
 21
74.922105
  0
POINT
  8
寸法
 62
     0
 10
-15.442275
 20
74.922105
  0
TEXT
  7
TextStyle03
  8
寸法
  6
CONTINUOUS
 62
     0
 10
-31.2125
 20
75.3
  1
800
 40
3.0
 72
     5
 11
-26.3375
 21
75.3
  0
ENDBLK
  0
BLOCK
  2
*DIM_0017
 70
    65
 10
0.0
 20
0.0
  0
LINE
  8
寸法
  6
BYBLOCK
 62
     0
 10
11.224393
 20
45.814033
 11
11.224393
 21
74.922105
  0
LINE
  8
寸法
  6
BYBLOCK
 62
     0
 10
-15.442275
 20
74.922105
 11
11.224393
 21
74.922105
  0
POINT
  8
寸法
 62
     0
 10
11.224393
 20
74.922105
  0
TEXT
  7
TextStyle03
  8
寸法
  6
CONTINUOUS
 62
     0
 10
-4.5625
 20
75.3
  1
800
 40
3.0
 72
     5
 11
0.3125
 21
75.3
  0
ENDBLK
  0
BLOCK
  2
*DIM_0018
 70
    65
 10
0.0
 20
0.0
  0
LINE
  8
寸法
  6
BYBLOCK
 62
     0
 10
37.89106
 20
45.814033
 11
37.89106
 21
74.922105
  0
LINE
  8
寸法
  6
BYBLOCK
 62
     0
 10
11.224393
 20
74.922105
 11
37.89106
 21
74.922105
  0
POINT
  8
寸法
 62
     0
 10
37.89106
 20
74.922105
  0
TEXT
  7
TextStyle03
  8
寸法
  6
CONTINUOUS
 62
     0
 10
22.1125
 20
75.3
  1
800
 40
3.0
 72
     5
 11
26.9875
 21
75.3
  0
ENDBLK
  0
BLOCK
  2
*DIM_0019
 70
    65
 10
0.0
 20
0.0
  0
LINE
  8
寸法
  6
CONTINUOUS
 10
-103.775608
 20
-13.121378
 11
-106.538937
 21
-13.121378
  0
POINT
  8
寸法
 10
-103.775608
 20
-13.121378
  0
POINT
  8
寸法
 10
-106.538937
 20
-13.121378
  0
TEXT
  7
TextStyle03
  8
寸法
  6
CONTINUOUS
 10
-111.35625
 20
-12.3
  1
82.9
 40
3.0
 72
     5
 11
-104.79375
 21
-12.3
  0
ENDBLK
  0
BLOCK
  2
*DIM_0020
 70
    65
 10
0.0
 20
0.0
  0
LINE
  8
寸法
  6
CONTINUOUS
 10
46.224393
 20
-13.121378
 11
48.987723
 21
-13.121378
  0
POINT
  8
寸法
 10
46.224393
 20
-13.121378
  0
POINT
  8
寸法
 10
48.987723
 20
-13.121378
  0
TEXT
  7
TextStyle03
  8
寸法
  6
CONTINUOUS
 10
46.56875
 20
-12.15
  1
82.9
 40
3.0
 72
     5
 11
53.13125
 21
-12.15
  0
ENDBLK
  0
BLOCK
  2
*DIM_0021
 70
    65
 10
0.0
 20
0.0
  0
LINE
  8
寸法
  6
BYBLOCK
 62
     0
 10
88.38754
 20
22.814033
 11
88.38754
 21
42.814033
  0
POINT
  8
寸法
 62
     0
 10
88.38754
 20
22.814033
  0
POINT
  8
寸法
 62
     0
 10
88.38754
 20
42.814033
  0
TEXT
  7
TextStyle03
  8
寸法
  6
CONTINUOUS
 62
     0
 10
87.975
 20
21.925
  1
呼称寸法　600
 40
3.0
 50
90.0
 72
     5
 11
87.975
 21
43.675
  0
ENDBLK
  0
BLOCK
  2
*DIM_0022
 70
    65
 10
0.0
 20
0.0
  0
LINE
  8
寸法
  6
BYBLOCK
 62
     0
 10
138.567822
 20
33.814033
 11
138.567822
 21
60.666798
  0
LINE
  8
寸法
  6
BYBLOCK
 62
     0
 10
143.901155
 20
60.666798
 11
138.567822
 21
60.666798
  0
POINT
  8
寸法
 62
     0
 10
143.901155
 20
60.666798
  0
POINT
  8
寸法
 62
     0
 10
138.567822
 20
60.666798
  0
TEXT
  7
TextStyle03
  8
寸法
  6
CONTINUOUS
 62
     0
 10
138.7625
 20
61.025
  1
160
 40
3.0
 72
     5
 11
143.6375
 21
61.025
  0
ENDBLK
  0
BLOCK
  2
*DIM_0023
 70
    65
 10
0.0
 20
0.0
  0
LINE
  8
寸法
  6
CONTINUOUS
 10
88.38754
 20
22.814033
 11
88.38754
 21
20.0507
  0
POINT
  8
寸法
 10
88.38754
 20
22.814033
  0
POINT
  8
寸法
 10
88.38754
 20
20.0507
  0
TEXT
  7
TextStyle03
  8
寸法
  6
CONTINUOUS
 10
87.475
 20
12.89375
  1
82.9
 40
3.0
 50
90.0
 72
     5
 11
87.475
 21
19.45625
  0
ENDBLK
  0
BLOCK
  2
*DIM_0024
 70
    65
 10
0.0
 20
0.0
  0
LINE
  8
寸法
  6
CONTINUOUS
 10
88.38754
 20
42.814033
 11
88.38754
 21
45.577365
  0
POINT
  8
寸法
 10
88.38754
 20
42.814033
  0
POINT
  8
寸法
 10
88.38754
 20
45.577365
  0
TEXT
  7
TextStyle03
  8
寸法
  6
CONTINUOUS
 10
87.225
 20
45.46875
  1
82.9
 40
3.0
 50
90.0
 72
     5
 11
87.225
 21
52.03125
  0
ENDBLK
  0
BLOCK
  2
*DIM_0027
 70
    65
 10
0.0
 20
0.0
  0
LINE
  8
寸法
  6
CONTINUOUS
 10
106.627763
 20
-50.39453
 11
106.627763
 21
-44.073755
  0
LINE
  8
寸法
  6
CONTINUOUS
 10
143.327763
 20
-50.39453
 11
143.327763
 21
-44.073755
  0
LINE
  8
寸法
  6
CONTINUOUS
 10
106.627763
 20
-44.073755
 11
143.327763
 21
-44.073755
  0
POINT
  8
寸法
 10
106.627763
 20
-44.073755
  0
POINT
  8
寸法
 10
143.327763
 20
-44.073755
  0
TEXT
  7
TextStyle03
  8
寸法
  6
CONTINUOUS
 10
121.69375
 20
-43.7
  1
1101
 40
3.0
 72
     5
 11
128.25625
 21
-43.7
  0
ENDBLK
  0
BLOCK
  2
*DIM_0028
 70
    65
 10
0.0
 20
0.0
  0
LINE
  8
寸法
  6
CONTINUOUS
 10
148.327763
 20
-55.39453
 11
154.565358
 21
-55.39453
  0
LINE
  8
寸法
  6
CONTINUOUS
 10
148.327763
 20
-75.39453
 11
154.565358
 21
-75.39453
  0
LINE
  8
寸法
  6
CONTINUOUS
 10
154.565358
 20
-55.39453
 11
154.565358
 21
-75.39453
  0
POINT
  8
寸法
 10
154.565358
 20
-55.39453
  0
POINT
  8
寸法
 10
154.565358
 20
-75.39453
  0
TEXT
  7
TextStyle03
  8
寸法
  6
CONTINUOUS
 10
154.175
 20
-67.8375
  1
600
 40
3.0
 50
90.0
 72
     5
 11
154.175
 21
-62.9625
  0
ENDBLK
  0
BLOCK
  2
*GRP_0029
 70
    65
 10
0.0
 20
0.0
  0
LINE
  8
ボルト／ビス
  6
CONTINUOUS
 10
143.901155
 20
43.4807
 11
143.43449
 21
43.4807
  0
LINE
  8
ボルト／ビス
  6
CONTINUOUS
 10
143.901155
 20
43.114035
 11
143.83449
 21
43.114035
  0
LINE
  8
ボルト／ビス
  6
CONTINUOUS
 10
143.83449
 20
43.114035
 11
143.83449
 21
43.847367
  0
LINE
  8
ボルト／ビス
  6
CONTINUOUS
 10
143.83449
 20
43.847367
 11
143.901155
 21
43.847367
  0
LINE
  8
ボルト／ビス
  6
CONTINUOUS
 10
143.901155
 20
43.114035
 11
143.901155
 21
43.847367
  0
LINE
  8
ボルト／ビス
  6
CONTINUOUS
 10
143.801155
 20
43.1807
 11
143.83449
 21
43.1807
  0
LINE
  8
ボルト／ビス
  6
CONTINUOUS
 10
143.801155
 20
43.1807
 11
143.801155
 21
43.7807
  0
LINE
  8
ボルト／ビス
  6
CONTINUOUS
 10
143.801155
 20
43.7807
 11
143.83449
 21
43.7807
  0
LINE
  8
ボルト／ビス
  6
CONTINUOUS
 62
    64
 10
143.601155
 20
43.320325
 11
143.61283
 21
43.28825
  0
ARC
  8
ボルト／ビス
  6
CONTINUOUS
 62
    64
 10
143.706133
 20
43.336365
 40
0.104978
 50
152.721967
 51
180.0
  0
ARC
  8
ボルト／ビス
  6
CONTINUOUS
 62
    64
 10
144.003557
 20
43.480703
 40
0.402402
 50
166.165002
 51
193.834985
  0
LINE
  8
ボルト／ビス
  6
CONTINUOUS
 62
    64
 10
143.601155
 20
43.641075
 11
143.61283
 21
43.67315
  0
ARC
  8
ボルト／ビス
  6
CONTINUOUS
 62
    64
 10
143.706133
 20
43.62504
 40
0.104978
 50
180.0
 51
207.278033
  0
LINE
  8
ボルト／ビス
  6
CONTINUOUS
 62
    64
 10
143.601155
 20
43.320325
 11
143.601155
 21
43.641075
  0
LINE
  8
ボルト／ビス
  6
CONTINUOUS
 62
    64
 10
143.61283
 20
43.67315
 11
143.73449
 21
43.67315
  0
LINE
  8
ボルト／ビス
  6
CONTINUOUS
 62
    64
 10
143.61283
 20
43.576925
 11
143.73449
 21
43.576925
  0
LINE
  8
ボルト／ビス
  6
CONTINUOUS
 62
    64
 10
143.61283
 20
43.28825
 11
143.73449
 21
43.28825
  0
LINE
  8
ボルト／ビス
  6
CONTINUOUS
 62
    64
 10
143.61283
 20
43.384475
 11
143.73449
 21
43.384475
  0
LINE
  8
ボルト／ビス
  6
CONTINUOUS
 10
143.73449
 20
43.28825
 11
143.73449
 21
43.67315
  0
LINE
  8
ボルト／ビス
  6
CONTINUOUS
 10
143.73449
 20
43.2807
 11
143.801155
 21
43.2807
  0
LINE
  8
ボルト／ビス
  6
CONTINUOUS
 10
143.73449
 20
43.2807
 11
143.73449
 21
43.6807
  0
LINE
  8
ボルト／ビス
  6
CONTINUOUS
 10
143.73449
 20
43.6807
 11
143.801155
 21
43.6807
  0
ENDBLK
  0
BLOCK
  2
*GRP_0030
 70
    65
 10
0.0
 20
0.0
  0
LINE
  8
ボルト／ビス
  6
CONTINUOUS
 10
143.901155
 20
22.147365
 11
143.43449
 21
22.147365
  0
LINE
  8
ボルト／ビス
  6
CONTINUOUS
 10
143.901155
 20
22.51403
 11
143.83449
 21
22.51403
  0
LINE
  8
ボルト／ビス
  6
CONTINUOUS
 10
143.83449
 20
22.51403
 11
143.83449
 21
21.780697
  0
LINE
  8
ボルト／ビス
  6
CONTINUOUS
 10
143.83449
 20
21.780697
 11
143.901155
 21
21.780697
  0
LINE
  8
ボルト／ビス
  6
CONTINUOUS
 10
143.901155
 20
22.51403
 11
143.901155
 21
21.780697
  0
LINE
  8
ボルト／ビス
  6
CONTINUOUS
 10
143.801155
 20
22.447365
 11
143.83449
 21
22.447365
  0
LINE
  8
ボルト／ビス
  6
CONTINUOUS
 10
143.801155
 20
22.447365
 11
143.801155
 21
21.847365
  0
LINE
  8
ボルト／ビス
  6
CONTINUOUS
 10
143.801155
 20
21.847365
 11
143.83449
 21
21.847365
  0
LINE
  8
ボルト／ビス
  6
CONTINUOUS
 62
    64
 10
143.601155
 20
22.30774
 11
143.61283
 21
22.339815
  0
ARC
  8
ボルト／ビス
  6
CONTINUOUS
 62
    64
 10
143.706133
 20
22.2917
 40
0.104978
 50
180.0
 51
207.278033
  0
ARC
  8
ボルト／ビス
  6
CONTINUOUS
 62
    64
 10
144.003557
 20
22.147362
 40
0.402402
 50
166.165015
 51
193.834998
  0
LINE
  8
ボルト／ビス
  6
CONTINUOUS
 62
    64
 10
143.601155
 20
21.98699
 11
143.61283
 21
21.954915
  0
ARC
  8
ボルト／ビス
  6
CONTINUOUS
 62
    64
 10
143.706133
 20
22.003025
 40
0.104978
 50
152.721967
 51
180.0
  0
LINE
  8
ボルト／ビス
  6
CONTINUOUS
 62
    64
 10
143.601155
 20
22.30774
 11
143.601155
 21
21.98699
  0
LINE
  8
ボルト／ビス
  6
CONTINUOUS
 62
    64
 10
143.61283
 20
21.954915
 11
143.73449
 21
21.954915
  0
LINE
  8
ボルト／ビス
  6
CONTINUOUS
 62
    64
 10
143.61283
 20
22.05114
 11
143.73449
 21
22.05114
  0
LINE
  8
ボルト／ビス
  6
CONTINUOUS
 62
    64
 10
143.61283
 20
22.339815
 11
143.73449
 21
22.339815
  0
LINE
  8
ボルト／ビス
  6
CONTINUOUS
 62
    64
 10
143.61283
 20
22.24359
 11
143.73449
 21
22.24359
  0
LINE
  8
ボルト／ビス
  6
CONTINUOUS
 10
143.73449
 20
22.339815
 11
143.73449
 21
21.954915
  0
LINE
  8
ボルト／ビス
  6
CONTINUOUS
 10
143.73449
 20
22.347365
 11
143.801155
 21
22.347365
  0
LINE
  8
ボルト／ビス
  6
CONTINUOUS
 10
143.73449
 20
22.347365
 11
143.73449
 21
21.947365
  0
LINE
  8
ボルト／ビス
  6
CONTINUOUS
 10
143.73449
 20
21.947365
 11
143.801155
 21
21.947365
  0
ENDBLK
  0
BLOCK
  2
*GRP_0031
 70
    65
 10
0.0
 20
0.0
  0
LINE
  8
型材断面
  6
DOT
 10
137.617945
 20
32.814033
 11
137.617945
 21
21.453885
  0
LINE
  8
型材断面
  6
DOT
 10
138.767945
 20
32.814033
 11
138.767945
 21
20.0507
  0
LINE
  8
型材断面
  6
DOT
 10
139.934613
 20
32.814033
 11
139.934613
 21
20.0507
  0
LINE
  8
型材断面
  6
DOT
 10
137.617945
 20
32.814033
 11
137.617945
 21
44.17418
  0
LINE
  8
型材断面
  6
DOT
 10
138.767945
 20
32.814033
 11
138.767945
 21
45.577365
  0
LINE
  8
型材断面
  6
DOT
 10
139.934613
 20
32.814033
 11
139.934613
 21
45.577365
  0
LINE
  8
別途部材
  6
DOT
 62
    96
 10
136.567822
 20
21.147365
 11
137.567822
 21
20.747365
  0
LINE
  8
別途部材
  6
DOT
 62
    96
 10
136.567822
 20
21.147365
 11
136.567822
 21
32.814033
  0
LINE
  8
別途部材
  6
DOT
 10
137.567822
 20
20.747365
 11
137.567822
 21
32.814033
  0
LINE
  8
別途部材
  6
DOT
 62
    96
 10
136.567822
 20
44.4807
 11
137.567822
 21
44.8807
  0
LINE
  8
別途部材
  6
DOT
 62
    96
 10
136.567822
 20
44.4807
 11
136.567822
 21
32.814033
  0
LINE
  8
別途部材
  6
DOT
 10
137.567822
 20
44.8807
 11
137.567822
 21
32.814033
  0
ARC
  8
別途部材
  6
DOT
 10
143.276157
 20
32.814033
 40
12.041667
 50
123.855033
 51
236.144967
  0
LINE
  8
鉄骨等
  6
DOT
 62
    47
 10
139.934613
 20
20.0507
 11
138.767945
 21
20.0507
  0
LINE
  8
鉄骨等
  6
DOT
 62
    47
 10
138.767945
 20
20.0507
 11
137.617945
 21
21.453885
  0
LINE
  8
鉄骨等
  6
DOT
 62
    47
 10
137.617945
 20
21.453885
 11
137.567825
 21
21.453885
  0
LINE
  8
鉄骨等
  6
DOT
 62
    47
 10
139.934613
 20
45.577365
 11
138.767945
 21
45.577365
  0
LINE
  8
鉄骨等
  6
DOT
 62
    47
 10
138.767945
 20
45.577365
 11
137.617945
 21
44.17418
  0
LINE
  8
鉄骨等
  6
DOT
 62
    47
 10
137.617945
 20
44.17418
 11
137.567825
 21
44.17418
  0
ENDBLK
  0
BLOCK
  2
*GRP_0032
 70
    65
 10
0.0
 20
0.0
  0
LINE
  8
ボルト／ビス
  6
DOT
 10
136.567822
 20
43.4807
 11
136.101158
 21
43.4807
  0
LINE
  8
ボルト／ビス
  6
DOT
 10
136.567822
 20
43.114035
 11
136.501158
 21
43.114035
  0
LINE
  8
ボルト／ビス
  6
DOT
 10
136.501158
 20
43.114035
 11
136.501158
 21
43.847367
  0
LINE
  8
ボルト／ビス
  6
DOT
 10
136.501158
 20
43.847367
 11
136.567822
 21
43.847367
  0
LINE
  8
ボルト／ビス
  6
DOT
 10
136.567822
 20
43.114035
 11
136.567822
 21
43.847367
  0
LINE
  8
ボルト／ビス
  6
DOT
 10
136.467822
 20
43.1807
 11
136.501158
 21
43.1807
  0
LINE
  8
ボルト／ビス
  6
DOT
 10
136.467822
 20
43.1807
 11
136.467822
 21
43.7807
  0
LINE
  8
ボルト／ビス
  6
DOT
 10
136.467822
 20
43.7807
 11
136.501158
 21
43.7807
  0
LINE
  8
ボルト／ビス
  6
DOT
 62
    64
 10
136.267822
 20
43.320325
 11
136.279498
 21
43.28825
  0
ARC
  8
ボルト／ビス
  6
DOT
 62
    64
 10
136.372801
 20
43.336365
 40
0.104978
 50
152.721967
 51
180.0
  0
ARC
  8
ボルト／ビス
  6
DOT
 62
    64
 10
136.670224
 20
43.480703
 40
0.402402
 50
166.165002
 51
193.834985
  0
LINE
  8
ボルト／ビス
  6
DOT
 62
    64
 10
136.267822
 20
43.641075
 11
136.279498
 21
43.67315
  0
ARC
  8
ボルト／ビス
  6
DOT
 62
    64
 10
136.372801
 20
43.62504
 40
0.104978
 50
180.0
 51
207.278033
  0
LINE
  8
ボルト／ビス
  6
DOT
 62
    64
 10
136.267822
 20
43.320325
 11
136.267822
 21
43.641075
  0
LINE
  8
ボルト／ビス
  6
DOT
 62
    64
 10
136.279498
 20
43.67315
 11
136.401158
 21
43.67315
  0
LINE
  8
ボルト／ビス
  6
DOT
 62
    64
 10
136.279498
 20
43.576925
 11
136.401158
 21
43.576925
  0
LINE
  8
ボルト／ビス
  6
DOT
 62
    64
 10
136.279498
 20
43.28825
 11
136.401158
 21
43.28825
  0
LINE
  8
ボルト／ビス
  6
DOT
 62
    64
 10
136.279498
 20
43.384475
 11
136.401158
 21
43.384475
  0
LINE
  8
ボルト／ビス
  6
DOT
 10
136.401158
 20
43.28825
 11
136.401158
 21
43.67315
  0
LINE
  8
ボルト／ビス
  6
DOT
 10
136.401158
 20
43.2807
 11
136.467822
 21
43.2807
  0
LINE
  8
ボルト／ビス
  6
DOT
 10
136.401158
 20
43.2807
 11
136.401158
 21
43.6807
  0
LINE
  8
ボルト／ビス
  6
DOT
 10
136.401158
 20
43.6807
 11
136.467822
 21
43.6807
  0
ENDBLK
  0
BLOCK
  2
*GRP_0033
 70
    65
 10
0.0
 20
0.0
  0
LINE
  8
ボルト／ビス
  6
DOT
 10
136.567822
 20
22.147365
 11
136.101158
 21
22.147365
  0
LINE
  8
ボルト／ビス
  6
DOT
 10
136.567822
 20
22.51403
 11
136.501158
 21
22.51403
  0
LINE
  8
ボルト／ビス
  6
DOT
 10
136.501158
 20
22.51403
 11
136.501158
 21
21.780697
  0
LINE
  8
ボルト／ビス
  6
DOT
 10
136.501158
 20
21.780697
 11
136.567822
 21
21.780697
  0
LINE
  8
ボルト／ビス
  6
DOT
 10
136.567822
 20
22.51403
 11
136.567822
 21
21.780697
  0
LINE
  8
ボルト／ビス
  6
DOT
 10
136.467822
 20
22.447365
 11
136.501158
 21
22.447365
  0
LINE
  8
ボルト／ビス
  6
DOT
 10
136.467822
 20
22.447365
 11
136.467822
 21
21.847365
  0
LINE
  8
ボルト／ビス
  6
DOT
 10
136.467822
 20
21.847365
 11
136.501158
 21
21.847365
  0
LINE
  8
ボルト／ビス
  6
DOT
 62
    64
 10
136.267822
 20
22.30774
 11
136.279498
 21
22.339815
  0
ARC
  8
ボルト／ビス
  6
DOT
 62
    64
 10
136.372801
 20
22.2917
 40
0.104978
 50
180.0
 51
207.278033
  0
ARC
  8
ボルト／ビス
  6
DOT
 62
    64
 10
136.670224
 20
22.147362
 40
0.402402
 50
166.165015
 51
193.834998
  0
LINE
  8
ボルト／ビス
  6
DOT
 62
    64
 10
136.267822
 20
21.98699
 11
136.279498
 21
21.954915
  0
ARC
  8
ボルト／ビス
  6
DOT
 62
    64
 10
136.372801
 20
22.003025
 40
0.104978
 50
152.721967
 51
180.0
  0
LINE
  8
ボルト／ビス
  6
DOT
 62
    64
 10
136.267822
 20
22.30774
 11
136.267822
 21
21.98699
  0
LINE
  8
ボルト／ビス
  6
DOT
 62
    64
 10
136.279498
 20
21.954915
 11
136.401158
 21
21.954915
  0
LINE
  8
ボルト／ビス
  6
DOT
 62
    64
 10
136.279498
 20
22.05114
 11
136.401158
 21
22.05114
  0
LINE
  8
ボルト／ビス
  6
DOT
 62
    64
 10
136.279498
 20
22.339815
 11
136.401158
 21
22.339815
  0
LINE
  8
ボルト／ビス
  6
DOT
 62
    64
 10
136.279498
 20
22.24359
 11
136.401158
 21
22.24359
  0
LINE
  8
ボルト／ビス
  6
DOT
 10
136.401158
 20
22.339815
 11
136.401158
 21
21.954915
  0
LINE
  8
ボルト／ビス
  6
DOT
 10
136.401158
 20
22.347365
 11
136.467822
 21
22.347365
  0
LINE
  8
ボルト／ビス
  6
DOT
 10
136.401158
 20
22.347365
 11
136.401158
 21
21.947365
  0
LINE
  8
ボルト／ビス
  6
DOT
 10
136.401158
 20
21.947365
 11
136.467822
 21
21.947365
  0
ENDBLK
  0
BLOCK
  2
*GRP_0034
 70
    65
 10
0.0
 20
0.0
  0
LINE
  8
ボルト／ビス
  6
CONTINUOUS
 10
46.891055
 20
-70.20961
 11
46.891055
 21
-69.742945
  0
LINE
  8
ボルト／ビス
  6
CONTINUOUS
 10
46.52439
 20
-70.20961
 11
46.52439
 21
-70.142945
  0
LINE
  8
ボルト／ビス
  6
CONTINUOUS
 10
46.52439
 20
-70.142945
 11
47.257723
 21
-70.142945
  0
LINE
  8
ボルト／ビス
  6
CONTINUOUS
 10
47.257723
 20
-70.142945
 11
47.257723
 21
-70.20961
  0
LINE
  8
ボルト／ビス
  6
CONTINUOUS
 10
46.52439
 20
-70.20961
 11
47.257723
 21
-70.20961
  0
LINE
  8
ボルト／ビス
  6
CONTINUOUS
 10
46.591055
 20
-70.10961
 11
46.591055
 21
-70.142945
  0
LINE
  8
ボルト／ビス
  6
CONTINUOUS
 10
46.591055
 20
-70.10961
 11
47.191055
 21
-70.10961
  0
LINE
  8
ボルト／ビス
  6
CONTINUOUS
 10
47.191055
 20
-70.10961
 11
47.191055
 21
-70.142945
  0
LINE
  8
ボルト／ビス
  6
CONTINUOUS
 62
    64
 10
46.73068
 20
-69.90961
 11
46.698605
 21
-69.921285
  0
ARC
  8
ボルト／ビス
  6
CONTINUOUS
 62
    64
 10
46.746719
 20
-70.014587
 40
0.104978
 50
62.721967
 51
90.0
  0
ARC
  8
ボルト／ビス
  6
CONTINUOUS
 62
    64
 10
46.891057
 20
-70.312011
 40
0.402402
 50
76.165002
 51
103.834985
  0
LINE
  8
ボルト／ビス
  6
CONTINUOUS
 62
    64
 10
47.05143
 20
-69.90961
 11
47.083505
 21
-69.921285
  0
ARC
  8
ボルト／ビス
  6
CONTINUOUS
 62
    64
 10
47.035394
 20
-70.014587
 40
0.104978
 50
90.0
 51
117.278033
  0
LINE
  8
ボルト／ビス
  6
CONTINUOUS
 62
    64
 10
46.73068
 20
-69.90961
 11
47.05143
 21
-69.90961
  0
LINE
  8
ボルト／ビス
  6
CONTINUOUS
 62
    64
 10
47.083505
 20
-69.921285
 11
47.083505
 21
-70.042945
  0
LINE
  8
ボルト／ビス
  6
CONTINUOUS
 62
    64
 10
46.98728
 20
-69.921285
 11
46.98728
 21
-70.042945
  0
LINE
  8
ボルト／ビス
  6
CONTINUOUS
 62
    64
 10
46.698605
 20
-69.921285
 11
46.698605
 21
-70.042945
  0
LINE
  8
ボルト／ビス
  6
CONTINUOUS
 62
    64
 10
46.79483
 20
-69.921285
 11
46.79483
 21
-70.042945
  0
LINE
  8
ボルト／ビス
  6
CONTINUOUS
 10
46.698605
 20
-70.042945
 11
47.083505
 21
-70.042945
  0
LINE
  8
ボルト／ビス
  6
CONTINUOUS
 10
46.691055
 20
-70.042945
 11
46.691055
 21
-70.10961
  0
LINE
  8
ボルト／ビス
  6
CONTINUOUS
 10
46.691055
 20
-70.042945
 11
47.091055
 21
-70.042945
  0
LINE
  8
ボルト／ビス
  6
CONTINUOUS
 10
47.091055
 20
-70.042945
 11
47.091055
 21
-70.10961
  0
ENDBLK
  0
BLOCK
  2
*GRP_0035
 70
    65
 10
0.0
 20
0.0
  0
LINE
  8
ボルト／ビス
  6
DOT
 10
46.891055
 20
-62.876278
 11
46.891055
 21
-62.409613
  0
LINE
  8
ボルト／ビス
  6
DOT
 10
46.52439
 20
-62.876278
 11
46.52439
 21
-62.809613
  0
LINE
  8
ボルト／ビス
  6
DOT
 10
46.52439
 20
-62.809613
 11
47.257723
 21
-62.809613
  0
LINE
  8
ボルト／ビス
  6
DOT
 10
47.257723
 20
-62.809613
 11
47.257723
 21
-62.876278
  0
LINE
  8
ボルト／ビス
  6
DOT
 10
46.52439
 20
-62.876278
 11
47.257723
 21
-62.876278
  0
LINE
  8
ボルト／ビス
  6
DOT
 10
46.591055
 20
-62.776278
 11
46.591055
 21
-62.809613
  0
LINE
  8
ボルト／ビス
  6
DOT
 10
46.591055
 20
-62.776278
 11
47.191055
 21
-62.776278
  0
LINE
  8
ボルト／ビス
  6
DOT
 10
47.191055
 20
-62.776278
 11
47.191055
 21
-62.809613
  0
LINE
  8
ボルト／ビス
  6
DOT
 62
    64
 10
46.73068
 20
-62.576278
 11
46.698605
 21
-62.587953
  0
ARC
  8
ボルト／ビス
  6
DOT
 62
    64
 10
46.746719
 20
-62.681255
 40
0.104978
 50
62.721967
 51
90.0
  0
ARC
  8
ボルト／ビス
  6
DOT
 62
    64
 10
46.891057
 20
-62.978679
 40
0.402402
 50
76.165002
 51
103.834985
  0
LINE
  8
ボルト／ビス
  6
DOT
 62
    64
 10
47.05143
 20
-62.576278
 11
47.083505
 21
-62.587953
  0
ARC
  8
ボルト／ビス
  6
DOT
 62
    64
 10
47.035394
 20
-62.681255
 40
0.104978
 50
90.0
 51
117.278033
  0
LINE
  8
ボルト／ビス
  6
DOT
 62
    64
 10
46.73068
 20
-62.576278
 11
47.05143
 21
-62.576278
  0
LINE
  8
ボルト／ビス
  6
DOT
 62
    64
 10
47.083505
 20
-62.587953
 11
47.083505
 21
-62.709613
  0
LINE
  8
ボルト／ビス
  6
DOT
 62
    64
 10
46.98728
 20
-62.587953
 11
46.98728
 21
-62.709613
  0
LINE
  8
ボルト／ビス
  6
DOT
 62
    64
 10
46.698605
 20
-62.587953
 11
46.698605
 21
-62.709613
  0
LINE
  8
ボルト／ビス
  6
DOT
 62
    64
 10
46.79483
 20
-62.587953
 11
46.79483
 21
-62.709613
  0
LINE
  8
ボルト／ビス
  6
DOT
 10
46.698605
 20
-62.709613
 11
47.083505
 21
-62.709613
  0
LINE
  8
ボルト／ビス
  6
DOT
 10
46.691055
 20
-62.709613
 11
46.691055
 21
-62.776278
  0
LINE
  8
ボルト／ビス
  6
DOT
 10
46.691055
 20
-62.709613
 11
47.091055
 21
-62.709613
  0
LINE
  8
ボルト／ビス
  6
DOT
 10
47.091055
 20
-62.709613
 11
47.091055
 21
-62.776278
  0
ENDBLK
  0
BLOCK
  2
*DIM_0036
 70
    65
 10
0.0
 20
0.0
  0
LINE
  8
寸法
  6
CONTINUOUS
 10
143.901155
 20
49.4807
 11
143.901155
 21
60.666798
  0
LINE
  8
寸法
  6
CONTINUOUS
 10
151.401162
 20
50.577365
 11
151.401162
 21
60.666798
  0
LINE
  8
寸法
  6
CONTINUOUS
 10
143.901155
 20
60.666798
 11
151.401162
 21
60.666798
  0
POINT
  8
寸法
 10
143.901155
 20
60.666798
  0
POINT
  8
寸法
 10
151.401162
 20
60.666798
  0
TEXT
  7
TextStyle03
  8
寸法
  6
CONTINUOUS
 10
145.2125
 20
61.025
  1
225
 40
3.0
 72
     5
 11
150.0875
 21
61.025
  0
ENDBLK
  0
BLOCK
  2
*DIM_0037
 70
    65
 10
0.0
 20
0.0
  0
LINE
  8
寸法
  6
CONTINUOUS
 10
52.89106
 20
-70.209613
 11
62.194043
 21
-70.209613
  0
LINE
  8
寸法
  6
CONTINUOUS
 10
53.487723
 20
-77.709623
 11
62.194043
 21
-77.709623
  0
LINE
  8
寸法
  6
CONTINUOUS
 10
62.194043
 20
-70.209613
 11
62.194043
 21
-77.709623
  0
POINT
  8
寸法
 10
62.194043
 20
-70.209613
  0
POINT
  8
寸法
 10
62.194043
 20
-77.709623
  0
TEXT
  7
TextStyle03
  8
寸法
  6
CONTINUOUS
 10
61.8
 20
-76.4125
  1
225
 40
3.0
 50
90.0
 72
     5
 11
61.8
 21
-71.5375
  0
ENDBLK
  0
BLOCK
  2
*GRP_0038
 70
    65
 10
0.0
 20
0.0
  0
LINE
  8
型材断面
  6
DOT
 10
-28.775608
 20
-63.926405
 11
-105.135753
 21
-63.926405
  0
LINE
  8
型材断面
  6
DOT
 10
-28.775608
 20
-65.076405
 11
-106.538937
 21
-65.076405
  0
LINE
  8
型材断面
  6
DOT
 10
-28.775608
 20
-66.243073
 11
-106.538937
 21
-66.243073
  0
LINE
  8
型材断面
  6
DOT
 10
-28.775608
 20
-63.926405
 11
47.584538
 21
-63.926405
  0
LINE
  8
型材断面
  6
DOT
 10
-28.775608
 20
-65.076405
 11
48.987723
 21
-65.076405
  0
LINE
  8
型材断面
  6
DOT
 10
-28.775608
 20
-66.243073
 11
48.987723
 21
-66.243073
  0
LINE
  8
別途部材
  6
DOT
 62
    96
 10
-105.442273
 20
-62.87628
 11
-105.842273
 21
-63.87628
  0
LINE
  8
別途部材
  6
DOT
 62
    96
 10
-105.442273
 20
-62.87628
 11
-28.775608
 21
-62.87628
  0
LINE
  8
別途部材
  6
DOT
 10
-105.842273
 20
-63.87628
 11
-28.775608
 21
-63.87628
  0
ARC
  8
別途部材
  6
DOT
 10
-93.775605
 20
-69.584617
 40
12.041668
 50
92.379756
 51
146.144967
  0
LINE
  8
別途部材
  6
DOT
 62
    96
 10
47.89106
 20
-62.87628
 11
48.29106
 21
-63.87628
  0
LINE
  8
別途部材
  6
DOT
 62
    96
 10
47.89106
 20
-62.87628
 11
-28.775608
 21
-62.87628
  0
LINE
  8
別途部材
  6
DOT
 10
48.29106
 20
-63.87628
 11
-28.775608
 21
-63.87628
  0
ARC
  8
別途部材
  6
DOT
 10
36.224392
 20
-69.584617
 40
12.041668
 50
33.855033
 51
87.620244
  0
LINE
  8
別途部材
  6
DOT
 10
-94.275608
 20
-57.542947
 11
-28.775608
 21
-57.542947
  0
LINE
  8
別途部材
  6
DOT
 10
36.724393
 20
-57.542947
 11
-28.775608
 21
-57.542947
  0
LINE
  8
鉄骨等
  6
DOT
 62
    47
 10
-106.538937
 20
-66.243073
 11
-106.538937
 21
-65.076405
  0
LINE
  8
鉄骨等
  6
DOT
 62
    47
 10
-106.538937
 20
-65.076405
 11
-105.135753
 21
-63.926405
  0
LINE
  8
鉄骨等
  6
DOT
 62
    47
 10
-105.135753
 20
-63.926405
 11
-105.135753
 21
-63.876285
  0
LINE
  8
鉄骨等
  6
DOT
 62
    47
 10
48.987723
 20
-66.243073
 11
48.987723
 21
-65.076405
  0
LINE
  8
鉄骨等
  6
DOT
 62
    47
 10
48.987723
 20
-65.076405
 11
47.584538
 21
-63.926405
  0
LINE
  8
鉄骨等
  6
DOT
 62
    47
 10
47.584538
 20
-63.926405
 11
47.584538
 21
-63.876285
  0
ENDBLK
  0
BLOCK
  2
*GRP_0039
 70
    65
 10
0.0
 20
0.0
  0
LINE
  8
ボルト／ビス
  6
CONTINUOUS
 10
-104.44227
 20
-70.20961
 11
-104.44227
 21
-69.742945
  0
LINE
  8
ボルト／ビス
  6
CONTINUOUS
 10
-104.075605
 20
-70.20961
 11
-104.075605
 21
-70.142945
  0
LINE
  8
ボルト／ビス
  6
CONTINUOUS
 10
-104.075605
 20
-70.142945
 11
-104.808937
 21
-70.142945
  0
LINE
  8
ボルト／ビス
  6
CONTINUOUS
 10
-104.808937
 20
-70.142945
 11
-104.808937
 21
-70.20961
  0
LINE
  8
ボルト／ビス
  6
CONTINUOUS
 10
-104.075605
 20
-70.20961
 11
-104.808937
 21
-70.20961
  0
LINE
  8
ボルト／ビス
  6
CONTINUOUS
 10
-104.14227
 20
-70.10961
 11
-104.14227
 21
-70.142945
  0
LINE
  8
ボルト／ビス
  6
CONTINUOUS
 10
-104.14227
 20
-70.10961
 11
-104.74227
 21
-70.10961
  0
LINE
  8
ボルト／ビス
  6
CONTINUOUS
 10
-104.74227
 20
-70.10961
 11
-104.74227
 21
-70.142945
  0
LINE
  8
ボルト／ビス
  6
CONTINUOUS
 62
    64
 10
-104.281895
 20
-69.90961
 11
-104.24982
 21
-69.921285
  0
ARC
  8
ボルト／ビス
  6
CONTINUOUS
 62
    64
 10
-104.297934
 20
-70.014587
 40
0.104978
 50
90.0
 51
117.278033
  0
ARC
  8
ボルト／ビス
  6
CONTINUOUS
 62
    64
 10
-104.442272
 20
-70.312011
 40
0.402402
 50
76.165015
 51
103.834998
  0
LINE
  8
ボルト／ビス
  6
CONTINUOUS
 62
    64
 10
-104.602645
 20
-69.90961
 11
-104.63472
 21
-69.921285
  0
ARC
  8
ボルト／ビス
  6
CONTINUOUS
 62
    64
 10
-104.586609
 20
-70.014587
 40
0.104978
 50
62.721967
 51
90.0
  0
LINE
  8
ボルト／ビス
  6
CONTINUOUS
 62
    64
 10
-104.281895
 20
-69.90961
 11
-104.602645
 21
-69.90961
  0
LINE
  8
ボルト／ビス
  6
CONTINUOUS
 62
    64
 10
-104.63472
 20
-69.921285
 11
-104.63472
 21
-70.042945
  0
LINE
  8
ボルト／ビス
  6
CONTINUOUS
 62
    64
 10
-104.538495
 20
-69.921285
 11
-104.538495
 21
-70.042945
  0
LINE
  8
ボルト／ビス
  6
CONTINUOUS
 62
    64
 10
-104.24982
 20
-69.921285
 11
-104.24982
 21
-70.042945
  0
LINE
  8
ボルト／ビス
  6
CONTINUOUS
 62
    64
 10
-104.346045
 20
-69.921285
 11
-104.346045
 21
-70.042945
  0
LINE
  8
ボルト／ビス
  6
CONTINUOUS
 10
-104.24982
 20
-70.042945
 11
-104.63472
 21
-70.042945
  0
LINE
  8
ボルト／ビス
  6
CONTINUOUS
 10
-104.24227
 20
-70.042945
 11
-104.24227
 21
-70.10961
  0
LINE
  8
ボルト／ビス
  6
CONTINUOUS
 10
-104.24227
 20
-70.042945
 11
-104.64227
 21
-70.042945
  0
LINE
  8
ボルト／ビス
  6
CONTINUOUS
 10
-104.64227
 20
-70.042945
 11
-104.64227
 21
-70.10961
  0
ENDBLK
  0
BLOCK
  2
*GRP_0040
 70
    65
 10
0.0
 20
0.0
  0
LINE
  8
ボルト／ビス
  6
DOT
 10
-104.44227
 20
-62.876278
 11
-104.44227
 21
-62.409613
  0
LINE
  8
ボルト／ビス
  6
DOT
 10
-104.075605
 20
-62.876278
 11
-104.075605
 21
-62.809613
  0
LINE
  8
ボルト／ビス
  6
DOT
 10
-104.075605
 20
-62.809613
 11
-104.808937
 21
-62.809613
  0
LINE
  8
ボルト／ビス
  6
DOT
 10
-104.808937
 20
-62.809613
 11
-104.808937
 21
-62.876278
  0
LINE
  8
ボルト／ビス
  6
DOT
 10
-104.075605
 20
-62.876278
 11
-104.808937
 21
-62.876278
  0
LINE
  8
ボルト／ビス
  6
DOT
 10
-104.14227
 20
-62.776278
 11
-104.14227
 21
-62.809613
  0
LINE
  8
ボルト／ビス
  6
DOT
 10
-104.14227
 20
-62.776278
 11
-104.74227
 21
-62.776278
  0
LINE
  8
ボルト／ビス
  6
DOT
 10
-104.74227
 20
-62.776278
 11
-104.74227
 21
-62.809613
  0
LINE
  8
ボルト／ビス
  6
DOT
 62
    64
 10
-104.281895
 20
-62.576278
 11
-104.24982
 21
-62.587953
  0
ARC
  8
ボルト／ビス
  6
DOT
 62
    64
 10
-104.297934
 20
-62.681255
 40
0.104978
 50
90.0
 51
117.278033
  0
ARC
  8
ボルト／ビス
  6
DOT
 62
    64
 10
-104.442272
 20
-62.978679
 40
0.402402
 50
76.165015
 51
103.834998
  0
LINE
  8
ボルト／ビス
  6
DOT
 62
    64
 10
-104.602645
 20
-62.576278
 11
-104.63472
 21
-62.587953
  0
ARC
  8
ボルト／ビス
  6
DOT
 62
    64
 10
-104.586609
 20
-62.681255
 40
0.104978
 50
62.721967
 51
90.0
  0
LINE
  8
ボルト／ビス
  6
DOT
 62
    64
 10
-104.281895
 20
-62.576278
 11
-104.602645
 21
-62.576278
  0
LINE
  8
ボルト／ビス
  6
DOT
 62
    64
 10
-104.63472
 20
-62.587953
 11
-104.63472
 21
-62.709613
  0
LINE
  8
ボルト／ビス
  6
DOT
 62
    64
 10
-104.538495
 20
-62.587953
 11
-104.538495
 21
-62.709613
  0
LINE
  8
ボルト／ビス
  6
DOT
 62
    64
 10
-104.24982
 20
-62.587953
 11
-104.24982
 21
-62.709613
  0
LINE
  8
ボルト／ビス
  6
DOT
 62
    64
 10
-104.346045
 20
-62.587953
 11
-104.346045
 21
-62.709613
  0
LINE
  8
ボルト／ビス
  6
DOT
 10
-104.24982
 20
-62.709613
 11
-104.63472
 21
-62.709613
  0
LINE
  8
ボルト／ビス
  6
DOT
 10
-104.24227
 20
-62.709613
 11
-104.24227
 21
-62.776278
  0
LINE
  8
ボルト／ビス
  6
DOT
 10
-104.24227
 20
-62.709613
 11
-104.64227
 21
-62.709613
  0
LINE
  8
ボルト／ビス
  6
DOT
 10
-104.64227
 20
-62.709613
 11
-104.64227
 21
-62.776278
  0
ENDBLK
  0
BLOCK
  2
*DIM_0041
 70
    65
 10
0.0
 20
0.0
  0
LINE
  8
寸法
  6
BYBLOCK
 62
     0
 10
131.23449
 20
35.814033
 11
131.23449
 21
60.666798
  0
LINE
  8
寸法
  6
BYBLOCK
 62
     0
 10
138.567822
 20
60.666798
 11
131.23449
 21
60.666798
  0
POINT
  8
寸法
 62
     0
 10
138.567822
 20
60.666798
  0
POINT
  8
寸法
 62
     0
 10
131.23449
 20
60.666798
  0
TEXT
  7
TextStyle03
  8
寸法
  6
CONTINUOUS
 62
     0
 10
108.8875
 20
57.525
  1
上昇高さ220
 40
3.0
 72
     5
 11
127.2625
 21
57.525
  0
ENDBLK
  0
BLOCK
  2
*DIM_0042
 70
    65
 10
0.0
 20
0.0
  0
LINE
  8
寸法
  6
BYBLOCK
 62
     0
 10
39.224393
 20
-57.542947
 11
62.194043
 21
-57.542947
  0
LINE
  8
寸法
  6
BYBLOCK
 62
     0
 10
62.194043
 20
-64.87628
 11
62.194043
 21
-57.542947
  0
POINT
  8
寸法
 62
     0
 10
62.194043
 20
-64.87628
  0
POINT
  8
寸法
 62
     0
 10
62.194043
 20
-57.542947
  0
TEXT
  7
TextStyle03
  8
寸法
  6
CONTINUOUS
 62
     0
 10
61.55
 20
-55.7125
  1
上昇高さ220
 40
3.0
 50
90.0
 72
     5
 11
61.55
 21
-37.3375
  0
ENDBLK
  0
ENDSEC
  0
SECTION
  2
ENTITIES
  0
POLYLINE
  8
通り芯
  6
CONTINUOUS
 66
     1
 70
     1
  0
VERTEX
  8
通り芯
 10
-210.0
 20
-148.5
  0
VERTEX
  8
通り芯
 10
210.0
 20
-148.5
  0
VERTEX
  8
通り芯
 10
210.0
 20
148.5
  0
VERTEX
  8
通り芯
 10
-210.0
 20
148.5
  0
SEQEND
  0
INSERT
  2
*GRP_0001
  8
型材断面
  6
CONTINUOUS
 10
0.0
 20
0.0
  0
LINE
  8
型材断面
  6
DASHDOT
 10
46.224393
 20
-77.836442
 11
46.224393
 21
42.814033
  0
LINE
  8
型材断面
  6
DASHDOT
 10
-28.775608
 20
-77.836442
 11
-28.775608
 21
42.814033
  0
LINE
  8
型材断面
  6
DASHDOT
 10
-103.775608
 20
-77.836442
 11
-103.775608
 21
42.814033
  0
POLYLINE
  8
型材断面
  6
CONTINUOUS
 66
     1
 70
     1
  0
VERTEX
  8
型材断面
 10
-19.388875
 20
13.03811
  0
VERTEX
  8
型材断面
 10
-38.160805
 20
13.03811
  0
VERTEX
  8
型材断面
 10
-38.160805
 20
8.301267
  0
VERTEX
  8
型材断面
 10
-19.388875
 20
8.301267
  0
SEQEND
  0
POLYLINE
  8
型材断面
  6
CONTINUOUS
 66
     1
 70
     1
  0
VERTEX
  8
型材断面
 10
-19.388875
 20
52.589955
  0
VERTEX
  8
型材断面
 10
-38.160805
 20
52.589955
  0
VERTEX
  8
型材断面
 10
-38.160805
 20
57.326798
  0
VERTEX
  8
型材断面
 10
-19.388875
 20
57.326798
  0
SEQEND
  0
LINE
  8
型材断面
  6
DASHDOT
 10
143.901155
 20
42.814033
 11
-103.775608
 21
42.814033
  0
LINE
  8
型材断面
  6
DASHDOT
 10
143.901155
 20
22.814033
 11
-103.775608
 21
22.814033
  0
LINE
  8
型材断面
  6
DASHDOT
 10
143.901155
 20
32.814033
 11
-103.775608
 21
32.814033
  0
LINE
  8
型材断面
  6
DOT
 10
-30.025608
 20
22.814033
 11
-30.025608
 21
42.814033
  0
LINE
  8
型材断面
  6
DASHDOT
 10
-28.775608
 20
22.814033
 11
-28.775608
 21
42.814033
  0
LINE
  8
型材断面
  6
DOT
 10
-27.525608
 20
22.814033
 11
-27.525608
 21
42.814033
  0
LINE
  8
型材断面
  6
CONTINUOUS
 10
-144.627815
 20
80.791505
 11
-144.03176
 21
78.200998
  0
LINE
  8
型材断面
  6
CONTINUOUS
 10
-144.627815
 20
80.791505
 11
-145.223873
 21
78.200998
  0
LINE
  8
型材断面
  6
CONTINUOUS
 10
-145.223873
 20
78.200998
 11
-144.03176
 21
78.200998
  0
LINE
  8
型材断面
  6
CONTINUOUS
 10
-150.650403
 20
74.922105
 11
-104.408625
 21
74.922105
  0
LINE
  8
型材断面
  6
CONTINUOUS
 10
-144.627815
 20
87.32138
 11
-146.123445
 21
84.730873
  0
LINE
  8
型材断面
  6
CONTINUOUS
 10
-144.627815
 20
87.32138
 11
-143.132185
 21
84.730873
  0
LINE
  8
型材断面
  6
CONTINUOUS
 10
-143.132185
 20
84.730873
 11
-146.123445
 21
84.730873
  0
LINE
  8
型材断面
  6
CONTINUOUS
 10
-150.650403
 20
83.792277
 11
-104.408625
 21
83.792277
  0
LINE
  8
型材断面
  6
CONTINUOUS
 10
-150.650403
 20
69.134073
 11
-104.408625
 21
69.134073
  0
INSERT
  2
*GRP_0009
  8
型材断面
  6
CONTINUOUS
 10
0.0
 20
0.0
  0
INSERT
  2
*GRP_0010
  8
型材断面
  6
CONTINUOUS
 10
0.0
 20
0.0
  0
INSERT
  2
*GRP_0011
  8
型材断面
  6
CONTINUOUS
 10
0.0
 20
0.0
  0
INSERT
  2
*GRP_0012
  8
型材断面
  6
CONTINUOUS
 10
0.0
 20
0.0
  0
LINE
  8
型材断面
  6
CONTINUOUS
 10
-150.650403
 20
63.34604
 11
-104.408625
 21
63.34604
  0
LINE
  8
型材断面
  6
CONTINUOUS
 10
-28.775608
 20
-71.259738
 11
-105.135753
 21
-71.259738
  0
LINE
  8
型材断面
  6
CONTINUOUS
 10
-28.775608
 20
-72.409738
 11
-106.538937
 21
-72.409738
  0
LINE
  8
型材断面
  6
CONTINUOUS
 10
-28.775608
 20
-73.576405
 11
-106.538937
 21
-73.576405
  0
LINE
  8
型材断面
  6
CONTINUOUS
 10
-28.775608
 20
-71.259738
 11
47.584538
 21
-71.259738
  0
LINE
  8
型材断面
  6
CONTINUOUS
 10
-28.775608
 20
-72.409738
 11
48.987723
 21
-72.409738
  0
LINE
  8
型材断面
  6
CONTINUOUS
 10
-28.775608
 20
-73.576405
 11
48.987723
 21
-73.576405
  0
LINE
  8
型材断面
  6
CONTINUOUS
 10
144.951277
 20
32.814033
 11
144.951277
 21
21.453885
  0
LINE
  8
型材断面
  6
CONTINUOUS
 10
146.101277
 20
32.814033
 11
146.101277
 21
20.0507
  0
LINE
  8
型材断面
  6
CONTINUOUS
 10
147.267945
 20
32.814033
 11
147.267945
 21
20.0507
  0
LINE
  8
型材断面
  6
CONTINUOUS
 10
144.951277
 20
32.814033
 11
144.951277
 21
44.17418
  0
LINE
  8
型材断面
  6
CONTINUOUS
 10
146.101277
 20
32.814033
 11
146.101277
 21
45.577365
  0
LINE
  8
型材断面
  6
CONTINUOUS
 10
147.267945
 20
32.814033
 11
147.267945
 21
45.577365
  0
LINE
  8
型材断面
  6
CONTINUOUS
 10
-105.842275
 20
44.8807
 11
-106.538943
 21
45.577365
  0
LINE
  8
型材断面
  6
CONTINUOUS
 10
-106.538937
 20
45.577365
 11
48.987723
 21
45.577365
  0
LINE
  8
型材断面
  6
CONTINUOUS
 10
48.29106
 20
44.8807
 11
48.987723
 21
45.57736
  0
LINE
  8
型材断面
  6
CONTINUOUS
 10
48.987723
 20
45.577365
 11
48.987723
 21
20.0507
  0
LINE
  8
型材断面
  6
CONTINUOUS
 10
48.29106
 20
20.747365
 11
48.987728
 21
20.0507
  0
LINE
  8
型材断面
  6
CONTINUOUS
 10
48.987723
 20
20.0507
 11
-106.538937
 21
20.0507
  0
LINE
  8
型材断面
  6
CONTINUOUS
 10
-106.538937
 20
45.577365
 11
-106.538937
 21
20.0507
  0
LINE
  8
型材断面
  6
CONTINUOUS
 10
-105.842275
 20
20.747365
 11
-106.538943
 21
20.0507
  0
LINE
  8
型材断面
  6
CONTINUOUS
 10
-87.10894
 20
45.577365
 11
-88.60457
 21
48.167872
  0
LINE
  8
型材断面
  6
CONTINUOUS
 10
-87.10894
 20
45.577365
 11
-85.61331
 21
48.167872
  0
LINE
  8
型材断面
  6
CONTINUOUS
 10
-85.61331
 20
48.167872
 11
-88.60457
 21
48.167872
  0
LINE
  8
型材断面
  6
CONTINUOUS
 10
29.557725
 20
45.577365
 11
31.053355
 21
48.167872
  0
LINE
  8
型材断面
  6
CONTINUOUS
 10
29.557725
 20
45.577365
 11
28.062095
 21
48.167872
  0
LINE
  8
型材断面
  6
CONTINUOUS
 10
28.062095
 20
48.167872
 11
31.053355
 21
48.167872
  0
LINE
  8
型材断面
  6
CONTINUOUS
 10
-28.775608
 20
45.577362
 11
-27.279978
 21
48.16787
  0
LINE
  8
型材断面
  6
CONTINUOUS
 10
-28.775608
 20
45.577362
 11
-30.271238
 21
48.16787
  0
LINE
  8
型材断面
  6
CONTINUOUS
 10
-30.271238
 20
48.16787
 11
-27.279978
 21
48.16787
  0
LINE
  8
型材断面
  6
CONTINUOUS
 10
48.987723
 20
32.814033
 11
51.57823
 21
34.309663
  0
LINE
  8
型材断面
  6
CONTINUOUS
 10
48.987723
 20
32.814033
 11
51.57823
 21
31.318403
  0
LINE
  8
型材断面
  6
CONTINUOUS
 10
51.57823
 20
31.318403
 11
51.57823
 21
34.309663
  0
LINE
  8
型材断面
  6
CONTINUOUS
 10
48.987723
 20
39.114035
 11
51.578233
 21
38.517982
  0
LINE
  8
型材断面
  6
CONTINUOUS
 10
48.987723
 20
39.114035
 11
51.57823
 21
39.710095
  0
LINE
  8
型材断面
  6
CONTINUOUS
 10
51.57823
 20
39.710095
 11
51.578233
 21
38.517982
  0
LINE
  8
型材断面
  6
CONTINUOUS
 10
48.987723
 20
26.51403
 11
51.578233
 21
27.110082
  0
LINE
  8
型材断面
  6
CONTINUOUS
 10
48.987723
 20
26.51403
 11
51.57823
 21
25.91797
  0
LINE
  8
型材断面
  6
CONTINUOUS
 10
51.57823
 20
25.91797
 11
51.578233
 21
27.110082
  0
LINE
  8
型材断面
  6
CONTINUOUS
 10
-87.10894
 20
20.0507
 11
-88.60457
 21
17.460193
  0
LINE
  8
型材断面
  6
CONTINUOUS
 10
-87.10894
 20
20.0507
 11
-85.61331
 21
17.460193
  0
LINE
  8
型材断面
  6
CONTINUOUS
 10
-85.61331
 20
17.460193
 11
-88.60457
 21
17.460193
  0
LINE
  8
型材断面
  6
CONTINUOUS
 10
29.557725
 20
20.0507
 11
31.053355
 21
17.460193
  0
LINE
  8
型材断面
  6
CONTINUOUS
 10
29.557725
 20
20.0507
 11
28.062095
 21
17.460193
  0
LINE
  8
型材断面
  6
CONTINUOUS
 10
28.062095
 20
17.460193
 11
31.053355
 21
17.460193
  0
LINE
  8
型材断面
  6
CONTINUOUS
 10
-28.775608
 20
20.050698
 11
-27.279978
 21
17.46019
  0
LINE
  8
型材断面
  6
CONTINUOUS
 10
-28.775608
 20
20.050698
 11
-30.271238
 21
17.46019
  0
LINE
  8
型材断面
  6
CONTINUOUS
 10
-30.271238
 20
17.46019
 11
-27.279978
 21
17.46019
  0
LINE
  8
型材断面
  6
CONTINUOUS
 10
-106.538937
 20
32.814033
 11
-109.129445
 21
34.309663
  0
LINE
  8
型材断面
  6
CONTINUOUS
 10
-106.538937
 20
32.814033
 11
-109.129445
 21
31.318403
  0
LINE
  8
型材断面
  6
CONTINUOUS
 10
-109.129445
 20
31.318403
 11
-109.129445
 21
34.309663
  0
LINE
  8
型材断面
  6
CONTINUOUS
 10
-106.538937
 20
39.114035
 11
-109.129447
 21
38.517982
  0
LINE
  8
型材断面
  6
CONTINUOUS
 10
-106.538937
 20
39.114035
 11
-109.129445
 21
39.710095
  0
LINE
  8
型材断面
  6
CONTINUOUS
 10
-109.129445
 20
39.710095
 11
-109.129447
 21
38.517982
  0
LINE
  8
型材断面
  6
CONTINUOUS
 10
-106.538937
 20
26.51403
 11
-109.129447
 21
27.110082
  0
LINE
  8
型材断面
  6
CONTINUOUS
 10
-106.538937
 20
26.51403
 11
-109.129445
 21
25.91797
  0
LINE
  8
型材断面
  6
CONTINUOUS
 10
-109.129445
 20
25.91797
 11
-109.129447
 21
27.110082
  0
LINE
  8
型材断面
  6
DOT
 10
-65.292275
 20
22.814033
 11
-65.292275
 21
42.814033
  0
LINE
  8
型材断面
  6
DASHDOT
 10
-66.542275
 20
22.814033
 11
-66.542275
 21
42.814033
  0
LINE
  8
型材断面
  6
DOT
 10
-67.792275
 20
22.814033
 11
-67.792275
 21
42.814033
  0
LINE
  8
型材断面
  6
DOT
 10
7.74106
 20
22.814033
 11
7.74106
 21
42.814033
  0
LINE
  8
型材断面
  6
DASHDOT
 10
8.99106
 20
22.814033
 11
8.99106
 21
42.814033
  0
LINE
  8
型材断面
  6
DOT
 10
10.24106
 20
22.814033
 11
10.24106
 21
42.814033
  0
LINE
  8
型材断面
  6
CONTINUOUS
 10
151.401162
 20
20.5507
 11
151.737827
 21
20.5507
  0
LINE
  8
型材断面
  6
CONTINUOUS
 10
151.401162
 20
20.0507
 11
151.401162
 21
20.5507
  0
LINE
  8
型材断面
  6
CONTINUOUS
 10
147.50128
 20
20.0507
 11
147.304658
 21
20.247325
  0
LINE
  8
型材断面
  6
CONTINUOUS
 10
147.50128
 20
20.0507
 11
151.401162
 21
20.0507
  0
LINE
  8
型材断面
  6
CONTINUOUS
 62
    47
 10
147.304658
 20
20.247325
 11
147.304658
 21
32.814033
  0
LINE
  8
型材断面
  6
CONTINUOUS
 10
147.50128
 20
20.0507
 11
147.50128
 21
32.814033
  0
LINE
  8
型材断面
  6
CONTINUOUS
 10
151.737827
 20
20.5507
 11
151.737827
 21
32.814033
  0
LINE
  8
型材断面
  6
CONTINUOUS
 10
151.401162
 20
20.0507
 11
151.401162
 21
32.814033
  0
LINE
  8
型材断面
  6
CONTINUOUS
 10
151.401162
 20
45.077365
 11
151.737827
 21
45.077365
  0
LINE
  8
型材断面
  6
CONTINUOUS
 10
151.401162
 20
45.577365
 11
151.401162
 21
45.077365
  0
LINE
  8
型材断面
  6
CONTINUOUS
 10
147.50128
 20
45.577365
 11
147.304658
 21
45.38074
  0
LINE
  8
型材断面
  6
CONTINUOUS
 10
147.50128
 20
45.577365
 11
151.401162
 21
45.577365
  0
LINE
  8
型材断面
  6
CONTINUOUS
 62
    47
 10
147.304658
 20
45.38074
 11
147.304658
 21
32.814033
  0
LINE
  8
型材断面
  6
CONTINUOUS
 10
147.50128
 20
45.577365
 11
147.50128
 21
32.814033
  0
LINE
  8
型材断面
  6
CONTINUOUS
 10
151.737827
 20
45.077365
 11
151.737827
 21
32.814033
  0
LINE
  8
型材断面
  6
CONTINUOUS
 10
151.401162
 20
45.577365
 11
151.401162
 21
32.814033
  0
LINE
  8
型材断面
  6
CONTINUOUS
 10
48.487723
 20
-77.709623
 11
48.487723
 21
-78.046288
  0
LINE
  8
型材断面
  6
CONTINUOUS
 10
48.987723
 20
-77.709623
 11
48.487723
 21
-77.709623
  0
LINE
  8
型材断面
  6
CONTINUOUS
 10
48.987723
 20
-73.80974
 11
48.791098
 21
-73.613118
  0
LINE
  8
型材断面
  6
CONTINUOUS
 10
48.987723
 20
-73.80974
 11
48.987723
 21
-77.709623
  0
LINE
  8
型材断面
  6
CONTINUOUS
 62
    47
 10
48.791098
 20
-73.613118
 11
-28.775608
 21
-73.613118
  0
LINE
  8
型材断面
  6
CONTINUOUS
 10
48.987723
 20
-73.80974
 11
-28.775608
 21
-73.80974
  0
LINE
  8
型材断面
  6
CONTINUOUS
 10
48.487723
 20
-78.046288
 11
-28.775608
 21
-78.046288
  0
LINE
  8
型材断面
  6
CONTINUOUS
 10
48.987723
 20
-77.709623
 11
-28.775608
 21
-77.709623
  0
LINE
  8
型材断面
  6
CONTINUOUS
 10
-106.038937
 20
-77.709623
 11
-106.038937
 21
-78.046288
  0
LINE
  8
型材断面
  6
CONTINUOUS
 10
-106.538937
 20
-77.709623
 11
-106.038937
 21
-77.709623
  0
LINE
  8
型材断面
  6
CONTINUOUS
 10
-106.538937
 20
-73.80974
 11
-106.342313
 21
-73.613118
  0
LINE
  8
型材断面
  6
CONTINUOUS
 10
-106.538937
 20
-73.80974
 11
-106.538937
 21
-77.709623
  0
LINE
  8
型材断面
  6
CONTINUOUS
 62
    47
 10
-106.342313
 20
-73.613118
 11
-28.775608
 21
-73.613118
  0
LINE
  8
型材断面
  6
CONTINUOUS
 10
-106.538937
 20
-73.80974
 11
-28.775608
 21
-73.80974
  0
LINE
  8
型材断面
  6
CONTINUOUS
 10
-106.038937
 20
-78.046288
 11
-28.775608
 21
-78.046288
  0
LINE
  8
型材断面
  6
CONTINUOUS
 10
-106.538937
 20
-77.709623
 11
-28.775608
 21
-77.709623
  0
TEXT
  7
TextStyle03
  8
文字
  6
CONTINUOUS
 10
-37.125
 20
9.325
  1
可動装置側
 40
3.0
 72
     5
 11
-20.625
 21
9.325
  0
TEXT
  7
TextStyle03
  8
文字
  6
CONTINUOUS
 10
-37.125
 20
53.3
  1
可動装置側
 40
3.0
 72
     5
 11
-20.625
 21
53.3
  0
TEXT
  7
TextStyle03
  8
文字
  6
CONTINUOUS
 10
-141.8
 20
79.425
  1
はケーシング位置を示す
 40
3.0
 72
     5
 11
-105.05
 21
79.425
  0
TEXT
  7
TextStyle03
  8
文字
  6
CONTINUOUS
 10
-141.8
 20
76.05
  1
４ヶ所中1ヶ所に設定
 40
3.0
 72
     5
 11
-110.1125
 21
76.05
  0
TEXT
  7
TextStyle03
  8
文字
  6
CONTINUOUS
 10
-141.8
 20
84.95
  1
は排水穴位置を示す
 40
3.0
 72
     5
 11
-111.8
 21
84.95
  0
TEXT
  7
TextStyle03
  8
文字
  6
CONTINUOUS
 10
-124.8
 20
11.275
  1
アンカーピッチ
 40
3.0
 50
90.0
 72
     5
 11
-124.8
 21
34.525
  0
TEXT
  7
TextStyle03
  8
文字
  6
CONTINUOUS
 10
-88.825
 20
79.9
  1
アンカーピッチ
 40
3.0
 72
     5
 11
-65.575
 21
79.9
  0
TEXT
  7
TextStyle03
  8
文字
  6
CONTINUOUS
 10
-145.525
 20
70.075
  1
アンカー数量　１６ヶ所
 40
3.0
 72
     5
 11
-108.775
 21
70.075
  0
TEXT
  7
TextStyle03
  8
文字
  6
CONTINUOUS
 10
-145.575
 20
64.3
  1
アームユニット数　４ヶ所
 40
3.0
 72
     5
 11
-105.45
 21
64.3
  0
LINE
  8
文字
  6
CONTINUOUS
 10
48.987723
 20
-13.121378
 11
48.987723
 21
-71.330185
  0
LINE
  8
文字
  6
CONTINUOUS
 10
-106.538937
 20
-13.121378
 11
-106.538937
 21
-71.25924
  0
LINE
  8
文字
  6
CONTINUOUS
 10
88.38754
 20
45.577365
 11
144.57949
 21
45.577365
  0
LINE
  8
文字
  6
CONTINUOUS
 10
88.38754
 20
20.0507
 11
144.57949
 21
20.0507
  0
TEXT
  7
TextStyle03
  8
文字
  6
CONTINUOUS
 10
123.15
 20
-67.1
  1
網入り6.8t
 40
3.0
 72
     5
 11
139.8375
 21
-67.1
  0
TEXT
  7
TextStyle03
  8
文字
  6
CONTINUOUS
 10
129.825
 20
-71.775
  1
×４枚
 40
3.0
 72
     5
 11
139.575
 21
-71.775
  0
TEXT
  7
TextStyle03
  8
文字
  6
CONTINUOUS
 10
78.1
 20
125.25
  1
シリーズ：ＴＤ１Ｌ
 40
5.0
 72
     5
 11
128.1
 21
125.25
  0
TEXT
  7
TextStyle03
  8
文字
  6
CONTINUOUS
 10
78.1
 20
119.625
  1
　　　　　（上下可動）600×4500タイプ
 40
5.0
 72
     5
 11
181.5375
 21
119.625
  0
TEXT
  7
TextStyle03
  8
文字
  6
CONTINUOUS
 10
78.1
 20
114.0
  1
図面名　：外観姿図
 40
5.0
 72
     5
 11
128.1
 21
114.0
  0
TEXT
  7
TextStyle03
  8
文字
  6
CONTINUOUS
 10
78.1
 20
108.375
  1
　　　　　　
 40
5.0
 72
     5
 11
111.225
 21
108.375
  0
TEXT
  7
TextStyle03
  8
文字
  6
CONTINUOUS
 10
76.7
 20
105.2
  1
ＮＳコード：ＮＳＤＬ
 40
5.0
 72
     5
 11
132.325
 21
105.2
  0
INSERT
  2
*DIM_0002
  8
寸法
  6
CONTINUOUS
 10
0.0
 20
0.0
  0
INSERT
  2
*DIM_0003
  8
寸法
  6
CONTINUOUS
 10
0.0
 20
0.0
  0
INSERT
  2
*DIM_0004
  8
寸法
  6
CONTINUOUS
 10
0.0
 20
0.0
  0
INSERT
  2
*DIM_0005
  8
寸法
  6
CONTINUOUS
 10
0.0
 20
0.0
  0
INSERT
  2
*DIM_0006
  8
寸法
  6
CONTINUOUS
 10
0.0
 20
0.0
  0
INSERT
  2
*DIM_0007
  8
寸法
  6
CONTINUOUS
 10
0.0
 20
0.0
  0
INSERT
  2
*DIM_0013
  8
寸法
  6
CONTINUOUS
 10
0.0
 20
0.0
  0
INSERT
  2
*DIM_0014
  8
寸法
  6
CONTINUOUS
 10
0.0
 20
0.0
  0
INSERT
  2
*DIM_0015
  8
寸法
  6
CONTINUOUS
 10
0.0
 20
0.0
  0
INSERT
  2
*DIM_0016
  8
寸法
  6
CONTINUOUS
 10
0.0
 20
0.0
  0
INSERT
  2
*DIM_0017
  8
寸法
  6
CONTINUOUS
 10
0.0
 20
0.0
  0
INSERT
  2
*DIM_0018
  8
寸法
  6
CONTINUOUS
 10
0.0
 20
0.0
  0
INSERT
  2
*DIM_0019
  8
寸法
  6
CONTINUOUS
 10
0.0
 20
0.0
  0
INSERT
  2
*DIM_0020
  8
寸法
  6
CONTINUOUS
 10
0.0
 20
0.0
  0
INSERT
  2
*DIM_0021
  8
寸法
  6
CONTINUOUS
 10
0.0
 20
0.0
  0
INSERT
  2
*DIM_0022
  8
寸法
  6
CONTINUOUS
 10
0.0
 20
0.0
  0
INSERT
  2
*DIM_0023
  8
寸法
  6
CONTINUOUS
 10
0.0
 20
0.0
  0
INSERT
  2
*DIM_0024
  8
寸法
  6
CONTINUOUS
 10
0.0
 20
0.0
  0
INSERT
  2
*DIM_0027
  8
寸法
  6
CONTINUOUS
 10
0.0
 20
0.0
  0
INSERT
  2
*DIM_0028
  8
寸法
  6
CONTINUOUS
 10
0.0
 20
0.0
  0
INSERT
  2
*DIM_0036
  8
寸法
  6
CONTINUOUS
 10
0.0
 20
0.0
  0
INSERT
  2
*DIM_0037
  8
寸法
  6
CONTINUOUS
 10
0.0
 20
0.0
  0
INSERT
  2
*DIM_0041
  8
寸法
  6
CONTINUOUS
 10
0.0
 20
0.0
  0
INSERT
  2
*DIM_0042
  8
寸法
  6
CONTINUOUS
 10
0.0
 20
0.0
  0
LINE
  8
別途部材
  6
CONTINUOUS
 10
48.29106
 20
20.747365
 11
47.89106
 21
21.147365
  0
LINE
  8
別途部材
  6
CONTINUOUS
 10
46.224393
 20
22.814033
 11
38.165137
 21
30.87329
  0
LINE
  8
別途部材
  6
CONTINUOUS
 10
47.89106
 20
21.147365
 11
47.89106
 21
32.814033
  0
LINE
  8
別途部材
  6
CONTINUOUS
 10
48.29106
 20
20.747365
 11
48.29106
 21
32.814033
  0
LINE
  8
別途部材
  6
CONTINUOUS
 10
48.29106
 20
44.8807
 11
47.89106
 21
44.4807
  0
LINE
  8
別途部材
  6
CONTINUOUS
 10
46.224393
 20
42.814033
 11
38.165137
 21
34.754775
  0
LINE
  8
別途部材
  6
CONTINUOUS
 10
47.89106
 20
44.4807
 11
47.89106
 21
32.814033
  0
LINE
  8
別途部材
  6
CONTINUOUS
 10
48.29106
 20
44.8807
 11
48.29106
 21
32.814033
  0
LINE
  8
別途部材
  6
CONTINUOUS
 10
47.89106
 20
44.4807
 11
-28.775608
 21
44.4807
  0
LINE
  8
別途部材
  6
CONTINUOUS
 10
48.29106
 20
44.8807
 11
-28.775608
 21
44.8807
  0
LINE
  8
別途部材
  6
CONTINUOUS
 10
48.29106
 20
20.747365
 11
-28.775608
 21
20.747365
  0
LINE
  8
別途部材
  6
CONTINUOUS
 10
47.89106
 20
21.147365
 11
-28.775608
 21
21.147365
  0
LINE
  8
別途部材
  6
CONTINUOUS
 10
-105.842275
 20
20.747365
 11
-105.442275
 21
21.147365
  0
LINE
  8
別途部材
  6
CONTINUOUS
 10
-103.775608
 20
22.814033
 11
-95.716352
 21
30.87329
  0
LINE
  8
別途部材
  6
CONTINUOUS
 10
-105.442275
 20
21.147365
 11
-105.442275
 21
32.814033
  0
LINE
  8
別途部材
  6
CONTINUOUS
 10
-105.842275
 20
20.747365
 11
-105.842275
 21
32.814033
  0
LINE
  8
別途部材
  6
CONTINUOUS
 10
-105.842275
 20
44.8807
 11
-105.442275
 21
44.4807
  0
LINE
  8
別途部材
  6
CONTINUOUS
 10
-103.775608
 20
42.814033
 11
-95.716352
 21
34.754775
  0
LINE
  8
別途部材
  6
CONTINUOUS
 10
-105.442275
 20
44.4807
 11
-105.442275
 21
32.814033
  0
LINE
  8
別途部材
  6
CONTINUOUS
 10
-105.842275
 20
44.8807
 11
-105.842275
 21
32.814033
  0
LINE
  8
別途部材
  6
CONTINUOUS
 10
-105.442275
 20
44.4807
 11
-28.775608
 21
44.4807
  0
LINE
  8
別途部材
  6
CONTINUOUS
 10
-105.842275
 20
44.8807
 11
-28.775608
 21
44.8807
  0
LINE
  8
別途部材
  6
CONTINUOUS
 10
-105.842275
 20
20.747365
 11
-28.775608
 21
20.747365
  0
LINE
  8
別途部材
  6
CONTINUOUS
 10
-105.442275
 20
21.147365
 11
-28.775608
 21
21.147365
  0
INSERT
  2
*GRP_0008
  8
別途部材
  6
CONTINUOUS
 10
0.0
 20
0.0
  0
LINE
  8
別途部材
  6
CONTINUOUS
 62
    96
 10
143.901155
 20
21.147365
 11
144.901155
 21
20.747365
  0
LINE
  8
別途部材
  6
CONTINUOUS
 62
    96
 10
143.901155
 20
21.147365
 11
143.901155
 21
32.814033
  0
LINE
  8
別途部材
  6
CONTINUOUS
 10
144.901155
 20
20.747365
 11
144.901155
 21
32.814033
  0
LINE
  8
別途部材
  6
CONTINUOUS
 62
    96
 10
143.901155
 20
44.4807
 11
144.901155
 21
44.8807
  0
LINE
  8
別途部材
  6
CONTINUOUS
 62
    96
 10
143.901155
 20
44.4807
 11
143.901155
 21
32.814033
  0
LINE
  8
別途部材
  6
CONTINUOUS
 10
144.901155
 20
44.8807
 11
144.901155
 21
32.814033
  0
ARC
  8
別途部材
  6
CONTINUOUS
 10
150.609489
 20
32.814033
 40
12.041667
 50
123.855033
 51
236.144967
  0
INSERT
  2
*GRP_0029
  8
別途部材
  6
DOT
 10
0.0
 20
0.0
  0
INSERT
  2
*GRP_0030
  8
別途部材
  6
DOT
 10
0.0
 20
0.0
  0
INSERT
  2
*GRP_0032
  8
別途部材
  6
DOT
 10
0.0
 20
0.0
  0
INSERT
  2
*GRP_0033
  8
別途部材
  6
DOT
 10
0.0
 20
0.0
  0
INSERT
  2
*GRP_0034
  8
別途部材
  6
DOT
 10
0.0
 20
0.0
  0
INSERT
  2
*GRP_0035
  8
別途部材
  6
DOT
 10
0.0
 20
0.0
  0
INSERT
  2
*GRP_0039
  8
別途部材
  6
DOT
 10
0.0
 20
0.0
  0
INSERT
  2
*GRP_0040
  8
別途部材
  6
DOT
 10
0.0
 20
0.0
  0
POLYLINE
  8
曲げ物
  6
CONTINUOUS
 66
     1
 70
     1
  0
VERTEX
  8
曲げ物
 10
143.327763
 20
-55.39453
  0
VERTEX
  8
曲げ物
 10
106.627763
 20
-55.39453
  0
VERTEX
  8
曲げ物
 10
106.627763
 20
-75.39453
  0
VERTEX
  8
曲げ物
 10
143.327763
 20
-75.39453
  0
SEQEND
  0
INSERT
  2
*GRP_0031
  8
曲げ物
  6
CONTINUOUS
 10
0.0
 20
0.0
  0
INSERT
  2
*GRP_0038
  8
曲げ物
  6
CONTINUOUS
 10
0.0
 20
0.0
  0
LINE
  8
鉄骨等
  6
CONTINUOUS
 62
    47
 10
-106.538937
 20
-73.576405
 11
-106.538937
 21
-72.409738
  0
LINE
  8
鉄骨等
  6
CONTINUOUS
 62
    47
 10
-106.538937
 20
-72.409738
 11
-105.135753
 21
-71.259738
  0
LINE
  8
鉄骨等
  6
CONTINUOUS
 62
    47
 10
-105.135753
 20
-71.259738
 11
-105.135753
 21
-71.209617
  0
LINE
  8
鉄骨等
  6
CONTINUOUS
 62
    47
 10
48.987723
 20
-73.576405
 11
48.987723
 21
-72.409738
  0
LINE
  8
鉄骨等
  6
CONTINUOUS
 62
    47
 10
48.987723
 20
-72.409738
 11
47.584538
 21
-71.259738
  0
LINE
  8
鉄骨等
  6
CONTINUOUS
 62
    47
 10
47.584538
 20
-71.259738
 11
47.584538
 21
-71.209617
  0
LINE
  8
鉄骨等
  6
CONTINUOUS
 62
    47
 10
147.267945
 20
20.0507
 11
146.101277
 21
20.0507
  0
LINE
  8
鉄骨等
  6
CONTINUOUS
 62
    47
 10
146.101277
 20
20.0507
 11
144.951277
 21
21.453885
  0
LINE
  8
鉄骨等
  6
CONTINUOUS
 62
    47
 10
144.951277
 20
21.453885
 11
144.901158
 21
21.453885
  0
LINE
  8
鉄骨等
  6
CONTINUOUS
 62
    47
 10
147.267945
 20
45.577365
 11
146.101277
 21
45.577365
  0
LINE
  8
鉄骨等
  6
CONTINUOUS
 62
    47
 10
146.101277
 20
45.577365
 11
144.951277
 21
44.17418
  0
LINE
  8
鉄骨等
  6
CONTINUOUS
 62
    47
 10
144.951277
 20
44.17418
 11
144.901158
 21
44.17418
  0
ENDSEC
  0
EOF
