  0
SECTION
  2
HEADER
  9
$EXTMIN
 10
-210.0
 20
-148.5
  9
$EXTMAX
 10
210.0
 20
148.5
  9
$PDMODE
 70
    32
  9
$PDSIZE
 40
1.5
  9
$LTSCALE
 40
10.0
  0
ENDSEC
  0
SECTION
  2
TABLES
  0
TABLE
  2
LTYPE
 70
    15
  0
LTYPE
  2
CONTINUOUS
 70
    64
  3
実線
 72
    65
 73
     0
 40
0.0
  0
LTYPE
  2
DASHED
 70
    64
  3
破線A
 72
    65
 73
     2
 40
0.6
 49
0.4
 49
-0.2
  0
LTYPE
  2
DASHEDX2
 70
    64
  3
破線B
 72
    65
 73
     2
 40
1.3
 49
0.9
 49
-0.4
  0
LTYPE
  2
DASHDOT
 70
    64
  3
１点鎖線A
 72
    65
 73
     4
 40
0.5375
 49
0.375
 49
-0.05
 49
0.0625
 49
-0.05
  0
LTYPE
  2
DASHDOTX2
 70
    64
  3
１点鎖線B
 72
    65
 73
     4
 40
1.075
 49
0.75
 49
-0.1
 49
0.125
 49
-0.1
  0
LTYPE
  2
DIVIDE2
 70
    64
  3
２点鎖線A
 72
    65
 73
     6
 40
0.5125
 49
0.3
 49
-0.0375
 49
0.05
 49
-0.0375
 49
0.05
 49
-0.0375
  0
LTYPE
  2
DIVIDE
 70
    64
  3
２点鎖線B
 72
    65
 73
     6
 40
1.05
 49
0.55
 49
-0.1
 49
0.1
 49
-0.1
 49
0.1
 49
-0.1
  0
LTYPE
  2
DOT
 70
    64
  3
点線A
 72
    65
 73
     2
 40
0.1125
 49
0.0625
 49
-0.05
  0
LTYPE
  2
DOTX2
 70
    64
  3
点線B
 72
    65
 73
     2
 40
0.275
 49
0.15
 49
-0.125
  0
LTYPE
  2
CONTINUOUS
 70
    64
  3
実線
 72
    65
 73
     0
 40
0.0
  0
LTYPE
  2
CONTINUOUS
 70
    64
  3
実線
 72
    65
 73
     0
 40
0.0
  0
LTYPE
  2
CONTINUOUS
 70
    64
  3
実線
 72
    65
 73
     0
 40
0.0
  0
LTYPE
  2
CONTINUOUS
 70
    64
  3
実線
 72
    65
 73
     0
 40
0.0
  0
LTYPE
  2
CONTINUOUS
 70
    64
  3
実線
 72
    65
 73
     0
 40
0.0
  0
LTYPE
  2
CONTINUOUS
 70
    64
  3
実線
 72
    65
 73
     0
 40
0.0
  0
ENDTAB
  0
TABLE
  2
LAYER
 70
    34
  0
LAYER
  2
通り芯
 70
     0
 62
    15
  6
CONTINUOUS
  0
LAYER
  2
補助線
 70
     0
 62
    16
  6
DOT
  0
LAYER
  2
躯体
 70
     0
 62
    31
  6
CONTINUOUS
  0
LAYER
  2
型材
 70
     0
 62
    32
  6
CONTINUOUS
  0
LAYER
  2
型材断面
 70
     0
 62
    47
  6
CONTINUOUS
  0
LAYER
  2
ガラス
 70
     0
 62
    48
  6
CONTINUOUS
  0
LAYER
  2
ゴム等
 70
     0
 62
    63
  6
CONTINUOUS
  0
LAYER
  2
ボルト／ビス
 70
     0
 62
    64
  6
CONTINUOUS
  0
LAYER
  2
文字
 70
     0
 62
    79
  6
CONTINUOUS
  0
LAYER
  2
寸法
 70
     0
 62
    80
  6
CONTINUOUS
  0
LAYER
  2
ﾊｯﾁﾝｸﾞ
 70
     0
 62
    95
  6
CONTINUOUS
  0
LAYER
  2
別途部材
 70
     0
 62
    96
  6
CONTINUOUS
  0
LAYER
  2
曲げ物
 70
     0
 62
   111
  6
CONTINUOUS
  0
LAYER
  2
鉄骨等
 70
     0
 62
   112
  6
CONTINUOUS
  0
LAYER
  2
St
 70
     0
 62
   127
  6
CONTINUOUS
  0
LAYER
  2
その他部品等
 70
     0
 62
   128
  6
CONTINUOUS
  0
LAYER
  2
ｶﾞｽｹｯﾄ
 70
     0
 62
   143
  6
CONTINUOUS
  0
LAYER
  2
ｽｹｯﾁ
 70
     0
 62
    14
  6
CONTINUOUS
  0
LAYER
  2
0
 70
     0
 62
    17
  6
CONTINUOUS
  0
LAYER
  2
1
 70
     0
 62
    30
  6
CONTINUOUS
  0
LAYER
  2
4
 70
     0
 62
    33
  6
CONTINUOUS
  0
LAYER
  2
ﾚｲﾔ3
 70
     0
 62
    46
  6
CONTINUOUS
  0
LAYER
  2
外形線
 70
     0
 62
    49
  6
CONTINUOUS
  0
LAYER
  2
部品
 70
     0
 62
    14
  6
CONTINUOUS
  0
LAYER
  2
サッシ芯
 70
     0
 62
    17
  6
DASHDOTX2
  0
LAYER
  2
寸法線
 70
     0
 62
    62
  6
CONTINUOUS
  0
LAYER
  2
姿図外形線
 70
     0
 62
    65
  6
CONTINUOUS
  0
LAYER
  2
姿補助線
 70
     0
 62
    30
  6
CONTINUOUS
  0
LAYER
  2
透視線
 70
     0
 62
    78
  6
DOT
  0
LAYER
  2
用紙
 70
     0
 62
    81
  6
CONTINUOUS
  0
LAYER
  2
実線図枠
 70
     0
 62
    94
  6
CONTINUOUS
  0
LAYER
  2
補助図枠
 70
     0
 62
    97
  6
CONTINUOUS
  0
LAYER
  2
建具記号
 70
     0
 62
   110
  6
CONTINUOUS
  0
LAYER
  2
補助文字
 70
     0
 62
   113
  6
CONTINUOUS
  0
ENDTAB
  0
TABLE
  2
STYLE
 70
    10
  0
STYLE
  2
STANDARD
 70
     0
 40
1.0
 41
1.0
 42
1.0
 50
0.0
 71
     0
  3
TXT
  4
BIGFONT
  0
STYLE
  2
TATE
 70
     4
 40
1.0
 41
1.0
 42
1.0
 50
0.0
 71
     0
  3
TXT
  4
BIGFONT
  0
STYLE
  2
TextStyle03
 70
     0
 40
1.0
 41
1.0
 42
1.0
 50
0.0
 71
     0
  3
MONOTXT
  4
BIGFONT
  0
STYLE
  2
TextStyle04
 70
     0
 40
1.0
 41
1.0
 42
1.0
 50
0.0
 71
     0
  3
MONOTXT
  4
BIGFONT
  0
STYLE
  2
TextStyle05
 70
     0
 40
1.0
 41
1.0
 42
1.0
 50
0.0
 71
     0
  3
MONOTXT
  4
BIGFONT
  0
STYLE
  2
TextStyle06
 70
     0
 40
1.0
 41
1.0
 42
1.0
 50
0.0
 71
     0
  3
MONOTXT
  4
BIGFONT
  0
STYLE
  2
TextStyle07
 70
     0
 40
1.0
 41
1.0
 42
1.0
 50
0.0
 71
     0
  3
MONOTXT
  4
BIGFONT
  0
STYLE
  2
TextStyle08
 70
     0
 40
1.0
 41
1.0
 42
1.0
 50
0.0
 71
     0
  3
MONOTXT
  4
BIGFONT
  0
STYLE
  2
TextStyle09
 70
     0
 40
1.0
 41
1.0
 42
1.0
 50
0.0
 71
     0
  3
MONOTXT
  4
BIGFONT
  0
STYLE
  2
TextStyle10
 70
     0
 40
1.0
 41
1.0
 42
1.0
 50
0.0
 71
     0
  3
MONOTXT
  4
BIGFONT
  0
ENDTAB
  0
ENDSEC
  0
SECTION
  2
BLOCKS
  0
BLOCK
  2
*GRP_0001
 70
    65
 10
0.0
 20
0.0
  0
LINE
  8
型材断面
  6
CONTINUOUS
 10
195.0
 20
133.5
 11
195.0
 21
-133.5
  0
LINE
  8
型材断面
  6
CONTINUOUS
 10
195.0
 20
-133.5
 11
-185.0
 21
-133.5
  0
LINE
  8
型材断面
  6
CONTINUOUS
 10
-185.0
 20
-133.5
 11
-185.0
 21
133.5
  0
LINE
  8
型材断面
  6
CONTINUOUS
 10
195.0
 20
133.5
 11
-185.0
 21
133.5
  0
LINE
  8
型材断面
  6
CONTINUOUS
 10
145.0
 20
-133.5
 11
145.0
 21
-118.5
  0
LINE
  8
型材断面
  6
CONTINUOUS
 10
195.0
 20
-118.5
 11
145.0
 21
-118.5
  0
ENDBLK
  0
BLOCK
  2
*DIM_0002
 70
    65
 10
0.0
 20
0.0
  0
LINE
  8
寸法
  6
BYBLOCK
 62
     0
 10
-4.287135
 20
-64.87628
 11
20.682515
 21
-64.87628
  0
LINE
  8
寸法
  6
BYBLOCK
 62
     0
 10
20.682515
 20
-70.209613
 11
20.682515
 21
-64.87628
  0
POINT
  8
寸法
 62
     0
 10
20.682515
 20
-70.209613
  0
POINT
  8
寸法
 62
     0
 10
20.682515
 20
-64.87628
  0
TEXT
  7
TextStyle03
  8
寸法
  6
CONTINUOUS
 62
     0
 10
20.3
 20
-69.9875
  1
160
 40
3.0
 50
90.0
 72
     5
 11
20.3
 21
-65.1125
  0
ENDBLK
  0
BLOCK
  2
*DIM_0003
 70
    65
 10
0.0
 20
0.0
  0
LINE
  8
寸法
  6
BYBLOCK
 62
     0
 10
4.712865
 20
-13.121378
 11
-95.287135
 21
-13.121378
  0
POINT
  8
寸法
 62
     0
 10
4.712865
 20
-13.121378
  0
POINT
  8
寸法
 62
     0
 10
-95.287135
 20
-13.121378
  0
TEXT
  7
TextStyle03
  8
寸法
  6
CONTINUOUS
 62
     0
 10
-57.01875
 20
-12.75
  1
呼称寸法　3000
 40
3.0
 72
     5
 11
-33.58125
 21
-12.75
  0
ENDBLK
  0
BLOCK
  2
*DIM_0004
 70
    65
 10
0.0
 20
0.0
  0
LINE
  8
寸法
  6
BYBLOCK
 62
     0
 10
-78.620467
 20
19.183902
 11
-78.620467
 21
14.10329
  0
LINE
  8
寸法
  6
BYBLOCK
 62
     0
 10
-11.953802
 20
19.183902
 11
-11.953802
 21
14.10329
  0
LINE
  8
寸法
  6
BYBLOCK
 62
     0
 10
-78.620467
 20
14.10329
 11
-11.953802
 21
14.10329
  0
POINT
  8
寸法
 62
     0
 10
-78.620467
 20
14.10329
  0
POINT
  8
寸法
 62
     0
 10
-11.953802
 20
14.10329
  0
TEXT
  7
TextStyle03
  8
寸法
  6
CONTINUOUS
 62
     0
 10
-48.55625
 20
14.475
  1
2000
 40
3.0
 72
     5
 11
-41.99375
 21
14.475
  0
ENDBLK
  0
BLOCK
  2
*DIM_0005
 70
    65
 10
0.0
 20
0.0
  0
LINE
  8
寸法
  6
BYBLOCK
 62
     0
 10
5.712865
 20
42.814035
 11
15.437147
 21
42.814035
  0
LINE
  8
寸法
  6
BYBLOCK
 62
     0
 10
8.342995
 20
39.114035
 11
15.437147
 21
39.114035
  0
LINE
  8
寸法
  6
BYBLOCK
 62
     0
 10
15.437147
 20
42.814035
 11
15.437147
 21
39.114035
  0
POINT
  8
寸法
 62
     0
 10
15.437147
 20
42.814035
  0
POINT
  8
寸法
 62
     0
 10
15.437147
 20
39.114035
  0
TEXT
  7
TextStyle03
  8
寸法
  6
CONTINUOUS
 62
     0
 10
15.125
 20
43.8125
  1
111
 40
3.0
 50
90.0
 72
     5
 11
15.125
 21
48.6875
  0
ENDBLK
  0
BLOCK
  2
*DIM_0006
 70
    65
 10
0.0
 20
0.0
  0
LINE
  8
寸法
  6
BYBLOCK
 62
     0
 10
5.712865
 20
22.81403
 11
15.437147
 21
22.814027
  0
LINE
  8
寸法
  6
BYBLOCK
 62
     0
 10
8.342995
 20
26.51403
 11
15.437147
 21
26.514027
  0
LINE
  8
寸法
  6
BYBLOCK
 62
     0
 10
15.437147
 20
22.814027
 11
15.437147
 21
26.514027
  0
POINT
  8
寸法
 62
     0
 10
15.437147
 20
22.814027
  0
POINT
  8
寸法
 62
     0
 10
15.437147
 20
26.514027
  0
TEXT
  7
TextStyle03
  8
寸法
  6
CONTINUOUS
 62
     0
 10
15.45
 20
16.5625
  1
111
 40
3.0
 50
90.0
 72
     5
 11
15.45
 21
21.4375
  0
ENDBLK
  0
BLOCK
  2
*GRP_0007
 70
    65
 10
0.0
 20
0.0
  0
LINE
  8
別途部材
  6
CONTINUOUS
 62
    96
 10
6.379532
 20
-70.209613
 11
6.779532
 21
-71.209613
  0
ARC
  8
別途部材
  6
CONTINUOUS
 10
-5.287134
 20
-76.917951
 40
12.041668
 50
33.855033
 51
90.0
  0
LINE
  8
別途部材
  6
CONTINUOUS
 10
6.779532
 20
-71.209613
 11
-45.287135
 21
-71.209613
  0
LINE
  8
別途部材
  6
CONTINUOUS
 62
    96
 10
6.379532
 20
-70.209613
 11
-45.287135
 21
-70.209613
  0
LINE
  8
別途部材
  6
CONTINUOUS
 10
-44.787135
 20
-63.87628
 11
-43.787135
 21
-64.87628
  0
LINE
  8
別途部材
  6
CONTINUOUS
 10
-42.787135
 20
-64.87628
 11
-41.787135
 21
-63.87628
  0
LINE
  8
別途部材
  6
CONTINUOUS
 10
-40.787135
 20
-63.87628
 11
-39.787135
 21
-64.87628
  0
LINE
  8
別途部材
  6
CONTINUOUS
 10
-41.787135
 20
-63.87628
 11
-40.787135
 21
-63.87628
  0
LINE
  8
別途部材
  6
CONTINUOUS
 10
-44.787135
 20
-63.87628
 11
-45.287135
 21
-63.87628
  0
LINE
  8
別途部材
  6
CONTINUOUS
 10
-38.787135
 20
-64.87628
 11
-37.787135
 21
-63.87628
  0
LINE
  8
別途部材
  6
CONTINUOUS
 10
-36.787135
 20
-63.87628
 11
-35.787135
 21
-64.87628
  0
LINE
  8
別途部材
  6
CONTINUOUS
 10
-37.787135
 20
-63.87628
 11
-36.787135
 21
-63.87628
  0
LINE
  8
別途部材
  6
CONTINUOUS
 10
-34.787135
 20
-64.87628
 11
-33.787135
 21
-63.87628
  0
LINE
  8
別途部材
  6
CONTINUOUS
 10
-32.787135
 20
-63.87628
 11
-31.787135
 21
-64.87628
  0
LINE
  8
別途部材
  6
CONTINUOUS
 10
-33.787135
 20
-63.87628
 11
-32.787135
 21
-63.87628
  0
LINE
  8
別途部材
  6
CONTINUOUS
 10
-30.787135
 20
-64.87628
 11
-29.787135
 21
-63.87628
  0
LINE
  8
別途部材
  6
CONTINUOUS
 10
-28.787135
 20
-63.87628
 11
-27.787135
 21
-64.87628
  0
LINE
  8
別途部材
  6
CONTINUOUS
 10
-29.787135
 20
-63.87628
 11
-28.787135
 21
-63.87628
  0
LINE
  8
別途部材
  6
CONTINUOUS
 10
-26.787135
 20
-64.87628
 11
-25.787135
 21
-63.87628
  0
LINE
  8
別途部材
  6
CONTINUOUS
 10
-24.787135
 20
-63.87628
 11
-23.787135
 21
-64.87628
  0
LINE
  8
別途部材
  6
CONTINUOUS
 10
-25.787135
 20
-63.87628
 11
-24.787135
 21
-63.87628
  0
LINE
  8
別途部材
  6
CONTINUOUS
 10
-22.787135
 20
-64.87628
 11
-21.787135
 21
-63.87628
  0
LINE
  8
別途部材
  6
CONTINUOUS
 10
-20.787135
 20
-63.87628
 11
-19.787135
 21
-64.87628
  0
LINE
  8
別途部材
  6
CONTINUOUS
 10
-21.787135
 20
-63.87628
 11
-20.787135
 21
-63.87628
  0
LINE
  8
別途部材
  6
CONTINUOUS
 10
-18.787135
 20
-64.87628
 11
-17.787135
 21
-63.87628
  0
LINE
  8
別途部材
  6
CONTINUOUS
 10
-16.787135
 20
-63.87628
 11
-15.787135
 21
-64.87628
  0
LINE
  8
別途部材
  6
CONTINUOUS
 10
-17.787135
 20
-63.87628
 11
-16.787135
 21
-63.87628
  0
LINE
  8
別途部材
  6
CONTINUOUS
 10
-14.787135
 20
-64.87628
 11
-13.787135
 21
-63.87628
  0
LINE
  8
別途部材
  6
CONTINUOUS
 10
-12.787135
 20
-63.87628
 11
-11.787135
 21
-64.87628
  0
LINE
  8
別途部材
  6
CONTINUOUS
 10
-13.787135
 20
-63.87628
 11
-12.787135
 21
-63.87628
  0
LINE
  8
別途部材
  6
CONTINUOUS
 10
-10.787135
 20
-64.87628
 11
-9.787135
 21
-63.87628
  0
LINE
  8
別途部材
  6
CONTINUOUS
 10
-8.787135
 20
-63.87628
 11
-7.787135
 21
-64.87628
  0
LINE
  8
別途部材
  6
CONTINUOUS
 10
-9.787135
 20
-63.87628
 11
-8.787135
 21
-63.87628
  0
LINE
  8
別途部材
  6
CONTINUOUS
 10
-11.787135
 20
-64.87628
 11
-10.787135
 21
-64.87628
  0
LINE
  8
別途部材
  6
CONTINUOUS
 10
-15.787135
 20
-64.87628
 11
-14.787135
 21
-64.87628
  0
LINE
  8
別途部材
  6
CONTINUOUS
 10
-19.787135
 20
-64.87628
 11
-18.787135
 21
-64.87628
  0
LINE
  8
別途部材
  6
CONTINUOUS
 10
-23.787135
 20
-64.87628
 11
-22.787135
 21
-64.87628
  0
LINE
  8
別途部材
  6
CONTINUOUS
 10
-27.787135
 20
-64.87628
 11
-26.787135
 21
-64.87628
  0
LINE
  8
別途部材
  6
CONTINUOUS
 10
-31.787135
 20
-64.87628
 11
-30.787135
 21
-64.87628
  0
LINE
  8
別途部材
  6
CONTINUOUS
 10
-35.787135
 20
-64.87628
 11
-34.787135
 21
-64.87628
  0
LINE
  8
別途部材
  6
CONTINUOUS
 10
-39.787135
 20
-64.87628
 11
-38.787135
 21
-64.87628
  0
LINE
  8
別途部材
  6
CONTINUOUS
 10
-42.787135
 20
-64.87628
 11
-43.787135
 21
-64.87628
  0
LINE
  8
別途部材
  6
CONTINUOUS
 10
-7.787135
 20
-64.87628
 11
-7.787135
 21
-70.209613
  0
LINE
  8
別途部材
  6
CONTINUOUS
 10
-8.787135
 20
-63.87628
 11
-8.787135
 21
-70.209613
  0
LINE
  8
別途部材
  6
CONTINUOUS
 10
-9.787135
 20
-63.87628
 11
-9.787135
 21
-70.209613
  0
LINE
  8
別途部材
  6
CONTINUOUS
 10
-10.787135
 20
-64.87628
 11
-10.787135
 21
-70.209613
  0
LINE
  8
別途部材
  6
CONTINUOUS
 10
-12.787135
 20
-63.87628
 11
-12.787135
 21
-70.209613
  0
LINE
  8
別途部材
  6
CONTINUOUS
 10
-16.787135
 20
-63.87628
 11
-16.787135
 21
-70.209613
  0
LINE
  8
別途部材
  6
CONTINUOUS
 10
-15.787135
 20
-64.87628
 11
-15.787135
 21
-70.209613
  0
LINE
  8
別途部材
  6
CONTINUOUS
 10
-14.787135
 20
-64.87628
 11
-14.787135
 21
-70.209613
  0
LINE
  8
別途部材
  6
CONTINUOUS
 10
-13.787135
 20
-63.87628
 11
-13.787135
 21
-70.209613
  0
LINE
  8
別途部材
  6
CONTINUOUS
 10
-11.787135
 20
-64.87628
 11
-11.787135
 21
-70.209613
  0
LINE
  8
別途部材
  6
CONTINUOUS
 10
-18.787135
 20
-64.87628
 11
-18.787135
 21
-70.209613
  0
LINE
  8
別途部材
  6
CONTINUOUS
 10
-17.787135
 20
-63.87628
 11
-17.787135
 21
-70.209613
  0
LINE
  8
別途部材
  6
CONTINUOUS
 10
-19.787135
 20
-64.87628
 11
-19.787135
 21
-70.209613
  0
LINE
  8
別途部材
  6
CONTINUOUS
 10
-20.787135
 20
-63.87628
 11
-20.787135
 21
-70.209613
  0
LINE
  8
別途部材
  6
CONTINUOUS
 10
-24.787135
 20
-63.87628
 11
-24.787135
 21
-70.209613
  0
LINE
  8
別途部材
  6
CONTINUOUS
 10
-25.787135
 20
-63.87628
 11
-25.787135
 21
-70.209613
  0
LINE
  8
別途部材
  6
CONTINUOUS
 10
-23.787135
 20
-64.87628
 11
-23.787135
 21
-70.209613
  0
LINE
  8
別途部材
  6
CONTINUOUS
 10
-22.787135
 20
-64.87628
 11
-22.787135
 21
-70.209613
  0
LINE
  8
別途部材
  6
CONTINUOUS
 10
-21.787135
 20
-63.87628
 11
-21.787135
 21
-70.209613
  0
LINE
  8
別途部材
  6
CONTINUOUS
 10
-26.787135
 20
-64.87628
 11
-26.787135
 21
-70.209613
  0
LINE
  8
別途部材
  6
CONTINUOUS
 10
-28.787135
 20
-63.87628
 11
-28.787135
 21
-70.209613
  0
LINE
  8
別途部材
  6
CONTINUOUS
 10
-29.787135
 20
-63.87628
 11
-29.787135
 21
-70.209613
  0
LINE
  8
別途部材
  6
CONTINUOUS
 10
-30.787135
 20
-64.87628
 11
-30.787135
 21
-70.209613
  0
LINE
  8
別途部材
  6
CONTINUOUS
 10
-31.787135
 20
-64.87628
 11
-31.787135
 21
-70.209613
  0
LINE
  8
別途部材
  6
CONTINUOUS
 10
-32.787135
 20
-63.87628
 11
-32.787135
 21
-70.209613
  0
LINE
  8
別途部材
  6
CONTINUOUS
 10
-27.787135
 20
-64.87628
 11
-27.787135
 21
-70.209613
  0
LINE
  8
別途部材
  6
CONTINUOUS
 10
-33.787135
 20
-63.87628
 11
-33.787135
 21
-70.209613
  0
LINE
  8
別途部材
  6
CONTINUOUS
 10
-34.787135
 20
-64.87628
 11
-34.787135
 21
-70.209613
  0
LINE
  8
別途部材
  6
CONTINUOUS
 10
-35.787135
 20
-64.87628
 11
-35.787135
 21
-70.209613
  0
LINE
  8
別途部材
  6
CONTINUOUS
 10
-37.787135
 20
-63.87628
 11
-37.787135
 21
-70.209613
  0
LINE
  8
別途部材
  6
CONTINUOUS
 10
-39.787135
 20
-64.87628
 11
-39.787135
 21
-70.209613
  0
LINE
  8
別途部材
  6
CONTINUOUS
 10
-40.787135
 20
-63.87628
 11
-40.787135
 21
-70.209613
  0
LINE
  8
別途部材
  6
CONTINUOUS
 10
-42.787135
 20
-64.87628
 11
-42.787135
 21
-70.209613
  0
LINE
  8
別途部材
  6
CONTINUOUS
 10
-43.787135
 20
-64.87628
 11
-43.787135
 21
-70.209613
  0
LINE
  8
別途部材
  6
CONTINUOUS
 10
-44.787135
 20
-63.87628
 11
-44.787135
 21
-70.209613
  0
LINE
  8
別途部材
  6
CONTINUOUS
 10
-41.787135
 20
-63.87628
 11
-41.787135
 21
-70.209613
  0
LINE
  8
別途部材
  6
CONTINUOUS
 10
-38.787135
 20
-64.87628
 11
-38.787135
 21
-70.209613
  0
LINE
  8
別途部材
  6
CONTINUOUS
 10
-36.787135
 20
-63.87628
 11
-36.787135
 21
-70.209613
  0
LINE
  8
別途部材
  6
CONTINUOUS
 10
-7.787135
 20
-64.87628
 11
-5.287135
 21
-64.87628
  0
LINE
  8
別途部材
  6
CONTINUOUS
 62
    96
 10
-96.9538
 20
-70.209613
 11
-97.3538
 21
-71.209613
  0
ARC
  8
別途部材
  6
CONTINUOUS
 10
-85.287134
 20
-76.917951
 40
12.041668
 50
90.0
 51
146.144967
  0
LINE
  8
別途部材
  6
CONTINUOUS
 10
-97.3538
 20
-71.209613
 11
-45.287135
 21
-71.209613
  0
LINE
  8
別途部材
  6
CONTINUOUS
 62
    96
 10
-96.9538
 20
-70.209613
 11
-45.287135
 21
-70.209613
  0
LINE
  8
別途部材
  6
CONTINUOUS
 10
-45.787135
 20
-63.87628
 11
-46.787135
 21
-64.87628
  0
LINE
  8
別途部材
  6
CONTINUOUS
 10
-47.787135
 20
-64.87628
 11
-48.787135
 21
-63.87628
  0
LINE
  8
別途部材
  6
CONTINUOUS
 10
-49.787135
 20
-63.87628
 11
-50.787135
 21
-64.87628
  0
LINE
  8
別途部材
  6
CONTINUOUS
 10
-48.787135
 20
-63.87628
 11
-49.787135
 21
-63.87628
  0
LINE
  8
別途部材
  6
CONTINUOUS
 10
-45.787135
 20
-63.87628
 11
-45.287135
 21
-63.87628
  0
LINE
  8
別途部材
  6
CONTINUOUS
 10
-51.787135
 20
-64.87628
 11
-52.787135
 21
-63.87628
  0
LINE
  8
別途部材
  6
CONTINUOUS
 10
-53.787135
 20
-63.87628
 11
-54.787135
 21
-64.87628
  0
LINE
  8
別途部材
  6
CONTINUOUS
 10
-52.787135
 20
-63.87628
 11
-53.787135
 21
-63.87628
  0
LINE
  8
別途部材
  6
CONTINUOUS
 10
-55.787135
 20
-64.87628
 11
-56.787135
 21
-63.87628
  0
LINE
  8
別途部材
  6
CONTINUOUS
 10
-57.787135
 20
-63.87628
 11
-58.787135
 21
-64.87628
  0
LINE
  8
別途部材
  6
CONTINUOUS
 10
-56.787135
 20
-63.87628
 11
-57.787135
 21
-63.87628
  0
LINE
  8
別途部材
  6
CONTINUOUS
 10
-59.787135
 20
-64.87628
 11
-60.787135
 21
-63.87628
  0
LINE
  8
別途部材
  6
CONTINUOUS
 10
-61.787135
 20
-63.87628
 11
-62.787135
 21
-64.87628
  0
LINE
  8
別途部材
  6
CONTINUOUS
 10
-60.787135
 20
-63.87628
 11
-61.787135
 21
-63.87628
  0
LINE
  8
別途部材
  6
CONTINUOUS
 10
-63.787135
 20
-64.87628
 11
-64.787135
 21
-63.87628
  0
LINE
  8
別途部材
  6
CONTINUOUS
 10
-65.787135
 20
-63.87628
 11
-66.787135
 21
-64.87628
  0
LINE
  8
別途部材
  6
CONTINUOUS
 10
-64.787135
 20
-63.87628
 11
-65.787135
 21
-63.87628
  0
LINE
  8
別途部材
  6
CONTINUOUS
 10
-67.787135
 20
-64.87628
 11
-68.787135
 21
-63.87628
  0
LINE
  8
別途部材
  6
CONTINUOUS
 10
-69.787135
 20
-63.87628
 11
-70.787135
 21
-64.87628
  0
LINE
  8
別途部材
  6
CONTINUOUS
 10
-68.787135
 20
-63.87628
 11
-69.787135
 21
-63.87628
  0
LINE
  8
別途部材
  6
CONTINUOUS
 10
-71.787135
 20
-64.87628
 11
-72.787135
 21
-63.87628
  0
LINE
  8
別途部材
  6
CONTINUOUS
 10
-73.787135
 20
-63.87628
 11
-74.787135
 21
-64.87628
  0
LINE
  8
別途部材
  6
CONTINUOUS
 10
-72.787135
 20
-63.87628
 11
-73.787135
 21
-63.87628
  0
LINE
  8
別途部材
  6
CONTINUOUS
 10
-75.787135
 20
-64.87628
 11
-76.787135
 21
-63.87628
  0
LINE
  8
別途部材
  6
CONTINUOUS
 10
-77.787135
 20
-63.87628
 11
-78.787135
 21
-64.87628
  0
LINE
  8
別途部材
  6
CONTINUOUS
 10
-76.787135
 20
-63.87628
 11
-77.787135
 21
-63.87628
  0
LINE
  8
別途部材
  6
CONTINUOUS
 10
-79.787135
 20
-64.87628
 11
-80.787135
 21
-63.87628
  0
LINE
  8
別途部材
  6
CONTINUOUS
 10
-81.787135
 20
-63.87628
 11
-82.787135
 21
-64.87628
  0
LINE
  8
別途部材
  6
CONTINUOUS
 10
-80.787135
 20
-63.87628
 11
-81.787135
 21
-63.87628
  0
LINE
  8
別途部材
  6
CONTINUOUS
 10
-78.787135
 20
-64.87628
 11
-79.787135
 21
-64.87628
  0
LINE
  8
別途部材
  6
CONTINUOUS
 10
-74.787135
 20
-64.87628
 11
-75.787135
 21
-64.87628
  0
LINE
  8
別途部材
  6
CONTINUOUS
 10
-70.787135
 20
-64.87628
 11
-71.787135
 21
-64.87628
  0
LINE
  8
別途部材
  6
CONTINUOUS
 10
-66.787135
 20
-64.87628
 11
-67.787135
 21
-64.87628
  0
LINE
  8
別途部材
  6
CONTINUOUS
 10
-62.787135
 20
-64.87628
 11
-63.787135
 21
-64.87628
  0
LINE
  8
別途部材
  6
CONTINUOUS
 10
-58.787135
 20
-64.87628
 11
-59.787135
 21
-64.87628
  0
LINE
  8
別途部材
  6
CONTINUOUS
 10
-54.787135
 20
-64.87628
 11
-55.787135
 21
-64.87628
  0
LINE
  8
別途部材
  6
CONTINUOUS
 10
-50.787135
 20
-64.87628
 11
-51.787135
 21
-64.87628
  0
LINE
  8
別途部材
  6
CONTINUOUS
 10
-47.787135
 20
-64.87628
 11
-46.787135
 21
-64.87628
  0
LINE
  8
別途部材
  6
CONTINUOUS
 10
-82.787135
 20
-64.87628
 11
-82.787135
 21
-70.209613
  0
LINE
  8
別途部材
  6
CONTINUOUS
 10
-81.787135
 20
-63.87628
 11
-81.787135
 21
-70.209613
  0
LINE
  8
別途部材
  6
CONTINUOUS
 10
-80.787135
 20
-63.87628
 11
-80.787135
 21
-70.209613
  0
LINE
  8
別途部材
  6
CONTINUOUS
 10
-79.787135
 20
-64.87628
 11
-79.787135
 21
-70.209613
  0
LINE
  8
別途部材
  6
CONTINUOUS
 10
-77.787135
 20
-63.87628
 11
-77.787135
 21
-70.209613
  0
LINE
  8
別途部材
  6
CONTINUOUS
 10
-73.787135
 20
-63.87628
 11
-73.787135
 21
-70.209613
  0
LINE
  8
別途部材
  6
CONTINUOUS
 10
-74.787135
 20
-64.87628
 11
-74.787135
 21
-70.209613
  0
LINE
  8
別途部材
  6
CONTINUOUS
 10
-75.787135
 20
-64.87628
 11
-75.787135
 21
-70.209613
  0
LINE
  8
別途部材
  6
CONTINUOUS
 10
-76.787135
 20
-63.87628
 11
-76.787135
 21
-70.209613
  0
LINE
  8
別途部材
  6
CONTINUOUS
 10
-78.787135
 20
-64.87628
 11
-78.787135
 21
-70.209613
  0
LINE
  8
別途部材
  6
CONTINUOUS
 10
-71.787135
 20
-64.87628
 11
-71.787135
 21
-70.209613
  0
LINE
  8
別途部材
  6
CONTINUOUS
 10
-72.787135
 20
-63.87628
 11
-72.787135
 21
-70.209613
  0
LINE
  8
別途部材
  6
CONTINUOUS
 10
-70.787135
 20
-64.87628
 11
-70.787135
 21
-70.209613
  0
LINE
  8
別途部材
  6
CONTINUOUS
 10
-69.787135
 20
-63.87628
 11
-69.787135
 21
-70.209613
  0
LINE
  8
別途部材
  6
CONTINUOUS
 10
-65.787135
 20
-63.87628
 11
-65.787135
 21
-70.209613
  0
LINE
  8
別途部材
  6
CONTINUOUS
 10
-64.787135
 20
-63.87628
 11
-64.787135
 21
-70.209613
  0
LINE
  8
別途部材
  6
CONTINUOUS
 10
-66.787135
 20
-64.87628
 11
-66.787135
 21
-70.209613
  0
LINE
  8
別途部材
  6
CONTINUOUS
 10
-67.787135
 20
-64.87628
 11
-67.787135
 21
-70.209613
  0
LINE
  8
別途部材
  6
CONTINUOUS
 10
-68.787135
 20
-63.87628
 11
-68.787135
 21
-70.209613
  0
LINE
  8
別途部材
  6
CONTINUOUS
 10
-63.787135
 20
-64.87628
 11
-63.787135
 21
-70.209613
  0
LINE
  8
別途部材
  6
CONTINUOUS
 10
-61.787135
 20
-63.87628
 11
-61.787135
 21
-70.209613
  0
LINE
  8
別途部材
  6
CONTINUOUS
 10
-60.787135
 20
-63.87628
 11
-60.787135
 21
-70.209613
  0
LINE
  8
別途部材
  6
CONTINUOUS
 10
-59.787135
 20
-64.87628
 11
-59.787135
 21
-70.209613
  0
LINE
  8
別途部材
  6
CONTINUOUS
 10
-58.787135
 20
-64.87628
 11
-58.787135
 21
-70.209613
  0
LINE
  8
別途部材
  6
CONTINUOUS
 10
-57.787135
 20
-63.87628
 11
-57.787135
 21
-70.209613
  0
LINE
  8
別途部材
  6
CONTINUOUS
 10
-62.787135
 20
-64.87628
 11
-62.787135
 21
-70.209613
  0
LINE
  8
別途部材
  6
CONTINUOUS
 10
-56.787135
 20
-63.87628
 11
-56.787135
 21
-70.209613
  0
LINE
  8
別途部材
  6
CONTINUOUS
 10
-55.787135
 20
-64.87628
 11
-55.787135
 21
-70.209613
  0
LINE
  8
別途部材
  6
CONTINUOUS
 10
-54.787135
 20
-64.87628
 11
-54.787135
 21
-70.209613
  0
LINE
  8
別途部材
  6
CONTINUOUS
 10
-52.787135
 20
-63.87628
 11
-52.787135
 21
-70.209613
  0
LINE
  8
別途部材
  6
CONTINUOUS
 10
-50.787135
 20
-64.87628
 11
-50.787135
 21
-70.209613
  0
LINE
  8
別途部材
  6
CONTINUOUS
 10
-49.787135
 20
-63.87628
 11
-49.787135
 21
-70.209613
  0
LINE
  8
別途部材
  6
CONTINUOUS
 10
-47.787135
 20
-64.87628
 11
-47.787135
 21
-70.209613
  0
LINE
  8
別途部材
  6
CONTINUOUS
 10
-46.787135
 20
-64.87628
 11
-46.787135
 21
-70.209613
  0
LINE
  8
別途部材
  6
CONTINUOUS
 10
-45.787135
 20
-63.87628
 11
-45.787135
 21
-70.209613
  0
LINE
  8
別途部材
  6
CONTINUOUS
 10
-48.787135
 20
-63.87628
 11
-48.787135
 21
-70.209613
  0
LINE
  8
別途部材
  6
CONTINUOUS
 10
-51.787135
 20
-64.87628
 11
-51.787135
 21
-70.209613
  0
LINE
  8
別途部材
  6
CONTINUOUS
 10
-53.787135
 20
-63.87628
 11
-53.787135
 21
-70.209613
  0
LINE
  8
別途部材
  6
CONTINUOUS
 10
-82.787135
 20
-64.87628
 11
-85.287135
 21
-64.87628
  0
ENDBLK
  0
BLOCK
  2
*GRP_0008
 70
    65
 10
0.0
 20
0.0
  0
LINE
  8
補助線
  6
BYBLOCK
 62
    64
 10
-91.87934
 20
-75.132365
 11
-92.028265
 21
-75.20719
  0
LINE
  8
補助線
  6
BYBLOCK
 62
    64
 10
-91.991215
 20
-75.095313
 11
-91.91639
 21
-75.24424
  0
LINE
  8
補助線
  6
BYBLOCK
 62
    64
 10
-81.96086
 20
-70.149007
 11
-82.109788
 21
-70.223833
  0
LINE
  8
補助線
  6
BYBLOCK
 62
    64
 10
-82.072738
 20
-70.111955
 11
-81.997912
 21
-70.260883
  0
LINE
  8
補助線
  6
BYBLOCK
 62
    64
 10
-72.19131
 20
-65.240475
 11
-72.042382
 21
-65.16565
  0
LINE
  8
補助線
  6
BYBLOCK
 62
    64
 10
-72.15426
 20
-65.128597
 11
-72.079435
 21
-65.277525
  0
LINE
  8
型材断面
  6
CONTINUOUS
 10
-92.62578
 20
-74.5748
 11
-92.848082
 21
-75.246053
  0
LINE
  8
型材断面
  6
CONTINUOUS
 10
-92.848082
 20
-75.246053
 11
-92.54878
 21
-75.841758
  0
LINE
  8
型材断面
  6
CONTINUOUS
 10
-92.54878
 20
-75.841758
 11
-91.877527
 21
-76.06406
  0
LINE
  8
型材断面
  6
CONTINUOUS
 10
-72.193123
 20
-64.308782
 11
-71.521868
 21
-64.531085
  0
LINE
  8
型材断面
  6
CONTINUOUS
 10
-71.521868
 20
-64.531085
 11
-71.222565
 21
-65.12679
  0
LINE
  8
型材断面
  6
CONTINUOUS
 10
-71.222565
 20
-65.12679
 11
-71.44487
 21
-65.798042
  0
LINE
  8
型材断面
  6
CONTINUOUS
 10
-92.62578
 20
-74.5748
 11
-72.193123
 21
-64.308782
  0
LINE
  8
型材断面
  6
CONTINUOUS
 10
-91.877527
 20
-76.06406
 11
-71.44487
 21
-65.798042
  0
CIRCLE
  8
ボルト／ビス
  6
CONTINUOUS
 10
-91.953802
 20
-75.169777
 40
0.250185
  0
CIRCLE
  8
ボルト／ビス
  6
CONTINUOUS
 10
-91.953802
 20
-75.169777
 40
0.301025
  0
LINE
  8
ボルト／ビス
  6
CONTINUOUS
 62
    64
 10
-92.203568
 20
-75.155275
 11
-92.066122
 21
-74.946225
  0
LINE
  8
ボルト／ビス
  6
CONTINUOUS
 62
    64
 10
-91.816357
 20
-74.960728
 11
-92.066122
 21
-74.946225
  0
LINE
  8
ボルト／ビス
  6
CONTINUOUS
 62
    64
 10
-92.091248
 20
-75.378827
 11
-91.841482
 21
-75.39333
  0
LINE
  8
ボルト／ビス
  6
CONTINUOUS
 62
    64
 10
-91.704037
 20
-75.18428
 11
-91.841482
 21
-75.39333
  0
LINE
  8
ボルト／ビス
  6
CONTINUOUS
 62
    64
 10
-92.203568
 20
-75.155275
 11
-92.091248
 21
-75.378827
  0
LINE
  8
ボルト／ビス
  6
CONTINUOUS
 62
    64
 10
-91.816357
 20
-74.960728
 11
-91.704037
 21
-75.18428
  0
CIRCLE
  8
ボルト／ビス
  6
CONTINUOUS
 62
    64
 10
-91.953802
 20
-75.169777
 40
0.216668
  0
CIRCLE
  8
ボルト／ビス
  6
CONTINUOUS
 10
-82.035325
 20
-70.18642
 40
0.250185
  0
CIRCLE
  8
ボルト／ビス
  6
CONTINUOUS
 10
-82.035325
 20
-70.18642
 40
0.301025
  0
LINE
  8
ボルト／ビス
  6
CONTINUOUS
 62
    64
 10
-82.28509
 20
-70.171915
 11
-82.147645
 21
-69.962865
  0
LINE
  8
ボルト／ビス
  6
CONTINUOUS
 62
    64
 10
-81.89788
 20
-69.977368
 11
-82.147645
 21
-69.962865
  0
LINE
  8
ボルト／ビス
  6
CONTINUOUS
 62
    64
 10
-82.17277
 20
-70.39547
 11
-81.923002
 21
-70.409975
  0
LINE
  8
ボルト／ビス
  6
CONTINUOUS
 62
    64
 10
-81.78556
 20
-70.200925
 11
-81.923002
 21
-70.409975
  0
LINE
  8
ボルト／ビス
  6
CONTINUOUS
 62
    64
 10
-82.28509
 20
-70.171915
 11
-82.17277
 21
-70.39547
  0
LINE
  8
ボルト／ビス
  6
CONTINUOUS
 62
    64
 10
-81.89788
 20
-69.977368
 11
-81.78556
 21
-70.200925
  0
CIRCLE
  8
ボルト／ビス
  6
CONTINUOUS
 62
    64
 10
-82.035325
 20
-70.18642
 40
0.216668
  0
CIRCLE
  8
ボルト／ビス
  6
CONTINUOUS
 10
-72.116848
 20
-65.203063
 40
0.250185
  0
CIRCLE
  8
ボルト／ビス
  6
CONTINUOUS
 10
-72.116848
 20
-65.203063
 40
0.301025
  0
LINE
  8
ボルト／ビス
  6
CONTINUOUS
 62
    64
 10
-71.979403
 20
-64.994013
 11
-72.229168
 21
-64.97951
  0
LINE
  8
ボルト／ビス
  6
CONTINUOUS
 62
    64
 10
-72.366612
 20
-65.18856
 11
-72.229168
 21
-64.97951
  0
LINE
  8
ボルト／ビス
  6
CONTINUOUS
 62
    64
 10
-71.867083
 20
-65.217568
 11
-72.004525
 21
-65.426615
  0
LINE
  8
ボルト／ビス
  6
CONTINUOUS
 62
    64
 10
-72.254292
 20
-65.412112
 11
-72.004525
 21
-65.426615
  0
LINE
  8
ボルト／ビス
  6
CONTINUOUS
 62
    64
 10
-71.979403
 20
-64.994013
 11
-71.867083
 21
-65.217568
  0
LINE
  8
ボルト／ビス
  6
CONTINUOUS
 62
    64
 10
-72.366612
 20
-65.18856
 11
-72.254292
 21
-65.412112
  0
CIRCLE
  8
ボルト／ビス
  6
CONTINUOUS
 62
    64
 10
-72.116848
 20
-65.203063
 40
0.216668
  0
ENDBLK
  0
BLOCK
  2
*GRP_0009
 70
    65
 10
0.0
 20
0.0
  0
LINE
  8
補助線
  6
BYBLOCK
 62
    64
 10
-72.19131
 20
-75.132365
 11
-72.042385
 21
-75.20719
  0
LINE
  8
補助線
  6
BYBLOCK
 62
    64
 10
-72.079435
 20
-75.095313
 11
-72.15426
 21
-75.24424
  0
LINE
  8
補助線
  6
BYBLOCK
 62
    64
 10
-82.10979
 20
-70.149007
 11
-81.960862
 21
-70.223833
  0
LINE
  8
補助線
  6
BYBLOCK
 62
    64
 10
-81.997912
 20
-70.111955
 11
-82.072738
 21
-70.260883
  0
LINE
  8
補助線
  6
BYBLOCK
 62
    64
 10
-91.87934
 20
-65.240475
 11
-92.028268
 21
-65.16565
  0
LINE
  8
補助線
  6
BYBLOCK
 62
    64
 10
-91.91639
 20
-65.128597
 11
-91.991215
 21
-65.277525
  0
LINE
  8
型材断面
  6
CONTINUOUS
 10
-71.44487
 20
-74.5748
 11
-71.222567
 21
-75.246053
  0
LINE
  8
型材断面
  6
CONTINUOUS
 10
-71.222567
 20
-75.246053
 11
-71.52187
 21
-75.841758
  0
LINE
  8
型材断面
  6
CONTINUOUS
 10
-71.52187
 20
-75.841758
 11
-72.193123
 21
-76.06406
  0
LINE
  8
型材断面
  6
CONTINUOUS
 10
-91.877527
 20
-64.308782
 11
-92.548783
 21
-64.531085
  0
LINE
  8
型材断面
  6
CONTINUOUS
 10
-92.548783
 20
-64.531085
 11
-92.848085
 21
-65.12679
  0
LINE
  8
型材断面
  6
CONTINUOUS
 10
-92.848085
 20
-65.12679
 11
-92.62578
 21
-65.798042
  0
LINE
  8
型材断面
  6
CONTINUOUS
 10
-71.44487
 20
-74.5748
 11
-91.877527
 21
-64.308782
  0
LINE
  8
型材断面
  6
CONTINUOUS
 10
-72.193123
 20
-76.06406
 11
-92.62578
 21
-65.798042
  0
CIRCLE
  8
ボルト／ビス
  6
CONTINUOUS
 10
-72.116848
 20
-75.169777
 40
0.250185
  0
CIRCLE
  8
ボルト／ビス
  6
CONTINUOUS
 10
-72.116848
 20
-75.169777
 40
0.301025
  0
LINE
  8
ボルト／ビス
  6
CONTINUOUS
 62
    64
 10
-71.867083
 20
-75.155275
 11
-72.004528
 21
-74.946225
  0
LINE
  8
ボルト／ビス
  6
CONTINUOUS
 62
    64
 10
-72.254292
 20
-74.960728
 11
-72.004528
 21
-74.946225
  0
LINE
  8
ボルト／ビス
  6
CONTINUOUS
 62
    64
 10
-71.979403
 20
-75.378827
 11
-72.229168
 21
-75.39333
  0
LINE
  8
ボルト／ビス
  6
CONTINUOUS
 62
    64
 10
-72.366612
 20
-75.18428
 11
-72.229168
 21
-75.39333
  0
LINE
  8
ボルト／ビス
  6
CONTINUOUS
 62
    64
 10
-71.867083
 20
-75.155275
 11
-71.979403
 21
-75.378827
  0
LINE
  8
ボルト／ビス
  6
CONTINUOUS
 62
    64
 10
-72.254292
 20
-74.960728
 11
-72.366612
 21
-75.18428
  0
CIRCLE
  8
ボルト／ビス
  6
CONTINUOUS
 62
    64
 10
-72.116848
 20
-75.169777
 40
0.216668
  0
CIRCLE
  8
ボルト／ビス
  6
CONTINUOUS
 10
-82.035325
 20
-70.18642
 40
0.250185
  0
CIRCLE
  8
ボルト／ビス
  6
CONTINUOUS
 10
-82.035325
 20
-70.18642
 40
0.301025
  0
LINE
  8
ボルト／ビス
  6
CONTINUOUS
 62
    64
 10
-81.78556
 20
-70.171915
 11
-81.923005
 21
-69.962865
  0
LINE
  8
ボルト／ビス
  6
CONTINUOUS
 62
    64
 10
-82.17277
 20
-69.977368
 11
-81.923005
 21
-69.962865
  0
LINE
  8
ボルト／ビス
  6
CONTINUOUS
 62
    64
 10
-81.89788
 20
-70.39547
 11
-82.147648
 21
-70.409975
  0
LINE
  8
ボルト／ビス
  6
CONTINUOUS
 62
    64
 10
-82.28509
 20
-70.200925
 11
-82.147648
 21
-70.409975
  0
LINE
  8
ボルト／ビス
  6
CONTINUOUS
 62
    64
 10
-81.78556
 20
-70.171915
 11
-81.89788
 21
-70.39547
  0
LINE
  8
ボルト／ビス
  6
CONTINUOUS
 62
    64
 10
-82.17277
 20
-69.977368
 11
-82.28509
 21
-70.200925
  0
CIRCLE
  8
ボルト／ビス
  6
CONTINUOUS
 62
    64
 10
-82.035325
 20
-70.18642
 40
0.216668
  0
CIRCLE
  8
ボルト／ビス
  6
CONTINUOUS
 10
-91.953802
 20
-65.203063
 40
0.250185
  0
CIRCLE
  8
ボルト／ビス
  6
CONTINUOUS
 10
-91.953802
 20
-65.203063
 40
0.301025
  0
LINE
  8
ボルト／ビス
  6
CONTINUOUS
 62
    64
 10
-92.091248
 20
-64.994013
 11
-91.841482
 21
-64.97951
  0
LINE
  8
ボルト／ビス
  6
CONTINUOUS
 62
    64
 10
-91.704037
 20
-65.18856
 11
-91.841482
 21
-64.97951
  0
LINE
  8
ボルト／ビス
  6
CONTINUOUS
 62
    64
 10
-92.203568
 20
-65.217568
 11
-92.066125
 21
-65.426615
  0
LINE
  8
ボルト／ビス
  6
CONTINUOUS
 62
    64
 10
-91.816357
 20
-65.412112
 11
-92.066125
 21
-65.426615
  0
LINE
  8
ボルト／ビス
  6
CONTINUOUS
 62
    64
 10
-92.091248
 20
-64.994013
 11
-92.203568
 21
-65.217568
  0
LINE
  8
ボルト／ビス
  6
CONTINUOUS
 62
    64
 10
-91.704037
 20
-65.18856
 11
-91.816357
 21
-65.412112
  0
CIRCLE
  8
ボルト／ビス
  6
CONTINUOUS
 62
    64
 10
-91.953802
 20
-65.203063
 40
0.216668
  0
ENDBLK
  0
BLOCK
  2
*GRP_0010
 70
    65
 10
0.0
 20
0.0
  0
LINE
  8
補助線
  6
BYBLOCK
 62
    64
 10
1.30507
 20
-75.132365
 11
1.453995
 21
-75.20719
  0
LINE
  8
補助線
  6
BYBLOCK
 62
    64
 10
1.416945
 20
-75.095313
 11
1.34212
 21
-75.24424
  0
LINE
  8
補助線
  6
BYBLOCK
 62
    64
 10
-8.61341
 20
-70.149007
 11
-8.464483
 21
-70.223833
  0
LINE
  8
補助線
  6
BYBLOCK
 62
    64
 10
-8.501533
 20
-70.111955
 11
-8.576357
 21
-70.260883
  0
LINE
  8
補助線
  6
BYBLOCK
 62
    64
 10
-18.38296
 20
-65.240475
 11
-18.531887
 21
-65.16565
  0
LINE
  8
補助線
  6
BYBLOCK
 62
    64
 10
-18.42001
 20
-65.128597
 11
-18.494835
 21
-65.277525
  0
LINE
  8
型材断面
  6
CONTINUOUS
 10
2.05151
 20
-74.5748
 11
2.273812
 21
-75.246053
  0
LINE
  8
型材断面
  6
CONTINUOUS
 10
2.273812
 20
-75.246053
 11
1.97451
 21
-75.841758
  0
LINE
  8
型材断面
  6
CONTINUOUS
 10
1.97451
 20
-75.841758
 11
1.303257
 21
-76.06406
  0
LINE
  8
型材断面
  6
CONTINUOUS
 10
-18.381148
 20
-64.308782
 11
-19.052402
 21
-64.531085
  0
LINE
  8
型材断面
  6
CONTINUOUS
 10
-19.052402
 20
-64.531085
 11
-19.351705
 21
-65.12679
  0
LINE
  8
型材断面
  6
CONTINUOUS
 10
-19.351705
 20
-65.12679
 11
-19.1294
 21
-65.798042
  0
LINE
  8
型材断面
  6
CONTINUOUS
 10
2.05151
 20
-74.5748
 11
-18.381148
 21
-64.308782
  0
LINE
  8
型材断面
  6
CONTINUOUS
 10
1.303257
 20
-76.06406
 11
-19.1294
 21
-65.798042
  0
CIRCLE
  8
ボルト／ビス
  6
CONTINUOUS
 10
1.379532
 20
-75.169777
 40
0.250185
  0
CIRCLE
  8
ボルト／ビス
  6
CONTINUOUS
 10
1.379532
 20
-75.169777
 40
0.301025
  0
LINE
  8
ボルト／ビス
  6
CONTINUOUS
 62
    64
 10
1.629298
 20
-75.155275
 11
1.491852
 21
-74.946225
  0
LINE
  8
ボルト／ビス
  6
CONTINUOUS
 62
    64
 10
1.242087
 20
-74.960728
 11
1.491852
 21
-74.946225
  0
LINE
  8
ボルト／ビス
  6
CONTINUOUS
 62
    64
 10
1.516978
 20
-75.378827
 11
1.267212
 21
-75.39333
  0
LINE
  8
ボルト／ビス
  6
CONTINUOUS
 62
    64
 10
1.129767
 20
-75.18428
 11
1.267212
 21
-75.39333
  0
LINE
  8
ボルト／ビス
  6
CONTINUOUS
 62
    64
 10
1.629298
 20
-75.155275
 11
1.516978
 21
-75.378827
  0
LINE
  8
ボルト／ビス
  6
CONTINUOUS
 62
    64
 10
1.242087
 20
-74.960728
 11
1.129767
 21
-75.18428
  0
CIRCLE
  8
ボルト／ビス
  6
CONTINUOUS
 62
    64
 10
1.379532
 20
-75.169777
 40
0.216668
  0
CIRCLE
  8
ボルト／ビス
  6
CONTINUOUS
 10
-8.538945
 20
-70.18642
 40
0.250185
  0
CIRCLE
  8
ボルト／ビス
  6
CONTINUOUS
 10
-8.538945
 20
-70.18642
 40
0.301025
  0
LINE
  8
ボルト／ビス
  6
CONTINUOUS
 62
    64
 10
-8.28918
 20
-70.171915
 11
-8.426625
 21
-69.962865
  0
LINE
  8
ボルト／ビス
  6
CONTINUOUS
 62
    64
 10
-8.67639
 20
-69.977368
 11
-8.426625
 21
-69.962865
  0
LINE
  8
ボルト／ビス
  6
CONTINUOUS
 62
    64
 10
-8.4015
 20
-70.39547
 11
-8.651267
 21
-70.409975
  0
LINE
  8
ボルト／ビス
  6
CONTINUOUS
 62
    64
 10
-8.78871
 20
-70.200925
 11
-8.651267
 21
-70.409975
  0
LINE
  8
ボルト／ビス
  6
CONTINUOUS
 62
    64
 10
-8.28918
 20
-70.171915
 11
-8.4015
 21
-70.39547
  0
LINE
  8
ボルト／ビス
  6
CONTINUOUS
 62
    64
 10
-8.67639
 20
-69.977368
 11
-8.78871
 21
-70.200925
  0
CIRCLE
  8
ボルト／ビス
  6
CONTINUOUS
 62
    64
 10
-8.538945
 20
-70.18642
 40
0.216668
  0
CIRCLE
  8
ボルト／ビス
  6
CONTINUOUS
 10
-18.457423
 20
-65.203063
 40
0.250185
  0
CIRCLE
  8
ボルト／ビス
  6
CONTINUOUS
 10
-18.457423
 20
-65.203063
 40
0.301025
  0
LINE
  8
ボルト／ビス
  6
CONTINUOUS
 62
    64
 10
-18.594867
 20
-64.994013
 11
-18.345103
 21
-64.97951
  0
LINE
  8
ボルト／ビス
  6
CONTINUOUS
 62
    64
 10
-18.207658
 20
-65.18856
 11
-18.345103
 21
-64.97951
  0
LINE
  8
ボルト／ビス
  6
CONTINUOUS
 62
    64
 10
-18.707187
 20
-65.217568
 11
-18.569745
 21
-65.426615
  0
LINE
  8
ボルト／ビス
  6
CONTINUOUS
 62
    64
 10
-18.319978
 20
-65.412112
 11
-18.569745
 21
-65.426615
  0
LINE
  8
ボルト／ビス
  6
CONTINUOUS
 62
    64
 10
-18.594867
 20
-64.994013
 11
-18.707187
 21
-65.217568
  0
LINE
  8
ボルト／ビス
  6
CONTINUOUS
 62
    64
 10
-18.207658
 20
-65.18856
 11
-18.319978
 21
-65.412112
  0
CIRCLE
  8
ボルト／ビス
  6
CONTINUOUS
 62
    64
 10
-18.457423
 20
-65.203063
 40
0.216668
  0
ENDBLK
  0
BLOCK
  2
*GRP_0011
 70
    65
 10
0.0
 20
0.0
  0
LINE
  8
補助線
  6
BYBLOCK
 62
    64
 10
-18.38296
 20
-75.132365
 11
-18.531885
 21
-75.20719
  0
LINE
  8
補助線
  6
BYBLOCK
 62
    64
 10
-18.494835
 20
-75.095313
 11
-18.42001
 21
-75.24424
  0
LINE
  8
補助線
  6
BYBLOCK
 62
    64
 10
-8.46448
 20
-70.149007
 11
-8.613407
 21
-70.223833
  0
LINE
  8
補助線
  6
BYBLOCK
 62
    64
 10
-8.576357
 20
-70.111955
 11
-8.501533
 21
-70.260883
  0
LINE
  8
補助線
  6
BYBLOCK
 62
    64
 10
1.30507
 20
-65.240475
 11
1.453997
 21
-65.16565
  0
LINE
  8
補助線
  6
BYBLOCK
 62
    64
 10
1.34212
 20
-65.128597
 11
1.416945
 21
-65.277525
  0
LINE
  8
型材断面
  6
CONTINUOUS
 10
-19.1294
 20
-74.5748
 11
-19.351703
 21
-75.246053
  0
LINE
  8
型材断面
  6
CONTINUOUS
 10
-19.351703
 20
-75.246053
 11
-19.0524
 21
-75.841758
  0
LINE
  8
型材断面
  6
CONTINUOUS
 10
-19.0524
 20
-75.841758
 11
-18.381148
 21
-76.06406
  0
LINE
  8
型材断面
  6
CONTINUOUS
 10
1.303257
 20
-64.308782
 11
1.974512
 21
-64.531085
  0
LINE
  8
型材断面
  6
CONTINUOUS
 10
1.974512
 20
-64.531085
 11
2.273815
 21
-65.12679
  0
LINE
  8
型材断面
  6
CONTINUOUS
 10
2.273815
 20
-65.12679
 11
2.05151
 21
-65.798042
  0
LINE
  8
型材断面
  6
CONTINUOUS
 10
-19.1294
 20
-74.5748
 11
1.303257
 21
-64.308782
  0
LINE
  8
型材断面
  6
CONTINUOUS
 10
-18.381148
 20
-76.06406
 11
2.05151
 21
-65.798042
  0
CIRCLE
  8
ボルト／ビス
  6
CONTINUOUS
 10
-18.457423
 20
-75.169777
 40
0.250185
  0
CIRCLE
  8
ボルト／ビス
  6
CONTINUOUS
 10
-18.457423
 20
-75.169777
 40
0.301025
  0
LINE
  8
ボルト／ビス
  6
CONTINUOUS
 62
    64
 10
-18.707187
 20
-75.155275
 11
-18.569743
 21
-74.946225
  0
LINE
  8
ボルト／ビス
  6
CONTINUOUS
 62
    64
 10
-18.319978
 20
-74.960728
 11
-18.569743
 21
-74.946225
  0
LINE
  8
ボルト／ビス
  6
CONTINUOUS
 62
    64
 10
-18.594867
 20
-75.378827
 11
-18.345103
 21
-75.39333
  0
LINE
  8
ボルト／ビス
  6
CONTINUOUS
 62
    64
 10
-18.207658
 20
-75.18428
 11
-18.345103
 21
-75.39333
  0
LINE
  8
ボルト／ビス
  6
CONTINUOUS
 62
    64
 10
-18.707187
 20
-75.155275
 11
-18.594867
 21
-75.378827
  0
LINE
  8
ボルト／ビス
  6
CONTINUOUS
 62
    64
 10
-18.319978
 20
-74.960728
 11
-18.207658
 21
-75.18428
  0
CIRCLE
  8
ボルト／ビス
  6
CONTINUOUS
 62
    64
 10
-18.457423
 20
-75.169777
 40
0.216668
  0
CIRCLE
  8
ボルト／ビス
  6
CONTINUOUS
 10
-8.538945
 20
-70.18642
 40
0.250185
  0
CIRCLE
  8
ボルト／ビス
  6
CONTINUOUS
 10
-8.538945
 20
-70.18642
 40
0.301025
  0
LINE
  8
ボルト／ビス
  6
CONTINUOUS
 62
    64
 10
-8.78871
 20
-70.171915
 11
-8.651265
 21
-69.962865
  0
LINE
  8
ボルト／ビス
  6
CONTINUOUS
 62
    64
 10
-8.4015
 20
-69.977368
 11
-8.651265
 21
-69.962865
  0
LINE
  8
ボルト／ビス
  6
CONTINUOUS
 62
    64
 10
-8.67639
 20
-70.39547
 11
-8.426623
 21
-70.409975
  0
LINE
  8
ボルト／ビス
  6
CONTINUOUS
 62
    64
 10
-8.28918
 20
-70.200925
 11
-8.426623
 21
-70.409975
  0
LINE
  8
ボルト／ビス
  6
CONTINUOUS
 62
    64
 10
-8.78871
 20
-70.171915
 11
-8.67639
 21
-70.39547
  0
LINE
  8
ボルト／ビス
  6
CONTINUOUS
 62
    64
 10
-8.4015
 20
-69.977368
 11
-8.28918
 21
-70.200925
  0
CIRCLE
  8
ボルト／ビス
  6
CONTINUOUS
 62
    64
 10
-8.538945
 20
-70.18642
 40
0.216668
  0
CIRCLE
  8
ボルト／ビス
  6
CONTINUOUS
 10
1.379532
 20
-65.203063
 40
0.250185
  0
CIRCLE
  8
ボルト／ビス
  6
CONTINUOUS
 10
1.379532
 20
-65.203063
 40
0.301025
  0
LINE
  8
ボルト／ビス
  6
CONTINUOUS
 62
    64
 10
1.516978
 20
-64.994013
 11
1.267212
 21
-64.97951
  0
LINE
  8
ボルト／ビス
  6
CONTINUOUS
 62
    64
 10
1.129767
 20
-65.18856
 11
1.267212
 21
-64.97951
  0
LINE
  8
ボルト／ビス
  6
CONTINUOUS
 62
    64
 10
1.629298
 20
-65.217568
 11
1.491855
 21
-65.426615
  0
LINE
  8
ボルト／ビス
  6
CONTINUOUS
 62
    64
 10
1.242087
 20
-65.412112
 11
1.491855
 21
-65.426615
  0
LINE
  8
ボルト／ビス
  6
CONTINUOUS
 62
    64
 10
1.516978
 20
-64.994013
 11
1.629298
 21
-65.217568
  0
LINE
  8
ボルト／ビス
  6
CONTINUOUS
 62
    64
 10
1.129767
 20
-65.18856
 11
1.242087
 21
-65.412112
  0
CIRCLE
  8
ボルト／ビス
  6
CONTINUOUS
 62
    64
 10
1.379532
 20
-65.203063
 40
0.216668
  0
ENDBLK
  0
BLOCK
  2
*DIM_0012
 70
    65
 10
0.0
 20
0.0
  0
LINE
  8
寸法
  6
BYBLOCK
 62
     0
 10
-98.287135
 20
39.4807
 11
-111.579972
 21
39.4807
  0
LINE
  8
寸法
  6
BYBLOCK
 62
     0
 10
-98.287135
 20
26.147365
 11
-111.579972
 21
26.147365
  0
LINE
  8
寸法
  6
BYBLOCK
 62
     0
 10
-111.579972
 20
39.4807
 11
-111.579972
 21
26.147365
  0
POINT
  8
寸法
 62
     0
 10
-111.579972
 20
39.4807
  0
POINT
  8
寸法
 62
     0
 10
-111.579972
 20
26.147365
  0
TEXT
  7
TextStyle03
  8
寸法
  6
CONTINUOUS
 62
     0
 10
-111.975
 20
30.3625
  1
400
 40
3.0
 50
90.0
 72
     5
 11
-111.975
 21
35.2375
  0
ENDBLK
  0
BLOCK
  2
*DIM_0013
 70
    65
 10
0.0
 20
0.0
  0
LINE
  8
寸法
  6
BYBLOCK
 62
     0
 10
-85.287135
 20
45.814033
 11
-85.287135
 21
74.922105
  0
LINE
  8
寸法
  6
BYBLOCK
 62
     0
 10
-58.620467
 20
45.814033
 11
-58.620467
 21
74.922105
  0
LINE
  8
寸法
  6
BYBLOCK
 62
     0
 10
-85.287135
 20
74.922105
 11
-58.620467
 21
74.922105
  0
POINT
  8
寸法
 62
     0
 10
-85.287135
 20
74.922105
  0
POINT
  8
寸法
 62
     0
 10
-58.620467
 20
74.922105
  0
TEXT
  7
TextStyle03
  8
寸法
  6
CONTINUOUS
 62
     0
 10
-74.3875
 20
75.3
  1
800
 40
3.0
 72
     5
 11
-69.5125
 21
75.3
  0
ENDBLK
  0
BLOCK
  2
*DIM_0014
 70
    65
 10
0.0
 20
0.0
  0
LINE
  8
寸法
  6
BYBLOCK
 62
     0
 10
-31.953802
 20
45.814033
 11
-31.953802
 21
74.922105
  0
LINE
  8
寸法
  6
BYBLOCK
 62
     0
 10
-58.620467
 20
74.922105
 11
-31.953802
 21
74.922105
  0
POINT
  8
寸法
 62
     0
 10
-31.953802
 20
74.922105
  0
TEXT
  7
TextStyle03
  8
寸法
  6
CONTINUOUS
 62
     0
 10
-47.7125
 20
75.3
  1
800
 40
3.0
 72
     5
 11
-42.8375
 21
75.3
  0
ENDBLK
  0
BLOCK
  2
*DIM_0015
 70
    65
 10
0.0
 20
0.0
  0
LINE
  8
寸法
  6
BYBLOCK
 62
     0
 10
-5.287135
 20
45.814033
 11
-5.287135
 21
74.922105
  0
LINE
  8
寸法
  6
BYBLOCK
 62
     0
 10
-31.953802
 20
74.922105
 11
-5.287135
 21
74.922105
  0
POINT
  8
寸法
 62
     0
 10
-5.287135
 20
74.922105
  0
TEXT
  7
TextStyle03
  8
寸法
  6
CONTINUOUS
 62
     0
 10
-21.0375
 20
75.3
  1
800
 40
3.0
 72
     5
 11
-16.1625
 21
75.3
  0
ENDBLK
  0
BLOCK
  2
*DIM_0016
 70
    65
 10
0.0
 20
0.0
  0
LINE
  8
寸法
  6
CONTINUOUS
 10
-95.287135
 20
-1.945252
 11
4.712865
 21
-1.945252
  0
POINT
  8
寸法
 10
-95.287135
 20
-1.945252
  0
POINT
  8
寸法
 10
4.712865
 20
-1.945252
  0
TEXT
  7
TextStyle03
  8
寸法
  6
CONTINUOUS
 10
-49.675
 20
-1.575
  1
3000
 40
4.0
 72
     5
 11
-40.925
 21
-1.575
  0
ENDBLK
  0
BLOCK
  2
*DIM_0017
 70
    65
 10
0.0
 20
0.0
  0
LINE
  8
寸法
  6
BYBLOCK
 62
     0
 10
46.876013
 20
22.814033
 11
46.876013
 21
42.814033
  0
POINT
  8
寸法
 62
     0
 10
46.876013
 20
22.814033
  0
POINT
  8
寸法
 62
     0
 10
46.876013
 20
42.814033
  0
TEXT
  7
TextStyle03
  8
寸法
  6
CONTINUOUS
 62
     0
 10
46.5
 20
21.925
  1
呼称寸法　600
 40
3.0
 50
90.0
 72
     5
 11
46.5
 21
43.675
  0
ENDBLK
  0
BLOCK
  2
*DIM_0018
 70
    65
 10
0.0
 20
0.0
  0
LINE
  8
寸法
  6
BYBLOCK
 62
     0
 10
97.056295
 20
33.814033
 11
97.056295
 21
60.666798
  0
LINE
  8
寸法
  6
BYBLOCK
 62
     0
 10
102.389627
 20
60.666798
 11
97.056295
 21
60.666798
  0
POINT
  8
寸法
 62
     0
 10
102.389627
 20
60.666798
  0
POINT
  8
寸法
 62
     0
 10
97.056295
 20
60.666798
  0
TEXT
  7
TextStyle03
  8
寸法
  6
CONTINUOUS
 62
     0
 10
97.2875
 20
61.025
  1
160
 40
3.0
 72
     5
 11
102.1625
 21
61.025
  0
ENDBLK
  0
BLOCK
  2
*DIM_0019
 70
    65
 10
0.0
 20
0.0
  0
LINE
  8
寸法
  6
CONTINUOUS
 10
46.876013
 20
22.814033
 11
46.876013
 21
20.0507
  0
POINT
  8
寸法
 10
46.876013
 20
22.814033
  0
POINT
  8
寸法
 10
46.876013
 20
20.0507
  0
TEXT
  7
TextStyle03
  8
寸法
  6
CONTINUOUS
 10
46.0
 20
12.89375
  1
82.9
 40
3.0
 50
90.0
 72
     5
 11
46.0
 21
19.45625
  0
ENDBLK
  0
BLOCK
  2
*DIM_0020
 70
    65
 10
0.0
 20
0.0
  0
LINE
  8
寸法
  6
CONTINUOUS
 10
46.876013
 20
42.814033
 11
46.876013
 21
45.577365
  0
POINT
  8
寸法
 10
46.876013
 20
42.814033
  0
POINT
  8
寸法
 10
46.876013
 20
45.577365
  0
TEXT
  7
TextStyle03
  8
寸法
  6
CONTINUOUS
 10
45.75
 20
45.46875
  1
82.9
 40
3.0
 50
90.0
 72
     5
 11
45.75
 21
52.03125
  0
ENDBLK
  0
BLOCK
  2
*DIM_0021
 70
    65
 10
0.0
 20
0.0
  0
LINE
  8
寸法
  6
CONTINUOUS
 10
-95.287135
 20
-13.121378
 11
-98.050465
 21
-13.121378
  0
POINT
  8
寸法
 10
-95.287135
 20
-13.121378
  0
POINT
  8
寸法
 10
-98.050465
 20
-13.121378
  0
TEXT
  7
TextStyle03
  8
寸法
  6
CONTINUOUS
 10
-102.25625
 20
-12.2
  1
82.9
 40
3.0
 72
     5
 11
-95.69375
 21
-12.2
  0
ENDBLK
  0
BLOCK
  2
*DIM_0022
 70
    65
 10
0.0
 20
0.0
  0
LINE
  8
寸法
  6
CONTINUOUS
 10
4.712865
 20
-13.121378
 11
7.476195
 21
-13.121378
  0
POINT
  8
寸法
 10
4.712865
 20
-13.121378
  0
POINT
  8
寸法
 10
7.476195
 20
-13.121378
  0
TEXT
  7
TextStyle03
  8
寸法
  6
CONTINUOUS
 10
5.24375
 20
-12.275
  1
82.9
 40
3.0
 72
     5
 11
11.80625
 21
-12.275
  0
ENDBLK
  0
BLOCK
  2
*DIM_0025
 70
    65
 10
0.0
 20
0.0
  0
LINE
  8
寸法
  6
CONTINUOUS
 10
70.3651
 20
-53.72607
 11
70.3651
 21
-49.003587
  0
LINE
  8
寸法
  6
CONTINUOUS
 10
102.9651
 20
-53.72607
 11
102.9651
 21
-49.003587
  0
LINE
  8
寸法
  6
CONTINUOUS
 10
70.3651
 20
-49.003587
 11
102.9651
 21
-49.003587
  0
POINT
  8
寸法
 10
70.3651
 20
-49.003587
  0
POINT
  8
寸法
 10
102.9651
 20
-49.003587
  0
TEXT
  7
TextStyle03
  8
寸法
  6
CONTINUOUS
 10
84.2125
 20
-48.625
  1
978
 40
3.0
 72
     5
 11
89.0875
 21
-48.625
  0
ENDBLK
  0
BLOCK
  2
*DIM_0026
 70
    65
 10
0.0
 20
0.0
  0
LINE
  8
寸法
  6
CONTINUOUS
 10
107.9651
 20
-58.72607
 11
114.758273
 21
-58.72607
  0
LINE
  8
寸法
  6
CONTINUOUS
 10
107.9651
 20
-78.72607
 11
114.758273
 21
-78.72607
  0
LINE
  8
寸法
  6
CONTINUOUS
 10
114.758273
 20
-58.72607
 11
114.758273
 21
-78.72607
  0
POINT
  8
寸法
 10
114.758273
 20
-58.72607
  0
POINT
  8
寸法
 10
114.758273
 20
-78.72607
  0
TEXT
  7
TextStyle03
  8
寸法
  6
CONTINUOUS
 10
114.375
 20
-71.1625
  1
600
 40
3.0
 50
90.0
 72
     5
 11
114.375
 21
-66.2875
  0
ENDBLK
  0
BLOCK
  2
*GRP_0027
 70
    65
 10
0.0
 20
0.0
  0
LINE
  8
ボルト／ビス
  6
CONTINUOUS
 10
102.389627
 20
43.4807
 11
101.922963
 21
43.4807
  0
LINE
  8
ボルト／ビス
  6
CONTINUOUS
 10
102.389627
 20
43.114035
 11
102.322962
 21
43.114035
  0
LINE
  8
ボルト／ビス
  6
CONTINUOUS
 10
102.322962
 20
43.114035
 11
102.322962
 21
43.847367
  0
LINE
  8
ボルト／ビス
  6
CONTINUOUS
 10
102.322962
 20
43.847367
 11
102.389627
 21
43.847367
  0
LINE
  8
ボルト／ビス
  6
CONTINUOUS
 10
102.389627
 20
43.114035
 11
102.389627
 21
43.847367
  0
LINE
  8
ボルト／ビス
  6
CONTINUOUS
 10
102.289627
 20
43.1807
 11
102.322962
 21
43.1807
  0
LINE
  8
ボルト／ビス
  6
CONTINUOUS
 10
102.289627
 20
43.1807
 11
102.289627
 21
43.7807
  0
LINE
  8
ボルト／ビス
  6
CONTINUOUS
 10
102.289627
 20
43.7807
 11
102.322962
 21
43.7807
  0
LINE
  8
ボルト／ビス
  6
CONTINUOUS
 62
    64
 10
102.089627
 20
43.320325
 11
102.101303
 21
43.28825
  0
ARC
  8
ボルト／ビス
  6
CONTINUOUS
 62
    64
 10
102.194606
 20
43.336365
 40
0.104978
 50
152.721967
 51
180.0
  0
ARC
  8
ボルト／ビス
  6
CONTINUOUS
 62
    64
 10
102.492029
 20
43.480703
 40
0.402402
 50
166.165002
 51
193.834985
  0
LINE
  8
ボルト／ビス
  6
CONTINUOUS
 62
    64
 10
102.089627
 20
43.641075
 11
102.101303
 21
43.67315
  0
ARC
  8
ボルト／ビス
  6
CONTINUOUS
 62
    64
 10
102.194606
 20
43.62504
 40
0.104978
 50
180.0
 51
207.278033
  0
LINE
  8
ボルト／ビス
  6
CONTINUOUS
 62
    64
 10
102.089627
 20
43.320325
 11
102.089627
 21
43.641075
  0
LINE
  8
ボルト／ビス
  6
CONTINUOUS
 62
    64
 10
102.101303
 20
43.67315
 11
102.222962
 21
43.67315
  0
LINE
  8
ボルト／ビス
  6
CONTINUOUS
 62
    64
 10
102.101303
 20
43.576925
 11
102.222962
 21
43.576925
  0
LINE
  8
ボルト／ビス
  6
CONTINUOUS
 62
    64
 10
102.101303
 20
43.28825
 11
102.222962
 21
43.28825
  0
LINE
  8
ボルト／ビス
  6
CONTINUOUS
 62
    64
 10
102.101303
 20
43.384475
 11
102.222962
 21
43.384475
  0
LINE
  8
ボルト／ビス
  6
CONTINUOUS
 10
102.222962
 20
43.28825
 11
102.222962
 21
43.67315
  0
LINE
  8
ボルト／ビス
  6
CONTINUOUS
 10
102.222962
 20
43.2807
 11
102.289627
 21
43.2807
  0
LINE
  8
ボルト／ビス
  6
CONTINUOUS
 10
102.222962
 20
43.2807
 11
102.222962
 21
43.6807
  0
LINE
  8
ボルト／ビス
  6
CONTINUOUS
 10
102.222962
 20
43.6807
 11
102.289627
 21
43.6807
  0
ENDBLK
  0
BLOCK
  2
*GRP_0028
 70
    65
 10
0.0
 20
0.0
  0
LINE
  8
ボルト／ビス
  6
CONTINUOUS
 10
102.389627
 20
22.147365
 11
101.922963
 21
22.147365
  0
LINE
  8
ボルト／ビス
  6
CONTINUOUS
 10
102.389627
 20
22.51403
 11
102.322962
 21
22.51403
  0
LINE
  8
ボルト／ビス
  6
CONTINUOUS
 10
102.322962
 20
22.51403
 11
102.322962
 21
21.780697
  0
LINE
  8
ボルト／ビス
  6
CONTINUOUS
 10
102.322962
 20
21.780697
 11
102.389627
 21
21.780697
  0
LINE
  8
ボルト／ビス
  6
CONTINUOUS
 10
102.389627
 20
22.51403
 11
102.389627
 21
21.780697
  0
LINE
  8
ボルト／ビス
  6
CONTINUOUS
 10
102.289627
 20
22.447365
 11
102.322962
 21
22.447365
  0
LINE
  8
ボルト／ビス
  6
CONTINUOUS
 10
102.289627
 20
22.447365
 11
102.289627
 21
21.847365
  0
LINE
  8
ボルト／ビス
  6
CONTINUOUS
 10
102.289627
 20
21.847365
 11
102.322962
 21
21.847365
  0
LINE
  8
ボルト／ビス
  6
CONTINUOUS
 62
    64
 10
102.089627
 20
22.30774
 11
102.101303
 21
22.339815
  0
ARC
  8
ボルト／ビス
  6
CONTINUOUS
 62
    64
 10
102.194606
 20
22.2917
 40
0.104978
 50
180.0
 51
207.278033
  0
ARC
  8
ボルト／ビス
  6
CONTINUOUS
 62
    64
 10
102.492029
 20
22.147362
 40
0.402402
 50
166.165015
 51
193.834998
  0
LINE
  8
ボルト／ビス
  6
CONTINUOUS
 62
    64
 10
102.089627
 20
21.98699
 11
102.101303
 21
21.954915
  0
ARC
  8
ボルト／ビス
  6
CONTINUOUS
 62
    64
 10
102.194606
 20
22.003025
 40
0.104978
 50
152.721967
 51
180.0
  0
LINE
  8
ボルト／ビス
  6
CONTINUOUS
 62
    64
 10
102.089627
 20
22.30774
 11
102.089627
 21
21.98699
  0
LINE
  8
ボルト／ビス
  6
CONTINUOUS
 62
    64
 10
102.101303
 20
21.954915
 11
102.222962
 21
21.954915
  0
LINE
  8
ボルト／ビス
  6
CONTINUOUS
 62
    64
 10
102.101303
 20
22.05114
 11
102.222962
 21
22.05114
  0
LINE
  8
ボルト／ビス
  6
CONTINUOUS
 62
    64
 10
102.101303
 20
22.339815
 11
102.222962
 21
22.339815
  0
LINE
  8
ボルト／ビス
  6
CONTINUOUS
 62
    64
 10
102.101303
 20
22.24359
 11
102.222962
 21
22.24359
  0
LINE
  8
ボルト／ビス
  6
CONTINUOUS
 10
102.222962
 20
22.339815
 11
102.222962
 21
21.954915
  0
LINE
  8
ボルト／ビス
  6
CONTINUOUS
 10
102.222962
 20
22.347365
 11
102.289627
 21
22.347365
  0
LINE
  8
ボルト／ビス
  6
CONTINUOUS
 10
102.222962
 20
22.347365
 11
102.222962
 21
21.947365
  0
LINE
  8
ボルト／ビス
  6
CONTINUOUS
 10
102.222962
 20
21.947365
 11
102.289627
 21
21.947365
  0
ENDBLK
  0
BLOCK
  2
*GRP_0029
 70
    65
 10
0.0
 20
0.0
  0
LINE
  8
型材断面
  6
DOT
 10
96.106417
 20
32.814033
 11
96.106417
 21
21.453885
  0
LINE
  8
型材断面
  6
DOT
 10
97.256417
 20
32.814033
 11
97.256417
 21
20.0507
  0
LINE
  8
型材断面
  6
DOT
 10
98.423085
 20
32.814033
 11
98.423085
 21
20.0507
  0
LINE
  8
型材断面
  6
DOT
 10
96.106417
 20
32.814033
 11
96.106417
 21
44.17418
  0
LINE
  8
型材断面
  6
DOT
 10
97.256417
 20
32.814033
 11
97.256417
 21
45.577365
  0
LINE
  8
型材断面
  6
DOT
 10
98.423085
 20
32.814033
 11
98.423085
 21
45.577365
  0
LINE
  8
別途部材
  6
DOT
 62
    96
 10
95.056295
 20
21.147365
 11
96.056295
 21
20.747365
  0
LINE
  8
別途部材
  6
DOT
 62
    96
 10
95.056295
 20
21.147365
 11
95.056295
 21
32.814033
  0
LINE
  8
別途部材
  6
DOT
 10
96.056295
 20
20.747365
 11
96.056295
 21
32.814033
  0
LINE
  8
別途部材
  6
DOT
 62
    96
 10
95.056295
 20
44.4807
 11
96.056295
 21
44.8807
  0
LINE
  8
別途部材
  6
DOT
 62
    96
 10
95.056295
 20
44.4807
 11
95.056295
 21
32.814033
  0
LINE
  8
別途部材
  6
DOT
 10
96.056295
 20
44.8807
 11
96.056295
 21
32.814033
  0
ARC
  8
別途部材
  6
DOT
 10
101.764631
 20
32.814033
 40
12.041667
 50
123.855033
 51
236.144967
  0
LINE
  8
鉄骨等
  6
DOT
 62
    47
 10
98.423085
 20
20.0507
 11
97.256417
 21
20.0507
  0
LINE
  8
鉄骨等
  6
DOT
 62
    47
 10
97.256417
 20
20.0507
 11
96.106417
 21
21.453885
  0
LINE
  8
鉄骨等
  6
DOT
 62
    47
 10
96.106417
 20
21.453885
 11
96.056298
 21
21.453885
  0
LINE
  8
鉄骨等
  6
DOT
 62
    47
 10
98.423085
 20
45.577365
 11
97.256417
 21
45.577365
  0
LINE
  8
鉄骨等
  6
DOT
 62
    47
 10
97.256417
 20
45.577365
 11
96.106417
 21
44.17418
  0
LINE
  8
鉄骨等
  6
DOT
 62
    47
 10
96.106417
 20
44.17418
 11
96.056298
 21
44.17418
  0
ENDBLK
  0
BLOCK
  2
*GRP_0030
 70
    65
 10
0.0
 20
0.0
  0
LINE
  8
ボルト／ビス
  6
DOT
 10
95.056295
 20
43.4807
 11
94.58963
 21
43.4807
  0
LINE
  8
ボルト／ビス
  6
DOT
 10
95.056295
 20
43.114035
 11
94.98963
 21
43.114035
  0
LINE
  8
ボルト／ビス
  6
DOT
 10
94.98963
 20
43.114035
 11
94.98963
 21
43.847367
  0
LINE
  8
ボルト／ビス
  6
DOT
 10
94.98963
 20
43.847367
 11
95.056295
 21
43.847367
  0
LINE
  8
ボルト／ビス
  6
DOT
 10
95.056295
 20
43.114035
 11
95.056295
 21
43.847367
  0
LINE
  8
ボルト／ビス
  6
DOT
 10
94.956295
 20
43.1807
 11
94.98963
 21
43.1807
  0
LINE
  8
ボルト／ビス
  6
DOT
 10
94.956295
 20
43.1807
 11
94.956295
 21
43.7807
  0
LINE
  8
ボルト／ビス
  6
DOT
 10
94.956295
 20
43.7807
 11
94.98963
 21
43.7807
  0
LINE
  8
ボルト／ビス
  6
DOT
 62
    64
 10
94.756295
 20
43.320325
 11
94.76797
 21
43.28825
  0
ARC
  8
ボルト／ビス
  6
DOT
 62
    64
 10
94.861273
 20
43.336365
 40
0.104978
 50
152.721967
 51
180.0
  0
ARC
  8
ボルト／ビス
  6
DOT
 62
    64
 10
95.158697
 20
43.480703
 40
0.402402
 50
166.165002
 51
193.834985
  0
LINE
  8
ボルト／ビス
  6
DOT
 62
    64
 10
94.756295
 20
43.641075
 11
94.76797
 21
43.67315
  0
ARC
  8
ボルト／ビス
  6
DOT
 62
    64
 10
94.861273
 20
43.62504
 40
0.104978
 50
180.0
 51
207.278033
  0
LINE
  8
ボルト／ビス
  6
DOT
 62
    64
 10
94.756295
 20
43.320325
 11
94.756295
 21
43.641075
  0
LINE
  8
ボルト／ビス
  6
DOT
 62
    64
 10
94.76797
 20
43.67315
 11
94.88963
 21
43.67315
  0
LINE
  8
ボルト／ビス
  6
DOT
 62
    64
 10
94.76797
 20
43.576925
 11
94.88963
 21
43.576925
  0
LINE
  8
ボルト／ビス
  6
DOT
 62
    64
 10
94.76797
 20
43.28825
 11
94.88963
 21
43.28825
  0
LINE
  8
ボルト／ビス
  6
DOT
 62
    64
 10
94.76797
 20
43.384475
 11
94.88963
 21
43.384475
  0
LINE
  8
ボルト／ビス
  6
DOT
 10
94.88963
 20
43.28825
 11
94.88963
 21
43.67315
  0
LINE
  8
ボルト／ビス
  6
DOT
 10
94.88963
 20
43.2807
 11
94.956295
 21
43.2807
  0
LINE
  8
ボルト／ビス
  6
DOT
 10
94.88963
 20
43.2807
 11
94.88963
 21
43.6807
  0
LINE
  8
ボルト／ビス
  6
DOT
 10
94.88963
 20
43.6807
 11
94.956295
 21
43.6807
  0
ENDBLK
  0
BLOCK
  2
*GRP_0031
 70
    65
 10
0.0
 20
0.0
  0
LINE
  8
ボルト／ビス
  6
DOT
 10
95.056295
 20
22.147365
 11
94.58963
 21
22.147365
  0
LINE
  8
ボルト／ビス
  6
DOT
 10
95.056295
 20
22.51403
 11
94.98963
 21
22.51403
  0
LINE
  8
ボルト／ビス
  6
DOT
 10
94.98963
 20
22.51403
 11
94.98963
 21
21.780697
  0
LINE
  8
ボルト／ビス
  6
DOT
 10
94.98963
 20
21.780697
 11
95.056295
 21
21.780697
  0
LINE
  8
ボルト／ビス
  6
DOT
 10
95.056295
 20
22.51403
 11
95.056295
 21
21.780697
  0
LINE
  8
ボルト／ビス
  6
DOT
 10
94.956295
 20
22.447365
 11
94.98963
 21
22.447365
  0
LINE
  8
ボルト／ビス
  6
DOT
 10
94.956295
 20
22.447365
 11
94.956295
 21
21.847365
  0
LINE
  8
ボルト／ビス
  6
DOT
 10
94.956295
 20
21.847365
 11
94.98963
 21
21.847365
  0
LINE
  8
ボルト／ビス
  6
DOT
 62
    64
 10
94.756295
 20
22.30774
 11
94.76797
 21
22.339815
  0
ARC
  8
ボルト／ビス
  6
DOT
 62
    64
 10
94.861273
 20
22.2917
 40
0.104978
 50
180.0
 51
207.278033
  0
ARC
  8
ボルト／ビス
  6
DOT
 62
    64
 10
95.158697
 20
22.147362
 40
0.402402
 50
166.165015
 51
193.834998
  0
LINE
  8
ボルト／ビス
  6
DOT
 62
    64
 10
94.756295
 20
21.98699
 11
94.76797
 21
21.954915
  0
ARC
  8
ボルト／ビス
  6
DOT
 62
    64
 10
94.861273
 20
22.003025
 40
0.104978
 50
152.721967
 51
180.0
  0
LINE
  8
ボルト／ビス
  6
DOT
 62
    64
 10
94.756295
 20
22.30774
 11
94.756295
 21
21.98699
  0
LINE
  8
ボルト／ビス
  6
DOT
 62
    64
 10
94.76797
 20
21.954915
 11
94.88963
 21
21.954915
  0
LINE
  8
ボルト／ビス
  6
DOT
 62
    64
 10
94.76797
 20
22.05114
 11
94.88963
 21
22.05114
  0
LINE
  8
ボルト／ビス
  6
DOT
 62
    64
 10
94.76797
 20
22.339815
 11
94.88963
 21
22.339815
  0
LINE
  8
ボルト／ビス
  6
DOT
 62
    64
 10
94.76797
 20
22.24359
 11
94.88963
 21
22.24359
  0
LINE
  8
ボルト／ビス
  6
DOT
 10
94.88963
 20
22.339815
 11
94.88963
 21
21.954915
  0
LINE
  8
ボルト／ビス
  6
DOT
 10
94.88963
 20
22.347365
 11
94.956295
 21
22.347365
  0
LINE
  8
ボルト／ビス
  6
DOT
 10
94.88963
 20
22.347365
 11
94.88963
 21
21.947365
  0
LINE
  8
ボルト／ビス
  6
DOT
 10
94.88963
 20
21.947365
 11
94.956295
 21
21.947365
  0
ENDBLK
  0
BLOCK
  2
*GRP_0032
 70
    65
 10
0.0
 20
0.0
  0
LINE
  8
ボルト／ビス
  6
CONTINUOUS
 10
5.379528
 20
-70.209608
 11
5.379528
 21
-69.742943
  0
LINE
  8
ボルト／ビス
  6
CONTINUOUS
 10
5.012862
 20
-70.209608
 11
5.012862
 21
-70.142943
  0
LINE
  8
ボルト／ビス
  6
CONTINUOUS
 10
5.012862
 20
-70.142943
 11
5.746195
 21
-70.142943
  0
LINE
  8
ボルト／ビス
  6
CONTINUOUS
 10
5.746195
 20
-70.142943
 11
5.746195
 21
-70.209608
  0
LINE
  8
ボルト／ビス
  6
CONTINUOUS
 10
5.012862
 20
-70.209608
 11
5.746195
 21
-70.209608
  0
LINE
  8
ボルト／ビス
  6
CONTINUOUS
 10
5.079528
 20
-70.109608
 11
5.079528
 21
-70.142943
  0
LINE
  8
ボルト／ビス
  6
CONTINUOUS
 10
5.079528
 20
-70.109608
 11
5.679528
 21
-70.109608
  0
LINE
  8
ボルト／ビス
  6
CONTINUOUS
 10
5.679528
 20
-70.109608
 11
5.679528
 21
-70.142943
  0
LINE
  8
ボルト／ビス
  6
CONTINUOUS
 62
    64
 10
5.219153
 20
-69.909608
 11
5.187077
 21
-69.921282
  0
ARC
  8
ボルト／ビス
  6
CONTINUOUS
 62
    64
 10
5.235191
 20
-70.014585
 40
0.104978
 50
62.721967
 51
90.0
  0
ARC
  8
ボルト／ビス
  6
CONTINUOUS
 62
    64
 10
5.379529
 20
-70.312009
 40
0.402402
 50
76.165002
 51
103.834985
  0
LINE
  8
ボルト／ビス
  6
CONTINUOUS
 62
    64
 10
5.539903
 20
-69.909608
 11
5.571977
 21
-69.921282
  0
ARC
  8
ボルト／ビス
  6
CONTINUOUS
 62
    64
 10
5.523867
 20
-70.014585
 40
0.104978
 50
90.0
 51
117.278033
  0
LINE
  8
ボルト／ビス
  6
CONTINUOUS
 62
    64
 10
5.219153
 20
-69.909608
 11
5.539903
 21
-69.909608
  0
LINE
  8
ボルト／ビス
  6
CONTINUOUS
 62
    64
 10
5.571977
 20
-69.921282
 11
5.571977
 21
-70.042943
  0
LINE
  8
ボルト／ビス
  6
CONTINUOUS
 62
    64
 10
5.475753
 20
-69.921282
 11
5.475753
 21
-70.042943
  0
LINE
  8
ボルト／ビス
  6
CONTINUOUS
 62
    64
 10
5.187077
 20
-69.921282
 11
5.187077
 21
-70.042943
  0
LINE
  8
ボルト／ビス
  6
CONTINUOUS
 62
    64
 10
5.283302
 20
-69.921282
 11
5.283302
 21
-70.042943
  0
LINE
  8
ボルト／ビス
  6
CONTINUOUS
 10
5.187077
 20
-70.042943
 11
5.571977
 21
-70.042943
  0
LINE
  8
ボルト／ビス
  6
CONTINUOUS
 10
5.179528
 20
-70.042943
 11
5.179528
 21
-70.109608
  0
LINE
  8
ボルト／ビス
  6
CONTINUOUS
 10
5.179528
 20
-70.042943
 11
5.579528
 21
-70.042943
  0
LINE
  8
ボルト／ビス
  6
CONTINUOUS
 10
5.579528
 20
-70.042943
 11
5.579528
 21
-70.109608
  0
ENDBLK
  0
BLOCK
  2
*GRP_0033
 70
    65
 10
0.0
 20
0.0
  0
LINE
  8
ボルト／ビス
  6
DOT
 10
5.379528
 20
-62.876275
 11
5.379528
 21
-62.40961
  0
LINE
  8
ボルト／ビス
  6
DOT
 10
5.012862
 20
-62.876275
 11
5.012862
 21
-62.80961
  0
LINE
  8
ボルト／ビス
  6
DOT
 10
5.012862
 20
-62.80961
 11
5.746195
 21
-62.80961
  0
LINE
  8
ボルト／ビス
  6
DOT
 10
5.746195
 20
-62.80961
 11
5.746195
 21
-62.876275
  0
LINE
  8
ボルト／ビス
  6
DOT
 10
5.012862
 20
-62.876275
 11
5.746195
 21
-62.876275
  0
LINE
  8
ボルト／ビス
  6
DOT
 10
5.079528
 20
-62.776275
 11
5.079528
 21
-62.80961
  0
LINE
  8
ボルト／ビス
  6
DOT
 10
5.079528
 20
-62.776275
 11
5.679528
 21
-62.776275
  0
LINE
  8
ボルト／ビス
  6
DOT
 10
5.679528
 20
-62.776275
 11
5.679528
 21
-62.80961
  0
LINE
  8
ボルト／ビス
  6
DOT
 62
    64
 10
5.219153
 20
-62.576275
 11
5.187077
 21
-62.58795
  0
ARC
  8
ボルト／ビス
  6
DOT
 62
    64
 10
5.235191
 20
-62.681252
 40
0.104978
 50
62.721967
 51
90.0
  0
ARC
  8
ボルト／ビス
  6
DOT
 62
    64
 10
5.379529
 20
-62.978676
 40
0.402402
 50
76.165002
 51
103.834985
  0
LINE
  8
ボルト／ビス
  6
DOT
 62
    64
 10
5.539903
 20
-62.576275
 11
5.571977
 21
-62.58795
  0
ARC
  8
ボルト／ビス
  6
DOT
 62
    64
 10
5.523867
 20
-62.681252
 40
0.104978
 50
90.0
 51
117.278033
  0
LINE
  8
ボルト／ビス
  6
DOT
 62
    64
 10
5.219153
 20
-62.576275
 11
5.539903
 21
-62.576275
  0
LINE
  8
ボルト／ビス
  6
DOT
 62
    64
 10
5.571977
 20
-62.58795
 11
5.571977
 21
-62.70961
  0
LINE
  8
ボルト／ビス
  6
DOT
 62
    64
 10
5.475753
 20
-62.58795
 11
5.475753
 21
-62.70961
  0
LINE
  8
ボルト／ビス
  6
DOT
 62
    64
 10
5.187077
 20
-62.58795
 11
5.187077
 21
-62.70961
  0
LINE
  8
ボルト／ビス
  6
DOT
 62
    64
 10
5.283302
 20
-62.58795
 11
5.283302
 21
-62.70961
  0
LINE
  8
ボルト／ビス
  6
DOT
 10
5.187077
 20
-62.70961
 11
5.571977
 21
-62.70961
  0
LINE
  8
ボルト／ビス
  6
DOT
 10
5.179528
 20
-62.70961
 11
5.179528
 21
-62.776275
  0
LINE
  8
ボルト／ビス
  6
DOT
 10
5.179528
 20
-62.70961
 11
5.579528
 21
-62.70961
  0
LINE
  8
ボルト／ビス
  6
DOT
 10
5.579528
 20
-62.70961
 11
5.579528
 21
-62.776275
  0
ENDBLK
  0
BLOCK
  2
*DIM_0034
 70
    65
 10
0.0
 20
0.0
  0
LINE
  8
寸法
  6
CONTINUOUS
 10
102.389627
 20
49.4807
 11
102.389627
 21
60.666798
  0
LINE
  8
寸法
  6
CONTINUOUS
 10
109.889635
 20
50.577365
 11
109.889635
 21
60.666798
  0
LINE
  8
寸法
  6
CONTINUOUS
 10
102.389627
 20
60.666798
 11
109.889635
 21
60.666798
  0
POINT
  8
寸法
 10
102.389627
 20
60.666798
  0
POINT
  8
寸法
 10
109.889635
 20
60.666798
  0
TEXT
  7
TextStyle03
  8
寸法
  6
CONTINUOUS
 10
103.6875
 20
61.025
  1
225
 40
3.0
 72
     5
 11
108.5625
 21
61.025
  0
ENDBLK
  0
BLOCK
  2
*DIM_0035
 70
    65
 10
0.0
 20
0.0
  0
LINE
  8
寸法
  6
CONTINUOUS
 10
11.379532
 20
-70.209613
 11
20.682515
 21
-70.209613
  0
LINE
  8
寸法
  6
CONTINUOUS
 10
11.976195
 20
-77.70962
 11
20.682515
 21
-77.70962
  0
LINE
  8
寸法
  6
CONTINUOUS
 10
20.682515
 20
-70.209613
 11
20.682515
 21
-77.70962
  0
POINT
  8
寸法
 10
20.682515
 20
-70.209613
  0
POINT
  8
寸法
 10
20.682515
 20
-77.70962
  0
TEXT
  7
TextStyle03
  8
寸法
  6
CONTINUOUS
 10
20.3
 20
-76.4125
  1
225
 40
3.0
 50
90.0
 72
     5
 11
20.3
 21
-71.5375
  0
ENDBLK
  0
BLOCK
  2
*GRP_0036
 70
    65
 10
0.0
 20
0.0
  0
LINE
  8
型材断面
  6
DOT
 10
-45.287135
 20
-63.926403
 11
-96.64728
 21
-63.926403
  0
LINE
  8
型材断面
  6
DOT
 10
-45.287135
 20
-65.076403
 11
-98.050465
 21
-65.076403
  0
LINE
  8
型材断面
  6
DOT
 10
-45.287135
 20
-66.24307
 11
-98.050465
 21
-66.24307
  0
LINE
  8
型材断面
  6
DOT
 10
-45.287135
 20
-63.926403
 11
6.07301
 21
-63.926403
  0
LINE
  8
型材断面
  6
DOT
 10
-45.287135
 20
-65.076403
 11
7.476195
 21
-65.076403
  0
LINE
  8
型材断面
  6
DOT
 10
-45.287135
 20
-66.24307
 11
7.476195
 21
-66.24307
  0
LINE
  8
別途部材
  6
DOT
 62
    96
 10
6.379532
 20
-62.87628
 11
6.779532
 21
-63.87628
  0
ARC
  8
別途部材
  6
DOT
 10
-5.287134
 20
-69.584618
 40
12.041668
 50
33.855033
 51
90.0
  0
LINE
  8
別途部材
  6
DOT
 10
6.779532
 20
-63.87628
 11
-45.287135
 21
-63.87628
  0
LINE
  8
別途部材
  6
DOT
 62
    96
 10
6.379532
 20
-62.87628
 11
-45.287135
 21
-62.87628
  0
LINE
  8
別途部材
  6
DOT
 10
-7.787135
 20
-57.542947
 11
-5.287135
 21
-57.542947
  0
LINE
  8
別途部材
  6
DOT
 62
    96
 10
-96.9538
 20
-62.87628
 11
-97.3538
 21
-63.87628
  0
ARC
  8
別途部材
  6
DOT
 10
-85.287134
 20
-69.584618
 40
12.041668
 50
90.0
 51
146.144967
  0
LINE
  8
別途部材
  6
DOT
 10
-97.3538
 20
-63.87628
 11
-45.287135
 21
-63.87628
  0
LINE
  8
別途部材
  6
DOT
 62
    96
 10
-96.9538
 20
-62.87628
 11
-45.287135
 21
-62.87628
  0
LINE
  8
別途部材
  6
DOT
 10
-82.787135
 20
-57.542947
 11
-85.287135
 21
-57.542947
  0
LINE
  8
別途部材
  6
DOT
 10
-45.287135
 20
-57.542947
 11
-82.787135
 21
-57.542947
  0
LINE
  8
別途部材
  6
DOT
 10
-7.787135
 20
-57.542947
 11
-45.287135
 21
-57.542947
  0
LINE
  8
鉄骨等
  6
DOT
 62
    47
 10
-98.050465
 20
-66.24307
 11
-98.050465
 21
-65.076403
  0
LINE
  8
鉄骨等
  6
DOT
 62
    47
 10
-98.050465
 20
-65.076403
 11
-96.64728
 21
-63.926403
  0
LINE
  8
鉄骨等
  6
DOT
 62
    47
 10
-96.64728
 20
-63.926403
 11
-96.64728
 21
-63.876282
  0
LINE
  8
鉄骨等
  6
DOT
 62
    47
 10
7.476195
 20
-66.24307
 11
7.476195
 21
-65.076403
  0
LINE
  8
鉄骨等
  6
DOT
 62
    47
 10
7.476195
 20
-65.076403
 11
6.07301
 21
-63.926403
  0
LINE
  8
鉄骨等
  6
DOT
 62
    47
 10
6.07301
 20
-63.926403
 11
6.07301
 21
-63.876282
  0
ENDBLK
  0
BLOCK
  2
*GRP_0037
 70
    65
 10
0.0
 20
0.0
  0
LINE
  8
ボルト／ビス
  6
CONTINUOUS
 10
-95.953798
 20
-70.209608
 11
-95.953798
 21
-69.742943
  0
LINE
  8
ボルト／ビス
  6
CONTINUOUS
 10
-95.587133
 20
-70.209608
 11
-95.587133
 21
-70.142943
  0
LINE
  8
ボルト／ビス
  6
CONTINUOUS
 10
-95.587133
 20
-70.142943
 11
-96.320465
 21
-70.142943
  0
LINE
  8
ボルト／ビス
  6
CONTINUOUS
 10
-96.320465
 20
-70.142943
 11
-96.320465
 21
-70.209608
  0
LINE
  8
ボルト／ビス
  6
CONTINUOUS
 10
-95.587133
 20
-70.209608
 11
-96.320465
 21
-70.209608
  0
LINE
  8
ボルト／ビス
  6
CONTINUOUS
 10
-95.653798
 20
-70.109608
 11
-95.653798
 21
-70.142943
  0
LINE
  8
ボルト／ビス
  6
CONTINUOUS
 10
-95.653798
 20
-70.109608
 11
-96.253798
 21
-70.109608
  0
LINE
  8
ボルト／ビス
  6
CONTINUOUS
 10
-96.253798
 20
-70.109608
 11
-96.253798
 21
-70.142943
  0
LINE
  8
ボルト／ビス
  6
CONTINUOUS
 62
    64
 10
-95.793422
 20
-69.909608
 11
-95.761348
 21
-69.921282
  0
ARC
  8
ボルト／ビス
  6
CONTINUOUS
 62
    64
 10
-95.809461
 20
-70.014585
 40
0.104978
 50
90.0
 51
117.278033
  0
ARC
  8
ボルト／ビス
  6
CONTINUOUS
 62
    64
 10
-95.953799
 20
-70.312009
 40
0.402402
 50
76.165015
 51
103.834998
  0
LINE
  8
ボルト／ビス
  6
CONTINUOUS
 62
    64
 10
-96.114173
 20
-69.909608
 11
-96.146248
 21
-69.921282
  0
ARC
  8
ボルト／ビス
  6
CONTINUOUS
 62
    64
 10
-96.098137
 20
-70.014585
 40
0.104978
 50
62.721967
 51
90.0
  0
LINE
  8
ボルト／ビス
  6
CONTINUOUS
 62
    64
 10
-95.793422
 20
-69.909608
 11
-96.114173
 21
-69.909608
  0
LINE
  8
ボルト／ビス
  6
CONTINUOUS
 62
    64
 10
-96.146248
 20
-69.921282
 11
-96.146248
 21
-70.042943
  0
LINE
  8
ボルト／ビス
  6
CONTINUOUS
 62
    64
 10
-96.050022
 20
-69.921282
 11
-96.050022
 21
-70.042943
  0
LINE
  8
ボルト／ビス
  6
CONTINUOUS
 62
    64
 10
-95.761348
 20
-69.921282
 11
-95.761348
 21
-70.042943
  0
LINE
  8
ボルト／ビス
  6
CONTINUOUS
 62
    64
 10
-95.857572
 20
-69.921282
 11
-95.857572
 21
-70.042943
  0
LINE
  8
ボルト／ビス
  6
CONTINUOUS
 10
-95.761348
 20
-70.042943
 11
-96.146248
 21
-70.042943
  0
LINE
  8
ボルト／ビス
  6
CONTINUOUS
 10
-95.753798
 20
-70.042943
 11
-95.753798
 21
-70.109608
  0
LINE
  8
ボルト／ビス
  6
CONTINUOUS
 10
-95.753798
 20
-70.042943
 11
-96.153798
 21
-70.042943
  0
LINE
  8
ボルト／ビス
  6
CONTINUOUS
 10
-96.153798
 20
-70.042943
 11
-96.153798
 21
-70.109608
  0
ENDBLK
  0
BLOCK
  2
*GRP_0038
 70
    65
 10
0.0
 20
0.0
  0
LINE
  8
ボルト／ビス
  6
DOT
 10
-95.953798
 20
-62.876275
 11
-95.953798
 21
-62.40961
  0
LINE
  8
ボルト／ビス
  6
DOT
 10
-95.587133
 20
-62.876275
 11
-95.587133
 21
-62.80961
  0
LINE
  8
ボルト／ビス
  6
DOT
 10
-95.587133
 20
-62.80961
 11
-96.320465
 21
-62.80961
  0
LINE
  8
ボルト／ビス
  6
DOT
 10
-96.320465
 20
-62.80961
 11
-96.320465
 21
-62.876275
  0
LINE
  8
ボルト／ビス
  6
DOT
 10
-95.587133
 20
-62.876275
 11
-96.320465
 21
-62.876275
  0
LINE
  8
ボルト／ビス
  6
DOT
 10
-95.653798
 20
-62.776275
 11
-95.653798
 21
-62.80961
  0
LINE
  8
ボルト／ビス
  6
DOT
 10
-95.653798
 20
-62.776275
 11
-96.253798
 21
-62.776275
  0
LINE
  8
ボルト／ビス
  6
DOT
 10
-96.253798
 20
-62.776275
 11
-96.253798
 21
-62.80961
  0
LINE
  8
ボルト／ビス
  6
DOT
 62
    64
 10
-95.793422
 20
-62.576275
 11
-95.761348
 21
-62.58795
  0
ARC
  8
ボルト／ビス
  6
DOT
 62
    64
 10
-95.809461
 20
-62.681252
 40
0.104978
 50
90.0
 51
117.278033
  0
ARC
  8
ボルト／ビス
  6
DOT
 62
    64
 10
-95.953799
 20
-62.978676
 40
0.402402
 50
76.165015
 51
103.834998
  0
LINE
  8
ボルト／ビス
  6
DOT
 62
    64
 10
-96.114173
 20
-62.576275
 11
-96.146248
 21
-62.58795
  0
ARC
  8
ボルト／ビス
  6
DOT
 62
    64
 10
-96.098137
 20
-62.681252
 40
0.104978
 50
62.721967
 51
90.0
  0
LINE
  8
ボルト／ビス
  6
DOT
 62
    64
 10
-95.793422
 20
-62.576275
 11
-96.114173
 21
-62.576275
  0
LINE
  8
ボルト／ビス
  6
DOT
 62
    64
 10
-96.146248
 20
-62.58795
 11
-96.146248
 21
-62.70961
  0
LINE
  8
ボルト／ビス
  6
DOT
 62
    64
 10
-96.050022
 20
-62.58795
 11
-96.050022
 21
-62.70961
  0
LINE
  8
ボルト／ビス
  6
DOT
 62
    64
 10
-95.761348
 20
-62.58795
 11
-95.761348
 21
-62.70961
  0
LINE
  8
ボルト／ビス
  6
DOT
 62
    64
 10
-95.857572
 20
-62.58795
 11
-95.857572
 21
-62.70961
  0
LINE
  8
ボルト／ビス
  6
DOT
 10
-95.761348
 20
-62.70961
 11
-96.146248
 21
-62.70961
  0
LINE
  8
ボルト／ビス
  6
DOT
 10
-95.753798
 20
-62.70961
 11
-95.753798
 21
-62.776275
  0
LINE
  8
ボルト／ビス
  6
DOT
 10
-95.753798
 20
-62.70961
 11
-96.153798
 21
-62.70961
  0
LINE
  8
ボルト／ビス
  6
DOT
 10
-96.153798
 20
-62.70961
 11
-96.153798
 21
-62.776275
  0
ENDBLK
  0
BLOCK
  2
*DIM_0039
 70
    65
 10
0.0
 20
0.0
  0
LINE
  8
寸法
  6
BYBLOCK
 62
     0
 10
-2.287135
 20
-57.542947
 11
20.682515
 21
-57.542947
  0
LINE
  8
寸法
  6
BYBLOCK
 62
     0
 10
20.682515
 20
-64.87628
 11
20.682515
 21
-57.542947
  0
POINT
  8
寸法
 62
     0
 10
20.682515
 20
-64.87628
  0
POINT
  8
寸法
 62
     0
 10
20.682515
 20
-57.542947
  0
TEXT
  7
TextStyle03
  8
寸法
  6
CONTINUOUS
 62
     0
 10
20.5
 20
-55.6875
  1
上昇高さ220
 40
3.0
 50
90.0
 72
     5
 11
20.5
 21
-37.3125
  0
ENDBLK
  0
BLOCK
  2
*DIM_0040
 70
    65
 10
0.0
 20
0.0
  0
LINE
  8
寸法
  6
BYBLOCK
 62
     0
 10
89.722962
 20
35.814033
 11
89.722962
 21
60.666798
  0
LINE
  8
寸法
  6
BYBLOCK
 62
     0
 10
97.056295
 20
60.666798
 11
89.722962
 21
60.666798
  0
POINT
  8
寸法
 62
     0
 10
97.056295
 20
60.666798
  0
POINT
  8
寸法
 62
     0
 10
89.722962
 20
60.666798
  0
TEXT
  7
TextStyle03
  8
寸法
  6
CONTINUOUS
 62
     0
 10
67.4625
 20
57.525
  1
上昇高さ220
 40
3.0
 72
     5
 11
85.8375
 21
57.525
  0
ENDBLK
  0
ENDSEC
  0
SECTION
  2
ENTITIES
  0
POLYLINE
  8
通り芯
  6
CONTINUOUS
 66
     1
 70
     1
  0
VERTEX
  8
通り芯
 10
-210.0
 20
-148.5
  0
VERTEX
  8
通り芯
 10
210.0
 20
-148.5
  0
VERTEX
  8
通り芯
 10
210.0
 20
148.5
  0
VERTEX
  8
通り芯
 10
-210.0
 20
148.5
  0
SEQEND
  0
INSERT
  2
*GRP_0001
  8
型材断面
  6
CONTINUOUS
 10
0.0
 20
0.0
  0
LINE
  8
型材断面
  6
DASHDOT
 10
4.712865
 20
-77.836442
 11
4.712865
 21
42.814033
  0
LINE
  8
型材断面
  6
DASHDOT
 10
-45.287135
 20
-77.836442
 11
-45.287135
 21
42.814033
  0
LINE
  8
型材断面
  6
DASHDOT
 10
-95.287135
 20
-77.836442
 11
-95.287135
 21
42.814033
  0
LINE
  8
型材断面
  6
DASHDOT
 10
102.389627
 20
42.814033
 11
-95.287135
 21
42.814033
  0
LINE
  8
型材断面
  6
DASHDOT
 10
102.389627
 20
32.814033
 11
-95.287135
 21
32.814033
  0
LINE
  8
型材断面
  6
DASHDOT
 10
102.389627
 20
22.814033
 11
-95.287135
 21
22.814033
  0
POLYLINE
  8
型材断面
  6
CONTINUOUS
 66
     1
 70
     1
  0
VERTEX
  8
型材断面
 10
-35.83933
 20
13.03811
  0
VERTEX
  8
型材断面
 10
-54.61126
 20
13.03811
  0
VERTEX
  8
型材断面
 10
-54.61126
 20
8.301267
  0
VERTEX
  8
型材断面
 10
-35.83933
 20
8.301267
  0
SEQEND
  0
POLYLINE
  8
型材断面
  6
CONTINUOUS
 66
     1
 70
     1
  0
VERTEX
  8
型材断面
 10
-35.83933
 20
52.589955
  0
VERTEX
  8
型材断面
 10
-54.61126
 20
52.589955
  0
VERTEX
  8
型材断面
 10
-54.61126
 20
57.326798
  0
VERTEX
  8
型材断面
 10
-35.83933
 20
57.326798
  0
SEQEND
  0
LINE
  8
型材断面
  6
CONTINUOUS
 10
-78.620467
 20
45.444162
 11
-80.116097
 21
48.03467
  0
LINE
  8
型材断面
  6
CONTINUOUS
 10
-78.620467
 20
45.444162
 11
-77.124838
 21
48.03467
  0
LINE
  8
型材断面
  6
CONTINUOUS
 10
-77.124838
 20
48.03467
 11
-80.116097
 21
48.03467
  0
LINE
  8
型材断面
  6
CONTINUOUS
 10
-136.139343
 20
80.791505
 11
-135.543288
 21
78.200998
  0
LINE
  8
型材断面
  6
CONTINUOUS
 10
-136.139343
 20
80.791505
 11
-136.7354
 21
78.200998
  0
LINE
  8
型材断面
  6
CONTINUOUS
 10
-136.7354
 20
78.200998
 11
-135.543288
 21
78.200998
  0
LINE
  8
型材断面
  6
CONTINUOUS
 10
-142.16193
 20
74.922105
 11
-95.920153
 21
74.922105
  0
LINE
  8
型材断面
  6
CONTINUOUS
 10
-136.139343
 20
87.32138
 11
-137.634973
 21
84.730873
  0
LINE
  8
型材断面
  6
CONTINUOUS
 10
-136.139343
 20
87.32138
 11
-134.643713
 21
84.730873
  0
LINE
  8
型材断面
  6
CONTINUOUS
 10
-134.643713
 20
84.730873
 11
-137.634973
 21
84.730873
  0
LINE
  8
型材断面
  6
CONTINUOUS
 10
-142.16193
 20
83.792277
 11
-95.920153
 21
83.792277
  0
LINE
  8
型材断面
  6
CONTINUOUS
 10
-142.16193
 20
69.134073
 11
-95.920153
 21
69.134073
  0
LINE
  8
型材断面
  6
CONTINUOUS
 10
-97.917265
 20
32.814033
 11
-100.507773
 21
34.309663
  0
LINE
  8
型材断面
  6
CONTINUOUS
 10
-97.917265
 20
32.814033
 11
-100.507773
 21
31.318403
  0
LINE
  8
型材断面
  6
CONTINUOUS
 10
-100.507773
 20
31.318403
 11
-100.507773
 21
34.309663
  0
LINE
  8
型材断面
  6
CONTINUOUS
 10
-78.620467
 20
20.183902
 11
-80.116097
 21
17.593395
  0
LINE
  8
型材断面
  6
CONTINUOUS
 10
-78.620467
 20
20.183902
 11
-77.124838
 21
17.593395
  0
LINE
  8
型材断面
  6
CONTINUOUS
 10
-77.124838
 20
17.593395
 11
-80.116097
 21
17.593395
  0
LINE
  8
型材断面
  6
CONTINUOUS
 10
-11.953802
 20
45.444162
 11
-10.458173
 21
48.03467
  0
LINE
  8
型材断面
  6
CONTINUOUS
 10
-11.953802
 20
45.444162
 11
-13.449432
 21
48.03467
  0
LINE
  8
型材断面
  6
CONTINUOUS
 10
-13.449432
 20
48.03467
 11
-10.458173
 21
48.03467
  0
LINE
  8
型材断面
  6
CONTINUOUS
 10
-11.953802
 20
20.183902
 11
-10.458173
 21
17.593395
  0
LINE
  8
型材断面
  6
CONTINUOUS
 10
-11.953802
 20
20.183902
 11
-13.449432
 21
17.593395
  0
LINE
  8
型材断面
  6
CONTINUOUS
 10
-13.449432
 20
17.593395
 11
-10.458173
 21
17.593395
  0
LINE
  8
型材断面
  6
CONTINUOUS
 10
7.342995
 20
32.814033
 11
9.933503
 21
34.309663
  0
LINE
  8
型材断面
  6
CONTINUOUS
 10
7.342995
 20
32.814033
 11
9.933503
 21
31.318403
  0
LINE
  8
型材断面
  6
CONTINUOUS
 10
9.933503
 20
31.318403
 11
9.933503
 21
34.309663
  0
LINE
  8
型材断面
  6
CONTINUOUS
 10
7.342995
 20
39.114035
 11
9.933505
 21
38.517982
  0
LINE
  8
型材断面
  6
CONTINUOUS
 10
7.342995
 20
39.114035
 11
9.933503
 21
39.710095
  0
LINE
  8
型材断面
  6
CONTINUOUS
 10
9.933503
 20
39.710095
 11
9.933505
 21
38.517982
  0
LINE
  8
型材断面
  6
CONTINUOUS
 10
7.342995
 20
26.51403
 11
9.933505
 21
27.110082
  0
LINE
  8
型材断面
  6
CONTINUOUS
 10
7.342995
 20
26.51403
 11
9.933503
 21
25.91797
  0
LINE
  8
型材断面
  6
CONTINUOUS
 10
9.933503
 20
25.91797
 11
9.933505
 21
27.110082
  0
LINE
  8
型材断面
  6
CONTINUOUS
 10
-97.917265
 20
39.114035
 11
-100.507775
 21
38.517982
  0
LINE
  8
型材断面
  6
CONTINUOUS
 10
-97.917265
 20
39.114035
 11
-100.507773
 21
39.710095
  0
LINE
  8
型材断面
  6
CONTINUOUS
 10
-100.507773
 20
39.710095
 11
-100.507775
 21
38.517982
  0
LINE
  8
型材断面
  6
CONTINUOUS
 10
-97.917265
 20
26.51403
 11
-100.507775
 21
27.110082
  0
LINE
  8
型材断面
  6
CONTINUOUS
 10
-97.917265
 20
26.51403
 11
-100.507773
 21
25.91797
  0
LINE
  8
型材断面
  6
CONTINUOUS
 10
-100.507773
 20
25.91797
 11
-100.507775
 21
27.110082
  0
INSERT
  2
*GRP_0008
  8
型材断面
  6
CONTINUOUS
 10
0.0
 20
0.0
  0
INSERT
  2
*GRP_0009
  8
型材断面
  6
CONTINUOUS
 10
0.0
 20
0.0
  0
INSERT
  2
*GRP_0010
  8
型材断面
  6
CONTINUOUS
 10
0.0
 20
0.0
  0
INSERT
  2
*GRP_0011
  8
型材断面
  6
CONTINUOUS
 10
0.0
 20
0.0
  0
LINE
  8
型材断面
  6
CONTINUOUS
 10
-142.16193
 20
63.34604
 11
-95.920153
 21
63.34604
  0
LINE
  8
型材断面
  6
CONTINUOUS
 10
103.43975
 20
32.814033
 11
103.43975
 21
21.453885
  0
LINE
  8
型材断面
  6
CONTINUOUS
 10
104.58975
 20
32.814033
 11
104.58975
 21
20.0507
  0
LINE
  8
型材断面
  6
CONTINUOUS
 10
105.756417
 20
32.814033
 11
105.756417
 21
20.0507
  0
LINE
  8
型材断面
  6
CONTINUOUS
 10
103.43975
 20
32.814033
 11
103.43975
 21
44.17418
  0
LINE
  8
型材断面
  6
CONTINUOUS
 10
104.58975
 20
32.814033
 11
104.58975
 21
45.577365
  0
LINE
  8
型材断面
  6
CONTINUOUS
 10
105.756417
 20
32.814033
 11
105.756417
 21
45.577365
  0
LINE
  8
型材断面
  6
CONTINUOUS
 10
-45.287135
 20
-71.259735
 11
-96.64728
 21
-71.259735
  0
LINE
  8
型材断面
  6
CONTINUOUS
 10
-45.287135
 20
-72.409735
 11
-98.050465
 21
-72.409735
  0
LINE
  8
型材断面
  6
CONTINUOUS
 10
-45.287135
 20
-73.576403
 11
-98.050465
 21
-73.576403
  0
LINE
  8
型材断面
  6
CONTINUOUS
 10
-45.287135
 20
-71.259735
 11
6.07301
 21
-71.259735
  0
LINE
  8
型材断面
  6
CONTINUOUS
 10
-45.287135
 20
-72.409735
 11
7.476195
 21
-72.409735
  0
LINE
  8
型材断面
  6
CONTINUOUS
 10
-45.287135
 20
-73.576403
 11
7.476195
 21
-73.576403
  0
LINE
  8
型材断面
  6
CONTINUOUS
 10
7.476195
 20
45.577365
 11
7.476195
 21
20.0507
  0
LINE
  8
型材断面
  6
CONTINUOUS
 10
7.476195
 20
20.0507
 11
-98.050465
 21
20.0507
  0
LINE
  8
型材断面
  6
CONTINUOUS
 10
-98.050465
 20
20.0507
 11
-98.050465
 21
45.577365
  0
LINE
  8
型材断面
  6
CONTINUOUS
 10
7.476195
 20
45.577365
 11
-98.050465
 21
45.577365
  0
LINE
  8
型材断面
  6
CONTINUOUS
 10
-97.353802
 20
44.8807
 11
-98.05047
 21
45.577365
  0
LINE
  8
型材断面
  6
CONTINUOUS
 10
6.779532
 20
44.8807
 11
7.476195
 21
45.57736
  0
LINE
  8
型材断面
  6
CONTINUOUS
 10
6.779532
 20
20.747365
 11
7.4762
 21
20.0507
  0
LINE
  8
型材断面
  6
CONTINUOUS
 10
-97.353802
 20
20.747365
 11
-98.05047
 21
20.0507
  0
LINE
  8
型材断面
  6
DOT
 10
-60.88047
 20
22.814033
 11
-60.88047
 21
42.814033
  0
LINE
  8
型材断面
  6
DASHDOT
 10
-62.13047
 20
22.814033
 11
-62.13047
 21
42.814033
  0
LINE
  8
型材断面
  6
DOT
 10
-63.38047
 20
22.814033
 11
-63.38047
 21
42.814033
  0
LINE
  8
型材断面
  6
DOT
 10
-29.6938
 20
22.814033
 11
-29.6938
 21
42.814033
  0
LINE
  8
型材断面
  6
DASHDOT
 10
-28.4438
 20
22.814033
 11
-28.4438
 21
42.814033
  0
LINE
  8
型材断面
  6
DOT
 10
-27.1938
 20
22.814033
 11
-27.1938
 21
42.814033
  0
LINE
  8
型材断面
  6
CONTINUOUS
 10
109.889635
 20
20.5507
 11
110.2263
 21
20.5507
  0
LINE
  8
型材断面
  6
CONTINUOUS
 10
109.889635
 20
20.0507
 11
109.889635
 21
20.5507
  0
LINE
  8
型材断面
  6
CONTINUOUS
 10
105.989753
 20
20.0507
 11
105.79313
 21
20.247325
  0
LINE
  8
型材断面
  6
CONTINUOUS
 10
105.989753
 20
20.0507
 11
109.889635
 21
20.0507
  0
LINE
  8
型材断面
  6
CONTINUOUS
 62
    47
 10
105.79313
 20
20.247325
 11
105.79313
 21
32.814033
  0
LINE
  8
型材断面
  6
CONTINUOUS
 10
105.989753
 20
20.0507
 11
105.989753
 21
32.814033
  0
LINE
  8
型材断面
  6
CONTINUOUS
 10
110.2263
 20
20.5507
 11
110.2263
 21
32.814033
  0
LINE
  8
型材断面
  6
CONTINUOUS
 10
109.889635
 20
20.0507
 11
109.889635
 21
32.814033
  0
LINE
  8
型材断面
  6
CONTINUOUS
 10
109.889635
 20
45.077365
 11
110.2263
 21
45.077365
  0
LINE
  8
型材断面
  6
CONTINUOUS
 10
109.889635
 20
45.577365
 11
109.889635
 21
45.077365
  0
LINE
  8
型材断面
  6
CONTINUOUS
 10
105.989753
 20
45.577365
 11
105.79313
 21
45.38074
  0
LINE
  8
型材断面
  6
CONTINUOUS
 10
105.989753
 20
45.577365
 11
109.889635
 21
45.577365
  0
LINE
  8
型材断面
  6
CONTINUOUS
 62
    47
 10
105.79313
 20
45.38074
 11
105.79313
 21
32.814033
  0
LINE
  8
型材断面
  6
CONTINUOUS
 10
105.989753
 20
45.577365
 11
105.989753
 21
32.814033
  0
LINE
  8
型材断面
  6
CONTINUOUS
 10
110.2263
 20
45.077365
 11
110.2263
 21
32.814033
  0
LINE
  8
型材断面
  6
CONTINUOUS
 10
109.889635
 20
45.577365
 11
109.889635
 21
32.814033
  0
LINE
  8
型材断面
  6
CONTINUOUS
 10
6.976195
 20
-77.70962
 11
6.976195
 21
-78.046285
  0
LINE
  8
型材断面
  6
CONTINUOUS
 10
7.476195
 20
-77.70962
 11
6.976195
 21
-77.70962
  0
LINE
  8
型材断面
  6
CONTINUOUS
 10
7.476195
 20
-73.809738
 11
7.27957
 21
-73.613115
  0
LINE
  8
型材断面
  6
CONTINUOUS
 10
7.476195
 20
-73.809738
 11
7.476195
 21
-77.70962
  0
LINE
  8
型材断面
  6
CONTINUOUS
 10
7.476195
 20
-77.70962
 11
-45.287135
 21
-77.70962
  0
LINE
  8
型材断面
  6
CONTINUOUS
 10
6.976195
 20
-78.046285
 11
-45.287135
 21
-78.046285
  0
LINE
  8
型材断面
  6
CONTINUOUS
 10
7.476195
 20
-73.809738
 11
-45.287135
 21
-73.809738
  0
LINE
  8
型材断面
  6
CONTINUOUS
 62
    47
 10
7.27957
 20
-73.613115
 11
-45.287135
 21
-73.613115
  0
LINE
  8
型材断面
  6
CONTINUOUS
 10
-97.550465
 20
-77.70962
 11
-97.550465
 21
-78.046285
  0
LINE
  8
型材断面
  6
CONTINUOUS
 10
-98.050465
 20
-77.70962
 11
-97.550465
 21
-77.70962
  0
LINE
  8
型材断面
  6
CONTINUOUS
 10
-98.050465
 20
-73.809738
 11
-97.85384
 21
-73.613115
  0
LINE
  8
型材断面
  6
CONTINUOUS
 10
-98.050465
 20
-73.809738
 11
-98.050465
 21
-77.70962
  0
LINE
  8
型材断面
  6
CONTINUOUS
 10
-98.050465
 20
-77.70962
 11
-45.287135
 21
-77.70962
  0
LINE
  8
型材断面
  6
CONTINUOUS
 10
-97.550465
 20
-78.046285
 11
-45.287135
 21
-78.046285
  0
LINE
  8
型材断面
  6
CONTINUOUS
 10
-98.050465
 20
-73.809738
 11
-45.287135
 21
-73.809738
  0
LINE
  8
型材断面
  6
CONTINUOUS
 62
    47
 10
-97.85384
 20
-73.613115
 11
-45.287135
 21
-73.613115
  0
TEXT
  7
TextStyle03
  8
文字
  6
CONTINUOUS
 10
-53.625
 20
9.325
  1
可動装置側
 40
3.0
 72
     5
 11
-37.125
 21
9.325
  0
TEXT
  7
TextStyle03
  8
文字
  6
CONTINUOUS
 10
-53.625
 20
53.3
  1
可動装置側
 40
3.0
 72
     5
 11
-37.125
 21
53.3
  0
TEXT
  7
TextStyle03
  8
文字
  6
CONTINUOUS
 10
-133.325
 20
79.425
  1
はケーシング位置を示す
 40
3.0
 72
     5
 11
-96.575
 21
79.425
  0
TEXT
  7
TextStyle03
  8
文字
  6
CONTINUOUS
 10
-133.325
 20
76.05
  1
４ヶ所中1ヶ所に設定
 40
3.0
 72
     5
 11
-101.6375
 21
76.05
  0
TEXT
  7
TextStyle03
  8
文字
  6
CONTINUOUS
 10
-133.325
 20
84.95
  1
は排水穴位置を示す
 40
3.0
 72
     5
 11
-103.325
 21
84.95
  0
TEXT
  7
TextStyle03
  8
文字
  6
CONTINUOUS
 10
-116.325
 20
11.275
  1
アンカーピッチ
 40
3.0
 50
90.0
 72
     5
 11
-116.325
 21
34.525
  0
TEXT
  7
TextStyle03
  8
文字
  6
CONTINUOUS
 10
-85.3
 20
80.225
  1
アンカーピッチ
 40
3.0
 72
     5
 11
-62.05
 21
80.225
  0
TEXT
  7
TextStyle03
  8
文字
  6
CONTINUOUS
 10
-137.05
 20
70.075
  1
アンカー数量　１２ヶ所
 40
3.0
 72
     5
 11
-100.3
 21
70.075
  0
TEXT
  7
TextStyle03
  8
文字
  6
CONTINUOUS
 10
-137.1
 20
64.3
  1
アームユニット数　４ヶ所
 40
3.0
 72
     5
 11
-96.975
 21
64.3
  0
LINE
  8
文字
  6
CONTINUOUS
 10
46.876013
 20
45.577365
 11
103.067963
 21
45.577365
  0
LINE
  8
文字
  6
CONTINUOUS
 10
46.876013
 20
20.0507
 11
103.067963
 21
20.0507
  0
LINE
  8
文字
  6
CONTINUOUS
 10
-98.050465
 20
-13.121378
 11
-98.050465
 21
-71.23621
  0
LINE
  8
文字
  6
CONTINUOUS
 10
7.476195
 20
-13.121378
 11
7.476195
 21
-71.13152
  0
TEXT
  7
TextStyle03
  8
文字
  6
CONTINUOUS
 10
83.65
 20
-71.9
  1
網入り6.8t
 40
3.0
 72
     5
 11
100.3375
 21
-71.9
  0
TEXT
  7
TextStyle03
  8
文字
  6
CONTINUOUS
 10
90.325
 20
-76.575
  1
×３枚
 40
3.0
 72
     5
 11
100.075
 21
-76.575
  0
TEXT
  7
TextStyle03
  8
文字
  6
CONTINUOUS
 10
78.1
 20
125.25
  1
シリーズ：ＴＤ１Ｌ
 40
5.0
 72
     5
 11
128.1
 21
125.25
  0
TEXT
  7
TextStyle03
  8
文字
  6
CONTINUOUS
 10
78.1
 20
119.625
  1
　　　　　（上下可動）600×3000タイプ
 40
5.0
 72
     5
 11
181.5375
 21
119.625
  0
TEXT
  7
TextStyle03
  8
文字
  6
CONTINUOUS
 10
78.1
 20
114.0
  1
図面名　：外観姿図
 40
5.0
 72
     5
 11
128.1
 21
114.0
  0
TEXT
  7
TextStyle03
  8
文字
  6
CONTINUOUS
 10
78.1
 20
108.375
  1
　　　　　　
 40
5.0
 72
     5
 11
111.225
 21
108.375
  0
TEXT
  7
TextStyle03
  8
文字
  6
CONTINUOUS
 10
77.925
 20
103.075
  1
ＮＳコード：ＮＳＤＬ
 40
5.0
 72
     5
 11
133.55
 21
103.075
  0
INSERT
  2
*DIM_0002
  8
寸法
  6
CONTINUOUS
 10
0.0
 20
0.0
  0
INSERT
  2
*DIM_0003
  8
寸法
  6
CONTINUOUS
 10
0.0
 20
0.0
  0
INSERT
  2
*DIM_0004
  8
寸法
  6
CONTINUOUS
 10
0.0
 20
0.0
  0
INSERT
  2
*DIM_0005
  8
寸法
  6
CONTINUOUS
 10
0.0
 20
0.0
  0
INSERT
  2
*DIM_0006
  8
寸法
  6
CONTINUOUS
 10
0.0
 20
0.0
  0
INSERT
  2
*DIM_0012
  8
寸法
  6
CONTINUOUS
 10
0.0
 20
0.0
  0
INSERT
  2
*DIM_0013
  8
寸法
  6
CONTINUOUS
 10
0.0
 20
0.0
  0
INSERT
  2
*DIM_0014
  8
寸法
  6
CONTINUOUS
 10
0.0
 20
0.0
  0
INSERT
  2
*DIM_0015
  8
寸法
  6
CONTINUOUS
 10
0.0
 20
0.0
  0
INSERT
  2
*DIM_0016
  8
寸法
  6
CONTINUOUS
 10
0.0
 20
0.0
  0
INSERT
  2
*DIM_0017
  8
寸法
  6
CONTINUOUS
 10
0.0
 20
0.0
  0
INSERT
  2
*DIM_0018
  8
寸法
  6
CONTINUOUS
 10
0.0
 20
0.0
  0
INSERT
  2
*DIM_0019
  8
寸法
  6
CONTINUOUS
 10
0.0
 20
0.0
  0
INSERT
  2
*DIM_0020
  8
寸法
  6
CONTINUOUS
 10
0.0
 20
0.0
  0
INSERT
  2
*DIM_0021
  8
寸法
  6
CONTINUOUS
 10
0.0
 20
0.0
  0
INSERT
  2
*DIM_0022
  8
寸法
  6
CONTINUOUS
 10
0.0
 20
0.0
  0
INSERT
  2
*DIM_0025
  8
寸法
  6
CONTINUOUS
 10
0.0
 20
0.0
  0
INSERT
  2
*DIM_0026
  8
寸法
  6
CONTINUOUS
 10
0.0
 20
0.0
  0
INSERT
  2
*DIM_0034
  8
寸法
  6
CONTINUOUS
 10
0.0
 20
0.0
  0
INSERT
  2
*DIM_0035
  8
寸法
  6
CONTINUOUS
 10
0.0
 20
0.0
  0
INSERT
  2
*DIM_0039
  8
寸法
  6
CONTINUOUS
 10
0.0
 20
0.0
  0
INSERT
  2
*DIM_0040
  8
寸法
  6
CONTINUOUS
 10
0.0
 20
0.0
  0
LINE
  8
別途部材
  6
CONTINUOUS
 10
6.779532
 20
20.747365
 11
6.379532
 21
21.147365
  0
LINE
  8
別途部材
  6
CONTINUOUS
 10
4.712865
 20
22.814033
 11
-3.34639
 21
30.87329
  0
LINE
  8
別途部材
  6
CONTINUOUS
 10
6.379532
 20
21.147365
 11
6.379532
 21
32.814033
  0
LINE
  8
別途部材
  6
CONTINUOUS
 10
6.779532
 20
20.747365
 11
6.779532
 21
32.814033
  0
LINE
  8
別途部材
  6
CONTINUOUS
 10
6.779532
 20
44.8807
 11
6.379532
 21
44.4807
  0
LINE
  8
別途部材
  6
CONTINUOUS
 10
4.712865
 20
42.814033
 11
-3.34639
 21
34.754775
  0
LINE
  8
別途部材
  6
CONTINUOUS
 10
6.379532
 20
44.4807
 11
6.379532
 21
32.814033
  0
LINE
  8
別途部材
  6
CONTINUOUS
 10
6.779532
 20
44.8807
 11
6.779532
 21
32.814033
  0
LINE
  8
別途部材
  6
CONTINUOUS
 10
6.779532
 20
44.8807
 11
-45.287135
 21
44.8807
  0
LINE
  8
別途部材
  6
CONTINUOUS
 10
6.379532
 20
44.4807
 11
-45.287135
 21
44.4807
  0
LINE
  8
別途部材
  6
CONTINUOUS
 10
6.379532
 20
21.147365
 11
-45.287135
 21
21.147365
  0
LINE
  8
別途部材
  6
CONTINUOUS
 10
6.779532
 20
20.747365
 11
-45.287135
 21
20.747365
  0
LINE
  8
別途部材
  6
CONTINUOUS
 10
-97.353802
 20
20.747365
 11
-96.953802
 21
21.147365
  0
LINE
  8
別途部材
  6
CONTINUOUS
 10
-95.287135
 20
22.814033
 11
-87.22788
 21
30.87329
  0
LINE
  8
別途部材
  6
CONTINUOUS
 10
-96.953802
 20
21.147365
 11
-96.953802
 21
32.814033
  0
LINE
  8
別途部材
  6
CONTINUOUS
 10
-97.353802
 20
20.747365
 11
-97.353802
 21
32.814033
  0
LINE
  8
別途部材
  6
CONTINUOUS
 10
-97.353802
 20
44.8807
 11
-96.953802
 21
44.4807
  0
LINE
  8
別途部材
  6
CONTINUOUS
 10
-95.287135
 20
42.814033
 11
-87.22788
 21
34.754775
  0
LINE
  8
別途部材
  6
CONTINUOUS
 10
-96.953802
 20
44.4807
 11
-96.953802
 21
32.814033
  0
LINE
  8
別途部材
  6
CONTINUOUS
 10
-97.353802
 20
44.8807
 11
-97.353802
 21
32.814033
  0
LINE
  8
別途部材
  6
CONTINUOUS
 10
-97.353802
 20
44.8807
 11
-45.287135
 21
44.8807
  0
LINE
  8
別途部材
  6
CONTINUOUS
 10
-96.953802
 20
44.4807
 11
-45.287135
 21
44.4807
  0
LINE
  8
別途部材
  6
CONTINUOUS
 10
-96.953802
 20
21.147365
 11
-45.287135
 21
21.147365
  0
LINE
  8
別途部材
  6
CONTINUOUS
 10
-97.353802
 20
20.747365
 11
-45.287135
 21
20.747365
  0
INSERT
  2
*GRP_0007
  8
別途部材
  6
CONTINUOUS
 10
0.0
 20
0.0
  0
LINE
  8
別途部材
  6
CONTINUOUS
 62
    96
 10
102.389627
 20
21.147365
 11
103.389627
 21
20.747365
  0
LINE
  8
別途部材
  6
CONTINUOUS
 62
    96
 10
102.389627
 20
21.147365
 11
102.389627
 21
32.814033
  0
LINE
  8
別途部材
  6
CONTINUOUS
 10
103.389627
 20
20.747365
 11
103.389627
 21
32.814033
  0
LINE
  8
別途部材
  6
CONTINUOUS
 62
    96
 10
102.389627
 20
44.4807
 11
103.389627
 21
44.8807
  0
LINE
  8
別途部材
  6
CONTINUOUS
 62
    96
 10
102.389627
 20
44.4807
 11
102.389627
 21
32.814033
  0
LINE
  8
別途部材
  6
CONTINUOUS
 10
103.389627
 20
44.8807
 11
103.389627
 21
32.814033
  0
ARC
  8
別途部材
  6
CONTINUOUS
 10
109.097963
 20
32.814033
 40
12.041667
 50
123.855033
 51
236.144967
  0
INSERT
  2
*GRP_0027
  8
別途部材
  6
DOT
 10
0.0
 20
0.0
  0
INSERT
  2
*GRP_0028
  8
別途部材
  6
DOT
 10
0.0
 20
0.0
  0
INSERT
  2
*GRP_0030
  8
別途部材
  6
DOT
 10
0.0
 20
0.0
  0
INSERT
  2
*GRP_0031
  8
別途部材
  6
DOT
 10
0.0
 20
0.0
  0
INSERT
  2
*GRP_0032
  8
別途部材
  6
DOT
 10
0.0
 20
0.0
  0
INSERT
  2
*GRP_0033
  8
別途部材
  6
DOT
 10
0.0
 20
0.0
  0
INSERT
  2
*GRP_0037
  8
別途部材
  6
DOT
 10
0.0
 20
0.0
  0
INSERT
  2
*GRP_0038
  8
別途部材
  6
DOT
 10
0.0
 20
0.0
  0
POLYLINE
  8
曲げ物
  6
CONTINUOUS
 66
     1
 70
     1
  0
VERTEX
  8
曲げ物
 10
102.9651
 20
-58.72607
  0
VERTEX
  8
曲げ物
 10
70.3651
 20
-58.72607
  0
VERTEX
  8
曲げ物
 10
70.3651
 20
-78.72607
  0
VERTEX
  8
曲げ物
 10
102.9651
 20
-78.72607
  0
SEQEND
  0
INSERT
  2
*GRP_0029
  8
曲げ物
  6
CONTINUOUS
 10
0.0
 20
0.0
  0
INSERT
  2
*GRP_0036
  8
曲げ物
  6
CONTINUOUS
 10
0.0
 20
0.0
  0
LINE
  8
鉄骨等
  6
CONTINUOUS
 62
    47
 10
105.756417
 20
20.0507
 11
104.58975
 21
20.0507
  0
LINE
  8
鉄骨等
  6
CONTINUOUS
 62
    47
 10
104.58975
 20
20.0507
 11
103.43975
 21
21.453885
  0
LINE
  8
鉄骨等
  6
CONTINUOUS
 62
    47
 10
103.43975
 20
21.453885
 11
103.38963
 21
21.453885
  0
LINE
  8
鉄骨等
  6
CONTINUOUS
 62
    47
 10
105.756417
 20
45.577365
 11
104.58975
 21
45.577365
  0
LINE
  8
鉄骨等
  6
CONTINUOUS
 62
    47
 10
104.58975
 20
45.577365
 11
103.43975
 21
44.17418
  0
LINE
  8
鉄骨等
  6
CONTINUOUS
 62
    47
 10
103.43975
 20
44.17418
 11
103.38963
 21
44.17418
  0
LINE
  8
鉄骨等
  6
CONTINUOUS
 62
    47
 10
-98.050465
 20
-73.576403
 11
-98.050465
 21
-72.409735
  0
LINE
  8
鉄骨等
  6
CONTINUOUS
 62
    47
 10
-98.050465
 20
-72.409735
 11
-96.64728
 21
-71.259735
  0
LINE
  8
鉄骨等
  6
CONTINUOUS
 62
    47
 10
-96.64728
 20
-71.259735
 11
-96.64728
 21
-71.209615
  0
LINE
  8
鉄骨等
  6
CONTINUOUS
 62
    47
 10
7.476195
 20
-73.576403
 11
7.476195
 21
-72.409735
  0
LINE
  8
鉄骨等
  6
CONTINUOUS
 62
    47
 10
7.476195
 20
-72.409735
 11
6.07301
 21
-71.259735
  0
LINE
  8
鉄骨等
  6
CONTINUOUS
 62
    47
 10
6.07301
 20
-71.259735
 11
6.07301
 21
-71.209615
  0
ENDSEC
  0
EOF
