  0
SECTION
  2
HEADER
  9
$EXTMIN
 10
-210.0
 20
-148.5
  9
$EXTMAX
 10
210.0
 20
148.5
  9
$PDMODE
 70
    32
  9
$PDSIZE
 40
1.5
  9
$LTSCALE
 40
10.0
  0
ENDSEC
  0
SECTION
  2
TABLES
  0
TABLE
  2
LTYPE
 70
    15
  0
LTYPE
  2
CONTINUOUS
 70
    64
  3
実線
 72
    65
 73
     0
 40
0.0
  0
LTYPE
  2
DASHED
 70
    64
  3
破線A
 72
    65
 73
     2
 40
0.6
 49
0.4
 49
-0.2
  0
LTYPE
  2
DASHEDX2
 70
    64
  3
破線B
 72
    65
 73
     2
 40
1.3
 49
0.9
 49
-0.4
  0
LTYPE
  2
DASHDOT
 70
    64
  3
１点鎖線A
 72
    65
 73
     4
 40
0.5375
 49
0.375
 49
-0.05
 49
0.0625
 49
-0.05
  0
LTYPE
  2
DASHDOTX2
 70
    64
  3
１点鎖線B
 72
    65
 73
     4
 40
1.075
 49
0.75
 49
-0.1
 49
0.125
 49
-0.1
  0
LTYPE
  2
DIVIDE2
 70
    64
  3
２点鎖線A
 72
    65
 73
     6
 40
0.5125
 49
0.3
 49
-0.0375
 49
0.05
 49
-0.0375
 49
0.05
 49
-0.0375
  0
LTYPE
  2
DIVIDE
 70
    64
  3
２点鎖線B
 72
    65
 73
     6
 40
1.05
 49
0.55
 49
-0.1
 49
0.1
 49
-0.1
 49
0.1
 49
-0.1
  0
LTYPE
  2
DOT
 70
    64
  3
点線A
 72
    65
 73
     2
 40
0.1125
 49
0.0625
 49
-0.05
  0
LTYPE
  2
DOTX2
 70
    64
  3
点線B
 72
    65
 73
     2
 40
0.275
 49
0.15
 49
-0.125
  0
LTYPE
  2
CONTINUOUS
 70
    64
  3
実線
 72
    65
 73
     0
 40
0.0
  0
LTYPE
  2
CONTINUOUS
 70
    64
  3
実線
 72
    65
 73
     0
 40
0.0
  0
LTYPE
  2
CONTINUOUS
 70
    64
  3
実線
 72
    65
 73
     0
 40
0.0
  0
LTYPE
  2
CONTINUOUS
 70
    64
  3
実線
 72
    65
 73
     0
 40
0.0
  0
LTYPE
  2
CONTINUOUS
 70
    64
  3
実線
 72
    65
 73
     0
 40
0.0
  0
LTYPE
  2
CONTINUOUS
 70
    64
  3
実線
 72
    65
 73
     0
 40
0.0
  0
ENDTAB
  0
TABLE
  2
LAYER
 70
    34
  0
LAYER
  2
通り芯
 70
     0
 62
    15
  6
CONTINUOUS
  0
LAYER
  2
補助線
 70
     0
 62
    16
  6
DOT
  0
LAYER
  2
躯体
 70
     0
 62
    31
  6
CONTINUOUS
  0
LAYER
  2
型材
 70
     0
 62
    32
  6
CONTINUOUS
  0
LAYER
  2
型材断面
 70
     0
 62
    47
  6
CONTINUOUS
  0
LAYER
  2
ガラス
 70
     0
 62
    48
  6
CONTINUOUS
  0
LAYER
  2
ゴム等
 70
     0
 62
    63
  6
CONTINUOUS
  0
LAYER
  2
ボルト／ビス
 70
     0
 62
    64
  6
CONTINUOUS
  0
LAYER
  2
文字
 70
     0
 62
    79
  6
CONTINUOUS
  0
LAYER
  2
寸法
 70
     0
 62
    80
  6
CONTINUOUS
  0
LAYER
  2
ﾊｯﾁﾝｸﾞ
 70
     0
 62
    95
  6
CONTINUOUS
  0
LAYER
  2
別途部材
 70
     0
 62
    96
  6
CONTINUOUS
  0
LAYER
  2
曲げ物
 70
     0
 62
   111
  6
CONTINUOUS
  0
LAYER
  2
鉄骨等
 70
     0
 62
   112
  6
CONTINUOUS
  0
LAYER
  2
St
 70
     0
 62
   127
  6
CONTINUOUS
  0
LAYER
  2
その他部品等
 70
     0
 62
   128
  6
CONTINUOUS
  0
LAYER
  2
ｶﾞｽｹｯﾄ
 70
     0
 62
   143
  6
CONTINUOUS
  0
LAYER
  2
ｽｹｯﾁ
 70
     0
 62
    14
  6
CONTINUOUS
  0
LAYER
  2
0
 70
     0
 62
    17
  6
CONTINUOUS
  0
LAYER
  2
1
 70
     0
 62
    30
  6
CONTINUOUS
  0
LAYER
  2
4
 70
     0
 62
    33
  6
CONTINUOUS
  0
LAYER
  2
ﾚｲﾔ3
 70
     0
 62
    46
  6
CONTINUOUS
  0
LAYER
  2
外形線
 70
     0
 62
    49
  6
CONTINUOUS
  0
LAYER
  2
部品
 70
     0
 62
    14
  6
CONTINUOUS
  0
LAYER
  2
サッシ芯
 70
     0
 62
    17
  6
DASHDOTX2
  0
LAYER
  2
寸法線
 70
     0
 62
    62
  6
CONTINUOUS
  0
LAYER
  2
姿図外形線
 70
     0
 62
    65
  6
CONTINUOUS
  0
LAYER
  2
姿補助線
 70
     0
 62
    30
  6
CONTINUOUS
  0
LAYER
  2
透視線
 70
     0
 62
    78
  6
DOT
  0
LAYER
  2
用紙
 70
     0
 62
    81
  6
CONTINUOUS
  0
LAYER
  2
実線図枠
 70
     0
 62
    94
  6
CONTINUOUS
  0
LAYER
  2
補助図枠
 70
     0
 62
    97
  6
CONTINUOUS
  0
LAYER
  2
建具記号
 70
     0
 62
   110
  6
CONTINUOUS
  0
LAYER
  2
補助文字
 70
     0
 62
   113
  6
CONTINUOUS
  0
ENDTAB
  0
TABLE
  2
STYLE
 70
    10
  0
STYLE
  2
STANDARD
 70
     0
 40
1.0
 41
1.0
 42
1.0
 50
0.0
 71
     0
  3
TXT
  4
BIGFONT
  0
STYLE
  2
TATE
 70
     4
 40
1.0
 41
1.0
 42
1.0
 50
0.0
 71
     0
  3
TXT
  4
BIGFONT
  0
STYLE
  2
TextStyle03
 70
     0
 40
1.0
 41
1.0
 42
1.0
 50
0.0
 71
     0
  3
MONOTXT
  4
BIGFONT
  0
STYLE
  2
TextStyle04
 70
     0
 40
1.0
 41
1.0
 42
1.0
 50
0.0
 71
     0
  3
MONOTXT
  4
BIGFONT
  0
STYLE
  2
TextStyle05
 70
     0
 40
1.0
 41
1.0
 42
1.0
 50
0.0
 71
     0
  3
MONOTXT
  4
BIGFONT
  0
STYLE
  2
TextStyle06
 70
     0
 40
1.0
 41
1.0
 42
1.0
 50
0.0
 71
     0
  3
MONOTXT
  4
BIGFONT
  0
STYLE
  2
TextStyle07
 70
     0
 40
1.0
 41
1.0
 42
1.0
 50
0.0
 71
     0
  3
MONOTXT
  4
BIGFONT
  0
STYLE
  2
TextStyle08
 70
     0
 40
1.0
 41
1.0
 42
1.0
 50
0.0
 71
     0
  3
MONOTXT
  4
BIGFONT
  0
STYLE
  2
TextStyle09
 70
     0
 40
1.0
 41
1.0
 42
1.0
 50
0.0
 71
     0
  3
MONOTXT
  4
BIGFONT
  0
STYLE
  2
TextStyle10
 70
     0
 40
1.0
 41
1.0
 42
1.0
 50
0.0
 71
     0
  3
MONOTXT
  4
BIGFONT
  0
ENDTAB
  0
ENDSEC
  0
SECTION
  2
BLOCKS
  0
BLOCK
  2
*GRP_0001
 70
    65
 10
0.0
 20
0.0
  0
LINE
  8
型材断面
  6
CONTINUOUS
 10
195.0
 20
133.5
 11
195.0
 21
-133.5
  0
LINE
  8
型材断面
  6
CONTINUOUS
 10
195.0
 20
-133.5
 11
-185.0
 21
-133.5
  0
LINE
  8
型材断面
  6
CONTINUOUS
 10
-185.0
 20
-133.5
 11
-185.0
 21
133.5
  0
LINE
  8
型材断面
  6
CONTINUOUS
 10
195.0
 20
133.5
 11
-185.0
 21
133.5
  0
LINE
  8
型材断面
  6
CONTINUOUS
 10
145.0
 20
-133.5
 11
145.0
 21
-118.5
  0
LINE
  8
型材断面
  6
CONTINUOUS
 10
195.0
 20
-118.5
 11
145.0
 21
-118.5
  0
ENDBLK
  0
BLOCK
  2
*DIM_0002
 70
    65
 10
0.0
 20
0.0
  0
LINE
  8
寸法
  6
BYBLOCK
 62
     0
 10
-4.287135
 20
-64.87628
 11
20.682515
 21
-64.87628
  0
LINE
  8
寸法
  6
BYBLOCK
 62
     0
 10
20.682515
 20
-70.209613
 11
20.682515
 21
-64.87628
  0
POINT
  8
寸法
 62
     0
 10
20.682515
 20
-70.209613
  0
POINT
  8
寸法
 62
     0
 10
20.682515
 20
-64.87628
  0
TEXT
  7
TextStyle03
  8
寸法
  6
CONTINUOUS
 62
     0
 10
20.3
 20
-69.9875
  1
160
 40
3.0
 50
90.0
 72
     5
 11
20.3
 21
-65.1125
  0
ENDBLK
  0
BLOCK
  2
*DIM_0003
 70
    65
 10
0.0
 20
0.0
  0
LINE
  8
寸法
  6
BYBLOCK
 62
     0
 10
4.712865
 20
-13.121378
 11
-78.620467
 21
-13.121378
  0
POINT
  8
寸法
 62
     0
 10
4.712865
 20
-13.121378
  0
POINT
  8
寸法
 62
     0
 10
-78.620467
 20
-13.121378
  0
TEXT
  7
TextStyle03
  8
寸法
  6
CONTINUOUS
 62
     0
 10
-48.69375
 20
-12.75
  1
呼称寸法　2500
 40
3.0
 72
     5
 11
-25.25625
 21
-12.75
  0
ENDBLK
  0
BLOCK
  2
*DIM_0004
 70
    65
 10
0.0
 20
0.0
  0
LINE
  8
寸法
  6
BYBLOCK
 62
     0
 10
-61.9538
 20
19.183902
 11
-61.9538
 21
14.01842
  0
LINE
  8
寸法
  6
BYBLOCK
 62
     0
 10
-11.953805
 20
19.183902
 11
-11.953805
 21
14.01842
  0
LINE
  8
寸法
  6
BYBLOCK
 62
     0
 10
-61.9538
 20
14.01842
 11
-11.953805
 21
14.01842
  0
POINT
  8
寸法
 62
     0
 10
-61.9538
 20
14.01842
  0
POINT
  8
寸法
 62
     0
 10
-11.953805
 20
14.01842
  0
TEXT
  7
TextStyle03
  8
寸法
  6
CONTINUOUS
 62
     0
 10
-40.23125
 20
14.375
  1
1500
 40
3.0
 72
     5
 11
-33.66875
 21
14.375
  0
ENDBLK
  0
BLOCK
  2
*DIM_0005
 70
    65
 10
0.0
 20
0.0
  0
LINE
  8
寸法
  6
BYBLOCK
 62
     0
 10
5.712865
 20
42.814035
 11
15.437147
 21
42.814035
  0
LINE
  8
寸法
  6
BYBLOCK
 62
     0
 10
8.342995
 20
39.114035
 11
15.437147
 21
39.114035
  0
LINE
  8
寸法
  6
BYBLOCK
 62
     0
 10
15.437147
 20
42.814035
 11
15.437147
 21
39.114035
  0
POINT
  8
寸法
 62
     0
 10
15.437147
 20
42.814035
  0
POINT
  8
寸法
 62
     0
 10
15.437147
 20
39.114035
  0
TEXT
  7
TextStyle03
  8
寸法
  6
CONTINUOUS
 62
     0
 10
15.125
 20
43.8125
  1
111
 40
3.0
 50
90.0
 72
     5
 11
15.125
 21
48.6875
  0
ENDBLK
  0
BLOCK
  2
*DIM_0006
 70
    65
 10
0.0
 20
0.0
  0
LINE
  8
寸法
  6
BYBLOCK
 62
     0
 10
5.712865
 20
22.81403
 11
15.437147
 21
22.814027
  0
LINE
  8
寸法
  6
BYBLOCK
 62
     0
 10
8.342995
 20
26.51403
 11
15.437147
 21
26.514027
  0
LINE
  8
寸法
  6
BYBLOCK
 62
     0
 10
15.437147
 20
22.814027
 11
15.437147
 21
26.514027
  0
POINT
  8
寸法
 62
     0
 10
15.437147
 20
22.814027
  0
POINT
  8
寸法
 62
     0
 10
15.437147
 20
26.514027
  0
TEXT
  7
TextStyle03
  8
寸法
  6
CONTINUOUS
 62
     0
 10
15.45
 20
16.5625
  1
111
 40
3.0
 50
90.0
 72
     5
 11
15.45
 21
21.4375
  0
ENDBLK
  0
BLOCK
  2
*GRP_0007
 70
    65
 10
0.0
 20
0.0
  0
LINE
  8
別途部材
  6
CONTINUOUS
 62
    96
 10
-80.287135
 20
-70.209613
 11
-80.687135
 21
-71.209613
  0
ARC
  8
別途部材
  6
CONTINUOUS
 10
-68.62047
 20
-76.917948
 40
12.041668
 50
90.0
 51
146.144967
  0
LINE
  8
別途部材
  6
CONTINUOUS
 10
-80.687135
 20
-71.209613
 11
-36.9538
 21
-71.209613
  0
LINE
  8
別途部材
  6
CONTINUOUS
 62
    96
 10
-80.287135
 20
-70.209613
 11
-36.9538
 21
-70.209613
  0
LINE
  8
別途部材
  6
CONTINUOUS
 10
-37.4538
 20
-63.87628
 11
-38.4538
 21
-64.87628
  0
LINE
  8
別途部材
  6
CONTINUOUS
 10
-39.4538
 20
-64.87628
 11
-40.4538
 21
-63.87628
  0
LINE
  8
別途部材
  6
CONTINUOUS
 10
-41.4538
 20
-63.87628
 11
-42.4538
 21
-64.87628
  0
LINE
  8
別途部材
  6
CONTINUOUS
 10
-40.4538
 20
-63.87628
 11
-41.4538
 21
-63.87628
  0
LINE
  8
別途部材
  6
CONTINUOUS
 10
-37.4538
 20
-63.87628
 11
-36.9538
 21
-63.87628
  0
LINE
  8
別途部材
  6
CONTINUOUS
 10
-43.4538
 20
-64.87628
 11
-44.4538
 21
-63.87628
  0
LINE
  8
別途部材
  6
CONTINUOUS
 10
-45.4538
 20
-63.87628
 11
-46.4538
 21
-64.87628
  0
LINE
  8
別途部材
  6
CONTINUOUS
 10
-44.4538
 20
-63.87628
 11
-45.4538
 21
-63.87628
  0
LINE
  8
別途部材
  6
CONTINUOUS
 10
-47.4538
 20
-64.87628
 11
-48.4538
 21
-63.87628
  0
LINE
  8
別途部材
  6
CONTINUOUS
 10
-49.4538
 20
-63.87628
 11
-50.4538
 21
-64.87628
  0
LINE
  8
別途部材
  6
CONTINUOUS
 10
-48.4538
 20
-63.87628
 11
-49.4538
 21
-63.87628
  0
LINE
  8
別途部材
  6
CONTINUOUS
 10
-51.4538
 20
-64.87628
 11
-52.4538
 21
-63.87628
  0
LINE
  8
別途部材
  6
CONTINUOUS
 10
-53.4538
 20
-63.87628
 11
-54.4538
 21
-64.87628
  0
LINE
  8
別途部材
  6
CONTINUOUS
 10
-52.4538
 20
-63.87628
 11
-53.4538
 21
-63.87628
  0
LINE
  8
別途部材
  6
CONTINUOUS
 10
-55.4538
 20
-64.87628
 11
-56.4538
 21
-63.87628
  0
LINE
  8
別途部材
  6
CONTINUOUS
 10
-57.4538
 20
-63.87628
 11
-58.4538
 21
-64.87628
  0
LINE
  8
別途部材
  6
CONTINUOUS
 10
-56.4538
 20
-63.87628
 11
-57.4538
 21
-63.87628
  0
LINE
  8
別途部材
  6
CONTINUOUS
 10
-59.4538
 20
-64.87628
 11
-60.4538
 21
-63.87628
  0
LINE
  8
別途部材
  6
CONTINUOUS
 10
-61.4538
 20
-63.87628
 11
-62.4538
 21
-64.87628
  0
LINE
  8
別途部材
  6
CONTINUOUS
 10
-60.4538
 20
-63.87628
 11
-61.4538
 21
-63.87628
  0
LINE
  8
別途部材
  6
CONTINUOUS
 10
-63.4538
 20
-64.87628
 11
-64.4538
 21
-63.87628
  0
LINE
  8
別途部材
  6
CONTINUOUS
 10
-65.4538
 20
-63.87628
 11
-66.4538
 21
-64.87628
  0
LINE
  8
別途部材
  6
CONTINUOUS
 10
-64.4538
 20
-63.87628
 11
-65.4538
 21
-63.87628
  0
LINE
  8
別途部材
  6
CONTINUOUS
 10
-62.4538
 20
-64.87628
 11
-63.4538
 21
-64.87628
  0
LINE
  8
別途部材
  6
CONTINUOUS
 10
-58.4538
 20
-64.87628
 11
-59.4538
 21
-64.87628
  0
LINE
  8
別途部材
  6
CONTINUOUS
 10
-54.4538
 20
-64.87628
 11
-55.4538
 21
-64.87628
  0
LINE
  8
別途部材
  6
CONTINUOUS
 10
-50.4538
 20
-64.87628
 11
-51.4538
 21
-64.87628
  0
LINE
  8
別途部材
  6
CONTINUOUS
 10
-46.4538
 20
-64.87628
 11
-47.4538
 21
-64.87628
  0
LINE
  8
別途部材
  6
CONTINUOUS
 10
-42.4538
 20
-64.87628
 11
-43.4538
 21
-64.87628
  0
LINE
  8
別途部材
  6
CONTINUOUS
 10
-39.4538
 20
-64.87628
 11
-38.4538
 21
-64.87628
  0
LINE
  8
別途部材
  6
CONTINUOUS
 10
-65.4538
 20
-63.87628
 11
-65.4538
 21
-70.209613
  0
LINE
  8
別途部材
  6
CONTINUOUS
 10
-66.4538
 20
-64.87628
 11
-66.4538
 21
-70.209613
  0
LINE
  8
別途部材
  6
CONTINUOUS
 10
-63.4538
 20
-64.87628
 11
-63.4538
 21
-70.209613
  0
LINE
  8
別途部材
  6
CONTINUOUS
 10
-64.4538
 20
-63.87628
 11
-64.4538
 21
-70.209613
  0
LINE
  8
別途部材
  6
CONTINUOUS
 10
-62.4538
 20
-64.87628
 11
-62.4538
 21
-70.209613
  0
LINE
  8
別途部材
  6
CONTINUOUS
 10
-61.4538
 20
-63.87628
 11
-61.4538
 21
-70.209613
  0
LINE
  8
別途部材
  6
CONTINUOUS
 10
-57.4538
 20
-63.87628
 11
-57.4538
 21
-70.209613
  0
LINE
  8
別途部材
  6
CONTINUOUS
 10
-56.4538
 20
-63.87628
 11
-56.4538
 21
-70.209613
  0
LINE
  8
別途部材
  6
CONTINUOUS
 10
-58.4538
 20
-64.87628
 11
-58.4538
 21
-70.209613
  0
LINE
  8
別途部材
  6
CONTINUOUS
 10
-59.4538
 20
-64.87628
 11
-59.4538
 21
-70.209613
  0
LINE
  8
別途部材
  6
CONTINUOUS
 10
-60.4538
 20
-63.87628
 11
-60.4538
 21
-70.209613
  0
LINE
  8
別途部材
  6
CONTINUOUS
 10
-55.4538
 20
-64.87628
 11
-55.4538
 21
-70.209613
  0
LINE
  8
別途部材
  6
CONTINUOUS
 10
-53.4538
 20
-63.87628
 11
-53.4538
 21
-70.209613
  0
LINE
  8
別途部材
  6
CONTINUOUS
 10
-52.4538
 20
-63.87628
 11
-52.4538
 21
-70.209613
  0
LINE
  8
別途部材
  6
CONTINUOUS
 10
-51.4538
 20
-64.87628
 11
-51.4538
 21
-70.209613
  0
LINE
  8
別途部材
  6
CONTINUOUS
 10
-50.4538
 20
-64.87628
 11
-50.4538
 21
-70.209613
  0
LINE
  8
別途部材
  6
CONTINUOUS
 10
-49.4538
 20
-63.87628
 11
-49.4538
 21
-70.209613
  0
LINE
  8
別途部材
  6
CONTINUOUS
 10
-54.4538
 20
-64.87628
 11
-54.4538
 21
-70.209613
  0
LINE
  8
別途部材
  6
CONTINUOUS
 10
-48.4538
 20
-63.87628
 11
-48.4538
 21
-70.209613
  0
LINE
  8
別途部材
  6
CONTINUOUS
 10
-47.4538
 20
-64.87628
 11
-47.4538
 21
-70.209613
  0
LINE
  8
別途部材
  6
CONTINUOUS
 10
-46.4538
 20
-64.87628
 11
-46.4538
 21
-70.209613
  0
LINE
  8
別途部材
  6
CONTINUOUS
 10
-44.4538
 20
-63.87628
 11
-44.4538
 21
-70.209613
  0
LINE
  8
別途部材
  6
CONTINUOUS
 10
-42.4538
 20
-64.87628
 11
-42.4538
 21
-70.209613
  0
LINE
  8
別途部材
  6
CONTINUOUS
 10
-41.4538
 20
-63.87628
 11
-41.4538
 21
-70.209613
  0
LINE
  8
別途部材
  6
CONTINUOUS
 10
-39.4538
 20
-64.87628
 11
-39.4538
 21
-70.209613
  0
LINE
  8
別途部材
  6
CONTINUOUS
 10
-38.4538
 20
-64.87628
 11
-38.4538
 21
-70.209613
  0
LINE
  8
別途部材
  6
CONTINUOUS
 10
-37.4538
 20
-63.87628
 11
-37.4538
 21
-70.209613
  0
LINE
  8
別途部材
  6
CONTINUOUS
 10
-40.4538
 20
-63.87628
 11
-40.4538
 21
-70.209613
  0
LINE
  8
別途部材
  6
CONTINUOUS
 10
-43.4538
 20
-64.87628
 11
-43.4538
 21
-70.209613
  0
LINE
  8
別途部材
  6
CONTINUOUS
 10
-45.4538
 20
-63.87628
 11
-45.4538
 21
-70.209613
  0
LINE
  8
別途部材
  6
CONTINUOUS
 10
-66.4538
 20
-64.87628
 11
-68.620467
 21
-64.87628
  0
LINE
  8
別途部材
  6
CONTINUOUS
 62
    96
 10
6.379532
 20
-70.209613
 11
6.779532
 21
-71.209613
  0
ARC
  8
別途部材
  6
CONTINUOUS
 10
-5.287131
 20
-76.917948
 40
12.041668
 50
33.855033
 51
90.0
  0
LINE
  8
別途部材
  6
CONTINUOUS
 10
6.779532
 20
-71.209613
 11
-36.9538
 21
-71.209613
  0
LINE
  8
別途部材
  6
CONTINUOUS
 62
    96
 10
6.379532
 20
-70.209613
 11
-36.9538
 21
-70.209613
  0
LINE
  8
別途部材
  6
CONTINUOUS
 10
-36.4538
 20
-63.87628
 11
-35.4538
 21
-64.87628
  0
LINE
  8
別途部材
  6
CONTINUOUS
 10
-34.4538
 20
-64.87628
 11
-33.4538
 21
-63.87628
  0
LINE
  8
別途部材
  6
CONTINUOUS
 10
-32.4538
 20
-63.87628
 11
-31.4538
 21
-64.87628
  0
LINE
  8
別途部材
  6
CONTINUOUS
 10
-33.4538
 20
-63.87628
 11
-32.4538
 21
-63.87628
  0
LINE
  8
別途部材
  6
CONTINUOUS
 10
-36.4538
 20
-63.87628
 11
-36.9538
 21
-63.87628
  0
LINE
  8
別途部材
  6
CONTINUOUS
 10
-30.4538
 20
-64.87628
 11
-29.4538
 21
-63.87628
  0
LINE
  8
別途部材
  6
CONTINUOUS
 10
-28.4538
 20
-63.87628
 11
-27.4538
 21
-64.87628
  0
LINE
  8
別途部材
  6
CONTINUOUS
 10
-29.4538
 20
-63.87628
 11
-28.4538
 21
-63.87628
  0
LINE
  8
別途部材
  6
CONTINUOUS
 10
-26.4538
 20
-64.87628
 11
-25.4538
 21
-63.87628
  0
LINE
  8
別途部材
  6
CONTINUOUS
 10
-24.4538
 20
-63.87628
 11
-23.4538
 21
-64.87628
  0
LINE
  8
別途部材
  6
CONTINUOUS
 10
-25.4538
 20
-63.87628
 11
-24.4538
 21
-63.87628
  0
LINE
  8
別途部材
  6
CONTINUOUS
 10
-22.4538
 20
-64.87628
 11
-21.4538
 21
-63.87628
  0
LINE
  8
別途部材
  6
CONTINUOUS
 10
-20.4538
 20
-63.87628
 11
-19.4538
 21
-64.87628
  0
LINE
  8
別途部材
  6
CONTINUOUS
 10
-21.4538
 20
-63.87628
 11
-20.4538
 21
-63.87628
  0
LINE
  8
別途部材
  6
CONTINUOUS
 10
-18.4538
 20
-64.87628
 11
-17.4538
 21
-63.87628
  0
LINE
  8
別途部材
  6
CONTINUOUS
 10
-16.4538
 20
-63.87628
 11
-15.4538
 21
-64.87628
  0
LINE
  8
別途部材
  6
CONTINUOUS
 10
-17.4538
 20
-63.87628
 11
-16.4538
 21
-63.87628
  0
LINE
  8
別途部材
  6
CONTINUOUS
 10
-14.4538
 20
-64.87628
 11
-13.4538
 21
-63.87628
  0
LINE
  8
別途部材
  6
CONTINUOUS
 10
-12.4538
 20
-63.87628
 11
-11.4538
 21
-64.87628
  0
LINE
  8
別途部材
  6
CONTINUOUS
 10
-13.4538
 20
-63.87628
 11
-12.4538
 21
-63.87628
  0
LINE
  8
別途部材
  6
CONTINUOUS
 10
-10.4538
 20
-64.87628
 11
-9.4538
 21
-63.87628
  0
LINE
  8
別途部材
  6
CONTINUOUS
 10
-8.4538
 20
-63.87628
 11
-7.4538
 21
-64.87628
  0
LINE
  8
別途部材
  6
CONTINUOUS
 10
-9.4538
 20
-63.87628
 11
-8.4538
 21
-63.87628
  0
LINE
  8
別途部材
  6
CONTINUOUS
 10
-11.4538
 20
-64.87628
 11
-10.4538
 21
-64.87628
  0
LINE
  8
別途部材
  6
CONTINUOUS
 10
-15.4538
 20
-64.87628
 11
-14.4538
 21
-64.87628
  0
LINE
  8
別途部材
  6
CONTINUOUS
 10
-19.4538
 20
-64.87628
 11
-18.4538
 21
-64.87628
  0
LINE
  8
別途部材
  6
CONTINUOUS
 10
-23.4538
 20
-64.87628
 11
-22.4538
 21
-64.87628
  0
LINE
  8
別途部材
  6
CONTINUOUS
 10
-27.4538
 20
-64.87628
 11
-26.4538
 21
-64.87628
  0
LINE
  8
別途部材
  6
CONTINUOUS
 10
-31.4538
 20
-64.87628
 11
-30.4538
 21
-64.87628
  0
LINE
  8
別途部材
  6
CONTINUOUS
 10
-34.4538
 20
-64.87628
 11
-35.4538
 21
-64.87628
  0
LINE
  8
別途部材
  6
CONTINUOUS
 10
-8.4538
 20
-63.87628
 11
-8.4538
 21
-70.209613
  0
LINE
  8
別途部材
  6
CONTINUOUS
 10
-7.4538
 20
-64.87628
 11
-7.4538
 21
-70.209613
  0
LINE
  8
別途部材
  6
CONTINUOUS
 10
-10.4538
 20
-64.87628
 11
-10.4538
 21
-70.209613
  0
LINE
  8
別途部材
  6
CONTINUOUS
 10
-9.4538
 20
-63.87628
 11
-9.4538
 21
-70.209613
  0
LINE
  8
別途部材
  6
CONTINUOUS
 10
-11.4538
 20
-64.87628
 11
-11.4538
 21
-70.209613
  0
LINE
  8
別途部材
  6
CONTINUOUS
 10
-12.4538
 20
-63.87628
 11
-12.4538
 21
-70.209613
  0
LINE
  8
別途部材
  6
CONTINUOUS
 10
-16.4538
 20
-63.87628
 11
-16.4538
 21
-70.209613
  0
LINE
  8
別途部材
  6
CONTINUOUS
 10
-17.4538
 20
-63.87628
 11
-17.4538
 21
-70.209613
  0
LINE
  8
別途部材
  6
CONTINUOUS
 10
-15.4538
 20
-64.87628
 11
-15.4538
 21
-70.209613
  0
LINE
  8
別途部材
  6
CONTINUOUS
 10
-14.4538
 20
-64.87628
 11
-14.4538
 21
-70.209613
  0
LINE
  8
別途部材
  6
CONTINUOUS
 10
-13.4538
 20
-63.87628
 11
-13.4538
 21
-70.209613
  0
LINE
  8
別途部材
  6
CONTINUOUS
 10
-18.4538
 20
-64.87628
 11
-18.4538
 21
-70.209613
  0
LINE
  8
別途部材
  6
CONTINUOUS
 10
-20.4538
 20
-63.87628
 11
-20.4538
 21
-70.209613
  0
LINE
  8
別途部材
  6
CONTINUOUS
 10
-21.4538
 20
-63.87628
 11
-21.4538
 21
-70.209613
  0
LINE
  8
別途部材
  6
CONTINUOUS
 10
-22.4538
 20
-64.87628
 11
-22.4538
 21
-70.209613
  0
LINE
  8
別途部材
  6
CONTINUOUS
 10
-23.4538
 20
-64.87628
 11
-23.4538
 21
-70.209613
  0
LINE
  8
別途部材
  6
CONTINUOUS
 10
-24.4538
 20
-63.87628
 11
-24.4538
 21
-70.209613
  0
LINE
  8
別途部材
  6
CONTINUOUS
 10
-19.4538
 20
-64.87628
 11
-19.4538
 21
-70.209613
  0
LINE
  8
別途部材
  6
CONTINUOUS
 10
-25.4538
 20
-63.87628
 11
-25.4538
 21
-70.209613
  0
LINE
  8
別途部材
  6
CONTINUOUS
 10
-26.4538
 20
-64.87628
 11
-26.4538
 21
-70.209613
  0
LINE
  8
別途部材
  6
CONTINUOUS
 10
-27.4538
 20
-64.87628
 11
-27.4538
 21
-70.209613
  0
LINE
  8
別途部材
  6
CONTINUOUS
 10
-29.4538
 20
-63.87628
 11
-29.4538
 21
-70.209613
  0
LINE
  8
別途部材
  6
CONTINUOUS
 10
-31.4538
 20
-64.87628
 11
-31.4538
 21
-70.209613
  0
LINE
  8
別途部材
  6
CONTINUOUS
 10
-32.4538
 20
-63.87628
 11
-32.4538
 21
-70.209613
  0
LINE
  8
別途部材
  6
CONTINUOUS
 10
-34.4538
 20
-64.87628
 11
-34.4538
 21
-70.209613
  0
LINE
  8
別途部材
  6
CONTINUOUS
 10
-35.4538
 20
-64.87628
 11
-35.4538
 21
-70.209613
  0
LINE
  8
別途部材
  6
CONTINUOUS
 10
-36.4538
 20
-63.87628
 11
-36.4538
 21
-70.209613
  0
LINE
  8
別途部材
  6
CONTINUOUS
 10
-33.4538
 20
-63.87628
 11
-33.4538
 21
-70.209613
  0
LINE
  8
別途部材
  6
CONTINUOUS
 10
-30.4538
 20
-64.87628
 11
-30.4538
 21
-70.209613
  0
LINE
  8
別途部材
  6
CONTINUOUS
 10
-28.4538
 20
-63.87628
 11
-28.4538
 21
-70.209613
  0
LINE
  8
別途部材
  6
CONTINUOUS
 10
-7.4538
 20
-64.87628
 11
-5.287135
 21
-64.87628
  0
ENDBLK
  0
BLOCK
  2
*DIM_0008
 70
    65
 10
0.0
 20
0.0
  0
LINE
  8
寸法
  6
BYBLOCK
 62
     0
 10
-81.620467
 20
39.4807
 11
-94.913305
 21
39.4807
  0
LINE
  8
寸法
  6
BYBLOCK
 62
     0
 10
-81.620467
 20
26.147365
 11
-94.913305
 21
26.147365
  0
LINE
  8
寸法
  6
BYBLOCK
 62
     0
 10
-94.913305
 20
39.4807
 11
-94.913305
 21
26.147365
  0
POINT
  8
寸法
 62
     0
 10
-94.913305
 20
39.4807
  0
POINT
  8
寸法
 62
     0
 10
-94.913305
 20
26.147365
  0
TEXT
  7
TextStyle03
  8
寸法
  6
CONTINUOUS
 62
     0
 10
-95.325
 20
30.3625
  1
400
 40
3.0
 50
90.0
 72
     5
 11
-95.325
 21
35.2375
  0
ENDBLK
  0
BLOCK
  2
*DIM_0009
 70
    65
 10
0.0
 20
0.0
  0
LINE
  8
寸法
  6
BYBLOCK
 62
     0
 10
-71.953802
 20
45.814033
 11
-71.953802
 21
75.561652
  0
LINE
  8
寸法
  6
BYBLOCK
 62
     0
 10
-48.62047
 20
45.814033
 11
-48.62047
 21
75.561652
  0
LINE
  8
寸法
  6
BYBLOCK
 62
     0
 10
-71.953802
 20
75.561652
 11
-48.62047
 21
75.561652
  0
POINT
  8
寸法
 62
     0
 10
-71.953802
 20
75.561652
  0
POINT
  8
寸法
 62
     0
 10
-48.62047
 20
75.561652
  0
TEXT
  7
TextStyle03
  8
寸法
  6
CONTINUOUS
 62
     0
 10
-62.7125
 20
75.95
  1
700
 40
3.0
 72
     5
 11
-57.8375
 21
75.95
  0
ENDBLK
  0
BLOCK
  2
*DIM_0010
 70
    65
 10
0.0
 20
0.0
  0
LINE
  8
寸法
  6
BYBLOCK
 62
     0
 10
-25.287135
 20
45.814033
 11
-25.287135
 21
75.561652
  0
LINE
  8
寸法
  6
BYBLOCK
 62
     0
 10
-48.62047
 20
75.561652
 11
-25.287135
 21
75.561652
  0
POINT
  8
寸法
 62
     0
 10
-25.287135
 20
75.561652
  0
TEXT
  7
TextStyle03
  8
寸法
  6
CONTINUOUS
 62
     0
 10
-39.3875
 20
75.95
  1
700
 40
3.0
 72
     5
 11
-34.5125
 21
75.95
  0
ENDBLK
  0
BLOCK
  2
*DIM_0011
 70
    65
 10
0.0
 20
0.0
  0
LINE
  8
寸法
  6
BYBLOCK
 62
     0
 10
-1.953802
 20
45.814033
 11
-1.953802
 21
75.561652
  0
LINE
  8
寸法
  6
BYBLOCK
 62
     0
 10
-25.287135
 20
75.561652
 11
-1.953802
 21
75.561652
  0
POINT
  8
寸法
 62
     0
 10
-1.953802
 20
75.561652
  0
TEXT
  7
TextStyle03
  8
寸法
  6
CONTINUOUS
 62
     0
 10
-16.0375
 20
75.95
  1
700
 40
3.0
 72
     5
 11
-11.1625
 21
75.95
  0
ENDBLK
  0
BLOCK
  2
*GRP_0012
 70
    65
 10
0.0
 20
0.0
  0
LINE
  8
補助線
  6
BYBLOCK
 62
    64
 10
107.29605
 20
39.41701
 11
107.403533
 21
39.54439
  0
LINE
  8
補助線
  6
BYBLOCK
 62
    64
 10
107.2861
 20
39.53444
 11
107.41348
 21
39.42696
  0
LINE
  8
補助線
  6
BYBLOCK
 62
    64
 10
97.73038
 20
28.08009
 11
97.6229
 21
27.95271
  0
LINE
  8
補助線
  6
BYBLOCK
 62
    64
 10
97.61295
 20
28.07014
 11
97.740332
 21
27.96266
  0
LINE
  8
補助線
  6
BYBLOCK
 62
    64
 10
102.566937
 20
33.81226
 11
102.459457
 21
33.684878
  0
LINE
  8
補助線
  6
BYBLOCK
 62
    64
 10
102.449505
 20
33.802307
 11
102.576887
 21
33.694828
  0
LINE
  8
型材断面
  6
CONTINUOUS
 10
106.927847
 20
40.272862
 11
107.63243
 21
40.332562
  0
LINE
  8
型材断面
  6
CONTINUOUS
 10
107.63243
 20
40.332562
 11
108.141952
 21
39.902645
  0
LINE
  8
型材断面
  6
CONTINUOUS
 10
108.141952
 20
39.902645
 11
108.201655
 21
39.198063
  0
LINE
  8
型材断面
  6
CONTINUOUS
 10
96.824777
 20
28.299037
 11
96.88448
 21
27.594457
  0
LINE
  8
型材断面
  6
CONTINUOUS
 10
96.88448
 20
27.594457
 11
97.394002
 21
27.164535
  0
LINE
  8
型材断面
  6
CONTINUOUS
 10
97.394002
 20
27.164535
 11
98.098582
 21
27.22424
  0
LINE
  8
型材断面
  6
CONTINUOUS
 10
106.927847
 20
40.272862
 11
96.82477
 21
28.299115
  0
LINE
  8
型材断面
  6
CONTINUOUS
 10
108.201655
 20
39.198063
 11
98.09851
 21
27.224235
  0
LINE
  8
型材断面
  6
CONTINUOUS
 10
102.25844
 20
33.963528
 11
102.767963
 21
33.533607
  0
LINE
  8
ボルト／ビス
  6
CONTINUOUS
 62
    64
 10
107.114452
 20
39.679272
 11
107.40409
 21
39.783792
  0
LINE
  8
ボルト／ビス
  6
CONTINUOUS
 62
    64
 10
107.114452
 20
39.679272
 11
107.060155
 21
39.376175
  0
LINE
  8
ボルト／ビス
  6
CONTINUOUS
 62
    64
 10
107.58513
 20
39.282128
 11
107.639428
 21
39.585225
  0
LINE
  8
ボルト／ビス
  6
CONTINUOUS
 62
    64
 10
107.58513
 20
39.282128
 11
107.295492
 21
39.177605
  0
CIRCLE
  8
ボルト／ビス
  6
CONTINUOUS
 62
    64
 10
107.34979
 20
39.4807
 40
0.266668
  0
LINE
  8
ボルト／ビス
  6
CONTINUOUS
 62
    64
 10
107.060155
 20
39.376175
 11
107.295492
 21
39.177605
  0
LINE
  8
ボルト／ビス
  6
CONTINUOUS
 62
    64
 10
107.40409
 20
39.783792
 11
107.639428
 21
39.585225
  0
LINE
  8
ボルト／ビス
  6
CONTINUOUS
 62
    64
 10
97.441302
 20
28.21497
 11
97.387003
 21
27.911875
  0
LINE
  8
ボルト／ビス
  6
CONTINUOUS
 62
    64
 10
97.441302
 20
28.21497
 11
97.73094
 21
28.319495
  0
LINE
  8
ボルト／ビス
  6
CONTINUOUS
 62
    64
 10
97.91198
 20
27.81783
 11
97.622343
 21
27.713307
  0
LINE
  8
ボルト／ビス
  6
CONTINUOUS
 62
    64
 10
97.91198
 20
27.81783
 11
97.966275
 21
28.120925
  0
CIRCLE
  8
ボルト／ビス
  6
CONTINUOUS
 62
    64
 10
97.676642
 20
28.0164
 40
0.266668
  0
LINE
  8
ボルト／ビス
  6
CONTINUOUS
 62
    64
 10
97.73094
 20
28.319495
 11
97.966275
 21
28.120925
  0
LINE
  8
ボルト／ビス
  6
CONTINUOUS
 62
    64
 10
97.387003
 20
27.911875
 11
97.622343
 21
27.713307
  0
LINE
  8
ボルト／ビス
  6
CONTINUOUS
 62
    64
 10
102.277858
 20
33.94714
 11
102.22356
 21
33.644043
  0
LINE
  8
ボルト／ビス
  6
CONTINUOUS
 62
    64
 10
102.277858
 20
33.94714
 11
102.567495
 21
34.051665
  0
LINE
  8
ボルト／ビス
  6
CONTINUOUS
 62
    64
 10
102.748535
 20
33.549998
 11
102.458898
 21
33.445475
  0
LINE
  8
ボルト／ビス
  6
CONTINUOUS
 62
    64
 10
102.748535
 20
33.549998
 11
102.802835
 21
33.853092
  0
CIRCLE
  8
ボルト／ビス
  6
CONTINUOUS
 62
    64
 10
102.513198
 20
33.748567
 40
0.266668
  0
LINE
  8
ボルト／ビス
  6
CONTINUOUS
 62
    64
 10
102.567495
 20
34.051665
 11
102.802835
 21
33.853092
  0
LINE
  8
ボルト／ビス
  6
CONTINUOUS
 62
    64
 10
102.22356
 20
33.644043
 11
102.458898
 21
33.445475
  0
ENDBLK
  0
BLOCK
  2
*GRP_0013
 70
    65
 10
0.0
 20
0.0
  0
LINE
  8
補助線
  6
BYBLOCK
 62
    64
 10
107.29605
 20
28.080125
 11
107.403533
 21
27.952745
  0
LINE
  8
補助線
  6
BYBLOCK
 62
    64
 10
107.2861
 20
27.962695
 11
107.41348
 21
28.070175
  0
LINE
  8
補助線
  6
BYBLOCK
 62
    64
 10
97.73038
 20
39.417045
 11
97.6229
 21
39.544425
  0
LINE
  8
補助線
  6
BYBLOCK
 62
    64
 10
97.61295
 20
39.426995
 11
97.740332
 21
39.534475
  0
LINE
  8
補助線
  6
BYBLOCK
 62
    64
 10
102.566937
 20
33.684875
 11
102.459457
 21
33.812257
  0
LINE
  8
補助線
  6
BYBLOCK
 62
    64
 10
102.449505
 20
33.694828
 11
102.576887
 21
33.802307
  0
LINE
  8
型材断面
  6
CONTINUOUS
 10
106.927847
 20
27.224273
 11
107.63243
 21
27.164573
  0
LINE
  8
型材断面
  6
CONTINUOUS
 10
107.63243
 20
27.164573
 11
108.141952
 21
27.59449
  0
LINE
  8
型材断面
  6
CONTINUOUS
 10
108.141952
 20
27.59449
 11
108.201655
 21
28.299072
  0
LINE
  8
型材断面
  6
CONTINUOUS
 10
96.824777
 20
39.198098
 11
96.88448
 21
39.902678
  0
LINE
  8
型材断面
  6
CONTINUOUS
 10
96.88448
 20
39.902678
 11
97.394002
 21
40.3326
  0
LINE
  8
型材断面
  6
CONTINUOUS
 10
97.394002
 20
40.3326
 11
98.098582
 21
40.272895
  0
LINE
  8
型材断面
  6
CONTINUOUS
 10
106.927847
 20
27.224273
 11
96.82477
 21
39.19802
  0
LINE
  8
型材断面
  6
CONTINUOUS
 10
108.201655
 20
28.299072
 11
98.09851
 21
40.2729
  0
LINE
  8
型材断面
  6
CONTINUOUS
 10
102.25844
 20
33.533607
 11
102.767963
 21
33.963528
  0
LINE
  8
ボルト／ビス
  6
CONTINUOUS
 62
    64
 10
107.114452
 20
27.817863
 11
107.40409
 21
27.713343
  0
LINE
  8
ボルト／ビス
  6
CONTINUOUS
 62
    64
 10
107.114452
 20
27.817863
 11
107.060155
 21
28.12096
  0
LINE
  8
ボルト／ビス
  6
CONTINUOUS
 62
    64
 10
107.58513
 20
28.215007
 11
107.639428
 21
27.91191
  0
LINE
  8
ボルト／ビス
  6
CONTINUOUS
 62
    64
 10
107.58513
 20
28.215007
 11
107.295492
 21
28.31953
  0
CIRCLE
  8
ボルト／ビス
  6
CONTINUOUS
 62
    64
 10
107.34979
 20
28.016435
 40
0.266668
  0
LINE
  8
ボルト／ビス
  6
CONTINUOUS
 62
    64
 10
107.060155
 20
28.12096
 11
107.295492
 21
28.31953
  0
LINE
  8
ボルト／ビス
  6
CONTINUOUS
 62
    64
 10
107.40409
 20
27.713343
 11
107.639428
 21
27.91191
  0
LINE
  8
ボルト／ビス
  6
CONTINUOUS
 62
    64
 10
97.441302
 20
39.282165
 11
97.387003
 21
39.58526
  0
LINE
  8
ボルト／ビス
  6
CONTINUOUS
 62
    64
 10
97.441302
 20
39.282165
 11
97.73094
 21
39.17764
  0
LINE
  8
ボルト／ビス
  6
CONTINUOUS
 62
    64
 10
97.91198
 20
39.679305
 11
97.622343
 21
39.783828
  0
LINE
  8
ボルト／ビス
  6
CONTINUOUS
 62
    64
 10
97.91198
 20
39.679305
 11
97.966275
 21
39.37621
  0
CIRCLE
  8
ボルト／ビス
  6
CONTINUOUS
 62
    64
 10
97.676642
 20
39.480735
 40
0.266668
  0
LINE
  8
ボルト／ビス
  6
CONTINUOUS
 62
    64
 10
97.73094
 20
39.17764
 11
97.966275
 21
39.37621
  0
LINE
  8
ボルト／ビス
  6
CONTINUOUS
 62
    64
 10
97.387003
 20
39.58526
 11
97.622343
 21
39.783828
  0
LINE
  8
ボルト／ビス
  6
CONTINUOUS
 62
    64
 10
102.277858
 20
33.549995
 11
102.22356
 21
33.853092
  0
LINE
  8
ボルト／ビス
  6
CONTINUOUS
 62
    64
 10
102.277858
 20
33.549995
 11
102.567495
 21
33.44547
  0
LINE
  8
ボルト／ビス
  6
CONTINUOUS
 62
    64
 10
102.748535
 20
33.947137
 11
102.458898
 21
34.05166
  0
LINE
  8
ボルト／ビス
  6
CONTINUOUS
 62
    64
 10
102.748535
 20
33.947137
 11
102.802835
 21
33.644043
  0
CIRCLE
  8
ボルト／ビス
  6
CONTINUOUS
 62
    64
 10
102.513198
 20
33.748567
 40
0.266668
  0
LINE
  8
ボルト／ビス
  6
CONTINUOUS
 62
    64
 10
102.567495
 20
33.44547
 11
102.802835
 21
33.644043
  0
LINE
  8
ボルト／ビス
  6
CONTINUOUS
 62
    64
 10
102.22356
 20
33.853092
 11
102.458898
 21
34.05166
  0
ENDBLK
  0
BLOCK
  2
*DIM_0014
 70
    65
 10
0.0
 20
0.0
  0
LINE
  8
寸法
  6
BYBLOCK
 62
     0
 10
46.876013
 20
22.814033
 11
46.876013
 21
42.814033
  0
POINT
  8
寸法
 62
     0
 10
46.876013
 20
22.814033
  0
POINT
  8
寸法
 62
     0
 10
46.876013
 20
42.814033
  0
TEXT
  7
TextStyle03
  8
寸法
  6
CONTINUOUS
 62
     0
 10
46.5
 20
21.925
  1
呼称寸法　600
 40
3.0
 50
90.0
 72
     5
 11
46.5
 21
43.675
  0
ENDBLK
  0
BLOCK
  2
*DIM_0015
 70
    65
 10
0.0
 20
0.0
  0
LINE
  8
寸法
  6
BYBLOCK
 62
     0
 10
97.056295
 20
33.814033
 11
97.056295
 21
60.666798
  0
LINE
  8
寸法
  6
BYBLOCK
 62
     0
 10
102.389627
 20
60.666798
 11
97.056295
 21
60.666798
  0
POINT
  8
寸法
 62
     0
 10
102.389627
 20
60.666798
  0
POINT
  8
寸法
 62
     0
 10
97.056295
 20
60.666798
  0
TEXT
  7
TextStyle03
  8
寸法
  6
CONTINUOUS
 62
     0
 10
97.2875
 20
61.025
  1
160
 40
3.0
 72
     5
 11
102.1625
 21
61.025
  0
ENDBLK
  0
BLOCK
  2
*DIM_0016
 70
    65
 10
0.0
 20
0.0
  0
LINE
  8
寸法
  6
CONTINUOUS
 10
46.876013
 20
22.814033
 11
46.876013
 21
20.0507
  0
POINT
  8
寸法
 10
46.876013
 20
22.814033
  0
POINT
  8
寸法
 10
46.876013
 20
20.0507
  0
TEXT
  7
TextStyle03
  8
寸法
  6
CONTINUOUS
 10
46.0
 20
12.89375
  1
82.9
 40
3.0
 50
90.0
 72
     5
 11
46.0
 21
19.45625
  0
ENDBLK
  0
BLOCK
  2
*DIM_0017
 70
    65
 10
0.0
 20
0.0
  0
LINE
  8
寸法
  6
CONTINUOUS
 10
46.876013
 20
42.814033
 11
46.876013
 21
45.577365
  0
POINT
  8
寸法
 10
46.876013
 20
42.814033
  0
POINT
  8
寸法
 10
46.876013
 20
45.577365
  0
TEXT
  7
TextStyle03
  8
寸法
  6
CONTINUOUS
 10
45.75
 20
45.46875
  1
82.9
 40
3.0
 50
90.0
 72
     5
 11
45.75
 21
52.03125
  0
ENDBLK
  0
BLOCK
  2
*DIM_0018
 70
    65
 10
0.0
 20
0.0
  0
LINE
  8
寸法
  6
CONTINUOUS
 10
4.712865
 20
-13.121378
 11
7.476195
 21
-13.121378
  0
POINT
  8
寸法
 10
4.712865
 20
-13.121378
  0
POINT
  8
寸法
 10
7.476195
 20
-13.121378
  0
TEXT
  7
TextStyle03
  8
寸法
  6
CONTINUOUS
 10
5.29375
 20
-12.4
  1
82.9
 40
3.0
 72
     5
 11
11.85625
 21
-12.4
  0
ENDBLK
  0
BLOCK
  2
*DIM_0019
 70
    65
 10
0.0
 20
0.0
  0
LINE
  8
寸法
  6
CONTINUOUS
 10
-78.620467
 20
-13.121378
 11
-81.3838
 21
-13.121378
  0
POINT
  8
寸法
 10
-78.620467
 20
-13.121378
  0
POINT
  8
寸法
 10
-81.3838
 20
-13.121378
  0
TEXT
  7
TextStyle03
  8
寸法
  6
CONTINUOUS
 10
-85.83125
 20
-12.275
  1
82.9
 40
3.0
 72
     5
 11
-79.26875
 21
-12.275
  0
ENDBLK
  0
BLOCK
  2
*DIM_0022
 70
    65
 10
0.0
 20
0.0
  0
LINE
  8
寸法
  6
CONTINUOUS
 10
60.870867
 20
-53.351095
 11
60.870867
 21
-48.962147
  0
LINE
  8
寸法
  6
CONTINUOUS
 10
102.0042
 20
-53.351095
 11
102.0042
 21
-48.962147
  0
LINE
  8
寸法
  6
CONTINUOUS
 10
60.870867
 20
-48.962147
 11
102.0042
 21
-48.962147
  0
POINT
  8
寸法
 10
60.870867
 20
-48.962147
  0
POINT
  8
寸法
 10
102.0042
 20
-48.962147
  0
TEXT
  7
TextStyle03
  8
寸法
  6
CONTINUOUS
 10
78.14375
 20
-48.6
  1
1234
 40
3.0
 72
     5
 11
84.70625
 21
-48.6
  0
ENDBLK
  0
BLOCK
  2
*DIM_0023
 70
    65
 10
0.0
 20
0.0
  0
LINE
  8
寸法
  6
CONTINUOUS
 10
107.0042
 20
-58.351095
 11
111.32046
 21
-58.351095
  0
LINE
  8
寸法
  6
CONTINUOUS
 10
107.0042
 20
-78.351095
 11
111.32046
 21
-78.351095
  0
LINE
  8
寸法
  6
CONTINUOUS
 10
111.32046
 20
-58.351095
 11
111.32046
 21
-78.351095
  0
POINT
  8
寸法
 10
111.32046
 20
-58.351095
  0
POINT
  8
寸法
 10
111.32046
 20
-78.351095
  0
TEXT
  7
TextStyle03
  8
寸法
  6
CONTINUOUS
 10
110.925
 20
-70.7875
  1
600
 40
3.0
 50
90.0
 72
     5
 11
110.925
 21
-65.9125
  0
ENDBLK
  0
BLOCK
  2
*GRP_0024
 70
    65
 10
0.0
 20
0.0
  0
LINE
  8
ボルト／ビス
  6
CONTINUOUS
 10
102.389627
 20
43.4807
 11
101.922963
 21
43.4807
  0
LINE
  8
ボルト／ビス
  6
CONTINUOUS
 10
102.389627
 20
43.114035
 11
102.322962
 21
43.114035
  0
LINE
  8
ボルト／ビス
  6
CONTINUOUS
 10
102.322962
 20
43.114035
 11
102.322962
 21
43.847367
  0
LINE
  8
ボルト／ビス
  6
CONTINUOUS
 10
102.322962
 20
43.847367
 11
102.389627
 21
43.847367
  0
LINE
  8
ボルト／ビス
  6
CONTINUOUS
 10
102.389627
 20
43.114035
 11
102.389627
 21
43.847367
  0
LINE
  8
ボルト／ビス
  6
CONTINUOUS
 10
102.289627
 20
43.1807
 11
102.322962
 21
43.1807
  0
LINE
  8
ボルト／ビス
  6
CONTINUOUS
 10
102.289627
 20
43.1807
 11
102.289627
 21
43.7807
  0
LINE
  8
ボルト／ビス
  6
CONTINUOUS
 10
102.289627
 20
43.7807
 11
102.322962
 21
43.7807
  0
LINE
  8
ボルト／ビス
  6
CONTINUOUS
 62
    64
 10
102.089627
 20
43.320325
 11
102.101303
 21
43.28825
  0
ARC
  8
ボルト／ビス
  6
CONTINUOUS
 62
    64
 10
102.194606
 20
43.336365
 40
0.104978
 50
152.721967
 51
180.0
  0
ARC
  8
ボルト／ビス
  6
CONTINUOUS
 62
    64
 10
102.492029
 20
43.480703
 40
0.402402
 50
166.165002
 51
193.834985
  0
LINE
  8
ボルト／ビス
  6
CONTINUOUS
 62
    64
 10
102.089627
 20
43.641075
 11
102.101303
 21
43.67315
  0
ARC
  8
ボルト／ビス
  6
CONTINUOUS
 62
    64
 10
102.194606
 20
43.62504
 40
0.104978
 50
180.0
 51
207.278033
  0
LINE
  8
ボルト／ビス
  6
CONTINUOUS
 62
    64
 10
102.089627
 20
43.320325
 11
102.089627
 21
43.641075
  0
LINE
  8
ボルト／ビス
  6
CONTINUOUS
 62
    64
 10
102.101303
 20
43.67315
 11
102.222962
 21
43.67315
  0
LINE
  8
ボルト／ビス
  6
CONTINUOUS
 62
    64
 10
102.101303
 20
43.576925
 11
102.222962
 21
43.576925
  0
LINE
  8
ボルト／ビス
  6
CONTINUOUS
 62
    64
 10
102.101303
 20
43.28825
 11
102.222962
 21
43.28825
  0
LINE
  8
ボルト／ビス
  6
CONTINUOUS
 62
    64
 10
102.101303
 20
43.384475
 11
102.222962
 21
43.384475
  0
LINE
  8
ボルト／ビス
  6
CONTINUOUS
 10
102.222962
 20
43.28825
 11
102.222962
 21
43.67315
  0
LINE
  8
ボルト／ビス
  6
CONTINUOUS
 10
102.222962
 20
43.2807
 11
102.289627
 21
43.2807
  0
LINE
  8
ボルト／ビス
  6
CONTINUOUS
 10
102.222962
 20
43.2807
 11
102.222962
 21
43.6807
  0
LINE
  8
ボルト／ビス
  6
CONTINUOUS
 10
102.222962
 20
43.6807
 11
102.289627
 21
43.6807
  0
ENDBLK
  0
BLOCK
  2
*GRP_0025
 70
    65
 10
0.0
 20
0.0
  0
LINE
  8
ボルト／ビス
  6
CONTINUOUS
 10
102.389627
 20
22.147365
 11
101.922963
 21
22.147365
  0
LINE
  8
ボルト／ビス
  6
CONTINUOUS
 10
102.389627
 20
22.51403
 11
102.322962
 21
22.51403
  0
LINE
  8
ボルト／ビス
  6
CONTINUOUS
 10
102.322962
 20
22.51403
 11
102.322962
 21
21.780697
  0
LINE
  8
ボルト／ビス
  6
CONTINUOUS
 10
102.322962
 20
21.780697
 11
102.389627
 21
21.780697
  0
LINE
  8
ボルト／ビス
  6
CONTINUOUS
 10
102.389627
 20
22.51403
 11
102.389627
 21
21.780697
  0
LINE
  8
ボルト／ビス
  6
CONTINUOUS
 10
102.289627
 20
22.447365
 11
102.322962
 21
22.447365
  0
LINE
  8
ボルト／ビス
  6
CONTINUOUS
 10
102.289627
 20
22.447365
 11
102.289627
 21
21.847365
  0
LINE
  8
ボルト／ビス
  6
CONTINUOUS
 10
102.289627
 20
21.847365
 11
102.322962
 21
21.847365
  0
LINE
  8
ボルト／ビス
  6
CONTINUOUS
 62
    64
 10
102.089627
 20
22.30774
 11
102.101303
 21
22.339815
  0
ARC
  8
ボルト／ビス
  6
CONTINUOUS
 62
    64
 10
102.194606
 20
22.2917
 40
0.104978
 50
180.0
 51
207.278033
  0
ARC
  8
ボルト／ビス
  6
CONTINUOUS
 62
    64
 10
102.492029
 20
22.147362
 40
0.402402
 50
166.165015
 51
193.834998
  0
LINE
  8
ボルト／ビス
  6
CONTINUOUS
 62
    64
 10
102.089627
 20
21.98699
 11
102.101303
 21
21.954915
  0
ARC
  8
ボルト／ビス
  6
CONTINUOUS
 62
    64
 10
102.194606
 20
22.003025
 40
0.104978
 50
152.721967
 51
180.0
  0
LINE
  8
ボルト／ビス
  6
CONTINUOUS
 62
    64
 10
102.089627
 20
22.30774
 11
102.089627
 21
21.98699
  0
LINE
  8
ボルト／ビス
  6
CONTINUOUS
 62
    64
 10
102.101303
 20
21.954915
 11
102.222962
 21
21.954915
  0
LINE
  8
ボルト／ビス
  6
CONTINUOUS
 62
    64
 10
102.101303
 20
22.05114
 11
102.222962
 21
22.05114
  0
LINE
  8
ボルト／ビス
  6
CONTINUOUS
 62
    64
 10
102.101303
 20
22.339815
 11
102.222962
 21
22.339815
  0
LINE
  8
ボルト／ビス
  6
CONTINUOUS
 62
    64
 10
102.101303
 20
22.24359
 11
102.222962
 21
22.24359
  0
LINE
  8
ボルト／ビス
  6
CONTINUOUS
 10
102.222962
 20
22.339815
 11
102.222962
 21
21.954915
  0
LINE
  8
ボルト／ビス
  6
CONTINUOUS
 10
102.222962
 20
22.347365
 11
102.289627
 21
22.347365
  0
LINE
  8
ボルト／ビス
  6
CONTINUOUS
 10
102.222962
 20
22.347365
 11
102.222962
 21
21.947365
  0
LINE
  8
ボルト／ビス
  6
CONTINUOUS
 10
102.222962
 20
21.947365
 11
102.289627
 21
21.947365
  0
ENDBLK
  0
BLOCK
  2
*GRP_0026
 70
    65
 10
0.0
 20
0.0
  0
LINE
  8
型材断面
  6
DOT
 10
96.106417
 20
32.814033
 11
96.106417
 21
21.453885
  0
LINE
  8
型材断面
  6
DOT
 10
97.256417
 20
32.814033
 11
97.256417
 21
20.0507
  0
LINE
  8
型材断面
  6
DOT
 10
98.423085
 20
32.814033
 11
98.423085
 21
20.0507
  0
LINE
  8
型材断面
  6
DOT
 10
96.106417
 20
32.814033
 11
96.106417
 21
44.17418
  0
LINE
  8
型材断面
  6
DOT
 10
97.256417
 20
32.814033
 11
97.256417
 21
45.577365
  0
LINE
  8
型材断面
  6
DOT
 10
98.423085
 20
32.814033
 11
98.423085
 21
45.577365
  0
LINE
  8
別途部材
  6
DOT
 62
    96
 10
95.056295
 20
21.147365
 11
96.056295
 21
20.747365
  0
LINE
  8
別途部材
  6
DOT
 62
    96
 10
95.056295
 20
21.147365
 11
95.056295
 21
32.814033
  0
LINE
  8
別途部材
  6
DOT
 10
96.056295
 20
20.747365
 11
96.056295
 21
32.814033
  0
LINE
  8
別途部材
  6
DOT
 62
    96
 10
95.056295
 20
44.4807
 11
96.056295
 21
44.8807
  0
LINE
  8
別途部材
  6
DOT
 62
    96
 10
95.056295
 20
44.4807
 11
95.056295
 21
32.814033
  0
LINE
  8
別途部材
  6
DOT
 10
96.056295
 20
44.8807
 11
96.056295
 21
32.814033
  0
ARC
  8
別途部材
  6
DOT
 10
101.764631
 20
32.814033
 40
12.041667
 50
123.855033
 51
236.144967
  0
LINE
  8
鉄骨等
  6
DOT
 62
    47
 10
98.423085
 20
20.0507
 11
97.256417
 21
20.0507
  0
LINE
  8
鉄骨等
  6
DOT
 62
    47
 10
97.256417
 20
20.0507
 11
96.106417
 21
21.453885
  0
LINE
  8
鉄骨等
  6
DOT
 62
    47
 10
96.106417
 20
21.453885
 11
96.056298
 21
21.453885
  0
LINE
  8
鉄骨等
  6
DOT
 62
    47
 10
98.423085
 20
45.577365
 11
97.256417
 21
45.577365
  0
LINE
  8
鉄骨等
  6
DOT
 62
    47
 10
97.256417
 20
45.577365
 11
96.106417
 21
44.17418
  0
LINE
  8
鉄骨等
  6
DOT
 62
    47
 10
96.106417
 20
44.17418
 11
96.056298
 21
44.17418
  0
ENDBLK
  0
BLOCK
  2
*GRP_0027
 70
    65
 10
0.0
 20
0.0
  0
LINE
  8
ボルト／ビス
  6
DOT
 10
95.056295
 20
43.4807
 11
94.58963
 21
43.4807
  0
LINE
  8
ボルト／ビス
  6
DOT
 10
95.056295
 20
43.114035
 11
94.98963
 21
43.114035
  0
LINE
  8
ボルト／ビス
  6
DOT
 10
94.98963
 20
43.114035
 11
94.98963
 21
43.847367
  0
LINE
  8
ボルト／ビス
  6
DOT
 10
94.98963
 20
43.847367
 11
95.056295
 21
43.847367
  0
LINE
  8
ボルト／ビス
  6
DOT
 10
95.056295
 20
43.114035
 11
95.056295
 21
43.847367
  0
LINE
  8
ボルト／ビス
  6
DOT
 10
94.956295
 20
43.1807
 11
94.98963
 21
43.1807
  0
LINE
  8
ボルト／ビス
  6
DOT
 10
94.956295
 20
43.1807
 11
94.956295
 21
43.7807
  0
LINE
  8
ボルト／ビス
  6
DOT
 10
94.956295
 20
43.7807
 11
94.98963
 21
43.7807
  0
LINE
  8
ボルト／ビス
  6
DOT
 62
    64
 10
94.756295
 20
43.320325
 11
94.76797
 21
43.28825
  0
ARC
  8
ボルト／ビス
  6
DOT
 62
    64
 10
94.861273
 20
43.336365
 40
0.104978
 50
152.721967
 51
180.0
  0
ARC
  8
ボルト／ビス
  6
DOT
 62
    64
 10
95.158697
 20
43.480703
 40
0.402402
 50
166.165002
 51
193.834985
  0
LINE
  8
ボルト／ビス
  6
DOT
 62
    64
 10
94.756295
 20
43.641075
 11
94.76797
 21
43.67315
  0
ARC
  8
ボルト／ビス
  6
DOT
 62
    64
 10
94.861273
 20
43.62504
 40
0.104978
 50
180.0
 51
207.278033
  0
LINE
  8
ボルト／ビス
  6
DOT
 62
    64
 10
94.756295
 20
43.320325
 11
94.756295
 21
43.641075
  0
LINE
  8
ボルト／ビス
  6
DOT
 62
    64
 10
94.76797
 20
43.67315
 11
94.88963
 21
43.67315
  0
LINE
  8
ボルト／ビス
  6
DOT
 62
    64
 10
94.76797
 20
43.576925
 11
94.88963
 21
43.576925
  0
LINE
  8
ボルト／ビス
  6
DOT
 62
    64
 10
94.76797
 20
43.28825
 11
94.88963
 21
43.28825
  0
LINE
  8
ボルト／ビス
  6
DOT
 62
    64
 10
94.76797
 20
43.384475
 11
94.88963
 21
43.384475
  0
LINE
  8
ボルト／ビス
  6
DOT
 10
94.88963
 20
43.28825
 11
94.88963
 21
43.67315
  0
LINE
  8
ボルト／ビス
  6
DOT
 10
94.88963
 20
43.2807
 11
94.956295
 21
43.2807
  0
LINE
  8
ボルト／ビス
  6
DOT
 10
94.88963
 20
43.2807
 11
94.88963
 21
43.6807
  0
LINE
  8
ボルト／ビス
  6
DOT
 10
94.88963
 20
43.6807
 11
94.956295
 21
43.6807
  0
ENDBLK
  0
BLOCK
  2
*GRP_0028
 70
    65
 10
0.0
 20
0.0
  0
LINE
  8
ボルト／ビス
  6
DOT
 10
95.056295
 20
22.147365
 11
94.58963
 21
22.147365
  0
LINE
  8
ボルト／ビス
  6
DOT
 10
95.056295
 20
22.51403
 11
94.98963
 21
22.51403
  0
LINE
  8
ボルト／ビス
  6
DOT
 10
94.98963
 20
22.51403
 11
94.98963
 21
21.780697
  0
LINE
  8
ボルト／ビス
  6
DOT
 10
94.98963
 20
21.780697
 11
95.056295
 21
21.780697
  0
LINE
  8
ボルト／ビス
  6
DOT
 10
95.056295
 20
22.51403
 11
95.056295
 21
21.780697
  0
LINE
  8
ボルト／ビス
  6
DOT
 10
94.956295
 20
22.447365
 11
94.98963
 21
22.447365
  0
LINE
  8
ボルト／ビス
  6
DOT
 10
94.956295
 20
22.447365
 11
94.956295
 21
21.847365
  0
LINE
  8
ボルト／ビス
  6
DOT
 10
94.956295
 20
21.847365
 11
94.98963
 21
21.847365
  0
LINE
  8
ボルト／ビス
  6
DOT
 62
    64
 10
94.756295
 20
22.30774
 11
94.76797
 21
22.339815
  0
ARC
  8
ボルト／ビス
  6
DOT
 62
    64
 10
94.861273
 20
22.2917
 40
0.104978
 50
180.0
 51
207.278033
  0
ARC
  8
ボルト／ビス
  6
DOT
 62
    64
 10
95.158697
 20
22.147362
 40
0.402402
 50
166.165015
 51
193.834998
  0
LINE
  8
ボルト／ビス
  6
DOT
 62
    64
 10
94.756295
 20
21.98699
 11
94.76797
 21
21.954915
  0
ARC
  8
ボルト／ビス
  6
DOT
 62
    64
 10
94.861273
 20
22.003025
 40
0.104978
 50
152.721967
 51
180.0
  0
LINE
  8
ボルト／ビス
  6
DOT
 62
    64
 10
94.756295
 20
22.30774
 11
94.756295
 21
21.98699
  0
LINE
  8
ボルト／ビス
  6
DOT
 62
    64
 10
94.76797
 20
21.954915
 11
94.88963
 21
21.954915
  0
LINE
  8
ボルト／ビス
  6
DOT
 62
    64
 10
94.76797
 20
22.05114
 11
94.88963
 21
22.05114
  0
LINE
  8
ボルト／ビス
  6
DOT
 62
    64
 10
94.76797
 20
22.339815
 11
94.88963
 21
22.339815
  0
LINE
  8
ボルト／ビス
  6
DOT
 62
    64
 10
94.76797
 20
22.24359
 11
94.88963
 21
22.24359
  0
LINE
  8
ボルト／ビス
  6
DOT
 10
94.88963
 20
22.339815
 11
94.88963
 21
21.954915
  0
LINE
  8
ボルト／ビス
  6
DOT
 10
94.88963
 20
22.347365
 11
94.956295
 21
22.347365
  0
LINE
  8
ボルト／ビス
  6
DOT
 10
94.88963
 20
22.347365
 11
94.88963
 21
21.947365
  0
LINE
  8
ボルト／ビス
  6
DOT
 10
94.88963
 20
21.947365
 11
94.956295
 21
21.947365
  0
ENDBLK
  0
BLOCK
  2
*GRP_0029
 70
    65
 10
0.0
 20
0.0
  0
LINE
  8
ボルト／ビス
  6
CONTINUOUS
 10
5.379528
 20
-70.209608
 11
5.379528
 21
-69.742943
  0
LINE
  8
ボルト／ビス
  6
CONTINUOUS
 10
5.012862
 20
-70.209608
 11
5.012862
 21
-70.142943
  0
LINE
  8
ボルト／ビス
  6
CONTINUOUS
 10
5.012862
 20
-70.142943
 11
5.746195
 21
-70.142943
  0
LINE
  8
ボルト／ビス
  6
CONTINUOUS
 10
5.746195
 20
-70.142943
 11
5.746195
 21
-70.209608
  0
LINE
  8
ボルト／ビス
  6
CONTINUOUS
 10
5.012862
 20
-70.209608
 11
5.746195
 21
-70.209608
  0
LINE
  8
ボルト／ビス
  6
CONTINUOUS
 10
5.079528
 20
-70.109608
 11
5.079528
 21
-70.142943
  0
LINE
  8
ボルト／ビス
  6
CONTINUOUS
 10
5.079528
 20
-70.109608
 11
5.679528
 21
-70.109608
  0
LINE
  8
ボルト／ビス
  6
CONTINUOUS
 10
5.679528
 20
-70.109608
 11
5.679528
 21
-70.142943
  0
LINE
  8
ボルト／ビス
  6
CONTINUOUS
 62
    64
 10
5.219153
 20
-69.909608
 11
5.187077
 21
-69.921282
  0
ARC
  8
ボルト／ビス
  6
CONTINUOUS
 62
    64
 10
5.235191
 20
-70.014585
 40
0.104978
 50
62.721967
 51
90.0
  0
ARC
  8
ボルト／ビス
  6
CONTINUOUS
 62
    64
 10
5.379529
 20
-70.312009
 40
0.402402
 50
76.165002
 51
103.834985
  0
LINE
  8
ボルト／ビス
  6
CONTINUOUS
 62
    64
 10
5.539903
 20
-69.909608
 11
5.571977
 21
-69.921282
  0
ARC
  8
ボルト／ビス
  6
CONTINUOUS
 62
    64
 10
5.523867
 20
-70.014585
 40
0.104978
 50
90.0
 51
117.278033
  0
LINE
  8
ボルト／ビス
  6
CONTINUOUS
 62
    64
 10
5.219153
 20
-69.909608
 11
5.539903
 21
-69.909608
  0
LINE
  8
ボルト／ビス
  6
CONTINUOUS
 62
    64
 10
5.571977
 20
-69.921282
 11
5.571977
 21
-70.042943
  0
LINE
  8
ボルト／ビス
  6
CONTINUOUS
 62
    64
 10
5.475753
 20
-69.921282
 11
5.475753
 21
-70.042943
  0
LINE
  8
ボルト／ビス
  6
CONTINUOUS
 62
    64
 10
5.187077
 20
-69.921282
 11
5.187077
 21
-70.042943
  0
LINE
  8
ボルト／ビス
  6
CONTINUOUS
 62
    64
 10
5.283302
 20
-69.921282
 11
5.283302
 21
-70.042943
  0
LINE
  8
ボルト／ビス
  6
CONTINUOUS
 10
5.187077
 20
-70.042943
 11
5.571977
 21
-70.042943
  0
LINE
  8
ボルト／ビス
  6
CONTINUOUS
 10
5.179528
 20
-70.042943
 11
5.179528
 21
-70.109608
  0
LINE
  8
ボルト／ビス
  6
CONTINUOUS
 10
5.179528
 20
-70.042943
 11
5.579528
 21
-70.042943
  0
LINE
  8
ボルト／ビス
  6
CONTINUOUS
 10
5.579528
 20
-70.042943
 11
5.579528
 21
-70.109608
  0
ENDBLK
  0
BLOCK
  2
*GRP_0030
 70
    65
 10
0.0
 20
0.0
  0
LINE
  8
ボルト／ビス
  6
DOT
 10
5.379528
 20
-62.876275
 11
5.379528
 21
-62.40961
  0
LINE
  8
ボルト／ビス
  6
DOT
 10
5.012862
 20
-62.876275
 11
5.012862
 21
-62.80961
  0
LINE
  8
ボルト／ビス
  6
DOT
 10
5.012862
 20
-62.80961
 11
5.746195
 21
-62.80961
  0
LINE
  8
ボルト／ビス
  6
DOT
 10
5.746195
 20
-62.80961
 11
5.746195
 21
-62.876275
  0
LINE
  8
ボルト／ビス
  6
DOT
 10
5.012862
 20
-62.876275
 11
5.746195
 21
-62.876275
  0
LINE
  8
ボルト／ビス
  6
DOT
 10
5.079528
 20
-62.776275
 11
5.079528
 21
-62.80961
  0
LINE
  8
ボルト／ビス
  6
DOT
 10
5.079528
 20
-62.776275
 11
5.679528
 21
-62.776275
  0
LINE
  8
ボルト／ビス
  6
DOT
 10
5.679528
 20
-62.776275
 11
5.679528
 21
-62.80961
  0
LINE
  8
ボルト／ビス
  6
DOT
 62
    64
 10
5.219153
 20
-62.576275
 11
5.187077
 21
-62.58795
  0
ARC
  8
ボルト／ビス
  6
DOT
 62
    64
 10
5.235191
 20
-62.681252
 40
0.104978
 50
62.721967
 51
90.0
  0
ARC
  8
ボルト／ビス
  6
DOT
 62
    64
 10
5.379529
 20
-62.978676
 40
0.402402
 50
76.165002
 51
103.834985
  0
LINE
  8
ボルト／ビス
  6
DOT
 62
    64
 10
5.539903
 20
-62.576275
 11
5.571977
 21
-62.58795
  0
ARC
  8
ボルト／ビス
  6
DOT
 62
    64
 10
5.523867
 20
-62.681252
 40
0.104978
 50
90.0
 51
117.278033
  0
LINE
  8
ボルト／ビス
  6
DOT
 62
    64
 10
5.219153
 20
-62.576275
 11
5.539903
 21
-62.576275
  0
LINE
  8
ボルト／ビス
  6
DOT
 62
    64
 10
5.571977
 20
-62.58795
 11
5.571977
 21
-62.70961
  0
LINE
  8
ボルト／ビス
  6
DOT
 62
    64
 10
5.475753
 20
-62.58795
 11
5.475753
 21
-62.70961
  0
LINE
  8
ボルト／ビス
  6
DOT
 62
    64
 10
5.187077
 20
-62.58795
 11
5.187077
 21
-62.70961
  0
LINE
  8
ボルト／ビス
  6
DOT
 62
    64
 10
5.283302
 20
-62.58795
 11
5.283302
 21
-62.70961
  0
LINE
  8
ボルト／ビス
  6
DOT
 10
5.187077
 20
-62.70961
 11
5.571977
 21
-62.70961
  0
LINE
  8
ボルト／ビス
  6
DOT
 10
5.179528
 20
-62.70961
 11
5.179528
 21
-62.776275
  0
LINE
  8
ボルト／ビス
  6
DOT
 10
5.179528
 20
-62.70961
 11
5.579528
 21
-62.70961
  0
LINE
  8
ボルト／ビス
  6
DOT
 10
5.579528
 20
-62.70961
 11
5.579528
 21
-62.776275
  0
ENDBLK
  0
BLOCK
  2
*DIM_0031
 70
    65
 10
0.0
 20
0.0
  0
LINE
  8
寸法
  6
CONTINUOUS
 10
102.389627
 20
49.4807
 11
102.389627
 21
60.666798
  0
LINE
  8
寸法
  6
CONTINUOUS
 10
109.889635
 20
50.577365
 11
109.889635
 21
60.666798
  0
LINE
  8
寸法
  6
CONTINUOUS
 10
102.389627
 20
60.666798
 11
109.889635
 21
60.666798
  0
POINT
  8
寸法
 10
102.389627
 20
60.666798
  0
POINT
  8
寸法
 10
109.889635
 20
60.666798
  0
TEXT
  7
TextStyle03
  8
寸法
  6
CONTINUOUS
 10
103.6875
 20
61.025
  1
225
 40
3.0
 72
     5
 11
108.5625
 21
61.025
  0
ENDBLK
  0
BLOCK
  2
*DIM_0032
 70
    65
 10
0.0
 20
0.0
  0
LINE
  8
寸法
  6
CONTINUOUS
 10
11.379532
 20
-70.209613
 11
20.682515
 21
-70.209613
  0
LINE
  8
寸法
  6
CONTINUOUS
 10
12.476195
 20
-77.70962
 11
20.682515
 21
-77.70962
  0
LINE
  8
寸法
  6
CONTINUOUS
 10
20.682515
 20
-70.209613
 11
20.682515
 21
-77.70962
  0
POINT
  8
寸法
 10
20.682515
 20
-70.209613
  0
POINT
  8
寸法
 10
20.682515
 20
-77.70962
  0
TEXT
  7
TextStyle03
  8
寸法
  6
CONTINUOUS
 10
20.3
 20
-76.4125
  1
225
 40
3.0
 50
90.0
 72
     5
 11
20.3
 21
-71.5375
  0
ENDBLK
  0
BLOCK
  2
*GRP_0033
 70
    65
 10
0.0
 20
0.0
  0
LINE
  8
型材断面
  6
DOT
 10
-36.953802
 20
-63.926403
 11
-79.980615
 21
-63.926403
  0
LINE
  8
型材断面
  6
DOT
 10
-36.953802
 20
-65.076403
 11
-81.3838
 21
-65.076403
  0
LINE
  8
型材断面
  6
DOT
 10
-36.953802
 20
-66.24307
 11
-81.3838
 21
-66.24307
  0
LINE
  8
型材断面
  6
DOT
 10
-36.953802
 20
-63.926403
 11
6.07301
 21
-63.926403
  0
LINE
  8
型材断面
  6
DOT
 10
-36.953802
 20
-65.076403
 11
7.476195
 21
-65.076403
  0
LINE
  8
型材断面
  6
DOT
 10
-36.953802
 20
-66.24307
 11
7.476195
 21
-66.24307
  0
LINE
  8
別途部材
  6
DOT
 62
    96
 10
-80.287135
 20
-62.87628
 11
-80.687135
 21
-63.87628
  0
ARC
  8
別途部材
  6
DOT
 10
-68.62047
 20
-69.584615
 40
12.041668
 50
90.0
 51
146.144967
  0
LINE
  8
別途部材
  6
DOT
 10
-80.687135
 20
-63.87628
 11
-36.9538
 21
-63.87628
  0
LINE
  8
別途部材
  6
DOT
 62
    96
 10
-80.287135
 20
-62.87628
 11
-36.9538
 21
-62.87628
  0
LINE
  8
別途部材
  6
DOT
 10
-66.4538
 20
-57.542947
 11
-68.620467
 21
-57.542947
  0
LINE
  8
別途部材
  6
DOT
 62
    96
 10
6.379532
 20
-62.87628
 11
6.779532
 21
-63.87628
  0
ARC
  8
別途部材
  6
DOT
 10
-5.287131
 20
-69.584615
 40
12.041668
 50
33.855033
 51
90.0
  0
LINE
  8
別途部材
  6
DOT
 10
6.779532
 20
-63.87628
 11
-36.9538
 21
-63.87628
  0
LINE
  8
別途部材
  6
DOT
 62
    96
 10
6.379532
 20
-62.87628
 11
-36.9538
 21
-62.87628
  0
LINE
  8
別途部材
  6
DOT
 10
-7.4538
 20
-57.542947
 11
-5.287135
 21
-57.542947
  0
LINE
  8
別途部材
  6
DOT
 10
-36.953802
 20
-57.542947
 11
-7.4538
 21
-57.542947
  0
LINE
  8
別途部材
  6
DOT
 10
-36.953802
 20
-57.542947
 11
-66.4538
 21
-57.542947
  0
LINE
  8
鉄骨等
  6
DOT
 62
    47
 10
-81.3838
 20
-66.24307
 11
-81.3838
 21
-65.076403
  0
LINE
  8
鉄骨等
  6
DOT
 62
    47
 10
-81.3838
 20
-65.076403
 11
-79.980615
 21
-63.926403
  0
LINE
  8
鉄骨等
  6
DOT
 62
    47
 10
-79.980615
 20
-63.926403
 11
-79.980615
 21
-63.876282
  0
LINE
  8
鉄骨等
  6
DOT
 62
    47
 10
7.476195
 20
-66.24307
 11
7.476195
 21
-65.076403
  0
LINE
  8
鉄骨等
  6
DOT
 62
    47
 10
7.476195
 20
-65.076403
 11
6.07301
 21
-63.926403
  0
LINE
  8
鉄骨等
  6
DOT
 62
    47
 10
6.07301
 20
-63.926403
 11
6.07301
 21
-63.876282
  0
ENDBLK
  0
BLOCK
  2
*GRP_0034
 70
    65
 10
0.0
 20
0.0
  0
LINE
  8
ボルト／ビス
  6
CONTINUOUS
 10
-79.287133
 20
-70.209608
 11
-79.287133
 21
-69.742943
  0
LINE
  8
ボルト／ビス
  6
CONTINUOUS
 10
-78.920468
 20
-70.209608
 11
-78.920468
 21
-70.142943
  0
LINE
  8
ボルト／ビス
  6
CONTINUOUS
 10
-78.920468
 20
-70.142943
 11
-79.6538
 21
-70.142943
  0
LINE
  8
ボルト／ビス
  6
CONTINUOUS
 10
-79.6538
 20
-70.142943
 11
-79.6538
 21
-70.209608
  0
LINE
  8
ボルト／ビス
  6
CONTINUOUS
 10
-78.920468
 20
-70.209608
 11
-79.6538
 21
-70.209608
  0
LINE
  8
ボルト／ビス
  6
CONTINUOUS
 10
-78.987133
 20
-70.109608
 11
-78.987133
 21
-70.142943
  0
LINE
  8
ボルト／ビス
  6
CONTINUOUS
 10
-78.987133
 20
-70.109608
 11
-79.587133
 21
-70.109608
  0
LINE
  8
ボルト／ビス
  6
CONTINUOUS
 10
-79.587133
 20
-70.109608
 11
-79.587133
 21
-70.142943
  0
LINE
  8
ボルト／ビス
  6
CONTINUOUS
 62
    64
 10
-79.126757
 20
-69.909608
 11
-79.094683
 21
-69.921282
  0
ARC
  8
ボルト／ビス
  6
CONTINUOUS
 62
    64
 10
-79.142796
 20
-70.014585
 40
0.104978
 50
90.0
 51
117.278033
  0
ARC
  8
ボルト／ビス
  6
CONTINUOUS
 62
    64
 10
-79.287134
 20
-70.312009
 40
0.402402
 50
76.165015
 51
103.834998
  0
LINE
  8
ボルト／ビス
  6
CONTINUOUS
 62
    64
 10
-79.447508
 20
-69.909608
 11
-79.479583
 21
-69.921282
  0
ARC
  8
ボルト／ビス
  6
CONTINUOUS
 62
    64
 10
-79.431472
 20
-70.014585
 40
0.104978
 50
62.721967
 51
90.0
  0
LINE
  8
ボルト／ビス
  6
CONTINUOUS
 62
    64
 10
-79.126757
 20
-69.909608
 11
-79.447508
 21
-69.909608
  0
LINE
  8
ボルト／ビス
  6
CONTINUOUS
 62
    64
 10
-79.479583
 20
-69.921282
 11
-79.479583
 21
-70.042943
  0
LINE
  8
ボルト／ビス
  6
CONTINUOUS
 62
    64
 10
-79.383357
 20
-69.921282
 11
-79.383357
 21
-70.042943
  0
LINE
  8
ボルト／ビス
  6
CONTINUOUS
 62
    64
 10
-79.094683
 20
-69.921282
 11
-79.094683
 21
-70.042943
  0
LINE
  8
ボルト／ビス
  6
CONTINUOUS
 62
    64
 10
-79.190907
 20
-69.921282
 11
-79.190907
 21
-70.042943
  0
LINE
  8
ボルト／ビス
  6
CONTINUOUS
 10
-79.094683
 20
-70.042943
 11
-79.479583
 21
-70.042943
  0
LINE
  8
ボルト／ビス
  6
CONTINUOUS
 10
-79.087133
 20
-70.042943
 11
-79.087133
 21
-70.109608
  0
LINE
  8
ボルト／ビス
  6
CONTINUOUS
 10
-79.087133
 20
-70.042943
 11
-79.487133
 21
-70.042943
  0
LINE
  8
ボルト／ビス
  6
CONTINUOUS
 10
-79.487133
 20
-70.042943
 11
-79.487133
 21
-70.109608
  0
ENDBLK
  0
BLOCK
  2
*GRP_0035
 70
    65
 10
0.0
 20
0.0
  0
LINE
  8
ボルト／ビス
  6
DOT
 10
-79.287133
 20
-62.876275
 11
-79.287133
 21
-62.40961
  0
LINE
  8
ボルト／ビス
  6
DOT
 10
-78.920468
 20
-62.876275
 11
-78.920468
 21
-62.80961
  0
LINE
  8
ボルト／ビス
  6
DOT
 10
-78.920468
 20
-62.80961
 11
-79.6538
 21
-62.80961
  0
LINE
  8
ボルト／ビス
  6
DOT
 10
-79.6538
 20
-62.80961
 11
-79.6538
 21
-62.876275
  0
LINE
  8
ボルト／ビス
  6
DOT
 10
-78.920468
 20
-62.876275
 11
-79.6538
 21
-62.876275
  0
LINE
  8
ボルト／ビス
  6
DOT
 10
-78.987133
 20
-62.776275
 11
-78.987133
 21
-62.80961
  0
LINE
  8
ボルト／ビス
  6
DOT
 10
-78.987133
 20
-62.776275
 11
-79.587133
 21
-62.776275
  0
LINE
  8
ボルト／ビス
  6
DOT
 10
-79.587133
 20
-62.776275
 11
-79.587133
 21
-62.80961
  0
LINE
  8
ボルト／ビス
  6
DOT
 62
    64
 10
-79.126757
 20
-62.576275
 11
-79.094683
 21
-62.58795
  0
ARC
  8
ボルト／ビス
  6
DOT
 62
    64
 10
-79.142796
 20
-62.681252
 40
0.104978
 50
90.0
 51
117.278033
  0
ARC
  8
ボルト／ビス
  6
DOT
 62
    64
 10
-79.287134
 20
-62.978676
 40
0.402402
 50
76.165015
 51
103.834998
  0
LINE
  8
ボルト／ビス
  6
DOT
 62
    64
 10
-79.447508
 20
-62.576275
 11
-79.479583
 21
-62.58795
  0
ARC
  8
ボルト／ビス
  6
DOT
 62
    64
 10
-79.431472
 20
-62.681252
 40
0.104978
 50
62.721967
 51
90.0
  0
LINE
  8
ボルト／ビス
  6
DOT
 62
    64
 10
-79.126757
 20
-62.576275
 11
-79.447508
 21
-62.576275
  0
LINE
  8
ボルト／ビス
  6
DOT
 62
    64
 10
-79.479583
 20
-62.58795
 11
-79.479583
 21
-62.70961
  0
LINE
  8
ボルト／ビス
  6
DOT
 62
    64
 10
-79.383357
 20
-62.58795
 11
-79.383357
 21
-62.70961
  0
LINE
  8
ボルト／ビス
  6
DOT
 62
    64
 10
-79.094683
 20
-62.58795
 11
-79.094683
 21
-62.70961
  0
LINE
  8
ボルト／ビス
  6
DOT
 62
    64
 10
-79.190907
 20
-62.58795
 11
-79.190907
 21
-62.70961
  0
LINE
  8
ボルト／ビス
  6
DOT
 10
-79.094683
 20
-62.70961
 11
-79.479583
 21
-62.70961
  0
LINE
  8
ボルト／ビス
  6
DOT
 10
-79.087133
 20
-62.70961
 11
-79.087133
 21
-62.776275
  0
LINE
  8
ボルト／ビス
  6
DOT
 10
-79.087133
 20
-62.70961
 11
-79.487133
 21
-62.70961
  0
LINE
  8
ボルト／ビス
  6
DOT
 10
-79.487133
 20
-62.70961
 11
-79.487133
 21
-62.776275
  0
ENDBLK
  0
BLOCK
  2
*DIM_0036
 70
    65
 10
0.0
 20
0.0
  0
LINE
  8
寸法
  6
BYBLOCK
 62
     0
 10
-2.287135
 20
-57.542947
 11
20.682515
 21
-57.542947
  0
LINE
  8
寸法
  6
BYBLOCK
 62
     0
 10
20.682515
 20
-64.87628
 11
20.682515
 21
-57.542947
  0
POINT
  8
寸法
 62
     0
 10
20.682515
 20
-64.87628
  0
POINT
  8
寸法
 62
     0
 10
20.682515
 20
-57.542947
  0
TEXT
  7
TextStyle03
  8
寸法
  6
CONTINUOUS
 62
     0
 10
20.725
 20
-55.4875
  1
上昇高さ220
 40
3.0
 50
90.0
 72
     5
 11
20.725
 21
-37.1125
  0
ENDBLK
  0
BLOCK
  2
*DIM_0037
 70
    65
 10
0.0
 20
0.0
  0
LINE
  8
寸法
  6
BYBLOCK
 62
     0
 10
89.722962
 20
35.814033
 11
89.722962
 21
60.666798
  0
LINE
  8
寸法
  6
BYBLOCK
 62
     0
 10
97.056295
 20
60.666798
 11
89.722962
 21
60.666798
  0
POINT
  8
寸法
 62
     0
 10
97.056295
 20
60.666798
  0
POINT
  8
寸法
 62
     0
 10
89.722962
 20
60.666798
  0
TEXT
  7
TextStyle03
  8
寸法
  6
CONTINUOUS
 62
     0
 10
68.3125
 20
57.6
  1
上昇高さ220
 40
3.0
 72
     5
 11
86.6875
 21
57.6
  0
ENDBLK
  0
ENDSEC
  0
SECTION
  2
ENTITIES
  0
POLYLINE
  8
通り芯
  6
CONTINUOUS
 66
     1
 70
     1
  0
VERTEX
  8
通り芯
 10
-210.0
 20
-148.5
  0
VERTEX
  8
通り芯
 10
210.0
 20
-148.5
  0
VERTEX
  8
通り芯
 10
210.0
 20
148.5
  0
VERTEX
  8
通り芯
 10
-210.0
 20
148.5
  0
SEQEND
  0
INSERT
  2
*GRP_0001
  8
型材断面
  6
CONTINUOUS
 10
0.0
 20
0.0
  0
LINE
  8
型材断面
  6
DASHDOT
 10
4.712865
 20
-77.836442
 11
4.712865
 21
42.814033
  0
LINE
  8
型材断面
  6
DASHDOT
 10
-36.953802
 20
-77.836442
 11
-36.953802
 21
42.814033
  0
LINE
  8
型材断面
  6
DASHDOT
 10
-78.620467
 20
-77.836442
 11
-78.620467
 21
42.814033
  0
LINE
  8
型材断面
  6
DASHDOT
 10
102.389627
 20
42.814033
 11
-78.620467
 21
42.814033
  0
LINE
  8
型材断面
  6
DASHDOT
 10
102.389627
 20
32.814033
 11
-78.620467
 21
32.814033
  0
LINE
  8
型材断面
  6
DASHDOT
 10
102.389627
 20
22.814033
 11
-78.620467
 21
22.814033
  0
LINE
  8
型材断面
  6
DOT
 10
-35.703802
 20
22.814033
 11
-35.703802
 21
42.814033
  0
LINE
  8
型材断面
  6
DASHDOT
 10
-36.953802
 20
22.814033
 11
-36.953802
 21
42.814033
  0
LINE
  8
型材断面
  6
DOT
 10
-38.203802
 20
22.814033
 11
-38.203802
 21
42.814033
  0
POLYLINE
  8
型材断面
  6
CONTINUOUS
 66
     1
 70
     1
  0
VERTEX
  8
型材断面
 10
-27.384055
 20
13.03811
  0
VERTEX
  8
型材断面
 10
-46.155985
 20
13.03811
  0
VERTEX
  8
型材断面
 10
-46.155985
 20
8.301267
  0
VERTEX
  8
型材断面
 10
-27.384055
 20
8.301267
  0
SEQEND
  0
POLYLINE
  8
型材断面
  6
CONTINUOUS
 66
     1
 70
     1
  0
VERTEX
  8
型材断面
 10
-27.384055
 20
52.589955
  0
VERTEX
  8
型材断面
 10
-46.155985
 20
52.589955
  0
VERTEX
  8
型材断面
 10
-46.155985
 20
57.326798
  0
VERTEX
  8
型材断面
 10
-27.384055
 20
57.326798
  0
SEQEND
  0
LINE
  8
型材断面
  6
CONTINUOUS
 10
-119.472675
 20
80.791505
 11
-118.87662
 21
78.200998
  0
LINE
  8
型材断面
  6
CONTINUOUS
 10
-119.472675
 20
80.791505
 11
-120.068732
 21
78.200998
  0
LINE
  8
型材断面
  6
CONTINUOUS
 10
-120.068732
 20
78.200998
 11
-118.87662
 21
78.200998
  0
LINE
  8
型材断面
  6
CONTINUOUS
 10
-125.495263
 20
74.922105
 11
-79.253485
 21
74.922105
  0
LINE
  8
型材断面
  6
CONTINUOUS
 10
-119.472675
 20
87.32138
 11
-120.968305
 21
84.730873
  0
LINE
  8
型材断面
  6
CONTINUOUS
 10
-119.472675
 20
87.32138
 11
-117.977045
 21
84.730873
  0
LINE
  8
型材断面
  6
CONTINUOUS
 10
-117.977045
 20
84.730873
 11
-120.968305
 21
84.730873
  0
LINE
  8
型材断面
  6
CONTINUOUS
 10
-125.495263
 20
83.792277
 11
-79.253485
 21
83.792277
  0
LINE
  8
型材断面
  6
CONTINUOUS
 10
-125.495263
 20
69.134073
 11
-79.253485
 21
69.134073
  0
LINE
  8
型材断面
  6
CONTINUOUS
 10
-125.495263
 20
63.34604
 11
-79.253485
 21
63.34604
  0
INSERT
  2
*GRP_0012
  8
型材断面
  6
CONTINUOUS
 10
0.0
 20
0.0
  0
INSERT
  2
*GRP_0013
  8
型材断面
  6
CONTINUOUS
 10
0.0
 20
0.0
  0
LINE
  8
型材断面
  6
CONTINUOUS
 10
103.43975
 20
32.814033
 11
103.43975
 21
21.453885
  0
LINE
  8
型材断面
  6
CONTINUOUS
 10
104.58975
 20
32.814033
 11
104.58975
 21
20.0507
  0
LINE
  8
型材断面
  6
CONTINUOUS
 10
105.756417
 20
32.814033
 11
105.756417
 21
20.0507
  0
LINE
  8
型材断面
  6
CONTINUOUS
 10
103.43975
 20
32.814033
 11
103.43975
 21
44.17418
  0
LINE
  8
型材断面
  6
CONTINUOUS
 10
104.58975
 20
32.814033
 11
104.58975
 21
45.577365
  0
LINE
  8
型材断面
  6
CONTINUOUS
 10
105.756417
 20
32.814033
 11
105.756417
 21
45.577365
  0
LINE
  8
型材断面
  6
CONTINUOUS
 10
-36.953802
 20
-71.259735
 11
-79.980615
 21
-71.259735
  0
LINE
  8
型材断面
  6
CONTINUOUS
 10
-36.953802
 20
-72.409735
 11
-81.3838
 21
-72.409735
  0
LINE
  8
型材断面
  6
CONTINUOUS
 10
-36.953802
 20
-73.576403
 11
-81.3838
 21
-73.576403
  0
LINE
  8
型材断面
  6
CONTINUOUS
 10
-36.953802
 20
-71.259735
 11
6.07301
 21
-71.259735
  0
LINE
  8
型材断面
  6
CONTINUOUS
 10
-36.953802
 20
-72.409735
 11
7.476195
 21
-72.409735
  0
LINE
  8
型材断面
  6
CONTINUOUS
 10
-36.953802
 20
-73.576403
 11
7.476195
 21
-73.576403
  0
LINE
  8
型材断面
  6
CONTINUOUS
 10
6.779532
 20
44.8807
 11
7.476195
 21
45.57736
  0
LINE
  8
型材断面
  6
CONTINUOUS
 10
7.476195
 20
45.577365
 11
-81.3838
 21
45.577365
  0
LINE
  8
型材断面
  6
CONTINUOUS
 10
-80.687137
 20
44.8807
 11
-81.383805
 21
45.577365
  0
LINE
  8
型材断面
  6
CONTINUOUS
 10
6.779532
 20
20.747365
 11
7.4762
 21
20.0507
  0
LINE
  8
型材断面
  6
CONTINUOUS
 10
7.476195
 20
45.577365
 11
7.476195
 21
20.0507
  0
LINE
  8
型材断面
  6
CONTINUOUS
 10
7.476195
 20
20.0507
 11
-81.3838
 21
20.0507
  0
LINE
  8
型材断面
  6
CONTINUOUS
 10
-81.3838
 20
45.577365
 11
-81.3838
 21
20.0507
  0
LINE
  8
型材断面
  6
CONTINUOUS
 10
-80.687137
 20
20.747365
 11
-81.383805
 21
20.0507
  0
LINE
  8
型材断面
  6
CONTINUOUS
 10
-61.9538
 20
45.577365
 11
-63.44943
 21
48.167872
  0
LINE
  8
型材断面
  6
CONTINUOUS
 10
-61.9538
 20
45.577365
 11
-60.45817
 21
48.167872
  0
LINE
  8
型材断面
  6
CONTINUOUS
 10
-60.45817
 20
48.167872
 11
-63.44943
 21
48.167872
  0
LINE
  8
型材断面
  6
CONTINUOUS
 10
-11.953805
 20
45.577365
 11
-10.458175
 21
48.167872
  0
LINE
  8
型材断面
  6
CONTINUOUS
 10
-11.953805
 20
45.577365
 11
-13.449435
 21
48.167872
  0
LINE
  8
型材断面
  6
CONTINUOUS
 10
-13.449435
 20
48.167872
 11
-10.458175
 21
48.167872
  0
LINE
  8
型材断面
  6
CONTINUOUS
 10
-81.3838
 20
32.814033
 11
-83.974308
 21
34.309663
  0
LINE
  8
型材断面
  6
CONTINUOUS
 10
-81.3838
 20
32.814033
 11
-83.974308
 21
31.318403
  0
LINE
  8
型材断面
  6
CONTINUOUS
 10
-83.974308
 20
31.318403
 11
-83.974308
 21
34.309663
  0
LINE
  8
型材断面
  6
CONTINUOUS
 10
-81.383803
 20
39.114035
 11
-83.974312
 21
38.517982
  0
LINE
  8
型材断面
  6
CONTINUOUS
 10
-81.383803
 20
39.114035
 11
-83.97431
 21
39.710095
  0
LINE
  8
型材断面
  6
CONTINUOUS
 10
-83.97431
 20
39.710095
 11
-83.974312
 21
38.517982
  0
LINE
  8
型材断面
  6
CONTINUOUS
 10
-81.383803
 20
26.51403
 11
-83.974312
 21
27.110082
  0
LINE
  8
型材断面
  6
CONTINUOUS
 10
-81.383803
 20
26.51403
 11
-83.97431
 21
25.91797
  0
LINE
  8
型材断面
  6
CONTINUOUS
 10
-83.97431
 20
25.91797
 11
-83.974312
 21
27.110082
  0
LINE
  8
型材断面
  6
CONTINUOUS
 10
7.476195
 20
32.814033
 11
10.066703
 21
34.309663
  0
LINE
  8
型材断面
  6
CONTINUOUS
 10
7.476195
 20
32.814033
 11
10.066703
 21
31.318403
  0
LINE
  8
型材断面
  6
CONTINUOUS
 10
10.066703
 20
31.318403
 11
10.066703
 21
34.309663
  0
LINE
  8
型材断面
  6
CONTINUOUS
 10
7.476197
 20
39.114035
 11
10.066707
 21
38.517982
  0
LINE
  8
型材断面
  6
CONTINUOUS
 10
7.476197
 20
39.114035
 11
10.066705
 21
39.710095
  0
LINE
  8
型材断面
  6
CONTINUOUS
 10
10.066705
 20
39.710095
 11
10.066707
 21
38.517982
  0
LINE
  8
型材断面
  6
CONTINUOUS
 10
7.476197
 20
26.51403
 11
10.066707
 21
27.110082
  0
LINE
  8
型材断面
  6
CONTINUOUS
 10
7.476197
 20
26.51403
 11
10.066705
 21
25.91797
  0
LINE
  8
型材断面
  6
CONTINUOUS
 10
10.066705
 20
25.91797
 11
10.066707
 21
27.110082
  0
LINE
  8
型材断面
  6
CONTINUOUS
 10
-61.9538
 20
20.0507
 11
-63.44943
 21
17.460193
  0
LINE
  8
型材断面
  6
CONTINUOUS
 10
-61.9538
 20
20.0507
 11
-60.45817
 21
17.460193
  0
LINE
  8
型材断面
  6
CONTINUOUS
 10
-60.45817
 20
17.460193
 11
-63.44943
 21
17.460193
  0
LINE
  8
型材断面
  6
CONTINUOUS
 10
-11.953805
 20
20.0507
 11
-10.458175
 21
17.460193
  0
LINE
  8
型材断面
  6
CONTINUOUS
 10
-11.953805
 20
20.0507
 11
-13.449435
 21
17.460193
  0
LINE
  8
型材断面
  6
CONTINUOUS
 10
-13.449435
 20
17.460193
 11
-10.458175
 21
17.460193
  0
LINE
  8
型材断面
  6
CONTINUOUS
 10
-81.3838
 20
-13.121378
 11
-81.3838
 21
-71.26393
  0
LINE
  8
型材断面
  6
CONTINUOUS
 10
7.476195
 20
-13.121378
 11
7.476195
 21
-71.228215
  0
LINE
  8
型材断面
  6
CONTINUOUS
 10
109.889635
 20
20.5507
 11
110.2263
 21
20.5507
  0
LINE
  8
型材断面
  6
CONTINUOUS
 10
109.889635
 20
20.0507
 11
109.889635
 21
20.5507
  0
LINE
  8
型材断面
  6
CONTINUOUS
 10
105.989753
 20
20.0507
 11
105.79313
 21
20.247325
  0
LINE
  8
型材断面
  6
CONTINUOUS
 10
105.989753
 20
20.0507
 11
109.889635
 21
20.0507
  0
LINE
  8
型材断面
  6
CONTINUOUS
 62
    47
 10
105.79313
 20
20.247325
 11
105.79313
 21
32.814033
  0
LINE
  8
型材断面
  6
CONTINUOUS
 10
105.989753
 20
20.0507
 11
105.989753
 21
32.814033
  0
LINE
  8
型材断面
  6
CONTINUOUS
 10
110.2263
 20
20.5507
 11
110.2263
 21
32.814033
  0
LINE
  8
型材断面
  6
CONTINUOUS
 10
109.889635
 20
20.0507
 11
109.889635
 21
32.814033
  0
LINE
  8
型材断面
  6
CONTINUOUS
 10
109.889635
 20
45.077365
 11
110.2263
 21
45.077365
  0
LINE
  8
型材断面
  6
CONTINUOUS
 10
109.889635
 20
45.577365
 11
109.889635
 21
45.077365
  0
LINE
  8
型材断面
  6
CONTINUOUS
 10
105.989753
 20
45.577365
 11
105.79313
 21
45.38074
  0
LINE
  8
型材断面
  6
CONTINUOUS
 10
105.989753
 20
45.577365
 11
109.889635
 21
45.577365
  0
LINE
  8
型材断面
  6
CONTINUOUS
 62
    47
 10
105.79313
 20
45.38074
 11
105.79313
 21
32.814033
  0
LINE
  8
型材断面
  6
CONTINUOUS
 10
105.989753
 20
45.577365
 11
105.989753
 21
32.814033
  0
LINE
  8
型材断面
  6
CONTINUOUS
 10
110.2263
 20
45.077365
 11
110.2263
 21
32.814033
  0
LINE
  8
型材断面
  6
CONTINUOUS
 10
109.889635
 20
45.577365
 11
109.889635
 21
32.814033
  0
LINE
  8
型材断面
  6
CONTINUOUS
 10
6.976195
 20
-77.70962
 11
6.976195
 21
-78.046285
  0
LINE
  8
型材断面
  6
CONTINUOUS
 10
7.476195
 20
-77.70962
 11
6.976195
 21
-77.70962
  0
LINE
  8
型材断面
  6
CONTINUOUS
 10
7.476195
 20
-73.809738
 11
7.27957
 21
-73.613115
  0
LINE
  8
型材断面
  6
CONTINUOUS
 10
7.476195
 20
-73.809738
 11
7.476195
 21
-77.70962
  0
LINE
  8
型材断面
  6
CONTINUOUS
 10
7.476195
 20
-73.809738
 11
-36.953802
 21
-73.809738
  0
LINE
  8
型材断面
  6
CONTINUOUS
 62
    47
 10
7.27957
 20
-73.613115
 11
-36.953802
 21
-73.613115
  0
LINE
  8
型材断面
  6
CONTINUOUS
 10
7.476195
 20
-77.70962
 11
-36.953802
 21
-77.70962
  0
LINE
  8
型材断面
  6
CONTINUOUS
 10
6.976195
 20
-78.046285
 11
-36.953802
 21
-78.046285
  0
LINE
  8
型材断面
  6
CONTINUOUS
 10
-80.8838
 20
-77.70962
 11
-80.8838
 21
-78.046285
  0
LINE
  8
型材断面
  6
CONTINUOUS
 10
-81.3838
 20
-77.70962
 11
-80.8838
 21
-77.70962
  0
LINE
  8
型材断面
  6
CONTINUOUS
 10
-81.3838
 20
-73.809738
 11
-81.187175
 21
-73.613115
  0
LINE
  8
型材断面
  6
CONTINUOUS
 10
-81.3838
 20
-73.809738
 11
-81.3838
 21
-77.70962
  0
LINE
  8
型材断面
  6
CONTINUOUS
 10
-81.3838
 20
-73.809738
 11
-36.953802
 21
-73.809738
  0
LINE
  8
型材断面
  6
CONTINUOUS
 62
    47
 10
-81.187175
 20
-73.613115
 11
-36.953802
 21
-73.613115
  0
LINE
  8
型材断面
  6
CONTINUOUS
 10
-81.3838
 20
-77.70962
 11
-36.953802
 21
-77.70962
  0
LINE
  8
型材断面
  6
CONTINUOUS
 10
-80.8838
 20
-78.046285
 11
-36.953802
 21
-78.046285
  0
TEXT
  7
TextStyle03
  8
文字
  6
CONTINUOUS
 10
-45.175
 20
9.325
  1
可動装置側
 40
3.0
 72
     5
 11
-28.675
 21
9.325
  0
TEXT
  7
TextStyle03
  8
文字
  6
CONTINUOUS
 10
-45.175
 20
53.3
  1
可動装置側
 40
3.0
 72
     5
 11
-28.675
 21
53.3
  0
TEXT
  7
TextStyle03
  8
文字
  6
CONTINUOUS
 10
-116.675
 20
79.425
  1
はケーシング位置を示す
 40
3.0
 72
     5
 11
-79.925
 21
79.425
  0
TEXT
  7
TextStyle03
  8
文字
  6
CONTINUOUS
 10
-116.675
 20
76.05
  1
４ヶ所中1ヶ所に設定
 40
3.0
 72
     5
 11
-84.9875
 21
76.05
  0
TEXT
  7
TextStyle03
  8
文字
  6
CONTINUOUS
 10
-116.675
 20
84.95
  1
は排水穴位置を示す
 40
3.0
 72
     5
 11
-86.675
 21
84.95
  0
TEXT
  7
TextStyle03
  8
文字
  6
CONTINUOUS
 10
-99.675
 20
11.275
  1
アンカーピッチ
 40
3.0
 50
90.0
 72
     5
 11
-99.675
 21
34.525
  0
TEXT
  7
TextStyle03
  8
文字
  6
CONTINUOUS
 10
-71.975
 20
80.85
  1
アンカーピッチ
 40
3.0
 72
     5
 11
-48.725
 21
80.85
  0
TEXT
  7
TextStyle03
  8
文字
  6
CONTINUOUS
 10
-120.4
 20
70.075
  1
アンカー数量　１２ヶ所
 40
3.0
 72
     5
 11
-83.65
 21
70.075
  0
TEXT
  7
TextStyle03
  8
文字
  6
CONTINUOUS
 10
-125.4
 20
59.35
  1
※重量に依るのでご相談ください
 40
3.0
 72
     5
 11
-75.15
 21
59.35
  0
TEXT
  7
TextStyle03
  8
文字
  6
CONTINUOUS
 10
-125.4
 20
64.3
  1
アームユニット数　※２～４ヶ所
 40
3.0
 72
     5
 11
-75.15
 21
64.3
  0
LINE
  8
文字
  6
CONTINUOUS
 10
46.876013
 20
45.577365
 11
103.067963
 21
45.577365
  0
LINE
  8
文字
  6
CONTINUOUS
 10
46.876013
 20
20.0507
 11
103.067963
 21
20.0507
  0
TEXT
  7
TextStyle03
  8
文字
  6
CONTINUOUS
 10
82.5
 20
-71.425
  1
網入り6.8t
 40
3.0
 72
     5
 11
99.1875
 21
-71.425
  0
TEXT
  7
TextStyle03
  8
文字
  6
CONTINUOUS
 10
89.175
 20
-76.1
  1
×２枚
 40
3.0
 72
     5
 11
98.925
 21
-76.1
  0
TEXT
  7
TextStyle03
  8
文字
  6
CONTINUOUS
 10
78.1
 20
125.25
  1
シリーズ：ＴＤ１Ｌ
 40
5.0
 72
     5
 11
128.1
 21
125.25
  0
TEXT
  7
TextStyle03
  8
文字
  6
CONTINUOUS
 10
78.1
 20
119.625
  1
　　　　　（上下可動）600×2500タイプ
 40
5.0
 72
     5
 11
181.5375
 21
119.625
  0
TEXT
  7
TextStyle03
  8
文字
  6
CONTINUOUS
 10
78.1
 20
114.0
  1
図面名　：外観姿図
 40
5.0
 72
     5
 11
128.1
 21
114.0
  0
TEXT
  7
TextStyle03
  8
文字
  6
CONTINUOUS
 10
78.1
 20
108.375
  1
　　　　　　
 40
5.0
 72
     5
 11
111.225
 21
108.375
  0
TEXT
  7
TextStyle03
  8
文字
  6
CONTINUOUS
 10
77.55
 20
103.125
  1
ＮＳコード：ＮＳＤＬ
 40
5.0
 72
     5
 11
133.175
 21
103.125
  0
INSERT
  2
*DIM_0002
  8
寸法
  6
CONTINUOUS
 10
0.0
 20
0.0
  0
INSERT
  2
*DIM_0003
  8
寸法
  6
CONTINUOUS
 10
0.0
 20
0.0
  0
INSERT
  2
*DIM_0004
  8
寸法
  6
CONTINUOUS
 10
0.0
 20
0.0
  0
INSERT
  2
*DIM_0005
  8
寸法
  6
CONTINUOUS
 10
0.0
 20
0.0
  0
INSERT
  2
*DIM_0006
  8
寸法
  6
CONTINUOUS
 10
0.0
 20
0.0
  0
INSERT
  2
*DIM_0008
  8
寸法
  6
CONTINUOUS
 10
0.0
 20
0.0
  0
INSERT
  2
*DIM_0009
  8
寸法
  6
CONTINUOUS
 10
0.0
 20
0.0
  0
INSERT
  2
*DIM_0010
  8
寸法
  6
CONTINUOUS
 10
0.0
 20
0.0
  0
INSERT
  2
*DIM_0011
  8
寸法
  6
CONTINUOUS
 10
0.0
 20
0.0
  0
INSERT
  2
*DIM_0014
  8
寸法
  6
CONTINUOUS
 10
0.0
 20
0.0
  0
INSERT
  2
*DIM_0015
  8
寸法
  6
CONTINUOUS
 10
0.0
 20
0.0
  0
INSERT
  2
*DIM_0016
  8
寸法
  6
CONTINUOUS
 10
0.0
 20
0.0
  0
INSERT
  2
*DIM_0017
  8
寸法
  6
CONTINUOUS
 10
0.0
 20
0.0
  0
INSERT
  2
*DIM_0018
  8
寸法
  6
CONTINUOUS
 10
0.0
 20
0.0
  0
INSERT
  2
*DIM_0019
  8
寸法
  6
CONTINUOUS
 10
0.0
 20
0.0
  0
INSERT
  2
*DIM_0022
  8
寸法
  6
CONTINUOUS
 10
0.0
 20
0.0
  0
INSERT
  2
*DIM_0023
  8
寸法
  6
CONTINUOUS
 10
0.0
 20
0.0
  0
INSERT
  2
*DIM_0031
  8
寸法
  6
CONTINUOUS
 10
0.0
 20
0.0
  0
INSERT
  2
*DIM_0032
  8
寸法
  6
CONTINUOUS
 10
0.0
 20
0.0
  0
INSERT
  2
*DIM_0036
  8
寸法
  6
CONTINUOUS
 10
0.0
 20
0.0
  0
INSERT
  2
*DIM_0037
  8
寸法
  6
CONTINUOUS
 10
0.0
 20
0.0
  0
LINE
  8
別途部材
  6
CONTINUOUS
 10
6.779532
 20
20.747365
 11
6.379532
 21
21.147365
  0
LINE
  8
別途部材
  6
CONTINUOUS
 10
4.712865
 20
22.814033
 11
-3.34639
 21
30.87329
  0
LINE
  8
別途部材
  6
CONTINUOUS
 10
6.379532
 20
21.147365
 11
6.379532
 21
32.814033
  0
LINE
  8
別途部材
  6
CONTINUOUS
 10
6.779532
 20
20.747365
 11
6.779532
 21
32.814033
  0
LINE
  8
別途部材
  6
CONTINUOUS
 10
6.779532
 20
44.8807
 11
6.379532
 21
44.4807
  0
LINE
  8
別途部材
  6
CONTINUOUS
 10
4.712865
 20
42.814033
 11
-3.34639
 21
34.754775
  0
LINE
  8
別途部材
  6
CONTINUOUS
 10
6.379532
 20
44.4807
 11
6.379532
 21
32.814033
  0
LINE
  8
別途部材
  6
CONTINUOUS
 10
6.779532
 20
44.8807
 11
6.779532
 21
32.814033
  0
LINE
  8
別途部材
  6
CONTINUOUS
 10
6.379532
 20
44.4807
 11
-36.953802
 21
44.4807
  0
LINE
  8
別途部材
  6
CONTINUOUS
 10
6.779532
 20
44.8807
 11
-36.953802
 21
44.8807
  0
LINE
  8
別途部材
  6
CONTINUOUS
 10
6.379532
 20
21.147365
 11
-36.953802
 21
21.147365
  0
LINE
  8
別途部材
  6
CONTINUOUS
 10
6.779532
 20
20.747365
 11
-36.953802
 21
20.747365
  0
LINE
  8
別途部材
  6
CONTINUOUS
 10
-80.687137
 20
20.747365
 11
-80.287137
 21
21.147365
  0
LINE
  8
別途部材
  6
CONTINUOUS
 10
-78.62047
 20
22.814033
 11
-70.561215
 21
30.87329
  0
LINE
  8
別途部材
  6
CONTINUOUS
 10
-80.287137
 20
21.147365
 11
-80.287137
 21
32.814033
  0
LINE
  8
別途部材
  6
CONTINUOUS
 10
-80.687137
 20
20.747365
 11
-80.687137
 21
32.814033
  0
LINE
  8
別途部材
  6
CONTINUOUS
 10
-80.687137
 20
44.8807
 11
-80.287137
 21
44.4807
  0
LINE
  8
別途部材
  6
CONTINUOUS
 10
-78.62047
 20
42.814033
 11
-70.561215
 21
34.754775
  0
LINE
  8
別途部材
  6
CONTINUOUS
 10
-80.287137
 20
44.4807
 11
-80.287137
 21
32.814033
  0
LINE
  8
別途部材
  6
CONTINUOUS
 10
-80.687137
 20
44.8807
 11
-80.687137
 21
32.814033
  0
LINE
  8
別途部材
  6
CONTINUOUS
 10
-80.287137
 20
44.4807
 11
-36.953802
 21
44.4807
  0
LINE
  8
別途部材
  6
CONTINUOUS
 10
-80.687137
 20
44.8807
 11
-36.953802
 21
44.8807
  0
LINE
  8
別途部材
  6
CONTINUOUS
 10
-80.287137
 20
21.147365
 11
-36.953802
 21
21.147365
  0
LINE
  8
別途部材
  6
CONTINUOUS
 10
-80.687137
 20
20.747365
 11
-36.953802
 21
20.747365
  0
INSERT
  2
*GRP_0007
  8
別途部材
  6
CONTINUOUS
 10
0.0
 20
0.0
  0
LINE
  8
別途部材
  6
CONTINUOUS
 62
    96
 10
102.389627
 20
21.147365
 11
103.389627
 21
20.747365
  0
LINE
  8
別途部材
  6
CONTINUOUS
 62
    96
 10
102.389627
 20
21.147365
 11
102.389627
 21
32.814033
  0
LINE
  8
別途部材
  6
CONTINUOUS
 10
103.389627
 20
20.747365
 11
103.389627
 21
32.814033
  0
LINE
  8
別途部材
  6
CONTINUOUS
 62
    96
 10
102.389627
 20
44.4807
 11
103.389627
 21
44.8807
  0
LINE
  8
別途部材
  6
CONTINUOUS
 62
    96
 10
102.389627
 20
44.4807
 11
102.389627
 21
32.814033
  0
LINE
  8
別途部材
  6
CONTINUOUS
 10
103.389627
 20
44.8807
 11
103.389627
 21
32.814033
  0
ARC
  8
別途部材
  6
CONTINUOUS
 10
109.097963
 20
32.814033
 40
12.041667
 50
123.855033
 51
236.144967
  0
INSERT
  2
*GRP_0024
  8
別途部材
  6
DOT
 10
0.0
 20
0.0
  0
INSERT
  2
*GRP_0025
  8
別途部材
  6
DOT
 10
0.0
 20
0.0
  0
INSERT
  2
*GRP_0027
  8
別途部材
  6
DOT
 10
0.0
 20
0.0
  0
INSERT
  2
*GRP_0028
  8
別途部材
  6
DOT
 10
0.0
 20
0.0
  0
INSERT
  2
*GRP_0029
  8
別途部材
  6
DOT
 10
0.0
 20
0.0
  0
INSERT
  2
*GRP_0030
  8
別途部材
  6
DOT
 10
0.0
 20
0.0
  0
INSERT
  2
*GRP_0034
  8
別途部材
  6
DOT
 10
0.0
 20
0.0
  0
INSERT
  2
*GRP_0035
  8
別途部材
  6
DOT
 10
0.0
 20
0.0
  0
POLYLINE
  8
曲げ物
  6
CONTINUOUS
 66
     1
 70
     1
  0
VERTEX
  8
曲げ物
 10
102.0042
 20
-58.351095
  0
VERTEX
  8
曲げ物
 10
60.870867
 20
-58.351095
  0
VERTEX
  8
曲げ物
 10
60.870867
 20
-78.351095
  0
VERTEX
  8
曲げ物
 10
102.0042
 20
-78.351095
  0
SEQEND
  0
INSERT
  2
*GRP_0026
  8
曲げ物
  6
CONTINUOUS
 10
0.0
 20
0.0
  0
INSERT
  2
*GRP_0033
  8
曲げ物
  6
CONTINUOUS
 10
0.0
 20
0.0
  0
LINE
  8
鉄骨等
  6
CONTINUOUS
 62
    47
 10
105.756417
 20
20.0507
 11
104.58975
 21
20.0507
  0
LINE
  8
鉄骨等
  6
CONTINUOUS
 62
    47
 10
104.58975
 20
20.0507
 11
103.43975
 21
21.453885
  0
LINE
  8
鉄骨等
  6
CONTINUOUS
 62
    47
 10
103.43975
 20
21.453885
 11
103.38963
 21
21.453885
  0
LINE
  8
鉄骨等
  6
CONTINUOUS
 62
    47
 10
105.756417
 20
45.577365
 11
104.58975
 21
45.577365
  0
LINE
  8
鉄骨等
  6
CONTINUOUS
 62
    47
 10
104.58975
 20
45.577365
 11
103.43975
 21
44.17418
  0
LINE
  8
鉄骨等
  6
CONTINUOUS
 62
    47
 10
103.43975
 20
44.17418
 11
103.38963
 21
44.17418
  0
LINE
  8
鉄骨等
  6
CONTINUOUS
 62
    47
 10
-81.3838
 20
-73.576403
 11
-81.3838
 21
-72.409735
  0
LINE
  8
鉄骨等
  6
CONTINUOUS
 62
    47
 10
-81.3838
 20
-72.409735
 11
-79.980615
 21
-71.259735
  0
LINE
  8
鉄骨等
  6
CONTINUOUS
 62
    47
 10
-79.980615
 20
-71.259735
 11
-79.980615
 21
-71.209615
  0
LINE
  8
鉄骨等
  6
CONTINUOUS
 62
    47
 10
7.476195
 20
-73.576403
 11
7.476195
 21
-72.409735
  0
LINE
  8
鉄骨等
  6
CONTINUOUS
 62
    47
 10
7.476195
 20
-72.409735
 11
6.07301
 21
-71.259735
  0
LINE
  8
鉄骨等
  6
CONTINUOUS
 62
    47
 10
6.07301
 20
-71.259735
 11
6.07301
 21
-71.209615
  0
ENDSEC
  0
EOF
