  0
SECTION
  2
HEADER
  9
$EXTMIN
 10
-210.0
 20
-148.5
  9
$EXTMAX
 10
210.0
 20
148.5
  9
$PDMODE
 70
    32
  9
$PDSIZE
 40
1.5
  9
$LTSCALE
 40
10.0
  0
ENDSEC
  0
SECTION
  2
TABLES
  0
TABLE
  2
LTYPE
 70
    15
  0
LTYPE
  2
CONTINUOUS
 70
    64
  3
実線
 72
    65
 73
     0
 40
0.0
  0
LTYPE
  2
DASHED
 70
    64
  3
破線A
 72
    65
 73
     2
 40
0.6
 49
0.4
 49
-0.2
  0
LTYPE
  2
DASHEDX2
 70
    64
  3
破線B
 72
    65
 73
     2
 40
1.3
 49
0.9
 49
-0.4
  0
LTYPE
  2
DASHDOT
 70
    64
  3
１点鎖線A
 72
    65
 73
     4
 40
0.5375
 49
0.375
 49
-0.05
 49
0.0625
 49
-0.05
  0
LTYPE
  2
DASHDOTX2
 70
    64
  3
１点鎖線B
 72
    65
 73
     4
 40
1.075
 49
0.75
 49
-0.1
 49
0.125
 49
-0.1
  0
LTYPE
  2
DIVIDE2
 70
    64
  3
２点鎖線A
 72
    65
 73
     6
 40
0.5125
 49
0.3
 49
-0.0375
 49
0.05
 49
-0.0375
 49
0.05
 49
-0.0375
  0
LTYPE
  2
DIVIDE
 70
    64
  3
２点鎖線B
 72
    65
 73
     6
 40
1.05
 49
0.55
 49
-0.1
 49
0.1
 49
-0.1
 49
0.1
 49
-0.1
  0
LTYPE
  2
DOT
 70
    64
  3
点線A
 72
    65
 73
     2
 40
0.1125
 49
0.0625
 49
-0.05
  0
LTYPE
  2
DOTX2
 70
    64
  3
点線B
 72
    65
 73
     2
 40
0.275
 49
0.15
 49
-0.125
  0
LTYPE
  2
CONTINUOUS
 70
    64
  3
実線
 72
    65
 73
     0
 40
0.0
  0
LTYPE
  2
CONTINUOUS
 70
    64
  3
実線
 72
    65
 73
     0
 40
0.0
  0
LTYPE
  2
CONTINUOUS
 70
    64
  3
実線
 72
    65
 73
     0
 40
0.0
  0
LTYPE
  2
CONTINUOUS
 70
    64
  3
実線
 72
    65
 73
     0
 40
0.0
  0
LTYPE
  2
CONTINUOUS
 70
    64
  3
実線
 72
    65
 73
     0
 40
0.0
  0
LTYPE
  2
CONTINUOUS
 70
    64
  3
実線
 72
    65
 73
     0
 40
0.0
  0
ENDTAB
  0
TABLE
  2
LAYER
 70
    34
  0
LAYER
  2
通り芯
 70
     0
 62
    15
  6
CONTINUOUS
  0
LAYER
  2
補助線
 70
     0
 62
    16
  6
DOT
  0
LAYER
  2
躯体
 70
     0
 62
    31
  6
CONTINUOUS
  0
LAYER
  2
型材
 70
     0
 62
    32
  6
CONTINUOUS
  0
LAYER
  2
型材断面
 70
     0
 62
    47
  6
CONTINUOUS
  0
LAYER
  2
ガラス
 70
     0
 62
    48
  6
CONTINUOUS
  0
LAYER
  2
ゴム等
 70
     0
 62
    63
  6
CONTINUOUS
  0
LAYER
  2
ボルト／ビス
 70
     0
 62
    64
  6
CONTINUOUS
  0
LAYER
  2
文字
 70
     0
 62
    79
  6
CONTINUOUS
  0
LAYER
  2
寸法
 70
     0
 62
    80
  6
CONTINUOUS
  0
LAYER
  2
ﾊｯﾁﾝｸﾞ
 70
     0
 62
    95
  6
CONTINUOUS
  0
LAYER
  2
別途部材
 70
     0
 62
    96
  6
CONTINUOUS
  0
LAYER
  2
曲げ物
 70
     0
 62
   111
  6
CONTINUOUS
  0
LAYER
  2
鉄骨等
 70
     0
 62
   112
  6
CONTINUOUS
  0
LAYER
  2
St
 70
     0
 62
   127
  6
CONTINUOUS
  0
LAYER
  2
その他部品等
 70
     0
 62
   128
  6
CONTINUOUS
  0
LAYER
  2
ｶﾞｽｹｯﾄ
 70
     0
 62
   143
  6
CONTINUOUS
  0
LAYER
  2
ｽｹｯﾁ
 70
     0
 62
    14
  6
CONTINUOUS
  0
LAYER
  2
0
 70
     0
 62
    17
  6
CONTINUOUS
  0
LAYER
  2
1
 70
     0
 62
    30
  6
CONTINUOUS
  0
LAYER
  2
4
 70
     0
 62
    33
  6
CONTINUOUS
  0
LAYER
  2
ﾚｲﾔ3
 70
     0
 62
    46
  6
CONTINUOUS
  0
LAYER
  2
外形線
 70
     0
 62
    49
  6
CONTINUOUS
  0
LAYER
  2
部品
 70
     0
 62
    14
  6
CONTINUOUS
  0
LAYER
  2
サッシ芯
 70
     0
 62
    17
  6
DASHDOTX2
  0
LAYER
  2
寸法線
 70
     0
 62
    62
  6
CONTINUOUS
  0
LAYER
  2
姿図外形線
 70
     0
 62
    65
  6
CONTINUOUS
  0
LAYER
  2
姿補助線
 70
     0
 62
    30
  6
CONTINUOUS
  0
LAYER
  2
透視線
 70
     0
 62
    78
  6
DOT
  0
LAYER
  2
用紙
 70
     0
 62
    81
  6
CONTINUOUS
  0
LAYER
  2
実線図枠
 70
     0
 62
    94
  6
CONTINUOUS
  0
LAYER
  2
補助図枠
 70
     0
 62
    97
  6
CONTINUOUS
  0
LAYER
  2
建具記号
 70
     0
 62
   110
  6
CONTINUOUS
  0
LAYER
  2
補助文字
 70
     0
 62
   113
  6
CONTINUOUS
  0
ENDTAB
  0
TABLE
  2
STYLE
 70
    10
  0
STYLE
  2
STANDARD
 70
     0
 40
1.0
 41
1.0
 42
1.0
 50
0.0
 71
     0
  3
TXT
  4
BIGFONT
  0
STYLE
  2
TATE
 70
     4
 40
1.0
 41
1.0
 42
1.0
 50
0.0
 71
     0
  3
TXT
  4
BIGFONT
  0
STYLE
  2
TextStyle03
 70
     0
 40
1.0
 41
1.0
 42
1.0
 50
0.0
 71
     0
  3
MONOTXT
  4
BIGFONT
  0
STYLE
  2
TextStyle04
 70
     0
 40
1.0
 41
1.0
 42
1.0
 50
0.0
 71
     0
  3
MONOTXT
  4
BIGFONT
  0
STYLE
  2
TextStyle05
 70
     0
 40
1.0
 41
1.0
 42
1.0
 50
0.0
 71
     0
  3
MONOTXT
  4
BIGFONT
  0
STYLE
  2
TextStyle06
 70
     0
 40
1.0
 41
1.0
 42
1.0
 50
0.0
 71
     0
  3
MONOTXT
  4
BIGFONT
  0
STYLE
  2
TextStyle07
 70
     0
 40
1.0
 41
1.0
 42
1.0
 50
0.0
 71
     0
  3
MONOTXT
  4
BIGFONT
  0
STYLE
  2
TextStyle08
 70
     0
 40
1.0
 41
1.0
 42
1.0
 50
0.0
 71
     0
  3
MONOTXT
  4
BIGFONT
  0
STYLE
  2
TextStyle09
 70
     0
 40
1.0
 41
1.0
 42
1.0
 50
0.0
 71
     0
  3
MONOTXT
  4
BIGFONT
  0
STYLE
  2
TextStyle10
 70
     0
 40
1.0
 41
1.0
 42
1.0
 50
0.0
 71
     0
  3
MONOTXT
  4
BIGFONT
  0
ENDTAB
  0
ENDSEC
  0
SECTION
  2
BLOCKS
  0
BLOCK
  2
*GRP_0001
 70
    65
 10
0.0
 20
0.0
  0
LINE
  8
型材断面
  6
CONTINUOUS
 10
195.0
 20
133.5
 11
195.0
 21
-133.5
  0
LINE
  8
型材断面
  6
CONTINUOUS
 10
195.0
 20
-133.5
 11
-185.0
 21
-133.5
  0
LINE
  8
型材断面
  6
CONTINUOUS
 10
-185.0
 20
-133.5
 11
-185.0
 21
133.5
  0
LINE
  8
型材断面
  6
CONTINUOUS
 10
195.0
 20
133.5
 11
-185.0
 21
133.5
  0
LINE
  8
型材断面
  6
CONTINUOUS
 10
145.0
 20
-133.5
 11
145.0
 21
-118.5
  0
LINE
  8
型材断面
  6
CONTINUOUS
 10
195.0
 20
-118.5
 11
145.0
 21
-118.5
  0
ENDBLK
  0
BLOCK
  2
*DIM_0002
 70
    65
 10
0.0
 20
0.0
  0
LINE
  8
寸法
  6
BYBLOCK
 62
     0
 10
-4.287135
 20
-64.87628
 11
20.682515
 21
-64.87628
  0
LINE
  8
寸法
  6
BYBLOCK
 62
     0
 10
20.682515
 20
-70.209613
 11
20.682515
 21
-64.87628
  0
POINT
  8
寸法
 62
     0
 10
20.682515
 20
-70.209613
  0
POINT
  8
寸法
 62
     0
 10
20.682515
 20
-64.87628
  0
TEXT
  7
TextStyle03
  8
寸法
  6
CONTINUOUS
 62
     0
 10
20.3
 20
-69.9875
  1
160
 40
3.0
 50
90.0
 72
     5
 11
20.3
 21
-65.1125
  0
ENDBLK
  0
BLOCK
  2
*DIM_0003
 70
    65
 10
0.0
 20
0.0
  0
LINE
  8
寸法
  6
BYBLOCK
 62
     0
 10
38.732515
 20
22.814033
 11
38.732515
 21
42.814033
  0
POINT
  8
寸法
 62
     0
 10
38.732515
 20
22.814033
  0
POINT
  8
寸法
 62
     0
 10
38.732515
 20
42.814033
  0
TEXT
  7
TextStyle03
  8
寸法
  6
CONTINUOUS
 62
     0
 10
38.35
 20
21.925
  1
呼称寸法　600
 40
3.0
 50
90.0
 72
     5
 11
38.35
 21
43.675
  0
ENDBLK
  0
BLOCK
  2
*DIM_0004
 70
    65
 10
0.0
 20
0.0
  0
LINE
  8
寸法
  6
BYBLOCK
 62
     0
 10
88.912797
 20
33.814033
 11
88.912797
 21
60.666798
  0
LINE
  8
寸法
  6
BYBLOCK
 62
     0
 10
94.24613
 20
60.666798
 11
88.912797
 21
60.666798
  0
POINT
  8
寸法
 62
     0
 10
94.24613
 20
60.666798
  0
POINT
  8
寸法
 62
     0
 10
88.912797
 20
60.666798
  0
TEXT
  7
TextStyle03
  8
寸法
  6
CONTINUOUS
 62
     0
 10
89.1375
 20
61.025
  1
160
 40
3.0
 72
     5
 11
94.0125
 21
61.025
  0
ENDBLK
  0
BLOCK
  2
*DIM_0005
 70
    65
 10
0.0
 20
0.0
  0
LINE
  8
寸法
  6
BYBLOCK
 62
     0
 10
-61.953802
 20
-16.511205
 11
-61.953802
 21
-13.121378
  0
LINE
  8
寸法
  6
BYBLOCK
 62
     0
 10
4.712865
 20
-13.121378
 11
-61.953802
 21
-13.121378
  0
POINT
  8
寸法
 62
     0
 10
4.712865
 20
-13.121378
  0
POINT
  8
寸法
 62
     0
 10
-61.953802
 20
-13.121378
  0
TEXT
  7
TextStyle03
  8
寸法
  6
CONTINUOUS
 62
     0
 10
-40.34375
 20
-12.75
  1
呼称寸法　2000
 40
3.0
 72
     5
 11
-16.90625
 21
-12.75
  0
ENDBLK
  0
BLOCK
  2
*DIM_0006
 70
    65
 10
0.0
 20
0.0
  0
LINE
  8
寸法
  6
BYBLOCK
 62
     0
 10
-45.287135
 20
19.183902
 11
-45.287135
 21
14.182178
  0
LINE
  8
寸法
  6
BYBLOCK
 62
     0
 10
-11.9538
 20
19.183902
 11
-11.9538
 21
14.182178
  0
LINE
  8
寸法
  6
BYBLOCK
 62
     0
 10
-45.287135
 20
14.182178
 11
-11.9538
 21
14.182178
  0
POINT
  8
寸法
 62
     0
 10
-45.287135
 20
14.182178
  0
POINT
  8
寸法
 62
     0
 10
-11.9538
 20
14.182178
  0
TEXT
  7
TextStyle03
  8
寸法
  6
CONTINUOUS
 62
     0
 10
-31.90625
 20
14.55
  1
1000
 40
3.0
 72
     5
 11
-25.34375
 21
14.55
  0
ENDBLK
  0
BLOCK
  2
*DIM_0007
 70
    65
 10
0.0
 20
0.0
  0
LINE
  8
寸法
  6
BYBLOCK
 62
     0
 10
5.712865
 20
42.814035
 11
15.437147
 21
42.814035
  0
LINE
  8
寸法
  6
BYBLOCK
 62
     0
 10
8.342995
 20
39.114035
 11
15.437147
 21
39.114035
  0
LINE
  8
寸法
  6
BYBLOCK
 62
     0
 10
15.437147
 20
42.814035
 11
15.437147
 21
39.114035
  0
POINT
  8
寸法
 62
     0
 10
15.437147
 20
42.814035
  0
POINT
  8
寸法
 62
     0
 10
15.437147
 20
39.114035
  0
TEXT
  7
TextStyle03
  8
寸法
  6
CONTINUOUS
 62
     0
 10
15.125
 20
43.8125
  1
111
 40
3.0
 50
90.0
 72
     5
 11
15.125
 21
48.6875
  0
ENDBLK
  0
BLOCK
  2
*DIM_0008
 70
    65
 10
0.0
 20
0.0
  0
LINE
  8
寸法
  6
BYBLOCK
 62
     0
 10
5.712865
 20
22.81403
 11
15.437147
 21
22.814027
  0
LINE
  8
寸法
  6
BYBLOCK
 62
     0
 10
8.342995
 20
26.51403
 11
15.437147
 21
26.514027
  0
LINE
  8
寸法
  6
BYBLOCK
 62
     0
 10
15.437147
 20
22.814027
 11
15.437147
 21
26.514027
  0
POINT
  8
寸法
 62
     0
 10
15.437147
 20
22.814027
  0
POINT
  8
寸法
 62
     0
 10
15.437147
 20
26.514027
  0
TEXT
  7
TextStyle03
  8
寸法
  6
CONTINUOUS
 62
     0
 10
15.45
 20
16.5625
  1
111
 40
3.0
 50
90.0
 72
     5
 11
15.45
 21
21.4375
  0
ENDBLK
  0
BLOCK
  2
*GRP_0009
 70
    65
 10
0.0
 20
0.0
  0
LINE
  8
別途部材
  6
CONTINUOUS
 62
    96
 10
-63.620467
 20
-70.209613
 11
-64.020467
 21
-71.209613
  0
ARC
  8
別途部材
  6
CONTINUOUS
 10
-51.953803
 20
-76.917952
 40
12.041668
 50
90.0
 51
146.144967
  0
LINE
  8
別途部材
  6
CONTINUOUS
 10
-64.020467
 20
-71.209613
 11
-28.620467
 21
-71.209613
  0
LINE
  8
別途部材
  6
CONTINUOUS
 62
    96
 10
-63.620467
 20
-70.209613
 11
-28.620467
 21
-70.209613
  0
LINE
  8
別途部材
  6
CONTINUOUS
 10
-29.120467
 20
-63.87628
 11
-30.120467
 21
-64.87628
  0
LINE
  8
別途部材
  6
CONTINUOUS
 10
-31.120467
 20
-64.87628
 11
-32.120467
 21
-63.87628
  0
LINE
  8
別途部材
  6
CONTINUOUS
 10
-33.120467
 20
-63.87628
 11
-34.120467
 21
-64.87628
  0
LINE
  8
別途部材
  6
CONTINUOUS
 10
-32.120467
 20
-63.87628
 11
-33.120467
 21
-63.87628
  0
LINE
  8
別途部材
  6
CONTINUOUS
 10
-29.120467
 20
-63.87628
 11
-28.620467
 21
-63.87628
  0
LINE
  8
別途部材
  6
CONTINUOUS
 10
-35.120467
 20
-64.87628
 11
-36.120467
 21
-63.87628
  0
LINE
  8
別途部材
  6
CONTINUOUS
 10
-37.120467
 20
-63.87628
 11
-38.120467
 21
-64.87628
  0
LINE
  8
別途部材
  6
CONTINUOUS
 10
-36.120467
 20
-63.87628
 11
-37.120467
 21
-63.87628
  0
LINE
  8
別途部材
  6
CONTINUOUS
 10
-39.120467
 20
-64.87628
 11
-40.120467
 21
-63.87628
  0
LINE
  8
別途部材
  6
CONTINUOUS
 10
-41.120467
 20
-63.87628
 11
-42.120467
 21
-64.87628
  0
LINE
  8
別途部材
  6
CONTINUOUS
 10
-40.120467
 20
-63.87628
 11
-41.120467
 21
-63.87628
  0
LINE
  8
別途部材
  6
CONTINUOUS
 10
-43.120467
 20
-64.87628
 11
-44.120467
 21
-63.87628
  0
LINE
  8
別途部材
  6
CONTINUOUS
 10
-45.120467
 20
-63.87628
 11
-46.120467
 21
-64.87628
  0
LINE
  8
別途部材
  6
CONTINUOUS
 10
-44.120467
 20
-63.87628
 11
-45.120467
 21
-63.87628
  0
LINE
  8
別途部材
  6
CONTINUOUS
 10
-47.120467
 20
-64.87628
 11
-48.120467
 21
-63.87628
  0
LINE
  8
別途部材
  6
CONTINUOUS
 10
-49.120467
 20
-63.87628
 11
-50.120467
 21
-64.87628
  0
LINE
  8
別途部材
  6
CONTINUOUS
 10
-48.120467
 20
-63.87628
 11
-49.120467
 21
-63.87628
  0
LINE
  8
別途部材
  6
CONTINUOUS
 10
-46.120467
 20
-64.87628
 11
-47.120467
 21
-64.87628
  0
LINE
  8
別途部材
  6
CONTINUOUS
 10
-42.120467
 20
-64.87628
 11
-43.120467
 21
-64.87628
  0
LINE
  8
別途部材
  6
CONTINUOUS
 10
-38.120467
 20
-64.87628
 11
-39.120467
 21
-64.87628
  0
LINE
  8
別途部材
  6
CONTINUOUS
 10
-34.120467
 20
-64.87628
 11
-35.120467
 21
-64.87628
  0
LINE
  8
別途部材
  6
CONTINUOUS
 10
-31.120467
 20
-64.87628
 11
-30.120467
 21
-64.87628
  0
LINE
  8
別途部材
  6
CONTINUOUS
 10
-49.120467
 20
-63.87628
 11
-49.120467
 21
-70.209613
  0
LINE
  8
別途部材
  6
CONTINUOUS
 10
-48.120467
 20
-63.87628
 11
-48.120467
 21
-70.209613
  0
LINE
  8
別途部材
  6
CONTINUOUS
 10
-50.120467
 20
-64.87628
 11
-50.120467
 21
-70.209613
  0
LINE
  8
別途部材
  6
CONTINUOUS
 10
-47.120467
 20
-64.87628
 11
-47.120467
 21
-70.209613
  0
LINE
  8
別途部材
  6
CONTINUOUS
 10
-45.120467
 20
-63.87628
 11
-45.120467
 21
-70.209613
  0
LINE
  8
別途部材
  6
CONTINUOUS
 10
-44.120467
 20
-63.87628
 11
-44.120467
 21
-70.209613
  0
LINE
  8
別途部材
  6
CONTINUOUS
 10
-43.120467
 20
-64.87628
 11
-43.120467
 21
-70.209613
  0
LINE
  8
別途部材
  6
CONTINUOUS
 10
-42.120467
 20
-64.87628
 11
-42.120467
 21
-70.209613
  0
LINE
  8
別途部材
  6
CONTINUOUS
 10
-41.120467
 20
-63.87628
 11
-41.120467
 21
-70.209613
  0
LINE
  8
別途部材
  6
CONTINUOUS
 10
-46.120467
 20
-64.87628
 11
-46.120467
 21
-70.209613
  0
LINE
  8
別途部材
  6
CONTINUOUS
 10
-40.120467
 20
-63.87628
 11
-40.120467
 21
-70.209613
  0
LINE
  8
別途部材
  6
CONTINUOUS
 10
-39.120467
 20
-64.87628
 11
-39.120467
 21
-70.209613
  0
LINE
  8
別途部材
  6
CONTINUOUS
 10
-38.120467
 20
-64.87628
 11
-38.120467
 21
-70.209613
  0
LINE
  8
別途部材
  6
CONTINUOUS
 10
-36.120467
 20
-63.87628
 11
-36.120467
 21
-70.209613
  0
LINE
  8
別途部材
  6
CONTINUOUS
 10
-34.120467
 20
-64.87628
 11
-34.120467
 21
-70.209613
  0
LINE
  8
別途部材
  6
CONTINUOUS
 10
-33.120467
 20
-63.87628
 11
-33.120467
 21
-70.209613
  0
LINE
  8
別途部材
  6
CONTINUOUS
 10
-31.120467
 20
-64.87628
 11
-31.120467
 21
-70.209613
  0
LINE
  8
別途部材
  6
CONTINUOUS
 10
-30.120467
 20
-64.87628
 11
-30.120467
 21
-70.209613
  0
LINE
  8
別途部材
  6
CONTINUOUS
 10
-29.120467
 20
-63.87628
 11
-29.120467
 21
-70.209613
  0
LINE
  8
別途部材
  6
CONTINUOUS
 10
-32.120467
 20
-63.87628
 11
-32.120467
 21
-70.209613
  0
LINE
  8
別途部材
  6
CONTINUOUS
 10
-35.120467
 20
-64.87628
 11
-35.120467
 21
-70.209613
  0
LINE
  8
別途部材
  6
CONTINUOUS
 10
-37.120467
 20
-63.87628
 11
-37.120467
 21
-70.209613
  0
LINE
  8
別途部材
  6
CONTINUOUS
 10
-50.120467
 20
-64.87628
 11
-51.9538
 21
-64.87628
  0
LINE
  8
別途部材
  6
CONTINUOUS
 62
    96
 10
6.379532
 20
-70.209613
 11
6.779532
 21
-71.209613
  0
ARC
  8
別途部材
  6
CONTINUOUS
 10
-5.287132
 20
-76.917952
 40
12.041668
 50
33.855033
 51
90.0
  0
LINE
  8
別途部材
  6
CONTINUOUS
 10
6.779532
 20
-71.209613
 11
-28.620467
 21
-71.209613
  0
LINE
  8
別途部材
  6
CONTINUOUS
 62
    96
 10
6.379532
 20
-70.209613
 11
-28.620467
 21
-70.209613
  0
LINE
  8
別途部材
  6
CONTINUOUS
 10
-28.120467
 20
-63.87628
 11
-27.120467
 21
-64.87628
  0
LINE
  8
別途部材
  6
CONTINUOUS
 10
-26.120467
 20
-64.87628
 11
-25.120467
 21
-63.87628
  0
LINE
  8
別途部材
  6
CONTINUOUS
 10
-24.120467
 20
-63.87628
 11
-23.120467
 21
-64.87628
  0
LINE
  8
別途部材
  6
CONTINUOUS
 10
-25.120467
 20
-63.87628
 11
-24.120467
 21
-63.87628
  0
LINE
  8
別途部材
  6
CONTINUOUS
 10
-28.120467
 20
-63.87628
 11
-28.620467
 21
-63.87628
  0
LINE
  8
別途部材
  6
CONTINUOUS
 10
-22.120467
 20
-64.87628
 11
-21.120467
 21
-63.87628
  0
LINE
  8
別途部材
  6
CONTINUOUS
 10
-20.120467
 20
-63.87628
 11
-19.120467
 21
-64.87628
  0
LINE
  8
別途部材
  6
CONTINUOUS
 10
-21.120467
 20
-63.87628
 11
-20.120467
 21
-63.87628
  0
LINE
  8
別途部材
  6
CONTINUOUS
 10
-18.120467
 20
-64.87628
 11
-17.120467
 21
-63.87628
  0
LINE
  8
別途部材
  6
CONTINUOUS
 10
-16.120467
 20
-63.87628
 11
-15.120467
 21
-64.87628
  0
LINE
  8
別途部材
  6
CONTINUOUS
 10
-17.120467
 20
-63.87628
 11
-16.120467
 21
-63.87628
  0
LINE
  8
別途部材
  6
CONTINUOUS
 10
-14.120467
 20
-64.87628
 11
-13.120467
 21
-63.87628
  0
LINE
  8
別途部材
  6
CONTINUOUS
 10
-12.120467
 20
-63.87628
 11
-11.120467
 21
-64.87628
  0
LINE
  8
別途部材
  6
CONTINUOUS
 10
-13.120467
 20
-63.87628
 11
-12.120467
 21
-63.87628
  0
LINE
  8
別途部材
  6
CONTINUOUS
 10
-10.120467
 20
-64.87628
 11
-9.120467
 21
-63.87628
  0
LINE
  8
別途部材
  6
CONTINUOUS
 10
-8.120467
 20
-63.87628
 11
-7.120467
 21
-64.87628
  0
LINE
  8
別途部材
  6
CONTINUOUS
 10
-9.120467
 20
-63.87628
 11
-8.120467
 21
-63.87628
  0
LINE
  8
別途部材
  6
CONTINUOUS
 10
-11.120467
 20
-64.87628
 11
-10.120467
 21
-64.87628
  0
LINE
  8
別途部材
  6
CONTINUOUS
 10
-15.120467
 20
-64.87628
 11
-14.120467
 21
-64.87628
  0
LINE
  8
別途部材
  6
CONTINUOUS
 10
-19.120467
 20
-64.87628
 11
-18.120467
 21
-64.87628
  0
LINE
  8
別途部材
  6
CONTINUOUS
 10
-23.120467
 20
-64.87628
 11
-22.120467
 21
-64.87628
  0
LINE
  8
別途部材
  6
CONTINUOUS
 10
-26.120467
 20
-64.87628
 11
-27.120467
 21
-64.87628
  0
LINE
  8
別途部材
  6
CONTINUOUS
 10
-8.120467
 20
-63.87628
 11
-8.120467
 21
-70.209613
  0
LINE
  8
別途部材
  6
CONTINUOUS
 10
-9.120467
 20
-63.87628
 11
-9.120467
 21
-70.209613
  0
LINE
  8
別途部材
  6
CONTINUOUS
 10
-7.120467
 20
-64.87628
 11
-7.120467
 21
-70.209613
  0
LINE
  8
別途部材
  6
CONTINUOUS
 10
-10.120467
 20
-64.87628
 11
-10.120467
 21
-70.209613
  0
LINE
  8
別途部材
  6
CONTINUOUS
 10
-12.120467
 20
-63.87628
 11
-12.120467
 21
-70.209613
  0
LINE
  8
別途部材
  6
CONTINUOUS
 10
-13.120467
 20
-63.87628
 11
-13.120467
 21
-70.209613
  0
LINE
  8
別途部材
  6
CONTINUOUS
 10
-14.120467
 20
-64.87628
 11
-14.120467
 21
-70.209613
  0
LINE
  8
別途部材
  6
CONTINUOUS
 10
-15.120467
 20
-64.87628
 11
-15.120467
 21
-70.209613
  0
LINE
  8
別途部材
  6
CONTINUOUS
 10
-16.120467
 20
-63.87628
 11
-16.120467
 21
-70.209613
  0
LINE
  8
別途部材
  6
CONTINUOUS
 10
-11.120467
 20
-64.87628
 11
-11.120467
 21
-70.209613
  0
LINE
  8
別途部材
  6
CONTINUOUS
 10
-17.120467
 20
-63.87628
 11
-17.120467
 21
-70.209613
  0
LINE
  8
別途部材
  6
CONTINUOUS
 10
-18.120467
 20
-64.87628
 11
-18.120467
 21
-70.209613
  0
LINE
  8
別途部材
  6
CONTINUOUS
 10
-19.120467
 20
-64.87628
 11
-19.120467
 21
-70.209613
  0
LINE
  8
別途部材
  6
CONTINUOUS
 10
-21.120467
 20
-63.87628
 11
-21.120467
 21
-70.209613
  0
LINE
  8
別途部材
  6
CONTINUOUS
 10
-23.120467
 20
-64.87628
 11
-23.120467
 21
-70.209613
  0
LINE
  8
別途部材
  6
CONTINUOUS
 10
-24.120467
 20
-63.87628
 11
-24.120467
 21
-70.209613
  0
LINE
  8
別途部材
  6
CONTINUOUS
 10
-26.120467
 20
-64.87628
 11
-26.120467
 21
-70.209613
  0
LINE
  8
別途部材
  6
CONTINUOUS
 10
-27.120467
 20
-64.87628
 11
-27.120467
 21
-70.209613
  0
LINE
  8
別途部材
  6
CONTINUOUS
 10
-28.120467
 20
-63.87628
 11
-28.120467
 21
-70.209613
  0
LINE
  8
別途部材
  6
CONTINUOUS
 10
-25.120467
 20
-63.87628
 11
-25.120467
 21
-70.209613
  0
LINE
  8
別途部材
  6
CONTINUOUS
 10
-22.120467
 20
-64.87628
 11
-22.120467
 21
-70.209613
  0
LINE
  8
別途部材
  6
CONTINUOUS
 10
-20.120467
 20
-63.87628
 11
-20.120467
 21
-70.209613
  0
LINE
  8
別途部材
  6
CONTINUOUS
 10
-7.120467
 20
-64.87628
 11
-5.287135
 21
-64.87628
  0
ENDBLK
  0
BLOCK
  2
*GRP_0010
 70
    65
 10
0.0
 20
0.0
  0
LINE
  8
補助線
  6
BYBLOCK
 62
    64
 10
99.152552
 20
39.41701
 11
99.260035
 21
39.54439
  0
LINE
  8
補助線
  6
BYBLOCK
 62
    64
 10
99.142603
 20
39.53444
 11
99.269982
 21
39.42696
  0
LINE
  8
補助線
  6
BYBLOCK
 62
    64
 10
89.586882
 20
28.08009
 11
89.479402
 21
27.95271
  0
LINE
  8
補助線
  6
BYBLOCK
 62
    64
 10
89.469453
 20
28.07014
 11
89.596835
 21
27.96266
  0
LINE
  8
補助線
  6
BYBLOCK
 62
    64
 10
94.42344
 20
33.81226
 11
94.31596
 21
33.684878
  0
LINE
  8
補助線
  6
BYBLOCK
 62
    64
 10
94.306007
 20
33.802307
 11
94.43339
 21
33.694828
  0
LINE
  8
型材断面
  6
CONTINUOUS
 10
98.78435
 20
40.272862
 11
99.488933
 21
40.332562
  0
LINE
  8
型材断面
  6
CONTINUOUS
 10
99.488933
 20
40.332562
 11
99.998455
 21
39.902645
  0
LINE
  8
型材断面
  6
CONTINUOUS
 10
99.998455
 20
39.902645
 11
100.058158
 21
39.198063
  0
LINE
  8
型材断面
  6
CONTINUOUS
 10
88.68128
 20
28.299037
 11
88.740983
 21
27.594457
  0
LINE
  8
型材断面
  6
CONTINUOUS
 10
88.740983
 20
27.594457
 11
89.250505
 21
27.164535
  0
LINE
  8
型材断面
  6
CONTINUOUS
 10
89.250505
 20
27.164535
 11
89.955085
 21
27.22424
  0
LINE
  8
型材断面
  6
CONTINUOUS
 10
98.78435
 20
40.272862
 11
88.681272
 21
28.299115
  0
LINE
  8
型材断面
  6
CONTINUOUS
 10
100.058158
 20
39.198063
 11
89.955012
 21
27.224235
  0
LINE
  8
型材断面
  6
CONTINUOUS
 10
94.114942
 20
33.963528
 11
94.624465
 21
33.533607
  0
LINE
  8
ボルト／ビス
  6
CONTINUOUS
 62
    64
 10
98.970955
 20
39.679272
 11
99.260592
 21
39.783792
  0
LINE
  8
ボルト／ビス
  6
CONTINUOUS
 62
    64
 10
98.970955
 20
39.679272
 11
98.916657
 21
39.376175
  0
LINE
  8
ボルト／ビス
  6
CONTINUOUS
 62
    64
 10
99.441633
 20
39.282128
 11
99.49593
 21
39.585225
  0
LINE
  8
ボルト／ビス
  6
CONTINUOUS
 62
    64
 10
99.441633
 20
39.282128
 11
99.151995
 21
39.177605
  0
CIRCLE
  8
ボルト／ビス
  6
CONTINUOUS
 62
    64
 10
99.206293
 20
39.4807
 40
0.266668
  0
LINE
  8
ボルト／ビス
  6
CONTINUOUS
 62
    64
 10
98.916657
 20
39.376175
 11
99.151995
 21
39.177605
  0
LINE
  8
ボルト／ビス
  6
CONTINUOUS
 62
    64
 10
99.260592
 20
39.783792
 11
99.49593
 21
39.585225
  0
LINE
  8
ボルト／ビス
  6
CONTINUOUS
 62
    64
 10
89.297805
 20
28.21497
 11
89.243505
 21
27.911875
  0
LINE
  8
ボルト／ビス
  6
CONTINUOUS
 62
    64
 10
89.297805
 20
28.21497
 11
89.587442
 21
28.319495
  0
LINE
  8
ボルト／ビス
  6
CONTINUOUS
 62
    64
 10
89.768483
 20
27.81783
 11
89.478845
 21
27.713307
  0
LINE
  8
ボルト／ビス
  6
CONTINUOUS
 62
    64
 10
89.768483
 20
27.81783
 11
89.822777
 21
28.120925
  0
CIRCLE
  8
ボルト／ビス
  6
CONTINUOUS
 62
    64
 10
89.533145
 20
28.0164
 40
0.266668
  0
LINE
  8
ボルト／ビス
  6
CONTINUOUS
 62
    64
 10
89.587442
 20
28.319495
 11
89.822777
 21
28.120925
  0
LINE
  8
ボルト／ビス
  6
CONTINUOUS
 62
    64
 10
89.243505
 20
27.911875
 11
89.478845
 21
27.713307
  0
LINE
  8
ボルト／ビス
  6
CONTINUOUS
 62
    64
 10
94.13436
 20
33.94714
 11
94.080062
 21
33.644043
  0
LINE
  8
ボルト／ビス
  6
CONTINUOUS
 62
    64
 10
94.13436
 20
33.94714
 11
94.423998
 21
34.051665
  0
LINE
  8
ボルト／ビス
  6
CONTINUOUS
 62
    64
 10
94.605038
 20
33.549998
 11
94.3154
 21
33.445475
  0
LINE
  8
ボルト／ビス
  6
CONTINUOUS
 62
    64
 10
94.605038
 20
33.549998
 11
94.659338
 21
33.853092
  0
CIRCLE
  8
ボルト／ビス
  6
CONTINUOUS
 62
    64
 10
94.3697
 20
33.748567
 40
0.266668
  0
LINE
  8
ボルト／ビス
  6
CONTINUOUS
 62
    64
 10
94.423998
 20
34.051665
 11
94.659338
 21
33.853092
  0
LINE
  8
ボルト／ビス
  6
CONTINUOUS
 62
    64
 10
94.080062
 20
33.644043
 11
94.3154
 21
33.445475
  0
ENDBLK
  0
BLOCK
  2
*GRP_0011
 70
    65
 10
0.0
 20
0.0
  0
LINE
  8
補助線
  6
BYBLOCK
 62
    64
 10
99.152552
 20
28.080125
 11
99.260035
 21
27.952745
  0
LINE
  8
補助線
  6
BYBLOCK
 62
    64
 10
99.142603
 20
27.962695
 11
99.269982
 21
28.070175
  0
LINE
  8
補助線
  6
BYBLOCK
 62
    64
 10
89.586882
 20
39.417045
 11
89.479402
 21
39.544425
  0
LINE
  8
補助線
  6
BYBLOCK
 62
    64
 10
89.469453
 20
39.426995
 11
89.596835
 21
39.534475
  0
LINE
  8
補助線
  6
BYBLOCK
 62
    64
 10
94.42344
 20
33.684875
 11
94.31596
 21
33.812257
  0
LINE
  8
補助線
  6
BYBLOCK
 62
    64
 10
94.306007
 20
33.694828
 11
94.43339
 21
33.802307
  0
LINE
  8
型材断面
  6
CONTINUOUS
 10
98.78435
 20
27.224273
 11
99.488933
 21
27.164573
  0
LINE
  8
型材断面
  6
CONTINUOUS
 10
99.488933
 20
27.164573
 11
99.998455
 21
27.59449
  0
LINE
  8
型材断面
  6
CONTINUOUS
 10
99.998455
 20
27.59449
 11
100.058158
 21
28.299072
  0
LINE
  8
型材断面
  6
CONTINUOUS
 10
88.68128
 20
39.198098
 11
88.740983
 21
39.902678
  0
LINE
  8
型材断面
  6
CONTINUOUS
 10
88.740983
 20
39.902678
 11
89.250505
 21
40.3326
  0
LINE
  8
型材断面
  6
CONTINUOUS
 10
89.250505
 20
40.3326
 11
89.955085
 21
40.272895
  0
LINE
  8
型材断面
  6
CONTINUOUS
 10
98.78435
 20
27.224273
 11
88.681272
 21
39.19802
  0
LINE
  8
型材断面
  6
CONTINUOUS
 10
100.058158
 20
28.299072
 11
89.955012
 21
40.2729
  0
LINE
  8
型材断面
  6
CONTINUOUS
 10
94.114942
 20
33.533607
 11
94.624465
 21
33.963528
  0
LINE
  8
ボルト／ビス
  6
CONTINUOUS
 62
    64
 10
98.970955
 20
27.817863
 11
99.260592
 21
27.713343
  0
LINE
  8
ボルト／ビス
  6
CONTINUOUS
 62
    64
 10
98.970955
 20
27.817863
 11
98.916657
 21
28.12096
  0
LINE
  8
ボルト／ビス
  6
CONTINUOUS
 62
    64
 10
99.441633
 20
28.215007
 11
99.49593
 21
27.91191
  0
LINE
  8
ボルト／ビス
  6
CONTINUOUS
 62
    64
 10
99.441633
 20
28.215007
 11
99.151995
 21
28.31953
  0
CIRCLE
  8
ボルト／ビス
  6
CONTINUOUS
 62
    64
 10
99.206293
 20
28.016435
 40
0.266668
  0
LINE
  8
ボルト／ビス
  6
CONTINUOUS
 62
    64
 10
98.916657
 20
28.12096
 11
99.151995
 21
28.31953
  0
LINE
  8
ボルト／ビス
  6
CONTINUOUS
 62
    64
 10
99.260592
 20
27.713343
 11
99.49593
 21
27.91191
  0
LINE
  8
ボルト／ビス
  6
CONTINUOUS
 62
    64
 10
89.297805
 20
39.282165
 11
89.243505
 21
39.58526
  0
LINE
  8
ボルト／ビス
  6
CONTINUOUS
 62
    64
 10
89.297805
 20
39.282165
 11
89.587442
 21
39.17764
  0
LINE
  8
ボルト／ビス
  6
CONTINUOUS
 62
    64
 10
89.768483
 20
39.679305
 11
89.478845
 21
39.783828
  0
LINE
  8
ボルト／ビス
  6
CONTINUOUS
 62
    64
 10
89.768483
 20
39.679305
 11
89.822777
 21
39.37621
  0
CIRCLE
  8
ボルト／ビス
  6
CONTINUOUS
 62
    64
 10
89.533145
 20
39.480735
 40
0.266668
  0
LINE
  8
ボルト／ビス
  6
CONTINUOUS
 62
    64
 10
89.587442
 20
39.17764
 11
89.822777
 21
39.37621
  0
LINE
  8
ボルト／ビス
  6
CONTINUOUS
 62
    64
 10
89.243505
 20
39.58526
 11
89.478845
 21
39.783828
  0
LINE
  8
ボルト／ビス
  6
CONTINUOUS
 62
    64
 10
94.13436
 20
33.549995
 11
94.080062
 21
33.853092
  0
LINE
  8
ボルト／ビス
  6
CONTINUOUS
 62
    64
 10
94.13436
 20
33.549995
 11
94.423998
 21
33.44547
  0
LINE
  8
ボルト／ビス
  6
CONTINUOUS
 62
    64
 10
94.605038
 20
33.947137
 11
94.3154
 21
34.05166
  0
LINE
  8
ボルト／ビス
  6
CONTINUOUS
 62
    64
 10
94.605038
 20
33.947137
 11
94.659338
 21
33.644043
  0
CIRCLE
  8
ボルト／ビス
  6
CONTINUOUS
 62
    64
 10
94.3697
 20
33.748567
 40
0.266668
  0
LINE
  8
ボルト／ビス
  6
CONTINUOUS
 62
    64
 10
94.423998
 20
33.44547
 11
94.659338
 21
33.644043
  0
LINE
  8
ボルト／ビス
  6
CONTINUOUS
 62
    64
 10
94.080062
 20
33.853092
 11
94.3154
 21
34.05166
  0
ENDBLK
  0
BLOCK
  2
*DIM_0012
 70
    65
 10
0.0
 20
0.0
  0
LINE
  8
寸法
  6
BYBLOCK
 62
     0
 10
-64.953802
 20
39.4807
 11
-78.24664
 21
39.4807
  0
LINE
  8
寸法
  6
BYBLOCK
 62
     0
 10
-64.953802
 20
26.147365
 11
-78.24664
 21
26.147365
  0
LINE
  8
寸法
  6
BYBLOCK
 62
     0
 10
-78.24664
 20
39.4807
 11
-78.24664
 21
26.147365
  0
POINT
  8
寸法
 62
     0
 10
-78.24664
 20
39.4807
  0
POINT
  8
寸法
 62
     0
 10
-78.24664
 20
26.147365
  0
TEXT
  7
TextStyle03
  8
寸法
  6
CONTINUOUS
 62
     0
 10
-78.675
 20
30.3625
  1
400
 40
3.0
 50
90.0
 72
     5
 11
-78.675
 21
35.2375
  0
ENDBLK
  0
BLOCK
  2
*DIM_0013
 70
    65
 10
0.0
 20
0.0
  0
LINE
  8
寸法
  6
BYBLOCK
 62
     0
 10
-51.9538
 20
45.814033
 11
-51.9538
 21
74.741653
  0
LINE
  8
寸法
  6
BYBLOCK
 62
     0
 10
-28.620467
 20
45.814033
 11
-28.620467
 21
74.741653
  0
LINE
  8
寸法
  6
BYBLOCK
 62
     0
 10
-51.9538
 20
74.741653
 11
-28.620467
 21
74.741653
  0
POINT
  8
寸法
 62
     0
 10
-51.9538
 20
74.741653
  0
POINT
  8
寸法
 62
     0
 10
-28.620467
 20
74.741653
  0
TEXT
  7
TextStyle03
  8
寸法
  6
CONTINUOUS
 62
     0
 10
-42.7125
 20
75.125
  1
700
 40
3.0
 72
     5
 11
-37.8375
 21
75.125
  0
ENDBLK
  0
BLOCK
  2
*DIM_0014
 70
    65
 10
0.0
 20
0.0
  0
LINE
  8
寸法
  6
BYBLOCK
 62
     0
 10
-5.287135
 20
45.814033
 11
-5.287135
 21
74.741653
  0
LINE
  8
寸法
  6
BYBLOCK
 62
     0
 10
-28.620467
 20
74.741653
 11
-5.287135
 21
74.741653
  0
POINT
  8
寸法
 62
     0
 10
-5.287135
 20
74.741653
  0
TEXT
  7
TextStyle03
  8
寸法
  6
CONTINUOUS
 62
     0
 10
-19.3875
 20
75.125
  1
700
 40
3.0
 72
     5
 11
-14.5125
 21
75.125
  0
ENDBLK
  0
BLOCK
  2
*DIM_0015
 70
    65
 10
0.0
 20
0.0
  0
LINE
  8
寸法
  6
CONTINUOUS
 10
38.732515
 20
22.814033
 11
38.732515
 21
20.0507
  0
POINT
  8
寸法
 10
38.732515
 20
22.814033
  0
POINT
  8
寸法
 10
38.732515
 20
20.0507
  0
TEXT
  7
TextStyle03
  8
寸法
  6
CONTINUOUS
 10
37.85
 20
12.89375
  1
82.9
 40
3.0
 50
90.0
 72
     5
 11
37.85
 21
19.45625
  0
ENDBLK
  0
BLOCK
  2
*DIM_0016
 70
    65
 10
0.0
 20
0.0
  0
LINE
  8
寸法
  6
CONTINUOUS
 10
38.732515
 20
42.814033
 11
38.732515
 21
45.577365
  0
POINT
  8
寸法
 10
38.732515
 20
42.814033
  0
POINT
  8
寸法
 10
38.732515
 20
45.577365
  0
TEXT
  7
TextStyle03
  8
寸法
  6
CONTINUOUS
 10
37.6
 20
45.46875
  1
82.9
 40
3.0
 50
90.0
 72
     5
 11
37.6
 21
52.03125
  0
ENDBLK
  0
BLOCK
  2
*DIM_0017
 70
    65
 10
0.0
 20
0.0
  0
LINE
  8
寸法
  6
CONTINUOUS
 10
-61.953802
 20
-13.121378
 11
-64.717133
 21
-13.121378
  0
POINT
  8
寸法
 10
-61.953802
 20
-13.121378
  0
POINT
  8
寸法
 10
-64.717133
 20
-13.121378
  0
TEXT
  7
TextStyle03
  8
寸法
  6
CONTINUOUS
 10
-69.23125
 20
-12.4
  1
82.9
 40
3.0
 72
     5
 11
-62.66875
 21
-12.4
  0
ENDBLK
  0
BLOCK
  2
*DIM_0018
 70
    65
 10
0.0
 20
0.0
  0
LINE
  8
寸法
  6
CONTINUOUS
 10
4.712865
 20
-13.121378
 11
7.476197
 21
-13.121378
  0
POINT
  8
寸法
 10
4.712865
 20
-13.121378
  0
POINT
  8
寸法
 10
7.476197
 20
-13.121378
  0
TEXT
  7
TextStyle03
  8
寸法
  6
CONTINUOUS
 10
5.34375
 20
-12.175
  1
82.9
 40
3.0
 72
     5
 11
11.90625
 21
-12.175
  0
ENDBLK
  0
BLOCK
  2
*DIM_0021
 70
    65
 10
0.0
 20
0.0
  0
LINE
  8
寸法
  6
CONTINUOUS
 10
69.434995
 20
-58.643108
 11
69.434995
 21
-54.254158
  0
LINE
  8
寸法
  6
CONTINUOUS
 10
102.234995
 20
-58.643108
 11
102.234995
 21
-54.254158
  0
LINE
  8
寸法
  6
CONTINUOUS
 10
69.434995
 20
-54.254158
 11
102.234995
 21
-54.254158
  0
POINT
  8
寸法
 10
69.434995
 20
-54.254158
  0
POINT
  8
寸法
 10
102.234995
 20
-54.254158
  0
TEXT
  7
TextStyle03
  8
寸法
  6
CONTINUOUS
 10
83.4125
 20
-53.9
  1
984
 40
3.0
 72
     5
 11
88.2875
 21
-53.9
  0
ENDBLK
  0
BLOCK
  2
*DIM_0022
 70
    65
 10
0.0
 20
0.0
  0
LINE
  8
寸法
  6
CONTINUOUS
 10
107.234995
 20
-63.643108
 11
112.767607
 21
-63.643108
  0
LINE
  8
寸法
  6
CONTINUOUS
 10
107.234995
 20
-83.643108
 11
112.767607
 21
-83.643108
  0
LINE
  8
寸法
  6
CONTINUOUS
 10
112.767607
 20
-63.643108
 11
112.767607
 21
-83.643108
  0
POINT
  8
寸法
 10
112.767607
 20
-63.643108
  0
POINT
  8
寸法
 10
112.767607
 20
-83.643108
  0
TEXT
  7
TextStyle03
  8
寸法
  6
CONTINUOUS
 10
112.4
 20
-76.0875
  1
600
 40
3.0
 50
90.0
 72
     5
 11
112.4
 21
-71.2125
  0
ENDBLK
  0
BLOCK
  2
*GRP_0023
 70
    65
 10
0.0
 20
0.0
  0
LINE
  8
ボルト／ビス
  6
CONTINUOUS
 10
94.24613
 20
43.4807
 11
93.779465
 21
43.4807
  0
LINE
  8
ボルト／ビス
  6
CONTINUOUS
 10
94.24613
 20
43.114035
 11
94.179465
 21
43.114035
  0
LINE
  8
ボルト／ビス
  6
CONTINUOUS
 10
94.179465
 20
43.114035
 11
94.179465
 21
43.847367
  0
LINE
  8
ボルト／ビス
  6
CONTINUOUS
 10
94.179465
 20
43.847367
 11
94.24613
 21
43.847367
  0
LINE
  8
ボルト／ビス
  6
CONTINUOUS
 10
94.24613
 20
43.114035
 11
94.24613
 21
43.847367
  0
LINE
  8
ボルト／ビス
  6
CONTINUOUS
 10
94.14613
 20
43.1807
 11
94.179465
 21
43.1807
  0
LINE
  8
ボルト／ビス
  6
CONTINUOUS
 10
94.14613
 20
43.1807
 11
94.14613
 21
43.7807
  0
LINE
  8
ボルト／ビス
  6
CONTINUOUS
 10
94.14613
 20
43.7807
 11
94.179465
 21
43.7807
  0
LINE
  8
ボルト／ビス
  6
CONTINUOUS
 62
    64
 10
93.94613
 20
43.320325
 11
93.957805
 21
43.28825
  0
ARC
  8
ボルト／ビス
  6
CONTINUOUS
 62
    64
 10
94.051108
 20
43.336365
 40
0.104978
 50
152.721967
 51
180.0
  0
ARC
  8
ボルト／ビス
  6
CONTINUOUS
 62
    64
 10
94.348532
 20
43.480703
 40
0.402402
 50
166.165002
 51
193.834985
  0
LINE
  8
ボルト／ビス
  6
CONTINUOUS
 62
    64
 10
93.94613
 20
43.641075
 11
93.957805
 21
43.67315
  0
ARC
  8
ボルト／ビス
  6
CONTINUOUS
 62
    64
 10
94.051108
 20
43.62504
 40
0.104978
 50
180.0
 51
207.278033
  0
LINE
  8
ボルト／ビス
  6
CONTINUOUS
 62
    64
 10
93.94613
 20
43.320325
 11
93.94613
 21
43.641075
  0
LINE
  8
ボルト／ビス
  6
CONTINUOUS
 62
    64
 10
93.957805
 20
43.67315
 11
94.079465
 21
43.67315
  0
LINE
  8
ボルト／ビス
  6
CONTINUOUS
 62
    64
 10
93.957805
 20
43.576925
 11
94.079465
 21
43.576925
  0
LINE
  8
ボルト／ビス
  6
CONTINUOUS
 62
    64
 10
93.957805
 20
43.28825
 11
94.079465
 21
43.28825
  0
LINE
  8
ボルト／ビス
  6
CONTINUOUS
 62
    64
 10
93.957805
 20
43.384475
 11
94.079465
 21
43.384475
  0
LINE
  8
ボルト／ビス
  6
CONTINUOUS
 10
94.079465
 20
43.28825
 11
94.079465
 21
43.67315
  0
LINE
  8
ボルト／ビス
  6
CONTINUOUS
 10
94.079465
 20
43.2807
 11
94.14613
 21
43.2807
  0
LINE
  8
ボルト／ビス
  6
CONTINUOUS
 10
94.079465
 20
43.2807
 11
94.079465
 21
43.6807
  0
LINE
  8
ボルト／ビス
  6
CONTINUOUS
 10
94.079465
 20
43.6807
 11
94.14613
 21
43.6807
  0
ENDBLK
  0
BLOCK
  2
*GRP_0024
 70
    65
 10
0.0
 20
0.0
  0
LINE
  8
ボルト／ビス
  6
CONTINUOUS
 10
94.24613
 20
22.147365
 11
93.779465
 21
22.147365
  0
LINE
  8
ボルト／ビス
  6
CONTINUOUS
 10
94.24613
 20
22.51403
 11
94.179465
 21
22.51403
  0
LINE
  8
ボルト／ビス
  6
CONTINUOUS
 10
94.179465
 20
22.51403
 11
94.179465
 21
21.780697
  0
LINE
  8
ボルト／ビス
  6
CONTINUOUS
 10
94.179465
 20
21.780697
 11
94.24613
 21
21.780697
  0
LINE
  8
ボルト／ビス
  6
CONTINUOUS
 10
94.24613
 20
22.51403
 11
94.24613
 21
21.780697
  0
LINE
  8
ボルト／ビス
  6
CONTINUOUS
 10
94.14613
 20
22.447365
 11
94.179465
 21
22.447365
  0
LINE
  8
ボルト／ビス
  6
CONTINUOUS
 10
94.14613
 20
22.447365
 11
94.14613
 21
21.847365
  0
LINE
  8
ボルト／ビス
  6
CONTINUOUS
 10
94.14613
 20
21.847365
 11
94.179465
 21
21.847365
  0
LINE
  8
ボルト／ビス
  6
CONTINUOUS
 62
    64
 10
93.94613
 20
22.30774
 11
93.957805
 21
22.339815
  0
ARC
  8
ボルト／ビス
  6
CONTINUOUS
 62
    64
 10
94.051108
 20
22.2917
 40
0.104978
 50
180.0
 51
207.278033
  0
ARC
  8
ボルト／ビス
  6
CONTINUOUS
 62
    64
 10
94.348532
 20
22.147362
 40
0.402402
 50
166.165015
 51
193.834998
  0
LINE
  8
ボルト／ビス
  6
CONTINUOUS
 62
    64
 10
93.94613
 20
21.98699
 11
93.957805
 21
21.954915
  0
ARC
  8
ボルト／ビス
  6
CONTINUOUS
 62
    64
 10
94.051108
 20
22.003025
 40
0.104978
 50
152.721967
 51
180.0
  0
LINE
  8
ボルト／ビス
  6
CONTINUOUS
 62
    64
 10
93.94613
 20
22.30774
 11
93.94613
 21
21.98699
  0
LINE
  8
ボルト／ビス
  6
CONTINUOUS
 62
    64
 10
93.957805
 20
21.954915
 11
94.079465
 21
21.954915
  0
LINE
  8
ボルト／ビス
  6
CONTINUOUS
 62
    64
 10
93.957805
 20
22.05114
 11
94.079465
 21
22.05114
  0
LINE
  8
ボルト／ビス
  6
CONTINUOUS
 62
    64
 10
93.957805
 20
22.339815
 11
94.079465
 21
22.339815
  0
LINE
  8
ボルト／ビス
  6
CONTINUOUS
 62
    64
 10
93.957805
 20
22.24359
 11
94.079465
 21
22.24359
  0
LINE
  8
ボルト／ビス
  6
CONTINUOUS
 10
94.079465
 20
22.339815
 11
94.079465
 21
21.954915
  0
LINE
  8
ボルト／ビス
  6
CONTINUOUS
 10
94.079465
 20
22.347365
 11
94.14613
 21
22.347365
  0
LINE
  8
ボルト／ビス
  6
CONTINUOUS
 10
94.079465
 20
22.347365
 11
94.079465
 21
21.947365
  0
LINE
  8
ボルト／ビス
  6
CONTINUOUS
 10
94.079465
 20
21.947365
 11
94.14613
 21
21.947365
  0
ENDBLK
  0
BLOCK
  2
*GRP_0025
 70
    65
 10
0.0
 20
0.0
  0
LINE
  8
型材断面
  6
DOT
 10
87.96292
 20
32.814033
 11
87.96292
 21
21.453885
  0
LINE
  8
型材断面
  6
DOT
 10
89.11292
 20
32.814033
 11
89.11292
 21
20.0507
  0
LINE
  8
型材断面
  6
DOT
 10
90.279587
 20
32.814033
 11
90.279587
 21
20.0507
  0
LINE
  8
型材断面
  6
DOT
 10
87.96292
 20
32.814033
 11
87.96292
 21
44.17418
  0
LINE
  8
型材断面
  6
DOT
 10
89.11292
 20
32.814033
 11
89.11292
 21
45.577365
  0
LINE
  8
型材断面
  6
DOT
 10
90.279587
 20
32.814033
 11
90.279587
 21
45.577365
  0
LINE
  8
別途部材
  6
DOT
 62
    96
 10
86.912797
 20
21.147365
 11
87.912797
 21
20.747365
  0
LINE
  8
別途部材
  6
DOT
 62
    96
 10
86.912797
 20
21.147365
 11
86.912797
 21
32.814033
  0
LINE
  8
別途部材
  6
DOT
 10
87.912797
 20
20.747365
 11
87.912797
 21
32.814033
  0
LINE
  8
別途部材
  6
DOT
 62
    96
 10
86.912797
 20
44.4807
 11
87.912797
 21
44.8807
  0
LINE
  8
別途部材
  6
DOT
 62
    96
 10
86.912797
 20
44.4807
 11
86.912797
 21
32.814033
  0
LINE
  8
別途部材
  6
DOT
 10
87.912797
 20
44.8807
 11
87.912797
 21
32.814033
  0
ARC
  8
別途部材
  6
DOT
 10
93.621133
 20
32.814033
 40
12.041667
 50
123.855033
 51
236.144967
  0
LINE
  8
鉄骨等
  6
DOT
 62
    47
 10
90.279587
 20
20.0507
 11
89.11292
 21
20.0507
  0
LINE
  8
鉄骨等
  6
DOT
 62
    47
 10
89.11292
 20
20.0507
 11
87.96292
 21
21.453885
  0
LINE
  8
鉄骨等
  6
DOT
 62
    47
 10
87.96292
 20
21.453885
 11
87.9128
 21
21.453885
  0
LINE
  8
鉄骨等
  6
DOT
 62
    47
 10
90.279587
 20
45.577365
 11
89.11292
 21
45.577365
  0
LINE
  8
鉄骨等
  6
DOT
 62
    47
 10
89.11292
 20
45.577365
 11
87.96292
 21
44.17418
  0
LINE
  8
鉄骨等
  6
DOT
 62
    47
 10
87.96292
 20
44.17418
 11
87.9128
 21
44.17418
  0
ENDBLK
  0
BLOCK
  2
*GRP_0026
 70
    65
 10
0.0
 20
0.0
  0
LINE
  8
ボルト／ビス
  6
DOT
 10
86.912797
 20
43.4807
 11
86.446133
 21
43.4807
  0
LINE
  8
ボルト／ビス
  6
DOT
 10
86.912797
 20
43.114035
 11
86.846133
 21
43.114035
  0
LINE
  8
ボルト／ビス
  6
DOT
 10
86.846133
 20
43.114035
 11
86.846133
 21
43.847367
  0
LINE
  8
ボルト／ビス
  6
DOT
 10
86.846133
 20
43.847367
 11
86.912797
 21
43.847367
  0
LINE
  8
ボルト／ビス
  6
DOT
 10
86.912797
 20
43.114035
 11
86.912797
 21
43.847367
  0
LINE
  8
ボルト／ビス
  6
DOT
 10
86.812797
 20
43.1807
 11
86.846133
 21
43.1807
  0
LINE
  8
ボルト／ビス
  6
DOT
 10
86.812797
 20
43.1807
 11
86.812797
 21
43.7807
  0
LINE
  8
ボルト／ビス
  6
DOT
 10
86.812797
 20
43.7807
 11
86.846133
 21
43.7807
  0
LINE
  8
ボルト／ビス
  6
DOT
 62
    64
 10
86.612797
 20
43.320325
 11
86.624473
 21
43.28825
  0
ARC
  8
ボルト／ビス
  6
DOT
 62
    64
 10
86.717776
 20
43.336365
 40
0.104978
 50
152.721967
 51
180.0
  0
ARC
  8
ボルト／ビス
  6
DOT
 62
    64
 10
87.015199
 20
43.480703
 40
0.402402
 50
166.165002
 51
193.834985
  0
LINE
  8
ボルト／ビス
  6
DOT
 62
    64
 10
86.612797
 20
43.641075
 11
86.624473
 21
43.67315
  0
ARC
  8
ボルト／ビス
  6
DOT
 62
    64
 10
86.717776
 20
43.62504
 40
0.104978
 50
180.0
 51
207.278033
  0
LINE
  8
ボルト／ビス
  6
DOT
 62
    64
 10
86.612797
 20
43.320325
 11
86.612797
 21
43.641075
  0
LINE
  8
ボルト／ビス
  6
DOT
 62
    64
 10
86.624473
 20
43.67315
 11
86.746133
 21
43.67315
  0
LINE
  8
ボルト／ビス
  6
DOT
 62
    64
 10
86.624473
 20
43.576925
 11
86.746133
 21
43.576925
  0
LINE
  8
ボルト／ビス
  6
DOT
 62
    64
 10
86.624473
 20
43.28825
 11
86.746133
 21
43.28825
  0
LINE
  8
ボルト／ビス
  6
DOT
 62
    64
 10
86.624473
 20
43.384475
 11
86.746133
 21
43.384475
  0
LINE
  8
ボルト／ビス
  6
DOT
 10
86.746133
 20
43.28825
 11
86.746133
 21
43.67315
  0
LINE
  8
ボルト／ビス
  6
DOT
 10
86.746133
 20
43.2807
 11
86.812797
 21
43.2807
  0
LINE
  8
ボルト／ビス
  6
DOT
 10
86.746133
 20
43.2807
 11
86.746133
 21
43.6807
  0
LINE
  8
ボルト／ビス
  6
DOT
 10
86.746133
 20
43.6807
 11
86.812797
 21
43.6807
  0
ENDBLK
  0
BLOCK
  2
*GRP_0027
 70
    65
 10
0.0
 20
0.0
  0
LINE
  8
ボルト／ビス
  6
DOT
 10
86.912797
 20
22.147365
 11
86.446133
 21
22.147365
  0
LINE
  8
ボルト／ビス
  6
DOT
 10
86.912797
 20
22.51403
 11
86.846133
 21
22.51403
  0
LINE
  8
ボルト／ビス
  6
DOT
 10
86.846133
 20
22.51403
 11
86.846133
 21
21.780697
  0
LINE
  8
ボルト／ビス
  6
DOT
 10
86.846133
 20
21.780697
 11
86.912797
 21
21.780697
  0
LINE
  8
ボルト／ビス
  6
DOT
 10
86.912797
 20
22.51403
 11
86.912797
 21
21.780697
  0
LINE
  8
ボルト／ビス
  6
DOT
 10
86.812797
 20
22.447365
 11
86.846133
 21
22.447365
  0
LINE
  8
ボルト／ビス
  6
DOT
 10
86.812797
 20
22.447365
 11
86.812797
 21
21.847365
  0
LINE
  8
ボルト／ビス
  6
DOT
 10
86.812797
 20
21.847365
 11
86.846133
 21
21.847365
  0
LINE
  8
ボルト／ビス
  6
DOT
 62
    64
 10
86.612797
 20
22.30774
 11
86.624473
 21
22.339815
  0
ARC
  8
ボルト／ビス
  6
DOT
 62
    64
 10
86.717776
 20
22.2917
 40
0.104978
 50
180.0
 51
207.278033
  0
ARC
  8
ボルト／ビス
  6
DOT
 62
    64
 10
87.015199
 20
22.147362
 40
0.402402
 50
166.165015
 51
193.834998
  0
LINE
  8
ボルト／ビス
  6
DOT
 62
    64
 10
86.612797
 20
21.98699
 11
86.624473
 21
21.954915
  0
ARC
  8
ボルト／ビス
  6
DOT
 62
    64
 10
86.717776
 20
22.003025
 40
0.104978
 50
152.721967
 51
180.0
  0
LINE
  8
ボルト／ビス
  6
DOT
 62
    64
 10
86.612797
 20
22.30774
 11
86.612797
 21
21.98699
  0
LINE
  8
ボルト／ビス
  6
DOT
 62
    64
 10
86.624473
 20
21.954915
 11
86.746133
 21
21.954915
  0
LINE
  8
ボルト／ビス
  6
DOT
 62
    64
 10
86.624473
 20
22.05114
 11
86.746133
 21
22.05114
  0
LINE
  8
ボルト／ビス
  6
DOT
 62
    64
 10
86.624473
 20
22.339815
 11
86.746133
 21
22.339815
  0
LINE
  8
ボルト／ビス
  6
DOT
 62
    64
 10
86.624473
 20
22.24359
 11
86.746133
 21
22.24359
  0
LINE
  8
ボルト／ビス
  6
DOT
 10
86.746133
 20
22.339815
 11
86.746133
 21
21.954915
  0
LINE
  8
ボルト／ビス
  6
DOT
 10
86.746133
 20
22.347365
 11
86.812797
 21
22.347365
  0
LINE
  8
ボルト／ビス
  6
DOT
 10
86.746133
 20
22.347365
 11
86.746133
 21
21.947365
  0
LINE
  8
ボルト／ビス
  6
DOT
 10
86.746133
 20
21.947365
 11
86.812797
 21
21.947365
  0
ENDBLK
  0
BLOCK
  2
*GRP_0028
 70
    65
 10
0.0
 20
0.0
  0
LINE
  8
ボルト／ビス
  6
CONTINUOUS
 10
5.37953
 20
-70.209615
 11
5.37953
 21
-69.74295
  0
LINE
  8
ボルト／ビス
  6
CONTINUOUS
 10
5.012865
 20
-70.209615
 11
5.012865
 21
-70.14295
  0
LINE
  8
ボルト／ビス
  6
CONTINUOUS
 10
5.012865
 20
-70.14295
 11
5.746198
 21
-70.14295
  0
LINE
  8
ボルト／ビス
  6
CONTINUOUS
 10
5.746198
 20
-70.14295
 11
5.746198
 21
-70.209615
  0
LINE
  8
ボルト／ビス
  6
CONTINUOUS
 10
5.012865
 20
-70.209615
 11
5.746198
 21
-70.209615
  0
LINE
  8
ボルト／ビス
  6
CONTINUOUS
 10
5.07953
 20
-70.109615
 11
5.07953
 21
-70.14295
  0
LINE
  8
ボルト／ビス
  6
CONTINUOUS
 10
5.07953
 20
-70.109615
 11
5.67953
 21
-70.109615
  0
LINE
  8
ボルト／ビス
  6
CONTINUOUS
 10
5.67953
 20
-70.109615
 11
5.67953
 21
-70.14295
  0
LINE
  8
ボルト／ビス
  6
CONTINUOUS
 62
    64
 10
5.219155
 20
-69.909615
 11
5.18708
 21
-69.92129
  0
ARC
  8
ボルト／ビス
  6
CONTINUOUS
 62
    64
 10
5.235194
 20
-70.014592
 40
0.104978
 50
62.721967
 51
90.0
  0
ARC
  8
ボルト／ビス
  6
CONTINUOUS
 62
    64
 10
5.379532
 20
-70.312016
 40
0.402402
 50
76.165002
 51
103.834985
  0
LINE
  8
ボルト／ビス
  6
CONTINUOUS
 62
    64
 10
5.539905
 20
-69.909615
 11
5.57198
 21
-69.92129
  0
ARC
  8
ボルト／ビス
  6
CONTINUOUS
 62
    64
 10
5.523869
 20
-70.014592
 40
0.104978
 50
90.0
 51
117.278033
  0
LINE
  8
ボルト／ビス
  6
CONTINUOUS
 62
    64
 10
5.219155
 20
-69.909615
 11
5.539905
 21
-69.909615
  0
LINE
  8
ボルト／ビス
  6
CONTINUOUS
 62
    64
 10
5.57198
 20
-69.92129
 11
5.57198
 21
-70.04295
  0
LINE
  8
ボルト／ビス
  6
CONTINUOUS
 62
    64
 10
5.475755
 20
-69.92129
 11
5.475755
 21
-70.04295
  0
LINE
  8
ボルト／ビス
  6
CONTINUOUS
 62
    64
 10
5.18708
 20
-69.92129
 11
5.18708
 21
-70.04295
  0
LINE
  8
ボルト／ビス
  6
CONTINUOUS
 62
    64
 10
5.283305
 20
-69.92129
 11
5.283305
 21
-70.04295
  0
LINE
  8
ボルト／ビス
  6
CONTINUOUS
 10
5.18708
 20
-70.04295
 11
5.57198
 21
-70.04295
  0
LINE
  8
ボルト／ビス
  6
CONTINUOUS
 10
5.17953
 20
-70.04295
 11
5.17953
 21
-70.109615
  0
LINE
  8
ボルト／ビス
  6
CONTINUOUS
 10
5.17953
 20
-70.04295
 11
5.57953
 21
-70.04295
  0
LINE
  8
ボルト／ビス
  6
CONTINUOUS
 10
5.57953
 20
-70.04295
 11
5.57953
 21
-70.109615
  0
ENDBLK
  0
BLOCK
  2
*GRP_0029
 70
    65
 10
0.0
 20
0.0
  0
LINE
  8
ボルト／ビス
  6
DOT
 10
5.37953
 20
-62.876282
 11
5.37953
 21
-62.409617
  0
LINE
  8
ボルト／ビス
  6
DOT
 10
5.012865
 20
-62.876282
 11
5.012865
 21
-62.809617
  0
LINE
  8
ボルト／ビス
  6
DOT
 10
5.012865
 20
-62.809617
 11
5.746198
 21
-62.809617
  0
LINE
  8
ボルト／ビス
  6
DOT
 10
5.746198
 20
-62.809617
 11
5.746198
 21
-62.876282
  0
LINE
  8
ボルト／ビス
  6
DOT
 10
5.012865
 20
-62.876282
 11
5.746198
 21
-62.876282
  0
LINE
  8
ボルト／ビス
  6
DOT
 10
5.07953
 20
-62.776282
 11
5.07953
 21
-62.809617
  0
LINE
  8
ボルト／ビス
  6
DOT
 10
5.07953
 20
-62.776282
 11
5.67953
 21
-62.776282
  0
LINE
  8
ボルト／ビス
  6
DOT
 10
5.67953
 20
-62.776282
 11
5.67953
 21
-62.809617
  0
LINE
  8
ボルト／ビス
  6
DOT
 62
    64
 10
5.219155
 20
-62.576282
 11
5.18708
 21
-62.587957
  0
ARC
  8
ボルト／ビス
  6
DOT
 62
    64
 10
5.235194
 20
-62.68126
 40
0.104978
 50
62.721967
 51
90.0
  0
ARC
  8
ボルト／ビス
  6
DOT
 62
    64
 10
5.379532
 20
-62.978684
 40
0.402402
 50
76.165002
 51
103.834985
  0
LINE
  8
ボルト／ビス
  6
DOT
 62
    64
 10
5.539905
 20
-62.576282
 11
5.57198
 21
-62.587957
  0
ARC
  8
ボルト／ビス
  6
DOT
 62
    64
 10
5.523869
 20
-62.68126
 40
0.104978
 50
90.0
 51
117.278033
  0
LINE
  8
ボルト／ビス
  6
DOT
 62
    64
 10
5.219155
 20
-62.576282
 11
5.539905
 21
-62.576282
  0
LINE
  8
ボルト／ビス
  6
DOT
 62
    64
 10
5.57198
 20
-62.587957
 11
5.57198
 21
-62.709617
  0
LINE
  8
ボルト／ビス
  6
DOT
 62
    64
 10
5.475755
 20
-62.587957
 11
5.475755
 21
-62.709617
  0
LINE
  8
ボルト／ビス
  6
DOT
 62
    64
 10
5.18708
 20
-62.587957
 11
5.18708
 21
-62.709617
  0
LINE
  8
ボルト／ビス
  6
DOT
 62
    64
 10
5.283305
 20
-62.587957
 11
5.283305
 21
-62.709617
  0
LINE
  8
ボルト／ビス
  6
DOT
 10
5.18708
 20
-62.709617
 11
5.57198
 21
-62.709617
  0
LINE
  8
ボルト／ビス
  6
DOT
 10
5.17953
 20
-62.709617
 11
5.17953
 21
-62.776282
  0
LINE
  8
ボルト／ビス
  6
DOT
 10
5.17953
 20
-62.709617
 11
5.57953
 21
-62.709617
  0
LINE
  8
ボルト／ビス
  6
DOT
 10
5.57953
 20
-62.709617
 11
5.57953
 21
-62.776282
  0
ENDBLK
  0
BLOCK
  2
*GRP_0030
 70
    65
 10
0.0
 20
0.0
  0
LINE
  8
型材断面
  6
DOT
 10
-28.620467
 20
-63.92641
 11
-63.313947
 21
-63.92641
  0
LINE
  8
型材断面
  6
DOT
 10
-28.620467
 20
-65.07641
 11
-64.717133
 21
-65.07641
  0
LINE
  8
型材断面
  6
DOT
 10
-28.620467
 20
-66.243077
 11
-64.717133
 21
-66.243077
  0
LINE
  8
型材断面
  6
DOT
 10
-28.620467
 20
-63.92641
 11
6.073013
 21
-63.92641
  0
LINE
  8
型材断面
  6
DOT
 10
-28.620467
 20
-65.07641
 11
7.476197
 21
-65.07641
  0
LINE
  8
型材断面
  6
DOT
 10
-28.620467
 20
-66.243077
 11
7.476197
 21
-66.243077
  0
LINE
  8
別途部材
  6
DOT
 62
    96
 10
-63.620467
 20
-62.87628
 11
-64.020467
 21
-63.87628
  0
ARC
  8
別途部材
  6
DOT
 10
-51.953803
 20
-69.584618
 40
12.041668
 50
90.0
 51
146.144967
  0
LINE
  8
別途部材
  6
DOT
 10
-64.020467
 20
-63.87628
 11
-28.620467
 21
-63.87628
  0
LINE
  8
別途部材
  6
DOT
 62
    96
 10
-63.620467
 20
-62.87628
 11
-28.620467
 21
-62.87628
  0
LINE
  8
別途部材
  6
DOT
 10
-50.120467
 20
-57.542947
 11
-51.9538
 21
-57.542947
  0
LINE
  8
別途部材
  6
DOT
 62
    96
 10
6.379532
 20
-62.87628
 11
6.779532
 21
-63.87628
  0
ARC
  8
別途部材
  6
DOT
 10
-5.287132
 20
-69.584618
 40
12.041668
 50
33.855033
 51
90.0
  0
LINE
  8
別途部材
  6
DOT
 10
6.779532
 20
-63.87628
 11
-28.620467
 21
-63.87628
  0
LINE
  8
別途部材
  6
DOT
 62
    96
 10
6.379532
 20
-62.87628
 11
-28.620467
 21
-62.87628
  0
LINE
  8
別途部材
  6
DOT
 10
-7.120467
 20
-57.542947
 11
-5.287135
 21
-57.542947
  0
LINE
  8
別途部材
  6
DOT
 10
-28.620467
 20
-57.542947
 11
-50.120467
 21
-57.542947
  0
LINE
  8
別途部材
  6
DOT
 10
-28.620467
 20
-57.542947
 11
-7.120467
 21
-57.542947
  0
LINE
  8
鉄骨等
  6
DOT
 62
    47
 10
-64.717133
 20
-66.243077
 11
-64.717133
 21
-65.07641
  0
LINE
  8
鉄骨等
  6
DOT
 62
    47
 10
-64.717133
 20
-65.07641
 11
-63.313947
 21
-63.92641
  0
LINE
  8
鉄骨等
  6
DOT
 62
    47
 10
-63.313947
 20
-63.92641
 11
-63.313947
 21
-63.87629
  0
LINE
  8
鉄骨等
  6
DOT
 62
    47
 10
7.476197
 20
-66.243077
 11
7.476197
 21
-65.07641
  0
LINE
  8
鉄骨等
  6
DOT
 62
    47
 10
7.476197
 20
-65.07641
 11
6.073013
 21
-63.92641
  0
LINE
  8
鉄骨等
  6
DOT
 62
    47
 10
6.073013
 20
-63.92641
 11
6.073013
 21
-63.87629
  0
ENDBLK
  0
BLOCK
  2
*GRP_0031
 70
    65
 10
0.0
 20
0.0
  0
LINE
  8
ボルト／ビス
  6
CONTINUOUS
 10
-62.620465
 20
-70.209615
 11
-62.620465
 21
-69.74295
  0
LINE
  8
ボルト／ビス
  6
CONTINUOUS
 10
-62.2538
 20
-70.209615
 11
-62.2538
 21
-70.14295
  0
LINE
  8
ボルト／ビス
  6
CONTINUOUS
 10
-62.2538
 20
-70.14295
 11
-62.987133
 21
-70.14295
  0
LINE
  8
ボルト／ビス
  6
CONTINUOUS
 10
-62.987133
 20
-70.14295
 11
-62.987133
 21
-70.209615
  0
LINE
  8
ボルト／ビス
  6
CONTINUOUS
 10
-62.2538
 20
-70.209615
 11
-62.987133
 21
-70.209615
  0
LINE
  8
ボルト／ビス
  6
CONTINUOUS
 10
-62.320465
 20
-70.109615
 11
-62.320465
 21
-70.14295
  0
LINE
  8
ボルト／ビス
  6
CONTINUOUS
 10
-62.320465
 20
-70.109615
 11
-62.920465
 21
-70.109615
  0
LINE
  8
ボルト／ビス
  6
CONTINUOUS
 10
-62.920465
 20
-70.109615
 11
-62.920465
 21
-70.14295
  0
LINE
  8
ボルト／ビス
  6
CONTINUOUS
 62
    64
 10
-62.46009
 20
-69.909615
 11
-62.428015
 21
-69.92129
  0
ARC
  8
ボルト／ビス
  6
CONTINUOUS
 62
    64
 10
-62.476129
 20
-70.014592
 40
0.104978
 50
90.0
 51
117.278033
  0
ARC
  8
ボルト／ビス
  6
CONTINUOUS
 62
    64
 10
-62.620467
 20
-70.312016
 40
0.402402
 50
76.165015
 51
103.834998
  0
LINE
  8
ボルト／ビス
  6
CONTINUOUS
 62
    64
 10
-62.78084
 20
-69.909615
 11
-62.812915
 21
-69.92129
  0
ARC
  8
ボルト／ビス
  6
CONTINUOUS
 62
    64
 10
-62.764804
 20
-70.014592
 40
0.104978
 50
62.721967
 51
90.0
  0
LINE
  8
ボルト／ビス
  6
CONTINUOUS
 62
    64
 10
-62.46009
 20
-69.909615
 11
-62.78084
 21
-69.909615
  0
LINE
  8
ボルト／ビス
  6
CONTINUOUS
 62
    64
 10
-62.812915
 20
-69.92129
 11
-62.812915
 21
-70.04295
  0
LINE
  8
ボルト／ビス
  6
CONTINUOUS
 62
    64
 10
-62.71669
 20
-69.92129
 11
-62.71669
 21
-70.04295
  0
LINE
  8
ボルト／ビス
  6
CONTINUOUS
 62
    64
 10
-62.428015
 20
-69.92129
 11
-62.428015
 21
-70.04295
  0
LINE
  8
ボルト／ビス
  6
CONTINUOUS
 62
    64
 10
-62.52424
 20
-69.92129
 11
-62.52424
 21
-70.04295
  0
LINE
  8
ボルト／ビス
  6
CONTINUOUS
 10
-62.428015
 20
-70.04295
 11
-62.812915
 21
-70.04295
  0
LINE
  8
ボルト／ビス
  6
CONTINUOUS
 10
-62.420465
 20
-70.04295
 11
-62.420465
 21
-70.109615
  0
LINE
  8
ボルト／ビス
  6
CONTINUOUS
 10
-62.420465
 20
-70.04295
 11
-62.820465
 21
-70.04295
  0
LINE
  8
ボルト／ビス
  6
CONTINUOUS
 10
-62.820465
 20
-70.04295
 11
-62.820465
 21
-70.109615
  0
ENDBLK
  0
BLOCK
  2
*GRP_0032
 70
    65
 10
0.0
 20
0.0
  0
LINE
  8
ボルト／ビス
  6
DOT
 10
-62.620465
 20
-62.876282
 11
-62.620465
 21
-62.409617
  0
LINE
  8
ボルト／ビス
  6
DOT
 10
-62.2538
 20
-62.876282
 11
-62.2538
 21
-62.809617
  0
LINE
  8
ボルト／ビス
  6
DOT
 10
-62.2538
 20
-62.809617
 11
-62.987133
 21
-62.809617
  0
LINE
  8
ボルト／ビス
  6
DOT
 10
-62.987133
 20
-62.809617
 11
-62.987133
 21
-62.876282
  0
LINE
  8
ボルト／ビス
  6
DOT
 10
-62.2538
 20
-62.876282
 11
-62.987133
 21
-62.876282
  0
LINE
  8
ボルト／ビス
  6
DOT
 10
-62.320465
 20
-62.776282
 11
-62.320465
 21
-62.809617
  0
LINE
  8
ボルト／ビス
  6
DOT
 10
-62.320465
 20
-62.776282
 11
-62.920465
 21
-62.776282
  0
LINE
  8
ボルト／ビス
  6
DOT
 10
-62.920465
 20
-62.776282
 11
-62.920465
 21
-62.809617
  0
LINE
  8
ボルト／ビス
  6
DOT
 62
    64
 10
-62.46009
 20
-62.576282
 11
-62.428015
 21
-62.587957
  0
ARC
  8
ボルト／ビス
  6
DOT
 62
    64
 10
-62.476129
 20
-62.68126
 40
0.104978
 50
90.0
 51
117.278033
  0
ARC
  8
ボルト／ビス
  6
DOT
 62
    64
 10
-62.620467
 20
-62.978684
 40
0.402402
 50
76.165015
 51
103.834998
  0
LINE
  8
ボルト／ビス
  6
DOT
 62
    64
 10
-62.78084
 20
-62.576282
 11
-62.812915
 21
-62.587957
  0
ARC
  8
ボルト／ビス
  6
DOT
 62
    64
 10
-62.764804
 20
-62.68126
 40
0.104978
 50
62.721967
 51
90.0
  0
LINE
  8
ボルト／ビス
  6
DOT
 62
    64
 10
-62.46009
 20
-62.576282
 11
-62.78084
 21
-62.576282
  0
LINE
  8
ボルト／ビス
  6
DOT
 62
    64
 10
-62.812915
 20
-62.587957
 11
-62.812915
 21
-62.709617
  0
LINE
  8
ボルト／ビス
  6
DOT
 62
    64
 10
-62.71669
 20
-62.587957
 11
-62.71669
 21
-62.709617
  0
LINE
  8
ボルト／ビス
  6
DOT
 62
    64
 10
-62.428015
 20
-62.587957
 11
-62.428015
 21
-62.709617
  0
LINE
  8
ボルト／ビス
  6
DOT
 62
    64
 10
-62.52424
 20
-62.587957
 11
-62.52424
 21
-62.709617
  0
LINE
  8
ボルト／ビス
  6
DOT
 10
-62.428015
 20
-62.709617
 11
-62.812915
 21
-62.709617
  0
LINE
  8
ボルト／ビス
  6
DOT
 10
-62.420465
 20
-62.709617
 11
-62.420465
 21
-62.776282
  0
LINE
  8
ボルト／ビス
  6
DOT
 10
-62.420465
 20
-62.709617
 11
-62.820465
 21
-62.709617
  0
LINE
  8
ボルト／ビス
  6
DOT
 10
-62.820465
 20
-62.709617
 11
-62.820465
 21
-62.776282
  0
ENDBLK
  0
BLOCK
  2
*DIM_0033
 70
    65
 10
0.0
 20
0.0
  0
LINE
  8
寸法
  6
CONTINUOUS
 10
94.24613
 20
49.4807
 11
94.24613
 21
60.666798
  0
LINE
  8
寸法
  6
CONTINUOUS
 10
101.746138
 20
50.577365
 11
101.746138
 21
60.666798
  0
LINE
  8
寸法
  6
CONTINUOUS
 10
94.24613
 20
60.666798
 11
101.746138
 21
60.666798
  0
POINT
  8
寸法
 10
94.24613
 20
60.666798
  0
POINT
  8
寸法
 10
101.746138
 20
60.666798
  0
TEXT
  7
TextStyle03
  8
寸法
  6
CONTINUOUS
 10
95.5375
 20
61.025
  1
225
 40
3.0
 72
     5
 11
100.4125
 21
61.025
  0
ENDBLK
  0
BLOCK
  2
*DIM_0034
 70
    65
 10
0.0
 20
0.0
  0
LINE
  8
寸法
  6
CONTINUOUS
 10
11.379532
 20
-70.209613
 11
20.682515
 21
-70.209613
  0
LINE
  8
寸法
  6
CONTINUOUS
 10
12.476197
 20
-77.709627
 11
20.682515
 21
-77.709627
  0
LINE
  8
寸法
  6
CONTINUOUS
 10
20.682515
 20
-70.209613
 11
20.682515
 21
-77.709627
  0
POINT
  8
寸法
 10
20.682515
 20
-70.209613
  0
POINT
  8
寸法
 10
20.682515
 20
-77.709627
  0
TEXT
  7
TextStyle03
  8
寸法
  6
CONTINUOUS
 10
20.3
 20
-76.4125
  1
225
 40
3.0
 50
90.0
 72
     5
 11
20.3
 21
-71.5375
  0
ENDBLK
  0
BLOCK
  2
*DIM_0035
 70
    65
 10
0.0
 20
0.0
  0
LINE
  8
寸法
  6
BYBLOCK
 62
     0
 10
-2.287135
 20
-57.542947
 11
20.682515
 21
-57.542947
  0
LINE
  8
寸法
  6
BYBLOCK
 62
     0
 10
20.682515
 20
-64.87628
 11
20.682515
 21
-57.542947
  0
POINT
  8
寸法
 62
     0
 10
20.682515
 20
-64.87628
  0
POINT
  8
寸法
 62
     0
 10
20.682515
 20
-57.542947
  0
TEXT
  7
TextStyle03
  8
寸法
  6
CONTINUOUS
 62
     0
 10
20.325
 20
-55.8125
  1
上昇高さ220
 40
3.0
 50
90.0
 72
     5
 11
20.325
 21
-37.4375
  0
ENDBLK
  0
BLOCK
  2
*DIM_0036
 70
    65
 10
0.0
 20
0.0
  0
LINE
  8
寸法
  6
BYBLOCK
 62
     0
 10
81.579465
 20
35.814033
 11
81.579465
 21
60.666798
  0
LINE
  8
寸法
  6
BYBLOCK
 62
     0
 10
88.912797
 20
60.666798
 11
81.579465
 21
60.666798
  0
POINT
  8
寸法
 62
     0
 10
88.912797
 20
60.666798
  0
POINT
  8
寸法
 62
     0
 10
81.579465
 20
60.666798
  0
TEXT
  7
TextStyle03
  8
寸法
  6
CONTINUOUS
 62
     0
 10
60.6375
 20
57.6
  1
上昇高さ220
 40
3.0
 72
     5
 11
79.0125
 21
57.6
  0
ENDBLK
  0
ENDSEC
  0
SECTION
  2
ENTITIES
  0
POLYLINE
  8
通り芯
  6
CONTINUOUS
 66
     1
 70
     1
  0
VERTEX
  8
通り芯
 10
-210.0
 20
-148.5
  0
VERTEX
  8
通り芯
 10
210.0
 20
-148.5
  0
VERTEX
  8
通り芯
 10
210.0
 20
148.5
  0
VERTEX
  8
通り芯
 10
-210.0
 20
148.5
  0
SEQEND
  0
INSERT
  2
*GRP_0001
  8
型材断面
  6
CONTINUOUS
 10
0.0
 20
0.0
  0
LINE
  8
型材断面
  6
DASHDOT
 10
4.712865
 20
-77.836442
 11
4.712865
 21
42.814033
  0
LINE
  8
型材断面
  6
DASHDOT
 10
-28.620467
 20
-77.836442
 11
-28.620467
 21
42.814033
  0
LINE
  8
型材断面
  6
DASHDOT
 10
-61.953802
 20
-77.836442
 11
-61.953802
 21
42.814033
  0
LINE
  8
型材断面
  6
DASHDOT
 10
102.389627
 20
42.814033
 11
-61.953802
 21
42.814033
  0
LINE
  8
型材断面
  6
DASHDOT
 10
102.389627
 20
32.814033
 11
-61.953802
 21
32.814033
  0
LINE
  8
型材断面
  6
DASHDOT
 10
102.389627
 20
22.814033
 11
-61.953802
 21
22.814033
  0
LINE
  8
型材断面
  6
DOT
 10
-27.370467
 20
22.814033
 11
-27.370467
 21
42.814033
  0
LINE
  8
型材断面
  6
DASHDOT
 10
-28.620467
 20
22.814033
 11
-28.620467
 21
42.814033
  0
LINE
  8
型材断面
  6
DOT
 10
-29.870467
 20
22.814033
 11
-29.870467
 21
42.814033
  0
POLYLINE
  8
型材断面
  6
CONTINUOUS
 66
     1
 70
     1
  0
VERTEX
  8
型材断面
 10
-19.76742
 20
13.03811
  0
VERTEX
  8
型材断面
 10
-38.53935
 20
13.03811
  0
VERTEX
  8
型材断面
 10
-38.53935
 20
8.301267
  0
VERTEX
  8
型材断面
 10
-19.76742
 20
8.301267
  0
SEQEND
  0
POLYLINE
  8
型材断面
  6
CONTINUOUS
 66
     1
 70
     1
  0
VERTEX
  8
型材断面
 10
-19.76742
 20
52.589955
  0
VERTEX
  8
型材断面
 10
-38.53935
 20
52.589955
  0
VERTEX
  8
型材断面
 10
-38.53935
 20
57.326798
  0
VERTEX
  8
型材断面
 10
-19.76742
 20
57.326798
  0
SEQEND
  0
LINE
  8
型材断面
  6
CONTINUOUS
 10
-102.80601
 20
80.791505
 11
-102.209955
 21
78.200998
  0
LINE
  8
型材断面
  6
CONTINUOUS
 10
-102.80601
 20
80.791505
 11
-103.402067
 21
78.200998
  0
LINE
  8
型材断面
  6
CONTINUOUS
 10
-103.402067
 20
78.200998
 11
-102.209955
 21
78.200998
  0
LINE
  8
型材断面
  6
CONTINUOUS
 10
-108.828597
 20
74.922105
 11
-62.58682
 21
74.922105
  0
LINE
  8
型材断面
  6
CONTINUOUS
 10
-102.80601
 20
87.32138
 11
-104.30164
 21
84.730873
  0
LINE
  8
型材断面
  6
CONTINUOUS
 10
-102.80601
 20
87.32138
 11
-101.31038
 21
84.730873
  0
LINE
  8
型材断面
  6
CONTINUOUS
 10
-101.31038
 20
84.730873
 11
-104.30164
 21
84.730873
  0
LINE
  8
型材断面
  6
CONTINUOUS
 10
-108.828597
 20
83.792277
 11
-62.58682
 21
83.792277
  0
LINE
  8
型材断面
  6
CONTINUOUS
 10
-108.828597
 20
69.134073
 11
-62.58682
 21
69.134073
  0
INSERT
  2
*GRP_0010
  8
型材断面
  6
CONTINUOUS
 10
0.0
 20
0.0
  0
INSERT
  2
*GRP_0011
  8
型材断面
  6
CONTINUOUS
 10
0.0
 20
0.0
  0
LINE
  8
型材断面
  6
CONTINUOUS
 10
-108.828597
 20
63.34604
 11
-62.58682
 21
63.34604
  0
LINE
  8
型材断面
  6
CONTINUOUS
 10
95.296253
 20
32.814033
 11
95.296253
 21
21.453885
  0
LINE
  8
型材断面
  6
CONTINUOUS
 10
96.446253
 20
32.814033
 11
96.446253
 21
20.0507
  0
LINE
  8
型材断面
  6
CONTINUOUS
 10
97.61292
 20
32.814033
 11
97.61292
 21
20.0507
  0
LINE
  8
型材断面
  6
CONTINUOUS
 10
95.296253
 20
32.814033
 11
95.296253
 21
44.17418
  0
LINE
  8
型材断面
  6
CONTINUOUS
 10
96.446253
 20
32.814033
 11
96.446253
 21
45.577365
  0
LINE
  8
型材断面
  6
CONTINUOUS
 10
97.61292
 20
32.814033
 11
97.61292
 21
45.577365
  0
LINE
  8
型材断面
  6
CONTINUOUS
 10
-28.620467
 20
-71.259742
 11
-63.313947
 21
-71.259742
  0
LINE
  8
型材断面
  6
CONTINUOUS
 10
-28.620467
 20
-72.409742
 11
-64.717133
 21
-72.409742
  0
LINE
  8
型材断面
  6
CONTINUOUS
 10
-28.620467
 20
-73.57641
 11
-64.717133
 21
-73.57641
  0
LINE
  8
型材断面
  6
CONTINUOUS
 10
-28.620467
 20
-71.259742
 11
6.073013
 21
-71.259742
  0
LINE
  8
型材断面
  6
CONTINUOUS
 10
-28.620467
 20
-72.409742
 11
7.476197
 21
-72.409742
  0
LINE
  8
型材断面
  6
CONTINUOUS
 10
-28.620467
 20
-73.57641
 11
7.476197
 21
-73.57641
  0
LINE
  8
型材断面
  6
CONTINUOUS
 10
-64.020467
 20
20.747365
 11
-64.717135
 21
20.0507
  0
LINE
  8
型材断面
  6
CONTINUOUS
 10
-64.717133
 20
20.0507
 11
-64.717133
 21
45.577365
  0
LINE
  8
型材断面
  6
CONTINUOUS
 10
-64.020467
 20
44.8807
 11
-64.717135
 21
45.577365
  0
LINE
  8
型材断面
  6
CONTINUOUS
 10
6.779532
 20
44.8807
 11
7.476197
 21
45.577362
  0
LINE
  8
型材断面
  6
CONTINUOUS
 10
-64.717133
 20
45.577365
 11
7.476197
 21
45.577365
  0
LINE
  8
型材断面
  6
CONTINUOUS
 10
-64.717133
 20
20.0507
 11
7.476197
 21
20.0507
  0
LINE
  8
型材断面
  6
CONTINUOUS
 10
7.476197
 20
45.577362
 11
7.476197
 21
20.0507
  0
LINE
  8
型材断面
  6
CONTINUOUS
 10
6.779532
 20
20.747365
 11
7.4762
 21
20.0507
  0
LINE
  8
型材断面
  6
CONTINUOUS
 10
-64.717133
 20
32.814033
 11
-67.30764
 21
34.309663
  0
LINE
  8
型材断面
  6
CONTINUOUS
 10
-64.717133
 20
32.814033
 11
-67.30764
 21
31.318403
  0
LINE
  8
型材断面
  6
CONTINUOUS
 10
-67.30764
 20
31.318403
 11
-67.30764
 21
34.309663
  0
LINE
  8
型材断面
  6
CONTINUOUS
 10
-64.71713
 20
39.114035
 11
-67.30764
 21
38.517982
  0
LINE
  8
型材断面
  6
CONTINUOUS
 10
-64.71713
 20
39.114035
 11
-67.307637
 21
39.710095
  0
LINE
  8
型材断面
  6
CONTINUOUS
 10
-67.307637
 20
39.710095
 11
-67.30764
 21
38.517982
  0
LINE
  8
型材断面
  6
CONTINUOUS
 10
-64.71713
 20
26.51403
 11
-67.30764
 21
27.110082
  0
LINE
  8
型材断面
  6
CONTINUOUS
 10
-64.71713
 20
26.51403
 11
-67.307637
 21
25.91797
  0
LINE
  8
型材断面
  6
CONTINUOUS
 10
-67.307637
 20
25.91797
 11
-67.30764
 21
27.110082
  0
LINE
  8
型材断面
  6
CONTINUOUS
 10
-45.287135
 20
45.577365
 11
-46.782765
 21
48.167872
  0
LINE
  8
型材断面
  6
CONTINUOUS
 10
-45.287135
 20
45.577365
 11
-43.791505
 21
48.167872
  0
LINE
  8
型材断面
  6
CONTINUOUS
 10
-43.791505
 20
48.167872
 11
-46.782765
 21
48.167872
  0
LINE
  8
型材断面
  6
CONTINUOUS
 10
-11.9538
 20
45.577365
 11
-10.45817
 21
48.167872
  0
LINE
  8
型材断面
  6
CONTINUOUS
 10
-11.9538
 20
45.577365
 11
-13.44943
 21
48.167872
  0
LINE
  8
型材断面
  6
CONTINUOUS
 10
-13.44943
 20
48.167872
 11
-10.45817
 21
48.167872
  0
LINE
  8
型材断面
  6
CONTINUOUS
 10
7.476197
 20
32.814033
 11
10.066705
 21
34.309663
  0
LINE
  8
型材断面
  6
CONTINUOUS
 10
7.476197
 20
32.814033
 11
10.066705
 21
31.318403
  0
LINE
  8
型材断面
  6
CONTINUOUS
 10
10.066705
 20
31.318403
 11
10.066705
 21
34.309663
  0
LINE
  8
型材断面
  6
CONTINUOUS
 10
7.476195
 20
39.114035
 11
10.066705
 21
38.517982
  0
LINE
  8
型材断面
  6
CONTINUOUS
 10
7.476195
 20
39.114035
 11
10.066703
 21
39.710095
  0
LINE
  8
型材断面
  6
CONTINUOUS
 10
10.066703
 20
39.710095
 11
10.066705
 21
38.517982
  0
LINE
  8
型材断面
  6
CONTINUOUS
 10
7.476195
 20
26.51403
 11
10.066705
 21
27.110082
  0
LINE
  8
型材断面
  6
CONTINUOUS
 10
7.476195
 20
26.51403
 11
10.066703
 21
25.91797
  0
LINE
  8
型材断面
  6
CONTINUOUS
 10
10.066703
 20
25.91797
 11
10.066705
 21
27.110082
  0
LINE
  8
型材断面
  6
CONTINUOUS
 10
-45.287135
 20
20.0507
 11
-46.782765
 21
17.460193
  0
LINE
  8
型材断面
  6
CONTINUOUS
 10
-45.287135
 20
20.0507
 11
-43.791505
 21
17.460193
  0
LINE
  8
型材断面
  6
CONTINUOUS
 10
-43.791505
 20
17.460193
 11
-46.782765
 21
17.460193
  0
LINE
  8
型材断面
  6
CONTINUOUS
 10
-11.9538
 20
20.0507
 11
-10.45817
 21
17.460193
  0
LINE
  8
型材断面
  6
CONTINUOUS
 10
-11.9538
 20
20.0507
 11
-13.44943
 21
17.460193
  0
LINE
  8
型材断面
  6
CONTINUOUS
 10
-13.44943
 20
17.460193
 11
-10.45817
 21
17.460193
  0
LINE
  8
型材断面
  6
CONTINUOUS
 10
101.746138
 20
20.5507
 11
102.082803
 21
20.5507
  0
LINE
  8
型材断面
  6
CONTINUOUS
 10
101.746138
 20
20.0507
 11
101.746138
 21
20.5507
  0
LINE
  8
型材断面
  6
CONTINUOUS
 10
97.846255
 20
20.0507
 11
97.649633
 21
20.247325
  0
LINE
  8
型材断面
  6
CONTINUOUS
 10
97.846255
 20
20.0507
 11
101.746138
 21
20.0507
  0
LINE
  8
型材断面
  6
CONTINUOUS
 62
    47
 10
97.649633
 20
20.247325
 11
97.649633
 21
32.814033
  0
LINE
  8
型材断面
  6
CONTINUOUS
 10
97.846255
 20
20.0507
 11
97.846255
 21
32.814033
  0
LINE
  8
型材断面
  6
CONTINUOUS
 10
102.082803
 20
20.5507
 11
102.082803
 21
32.814033
  0
LINE
  8
型材断面
  6
CONTINUOUS
 10
101.746138
 20
20.0507
 11
101.746138
 21
32.814033
  0
LINE
  8
型材断面
  6
CONTINUOUS
 10
101.746138
 20
45.077365
 11
102.082803
 21
45.077365
  0
LINE
  8
型材断面
  6
CONTINUOUS
 10
101.746138
 20
45.577365
 11
101.746138
 21
45.077365
  0
LINE
  8
型材断面
  6
CONTINUOUS
 10
97.846255
 20
45.577365
 11
97.649633
 21
45.38074
  0
LINE
  8
型材断面
  6
CONTINUOUS
 10
97.846255
 20
45.577365
 11
101.746138
 21
45.577365
  0
LINE
  8
型材断面
  6
CONTINUOUS
 62
    47
 10
97.649633
 20
45.38074
 11
97.649633
 21
32.814033
  0
LINE
  8
型材断面
  6
CONTINUOUS
 10
97.846255
 20
45.577365
 11
97.846255
 21
32.814033
  0
LINE
  8
型材断面
  6
CONTINUOUS
 10
102.082803
 20
45.077365
 11
102.082803
 21
32.814033
  0
LINE
  8
型材断面
  6
CONTINUOUS
 10
101.746138
 20
45.577365
 11
101.746138
 21
32.814033
  0
LINE
  8
型材断面
  6
CONTINUOUS
 10
6.976197
 20
-77.709627
 11
6.976197
 21
-78.046292
  0
LINE
  8
型材断面
  6
CONTINUOUS
 10
7.476197
 20
-77.709627
 11
6.976197
 21
-77.709627
  0
LINE
  8
型材断面
  6
CONTINUOUS
 10
7.476197
 20
-73.809745
 11
7.279572
 21
-73.613123
  0
LINE
  8
型材断面
  6
CONTINUOUS
 10
7.476197
 20
-73.809745
 11
7.476197
 21
-77.709627
  0
LINE
  8
型材断面
  6
CONTINUOUS
 62
    47
 10
7.279572
 20
-73.613123
 11
-28.620467
 21
-73.613123
  0
LINE
  8
型材断面
  6
CONTINUOUS
 10
7.476197
 20
-73.809745
 11
-28.620467
 21
-73.809745
  0
LINE
  8
型材断面
  6
CONTINUOUS
 10
7.476197
 20
-77.709627
 11
-28.620467
 21
-77.709627
  0
LINE
  8
型材断面
  6
CONTINUOUS
 10
6.976197
 20
-78.046292
 11
-28.620467
 21
-78.046292
  0
LINE
  8
型材断面
  6
CONTINUOUS
 10
-64.217133
 20
-77.709627
 11
-64.217133
 21
-78.046292
  0
LINE
  8
型材断面
  6
CONTINUOUS
 10
-64.717133
 20
-77.709627
 11
-64.217133
 21
-77.709627
  0
LINE
  8
型材断面
  6
CONTINUOUS
 10
-64.717133
 20
-73.809745
 11
-64.520507
 21
-73.613123
  0
LINE
  8
型材断面
  6
CONTINUOUS
 10
-64.717133
 20
-73.809745
 11
-64.717133
 21
-77.709627
  0
LINE
  8
型材断面
  6
CONTINUOUS
 62
    47
 10
-64.520507
 20
-73.613123
 11
-28.620467
 21
-73.613123
  0
LINE
  8
型材断面
  6
CONTINUOUS
 10
-64.717133
 20
-73.809745
 11
-28.620467
 21
-73.809745
  0
LINE
  8
型材断面
  6
CONTINUOUS
 10
-64.717133
 20
-77.709627
 11
-28.620467
 21
-77.709627
  0
LINE
  8
型材断面
  6
CONTINUOUS
 10
-64.217133
 20
-78.046292
 11
-28.620467
 21
-78.046292
  0
TEXT
  7
TextStyle03
  8
文字
  6
CONTINUOUS
 10
-37.575
 20
9.325
  1
可動装置側
 40
3.0
 72
     5
 11
-21.075
 21
9.325
  0
TEXT
  7
TextStyle03
  8
文字
  6
CONTINUOUS
 10
-37.575
 20
53.3
  1
可動装置側
 40
3.0
 72
     5
 11
-21.075
 21
53.3
  0
TEXT
  7
TextStyle03
  8
文字
  6
CONTINUOUS
 10
-100.025
 20
79.425
  1
はケーシング位置を示す
 40
3.0
 72
     5
 11
-63.275
 21
79.425
  0
TEXT
  7
TextStyle03
  8
文字
  6
CONTINUOUS
 10
-100.025
 20
76.05
  1
４ヶ所中1ヶ所に設定
 40
3.0
 72
     5
 11
-68.3375
 21
76.05
  0
TEXT
  7
TextStyle03
  8
文字
  6
CONTINUOUS
 10
-100.025
 20
84.95
  1
は排水穴位置を示す
 40
3.0
 72
     5
 11
-70.025
 21
84.95
  0
TEXT
  7
TextStyle03
  8
文字
  6
CONTINUOUS
 10
-83.025
 20
11.275
  1
アンカーピッチ
 40
3.0
 50
90.0
 72
     5
 11
-83.025
 21
34.525
  0
TEXT
  7
TextStyle03
  8
文字
  6
CONTINUOUS
 10
-54.5
 20
79.675
  1
アンカーピッチ
 40
3.0
 72
     5
 11
-31.25
 21
79.675
  0
TEXT
  7
TextStyle03
  8
文字
  6
CONTINUOUS
 10
-103.75
 20
70.075
  1
アンカー数量　１０ヶ所
 40
3.0
 72
     5
 11
-67.0
 21
70.075
  0
TEXT
  7
TextStyle03
  8
文字
  6
CONTINUOUS
 10
-103.775
 20
64.3
  1
アームユニット数　２ヶ所
 40
3.0
 72
     5
 11
-63.65
 21
64.3
  0
LINE
  8
文字
  6
CONTINUOUS
 10
38.732515
 20
45.577365
 11
94.924465
 21
45.577365
  0
LINE
  8
文字
  6
CONTINUOUS
 10
38.732515
 20
20.0507
 11
94.924465
 21
20.0507
  0
LINE
  8
文字
  6
CONTINUOUS
 10
-64.717133
 20
-13.121378
 11
-64.717133
 21
-71.133832
  0
LINE
  8
文字
  6
CONTINUOUS
 10
7.476197
 20
-13.121378
 11
7.476197
 21
-71.242437
  0
TEXT
  7
TextStyle03
  8
文字
  6
CONTINUOUS
 10
82.925
 20
-76.975
  1
網入り6.8t
 40
3.0
 72
     5
 11
99.6125
 21
-76.975
  0
TEXT
  7
TextStyle03
  8
文字
  6
CONTINUOUS
 10
89.6
 20
-81.65
  1
×２枚
 40
3.0
 72
     5
 11
99.35
 21
-81.65
  0
TEXT
  7
TextStyle03
  8
文字
  6
CONTINUOUS
 10
78.1
 20
125.25
  1
シリーズ：ＴＤ１Ｌ
 40
5.0
 72
     5
 11
128.1
 21
125.25
  0
TEXT
  7
TextStyle03
  8
文字
  6
CONTINUOUS
 10
78.1
 20
119.625
  1
　　　　　（上下可動）600×2000タイプ
 40
5.0
 72
     5
 11
181.5375
 21
119.625
  0
TEXT
  7
TextStyle03
  8
文字
  6
CONTINUOUS
 10
78.1
 20
114.0
  1
図面名　：外観姿図
 40
5.0
 72
     5
 11
128.1
 21
114.0
  0
TEXT
  7
TextStyle03
  8
文字
  6
CONTINUOUS
 10
78.1
 20
108.375
  1
　　　　　　
 40
5.0
 72
     5
 11
111.225
 21
108.375
  0
TEXT
  7
TextStyle03
  8
文字
  6
CONTINUOUS
 10
77.125
 20
103.95
  1
ＮＳコード：ＮＳＤＬ
 40
5.0
 72
     5
 11
132.75
 21
103.95
  0
INSERT
  2
*DIM_0002
  8
寸法
  6
CONTINUOUS
 10
0.0
 20
0.0
  0
INSERT
  2
*DIM_0003
  8
寸法
  6
CONTINUOUS
 10
0.0
 20
0.0
  0
INSERT
  2
*DIM_0004
  8
寸法
  6
CONTINUOUS
 10
0.0
 20
0.0
  0
INSERT
  2
*DIM_0005
  8
寸法
  6
CONTINUOUS
 10
0.0
 20
0.0
  0
INSERT
  2
*DIM_0006
  8
寸法
  6
CONTINUOUS
 10
0.0
 20
0.0
  0
INSERT
  2
*DIM_0007
  8
寸法
  6
CONTINUOUS
 10
0.0
 20
0.0
  0
INSERT
  2
*DIM_0008
  8
寸法
  6
CONTINUOUS
 10
0.0
 20
0.0
  0
INSERT
  2
*DIM_0012
  8
寸法
  6
CONTINUOUS
 10
0.0
 20
0.0
  0
INSERT
  2
*DIM_0013
  8
寸法
  6
CONTINUOUS
 10
0.0
 20
0.0
  0
INSERT
  2
*DIM_0014
  8
寸法
  6
CONTINUOUS
 10
0.0
 20
0.0
  0
INSERT
  2
*DIM_0015
  8
寸法
  6
CONTINUOUS
 10
0.0
 20
0.0
  0
INSERT
  2
*DIM_0016
  8
寸法
  6
CONTINUOUS
 10
0.0
 20
0.0
  0
INSERT
  2
*DIM_0017
  8
寸法
  6
CONTINUOUS
 10
0.0
 20
0.0
  0
INSERT
  2
*DIM_0018
  8
寸法
  6
CONTINUOUS
 10
0.0
 20
0.0
  0
INSERT
  2
*DIM_0021
  8
寸法
  6
CONTINUOUS
 10
0.0
 20
0.0
  0
INSERT
  2
*DIM_0022
  8
寸法
  6
CONTINUOUS
 10
0.0
 20
0.0
  0
INSERT
  2
*DIM_0033
  8
寸法
  6
CONTINUOUS
 10
0.0
 20
0.0
  0
INSERT
  2
*DIM_0034
  8
寸法
  6
CONTINUOUS
 10
0.0
 20
0.0
  0
INSERT
  2
*DIM_0035
  8
寸法
  6
CONTINUOUS
 10
0.0
 20
0.0
  0
INSERT
  2
*DIM_0036
  8
寸法
  6
CONTINUOUS
 10
0.0
 20
0.0
  0
LINE
  8
別途部材
  6
CONTINUOUS
 10
6.779532
 20
20.747365
 11
6.379532
 21
21.147365
  0
LINE
  8
別途部材
  6
CONTINUOUS
 10
4.712865
 20
22.814033
 11
-3.34639
 21
30.87329
  0
LINE
  8
別途部材
  6
CONTINUOUS
 62
    96
 10
94.24613
 20
21.147365
 11
95.24613
 21
20.747365
  0
LINE
  8
別途部材
  6
CONTINUOUS
 62
    96
 10
94.24613
 20
21.147365
 11
94.24613
 21
32.814033
  0
LINE
  8
別途部材
  6
CONTINUOUS
 10
95.24613
 20
20.747365
 11
95.24613
 21
32.814033
  0
LINE
  8
別途部材
  6
CONTINUOUS
 62
    96
 10
94.24613
 20
44.4807
 11
95.24613
 21
44.8807
  0
LINE
  8
別途部材
  6
CONTINUOUS
 62
    96
 10
94.24613
 20
44.4807
 11
94.24613
 21
32.814033
  0
LINE
  8
別途部材
  6
CONTINUOUS
 10
95.24613
 20
44.8807
 11
95.24613
 21
32.814033
  0
ARC
  8
別途部材
  6
CONTINUOUS
 10
100.954465
 20
32.814033
 40
12.041667
 50
123.855033
 51
236.144967
  0
LINE
  8
別途部材
  6
CONTINUOUS
 10
6.379532
 20
21.147365
 11
6.379532
 21
32.814033
  0
LINE
  8
別途部材
  6
CONTINUOUS
 10
6.779532
 20
20.747365
 11
6.779532
 21
32.814033
  0
LINE
  8
別途部材
  6
CONTINUOUS
 10
6.779532
 20
44.8807
 11
6.379532
 21
44.4807
  0
LINE
  8
別途部材
  6
CONTINUOUS
 10
4.712865
 20
42.814033
 11
-3.34639
 21
34.754775
  0
LINE
  8
別途部材
  6
CONTINUOUS
 10
6.379532
 20
44.4807
 11
6.379532
 21
32.814033
  0
LINE
  8
別途部材
  6
CONTINUOUS
 10
6.779532
 20
44.8807
 11
6.779532
 21
32.814033
  0
LINE
  8
別途部材
  6
CONTINUOUS
 10
6.379532
 20
44.4807
 11
-28.620467
 21
44.4807
  0
LINE
  8
別途部材
  6
CONTINUOUS
 10
6.779532
 20
44.8807
 11
-28.620467
 21
44.8807
  0
LINE
  8
別途部材
  6
CONTINUOUS
 10
6.779532
 20
20.747365
 11
-28.620467
 21
20.747365
  0
LINE
  8
別途部材
  6
CONTINUOUS
 10
6.379532
 20
21.147365
 11
-28.620467
 21
21.147365
  0
LINE
  8
別途部材
  6
CONTINUOUS
 10
-64.020467
 20
20.747365
 11
-63.620467
 21
21.147365
  0
LINE
  8
別途部材
  6
CONTINUOUS
 10
-61.9538
 20
22.814033
 11
-53.894545
 21
30.87329
  0
LINE
  8
別途部材
  6
CONTINUOUS
 10
-63.620467
 20
21.147365
 11
-63.620467
 21
32.814033
  0
LINE
  8
別途部材
  6
CONTINUOUS
 10
-64.020467
 20
20.747365
 11
-64.020467
 21
32.814033
  0
LINE
  8
別途部材
  6
CONTINUOUS
 10
-64.020467
 20
44.8807
 11
-63.620467
 21
44.4807
  0
LINE
  8
別途部材
  6
CONTINUOUS
 10
-61.9538
 20
42.814033
 11
-53.894545
 21
34.754775
  0
LINE
  8
別途部材
  6
CONTINUOUS
 10
-63.620467
 20
44.4807
 11
-63.620467
 21
32.814033
  0
LINE
  8
別途部材
  6
CONTINUOUS
 10
-64.020467
 20
44.8807
 11
-64.020467
 21
32.814033
  0
LINE
  8
別途部材
  6
CONTINUOUS
 10
-63.620467
 20
44.4807
 11
-28.620467
 21
44.4807
  0
LINE
  8
別途部材
  6
CONTINUOUS
 10
-64.020467
 20
44.8807
 11
-28.620467
 21
44.8807
  0
LINE
  8
別途部材
  6
CONTINUOUS
 10
-64.020467
 20
20.747365
 11
-28.620467
 21
20.747365
  0
LINE
  8
別途部材
  6
CONTINUOUS
 10
-63.620467
 20
21.147365
 11
-28.620467
 21
21.147365
  0
INSERT
  2
*GRP_0009
  8
別途部材
  6
CONTINUOUS
 10
0.0
 20
0.0
  0
INSERT
  2
*GRP_0023
  8
別途部材
  6
DOT
 10
0.0
 20
0.0
  0
INSERT
  2
*GRP_0024
  8
別途部材
  6
DOT
 10
0.0
 20
0.0
  0
INSERT
  2
*GRP_0026
  8
別途部材
  6
DOT
 10
0.0
 20
0.0
  0
INSERT
  2
*GRP_0027
  8
別途部材
  6
DOT
 10
0.0
 20
0.0
  0
INSERT
  2
*GRP_0028
  8
別途部材
  6
DOT
 10
0.0
 20
0.0
  0
INSERT
  2
*GRP_0029
  8
別途部材
  6
DOT
 10
0.0
 20
0.0
  0
INSERT
  2
*GRP_0031
  8
別途部材
  6
DOT
 10
0.0
 20
0.0
  0
INSERT
  2
*GRP_0032
  8
別途部材
  6
DOT
 10
0.0
 20
0.0
  0
POLYLINE
  8
曲げ物
  6
CONTINUOUS
 66
     1
 70
     1
  0
VERTEX
  8
曲げ物
 10
102.234995
 20
-63.643108
  0
VERTEX
  8
曲げ物
 10
69.434995
 20
-63.643108
  0
VERTEX
  8
曲げ物
 10
69.434995
 20
-83.643108
  0
VERTEX
  8
曲げ物
 10
102.234995
 20
-83.643108
  0
SEQEND
  0
INSERT
  2
*GRP_0025
  8
曲げ物
  6
CONTINUOUS
 10
0.0
 20
0.0
  0
INSERT
  2
*GRP_0030
  8
曲げ物
  6
CONTINUOUS
 10
0.0
 20
0.0
  0
LINE
  8
鉄骨等
  6
CONTINUOUS
 62
    47
 10
97.61292
 20
20.0507
 11
96.446253
 21
20.0507
  0
LINE
  8
鉄骨等
  6
CONTINUOUS
 62
    47
 10
96.446253
 20
20.0507
 11
95.296253
 21
21.453885
  0
LINE
  8
鉄骨等
  6
CONTINUOUS
 62
    47
 10
95.296253
 20
21.453885
 11
95.246133
 21
21.453885
  0
LINE
  8
鉄骨等
  6
CONTINUOUS
 62
    47
 10
97.61292
 20
45.577365
 11
96.446253
 21
45.577365
  0
LINE
  8
鉄骨等
  6
CONTINUOUS
 62
    47
 10
96.446253
 20
45.577365
 11
95.296253
 21
44.17418
  0
LINE
  8
鉄骨等
  6
CONTINUOUS
 62
    47
 10
95.296253
 20
44.17418
 11
95.246133
 21
44.17418
  0
LINE
  8
鉄骨等
  6
CONTINUOUS
 62
    47
 10
-64.717133
 20
-73.57641
 11
-64.717133
 21
-72.409742
  0
LINE
  8
鉄骨等
  6
CONTINUOUS
 62
    47
 10
-64.717133
 20
-72.409742
 11
-63.313947
 21
-71.259742
  0
LINE
  8
鉄骨等
  6
CONTINUOUS
 62
    47
 10
-63.313947
 20
-71.259742
 11
-63.313947
 21
-71.209623
  0
LINE
  8
鉄骨等
  6
CONTINUOUS
 62
    47
 10
7.476197
 20
-73.57641
 11
7.476197
 21
-72.409742
  0
LINE
  8
鉄骨等
  6
CONTINUOUS
 62
    47
 10
7.476197
 20
-72.409742
 11
6.073013
 21
-71.259742
  0
LINE
  8
鉄骨等
  6
CONTINUOUS
 62
    47
 10
6.073013
 20
-71.259742
 11
6.073013
 21
-71.209623
  0
ENDSEC
  0
EOF
