  0
SECTION
  2
HEADER
  9
$EXTMIN
 10
-210.0
 20
-148.5
  9
$EXTMAX
 10
210.0
 20
148.5
  9
$PDMODE
 70
    32
  9
$PDSIZE
 40
1.5
  9
$LTSCALE
 40
10.0
  0
ENDSEC
  0
SECTION
  2
TABLES
  0
TABLE
  2
LTYPE
 70
    15
  0
LTYPE
  2
CONTINUOUS
 70
    64
  3
実線
 72
    65
 73
     0
 40
0.0
  0
LTYPE
  2
DASHED
 70
    64
  3
破線A
 72
    65
 73
     2
 40
0.6
 49
0.4
 49
-0.2
  0
LTYPE
  2
DASHEDX2
 70
    64
  3
破線B
 72
    65
 73
     2
 40
1.3
 49
0.9
 49
-0.4
  0
LTYPE
  2
DASHDOT
 70
    64
  3
１点鎖線A
 72
    65
 73
     4
 40
0.5375
 49
0.375
 49
-0.05
 49
0.0625
 49
-0.05
  0
LTYPE
  2
DASHDOTX2
 70
    64
  3
１点鎖線B
 72
    65
 73
     4
 40
1.075
 49
0.75
 49
-0.1
 49
0.125
 49
-0.1
  0
LTYPE
  2
DIVIDE2
 70
    64
  3
２点鎖線A
 72
    65
 73
     6
 40
0.5125
 49
0.3
 49
-0.0375
 49
0.05
 49
-0.0375
 49
0.05
 49
-0.0375
  0
LTYPE
  2
DIVIDE
 70
    64
  3
２点鎖線B
 72
    65
 73
     6
 40
1.05
 49
0.55
 49
-0.1
 49
0.1
 49
-0.1
 49
0.1
 49
-0.1
  0
LTYPE
  2
DOT
 70
    64
  3
点線A
 72
    65
 73
     2
 40
0.1125
 49
0.0625
 49
-0.05
  0
LTYPE
  2
DOTX2
 70
    64
  3
点線B
 72
    65
 73
     2
 40
0.275
 49
0.15
 49
-0.125
  0
LTYPE
  2
CONTINUOUS
 70
    64
  3
実線
 72
    65
 73
     0
 40
0.0
  0
LTYPE
  2
CONTINUOUS
 70
    64
  3
実線
 72
    65
 73
     0
 40
0.0
  0
LTYPE
  2
CONTINUOUS
 70
    64
  3
実線
 72
    65
 73
     0
 40
0.0
  0
LTYPE
  2
CONTINUOUS
 70
    64
  3
実線
 72
    65
 73
     0
 40
0.0
  0
LTYPE
  2
CONTINUOUS
 70
    64
  3
実線
 72
    65
 73
     0
 40
0.0
  0
LTYPE
  2
CONTINUOUS
 70
    64
  3
実線
 72
    65
 73
     0
 40
0.0
  0
ENDTAB
  0
TABLE
  2
LAYER
 70
    34
  0
LAYER
  2
通り芯
 70
     0
 62
    15
  6
CONTINUOUS
  0
LAYER
  2
補助線
 70
     0
 62
    16
  6
DOT
  0
LAYER
  2
躯体
 70
     0
 62
    31
  6
CONTINUOUS
  0
LAYER
  2
型材
 70
     0
 62
    32
  6
CONTINUOUS
  0
LAYER
  2
型材断面
 70
     0
 62
    47
  6
CONTINUOUS
  0
LAYER
  2
ガラス
 70
     0
 62
    48
  6
CONTINUOUS
  0
LAYER
  2
ゴム等
 70
     0
 62
    63
  6
CONTINUOUS
  0
LAYER
  2
ボルト／ビス
 70
     0
 62
    64
  6
CONTINUOUS
  0
LAYER
  2
文字
 70
     0
 62
    79
  6
CONTINUOUS
  0
LAYER
  2
寸法
 70
     0
 62
    80
  6
CONTINUOUS
  0
LAYER
  2
ﾊｯﾁﾝｸﾞ
 70
     0
 62
    95
  6
CONTINUOUS
  0
LAYER
  2
別途部材
 70
     0
 62
    96
  6
CONTINUOUS
  0
LAYER
  2
曲げ物
 70
     0
 62
   111
  6
CONTINUOUS
  0
LAYER
  2
鉄骨等
 70
     0
 62
   112
  6
CONTINUOUS
  0
LAYER
  2
St
 70
     0
 62
   127
  6
CONTINUOUS
  0
LAYER
  2
その他部品等
 70
     0
 62
   128
  6
CONTINUOUS
  0
LAYER
  2
ｶﾞｽｹｯﾄ
 70
     0
 62
   143
  6
CONTINUOUS
  0
LAYER
  2
ｽｹｯﾁ
 70
     0
 62
    14
  6
CONTINUOUS
  0
LAYER
  2
0
 70
     0
 62
    17
  6
CONTINUOUS
  0
LAYER
  2
1
 70
     0
 62
    30
  6
CONTINUOUS
  0
LAYER
  2
4
 70
     0
 62
    33
  6
CONTINUOUS
  0
LAYER
  2
ﾚｲﾔ3
 70
     0
 62
    46
  6
CONTINUOUS
  0
LAYER
  2
外形線
 70
     0
 62
    49
  6
CONTINUOUS
  0
LAYER
  2
部品
 70
     0
 62
    14
  6
CONTINUOUS
  0
LAYER
  2
サッシ芯
 70
     0
 62
    17
  6
DASHDOTX2
  0
LAYER
  2
寸法線
 70
     0
 62
    62
  6
CONTINUOUS
  0
LAYER
  2
姿図外形線
 70
     0
 62
    65
  6
CONTINUOUS
  0
LAYER
  2
姿補助線
 70
     0
 62
    30
  6
CONTINUOUS
  0
LAYER
  2
透視線
 70
     0
 62
    78
  6
DOT
  0
LAYER
  2
用紙
 70
     0
 62
    81
  6
CONTINUOUS
  0
LAYER
  2
実線図枠
 70
     0
 62
    94
  6
CONTINUOUS
  0
LAYER
  2
補助図枠
 70
     0
 62
    97
  6
CONTINUOUS
  0
LAYER
  2
建具記号
 70
     0
 62
   110
  6
CONTINUOUS
  0
LAYER
  2
補助文字
 70
     0
 62
   113
  6
CONTINUOUS
  0
ENDTAB
  0
TABLE
  2
STYLE
 70
    10
  0
STYLE
  2
STANDARD
 70
     0
 40
1.0
 41
1.0
 42
1.0
 50
0.0
 71
     0
  3
TXT
  4
BIGFONT
  0
STYLE
  2
TATE
 70
     4
 40
1.0
 41
1.0
 42
1.0
 50
0.0
 71
     0
  3
TXT
  4
BIGFONT
  0
STYLE
  2
TextStyle03
 70
     0
 40
1.0
 41
1.0
 42
1.0
 50
0.0
 71
     0
  3
MONOTXT
  4
BIGFONT
  0
STYLE
  2
TextStyle04
 70
     0
 40
1.0
 41
1.0
 42
1.0
 50
0.0
 71
     0
  3
MONOTXT
  4
BIGFONT
  0
STYLE
  2
TextStyle05
 70
     0
 40
1.0
 41
1.0
 42
1.0
 50
0.0
 71
     0
  3
MONOTXT
  4
BIGFONT
  0
STYLE
  2
TextStyle06
 70
     0
 40
1.0
 41
1.0
 42
1.0
 50
0.0
 71
     0
  3
MONOTXT
  4
BIGFONT
  0
STYLE
  2
TextStyle07
 70
     0
 40
1.0
 41
1.0
 42
1.0
 50
0.0
 71
     0
  3
MONOTXT
  4
BIGFONT
  0
STYLE
  2
TextStyle08
 70
     0
 40
1.0
 41
1.0
 42
1.0
 50
0.0
 71
     0
  3
MONOTXT
  4
BIGFONT
  0
STYLE
  2
TextStyle09
 70
     0
 40
1.0
 41
1.0
 42
1.0
 50
0.0
 71
     0
  3
MONOTXT
  4
BIGFONT
  0
STYLE
  2
TextStyle10
 70
     0
 40
1.0
 41
1.0
 42
1.0
 50
0.0
 71
     0
  3
MONOTXT
  4
BIGFONT
  0
ENDTAB
  0
ENDSEC
  0
SECTION
  2
BLOCKS
  0
BLOCK
  2
*GRP_0001
 70
    65
 10
0.0
 20
0.0
  0
LINE
  8
型材断面
  6
CONTINUOUS
 10
195.0
 20
133.5
 11
195.0
 21
-133.5
  0
LINE
  8
型材断面
  6
CONTINUOUS
 10
195.0
 20
-133.5
 11
-185.0
 21
-133.5
  0
LINE
  8
型材断面
  6
CONTINUOUS
 10
-185.0
 20
-133.5
 11
-185.0
 21
133.5
  0
LINE
  8
型材断面
  6
CONTINUOUS
 10
195.0
 20
133.5
 11
-185.0
 21
133.5
  0
LINE
  8
型材断面
  6
CONTINUOUS
 10
145.0
 20
-133.5
 11
145.0
 21
-118.5
  0
LINE
  8
型材断面
  6
CONTINUOUS
 10
195.0
 20
-118.5
 11
145.0
 21
-118.5
  0
ENDBLK
  0
BLOCK
  2
*DIM_0002
 70
    65
 10
0.0
 20
0.0
  0
LINE
  8
寸法
  6
BYBLOCK
 62
     0
 10
-128.742993
 20
-22.207025
 11
-128.742993
 21
-22.536362
  0
LINE
  8
寸法
  6
BYBLOCK
 62
     0
 10
71.257007
 20
-22.207025
 11
71.257007
 21
-22.536362
  0
LINE
  8
寸法
  6
BYBLOCK
 62
     0
 10
-128.742993
 20
-22.536362
 11
71.257007
 21
-22.536362
  0
POINT
  8
寸法
 62
     0
 10
-128.742993
 20
-22.536362
  0
POINT
  8
寸法
 62
     0
 10
71.257007
 20
-22.536362
  0
TEXT
  7
TextStyle03
  8
寸法
  6
CONTINUOUS
 62
     0
 10
-40.46875
 20
-22.175
  1
呼称寸法　6000
 40
3.0
 72
     5
 11
-17.03125
 21
-22.175
  0
ENDBLK
  0
BLOCK
  2
*DIM_0003
 70
    65
 10
0.0
 20
0.0
  0
LINE
  8
寸法
  6
BYBLOCK
 62
     0
 10
-112.076325
 20
9.76892
 11
-112.076325
 21
4.684867
  0
LINE
  8
寸法
  6
BYBLOCK
 62
     0
 10
-28.742993
 20
9.76892
 11
-28.742993
 21
4.684867
  0
LINE
  8
寸法
  6
BYBLOCK
 62
     0
 10
-112.076325
 20
4.684867
 11
-28.742993
 21
4.684867
  0
POINT
  8
寸法
 62
     0
 10
-112.076325
 20
4.684867
  0
POINT
  8
寸法
 62
     0
 10
-28.742993
 20
4.684867
  0
TEXT
  7
TextStyle03
  8
寸法
  6
CONTINUOUS
 62
     0
 10
-73.70625
 20
5.05
  1
2500
 40
3.0
 72
     5
 11
-67.14375
 21
5.05
  0
ENDBLK
  0
BLOCK
  2
*DIM_0004
 70
    65
 10
0.0
 20
0.0
  0
LINE
  8
寸法
  6
BYBLOCK
 62
     0
 10
54.59034
 20
9.76892
 11
54.59034
 21
4.684867
  0
LINE
  8
寸法
  6
BYBLOCK
 62
     0
 10
-28.742993
 20
4.684867
 11
54.59034
 21
4.684867
  0
POINT
  8
寸法
 62
     0
 10
54.59034
 20
4.684867
  0
TEXT
  7
TextStyle03
  8
寸法
  6
CONTINUOUS
 62
     0
 10
9.61875
 20
5.05
  1
2500
 40
3.0
 72
     5
 11
16.18125
 21
5.05
  0
ENDBLK
  0
BLOCK
  2
*DIM_0005
 70
    65
 10
0.0
 20
0.0
  0
LINE
  8
寸法
  6
BYBLOCK
 62
     0
 10
72.257007
 20
56.732382
 11
81.98129
 21
56.732382
  0
LINE
  8
寸法
  6
BYBLOCK
 62
     0
 10
74.887138
 20
53.032382
 11
81.98129
 21
53.032382
  0
LINE
  8
寸法
  6
BYBLOCK
 62
     0
 10
81.98129
 20
56.732382
 11
81.98129
 21
53.032382
  0
POINT
  8
寸法
 62
     0
 10
81.98129
 20
56.732382
  0
POINT
  8
寸法
 62
     0
 10
81.98129
 20
53.032382
  0
TEXT
  7
TextStyle03
  8
寸法
  6
CONTINUOUS
 62
     0
 10
81.65
 20
57.7125
  1
111
 40
3.0
 50
90.0
 72
     5
 11
81.65
 21
62.5875
  0
ENDBLK
  0
BLOCK
  2
*DIM_0006
 70
    65
 10
0.0
 20
0.0
  0
LINE
  8
寸法
  6
BYBLOCK
 62
     0
 10
72.257007
 20
13.399048
 11
81.98129
 21
13.399045
  0
LINE
  8
寸法
  6
BYBLOCK
 62
     0
 10
74.887138
 20
17.099048
 11
81.98129
 21
17.099045
  0
LINE
  8
寸法
  6
BYBLOCK
 62
     0
 10
81.98129
 20
13.399045
 11
81.98129
 21
17.099045
  0
POINT
  8
寸法
 62
     0
 10
81.98129
 20
13.399045
  0
POINT
  8
寸法
 62
     0
 10
81.98129
 20
17.099045
  0
TEXT
  7
TextStyle03
  8
寸法
  6
CONTINUOUS
 62
     0
 10
81.625
 20
7.5375
  1
111
 40
3.0
 50
90.0
 72
     5
 11
81.625
 21
12.4125
  0
ENDBLK
  0
BLOCK
  2
*GRP_0007
 70
    65
 10
0.0
 20
0.0
  0
LINE
  8
別途部材
  6
CONTINUOUS
 62
    96
 10
-130.409657
 20
-79.624597
 11
-130.809657
 21
-80.624597
  0
LINE
  8
別途部材
  6
CONTINUOUS
 62
    96
 10
-130.409657
 20
-79.624597
 11
-28.742993
 21
-79.624597
  0
LINE
  8
別途部材
  6
CONTINUOUS
 10
-130.809657
 20
-80.624597
 11
-28.742993
 21
-80.624597
  0
ARC
  8
別途部材
  6
CONTINUOUS
 10
-107.076324
 20
-93.910312
 40
25.952382
 50
90.0
 51
146.601512
  0
LINE
  8
別途部材
  6
CONTINUOUS
 10
-29.242993
 20
-66.95793
 11
-30.242993
 21
-67.95793
  0
LINE
  8
別途部材
  6
CONTINUOUS
 10
-31.242993
 20
-67.95793
 11
-32.242993
 21
-66.95793
  0
LINE
  8
別途部材
  6
CONTINUOUS
 10
-33.242993
 20
-66.95793
 11
-34.242993
 21
-67.95793
  0
LINE
  8
別途部材
  6
CONTINUOUS
 10
-32.242993
 20
-66.95793
 11
-33.242993
 21
-66.95793
  0
LINE
  8
別途部材
  6
CONTINUOUS
 10
-29.242993
 20
-66.95793
 11
-28.742993
 21
-66.95793
  0
LINE
  8
別途部材
  6
CONTINUOUS
 10
-35.242993
 20
-67.95793
 11
-36.242993
 21
-66.95793
  0
LINE
  8
別途部材
  6
CONTINUOUS
 10
-37.242993
 20
-66.95793
 11
-38.242993
 21
-67.95793
  0
LINE
  8
別途部材
  6
CONTINUOUS
 10
-36.242993
 20
-66.95793
 11
-37.242993
 21
-66.95793
  0
LINE
  8
別途部材
  6
CONTINUOUS
 10
-39.242993
 20
-67.95793
 11
-40.242993
 21
-66.95793
  0
LINE
  8
別途部材
  6
CONTINUOUS
 10
-41.242993
 20
-66.95793
 11
-42.242993
 21
-67.95793
  0
LINE
  8
別途部材
  6
CONTINUOUS
 10
-40.242993
 20
-66.95793
 11
-41.242993
 21
-66.95793
  0
LINE
  8
別途部材
  6
CONTINUOUS
 10
-43.242993
 20
-67.95793
 11
-44.242993
 21
-66.95793
  0
LINE
  8
別途部材
  6
CONTINUOUS
 10
-45.242993
 20
-66.95793
 11
-46.242993
 21
-67.95793
  0
LINE
  8
別途部材
  6
CONTINUOUS
 10
-44.242993
 20
-66.95793
 11
-45.242993
 21
-66.95793
  0
LINE
  8
別途部材
  6
CONTINUOUS
 10
-47.242993
 20
-67.95793
 11
-48.242993
 21
-66.95793
  0
LINE
  8
別途部材
  6
CONTINUOUS
 10
-49.242993
 20
-66.95793
 11
-50.242993
 21
-67.95793
  0
LINE
  8
別途部材
  6
CONTINUOUS
 10
-48.242993
 20
-66.95793
 11
-49.242993
 21
-66.95793
  0
LINE
  8
別途部材
  6
CONTINUOUS
 10
-51.242993
 20
-67.95793
 11
-52.242993
 21
-66.95793
  0
LINE
  8
別途部材
  6
CONTINUOUS
 10
-53.242993
 20
-66.95793
 11
-54.242993
 21
-67.95793
  0
LINE
  8
別途部材
  6
CONTINUOUS
 10
-52.242993
 20
-66.95793
 11
-53.242993
 21
-66.95793
  0
LINE
  8
別途部材
  6
CONTINUOUS
 10
-55.242993
 20
-67.95793
 11
-56.242993
 21
-66.95793
  0
LINE
  8
別途部材
  6
CONTINUOUS
 10
-57.242993
 20
-66.95793
 11
-58.242993
 21
-67.95793
  0
LINE
  8
別途部材
  6
CONTINUOUS
 10
-56.242993
 20
-66.95793
 11
-57.242993
 21
-66.95793
  0
LINE
  8
別途部材
  6
CONTINUOUS
 10
-59.242993
 20
-67.95793
 11
-60.242993
 21
-66.95793
  0
LINE
  8
別途部材
  6
CONTINUOUS
 10
-61.242993
 20
-66.95793
 11
-62.242993
 21
-67.95793
  0
LINE
  8
別途部材
  6
CONTINUOUS
 10
-60.242993
 20
-66.95793
 11
-61.242993
 21
-66.95793
  0
LINE
  8
別途部材
  6
CONTINUOUS
 10
-63.242993
 20
-67.95793
 11
-64.242993
 21
-66.95793
  0
LINE
  8
別途部材
  6
CONTINUOUS
 10
-65.242993
 20
-66.95793
 11
-66.242993
 21
-67.95793
  0
LINE
  8
別途部材
  6
CONTINUOUS
 10
-64.242993
 20
-66.95793
 11
-65.242993
 21
-66.95793
  0
LINE
  8
別途部材
  6
CONTINUOUS
 10
-67.242993
 20
-67.95793
 11
-68.242993
 21
-66.95793
  0
LINE
  8
別途部材
  6
CONTINUOUS
 10
-69.242993
 20
-66.95793
 11
-70.242993
 21
-67.95793
  0
LINE
  8
別途部材
  6
CONTINUOUS
 10
-68.242993
 20
-66.95793
 11
-69.242993
 21
-66.95793
  0
LINE
  8
別途部材
  6
CONTINUOUS
 10
-71.242993
 20
-67.95793
 11
-72.242993
 21
-66.95793
  0
LINE
  8
別途部材
  6
CONTINUOUS
 10
-73.242993
 20
-66.95793
 11
-74.242993
 21
-67.95793
  0
LINE
  8
別途部材
  6
CONTINUOUS
 10
-72.242993
 20
-66.95793
 11
-73.242993
 21
-66.95793
  0
LINE
  8
別途部材
  6
CONTINUOUS
 10
-70.242993
 20
-67.95793
 11
-71.242993
 21
-67.95793
  0
LINE
  8
別途部材
  6
CONTINUOUS
 10
-66.242993
 20
-67.95793
 11
-67.242993
 21
-67.95793
  0
LINE
  8
別途部材
  6
CONTINUOUS
 10
-62.242993
 20
-67.95793
 11
-63.242993
 21
-67.95793
  0
LINE
  8
別途部材
  6
CONTINUOUS
 10
-58.242993
 20
-67.95793
 11
-59.242993
 21
-67.95793
  0
LINE
  8
別途部材
  6
CONTINUOUS
 10
-54.242993
 20
-67.95793
 11
-55.242993
 21
-67.95793
  0
LINE
  8
別途部材
  6
CONTINUOUS
 10
-50.242993
 20
-67.95793
 11
-51.242993
 21
-67.95793
  0
LINE
  8
別途部材
  6
CONTINUOUS
 10
-46.242993
 20
-67.95793
 11
-47.242993
 21
-67.95793
  0
LINE
  8
別途部材
  6
CONTINUOUS
 10
-42.242993
 20
-67.95793
 11
-43.242993
 21
-67.95793
  0
LINE
  8
別途部材
  6
CONTINUOUS
 10
-38.242993
 20
-67.95793
 11
-39.242993
 21
-67.95793
  0
LINE
  8
別途部材
  6
CONTINUOUS
 10
-34.242993
 20
-67.95793
 11
-35.242993
 21
-67.95793
  0
LINE
  8
別途部材
  6
CONTINUOUS
 10
-31.242993
 20
-67.95793
 11
-30.242993
 21
-67.95793
  0
LINE
  8
別途部材
  6
CONTINUOUS
 10
-71.242993
 20
-67.95793
 11
-71.242993
 21
-79.624597
  0
LINE
  8
別途部材
  6
CONTINUOUS
 10
-70.242993
 20
-67.95793
 11
-70.242993
 21
-79.624597
  0
LINE
  8
別途部材
  6
CONTINUOUS
 10
-72.242993
 20
-66.95793
 11
-72.242993
 21
-79.624597
  0
LINE
  8
別途部材
  6
CONTINUOUS
 10
-74.242993
 20
-67.95793
 11
-74.242993
 21
-79.624597
  0
LINE
  8
別途部材
  6
CONTINUOUS
 10
-73.242993
 20
-66.95793
 11
-73.242993
 21
-79.624597
  0
LINE
  8
別途部材
  6
CONTINUOUS
 10
-63.242993
 20
-67.95793
 11
-63.242993
 21
-79.624597
  0
LINE
  8
別途部材
  6
CONTINUOUS
 10
-65.242993
 20
-66.95793
 11
-65.242993
 21
-79.624597
  0
LINE
  8
別途部材
  6
CONTINUOUS
 10
-66.242993
 20
-67.95793
 11
-66.242993
 21
-79.624597
  0
LINE
  8
別途部材
  6
CONTINUOUS
 10
-68.242993
 20
-66.95793
 11
-68.242993
 21
-79.624597
  0
LINE
  8
別途部材
  6
CONTINUOUS
 10
-69.242993
 20
-66.95793
 11
-69.242993
 21
-79.624597
  0
LINE
  8
別途部材
  6
CONTINUOUS
 10
-67.242993
 20
-67.95793
 11
-67.242993
 21
-79.624597
  0
LINE
  8
別途部材
  6
CONTINUOUS
 10
-64.242993
 20
-66.95793
 11
-64.242993
 21
-79.624597
  0
LINE
  8
別途部材
  6
CONTINUOUS
 10
-62.242993
 20
-67.95793
 11
-62.242993
 21
-79.624597
  0
LINE
  8
別途部材
  6
CONTINUOUS
 10
-61.242993
 20
-66.95793
 11
-61.242993
 21
-79.624597
  0
LINE
  8
別途部材
  6
CONTINUOUS
 10
-51.242993
 20
-67.95793
 11
-51.242993
 21
-79.624597
  0
LINE
  8
別途部材
  6
CONTINUOUS
 10
-45.242993
 20
-66.95793
 11
-45.242993
 21
-79.624597
  0
LINE
  8
別途部材
  6
CONTINUOUS
 10
-44.242993
 20
-66.95793
 11
-44.242993
 21
-79.624597
  0
LINE
  8
別途部材
  6
CONTINUOUS
 10
-34.242993
 20
-67.95793
 11
-34.242993
 21
-79.624597
  0
LINE
  8
別途部材
  6
CONTINUOUS
 10
-29.242993
 20
-66.95793
 11
-29.242993
 21
-79.624597
  0
LINE
  8
別途部材
  6
CONTINUOUS
 10
-30.242993
 20
-67.95793
 11
-30.242993
 21
-79.624597
  0
LINE
  8
別途部材
  6
CONTINUOUS
 10
-32.242993
 20
-66.95793
 11
-32.242993
 21
-79.624597
  0
LINE
  8
別途部材
  6
CONTINUOUS
 10
-33.242993
 20
-66.95793
 11
-33.242993
 21
-79.624597
  0
LINE
  8
別途部材
  6
CONTINUOUS
 10
-35.242993
 20
-67.95793
 11
-35.242993
 21
-79.624597
  0
LINE
  8
別途部材
  6
CONTINUOUS
 10
-46.242993
 20
-67.95793
 11
-46.242993
 21
-79.624597
  0
LINE
  8
別途部材
  6
CONTINUOUS
 10
-47.242993
 20
-67.95793
 11
-47.242993
 21
-79.624597
  0
LINE
  8
別途部材
  6
CONTINUOUS
 10
-52.242993
 20
-66.95793
 11
-52.242993
 21
-79.624597
  0
LINE
  8
別途部材
  6
CONTINUOUS
 10
-54.242993
 20
-67.95793
 11
-54.242993
 21
-79.624597
  0
LINE
  8
別途部材
  6
CONTINUOUS
 10
-57.242993
 20
-66.95793
 11
-57.242993
 21
-79.624597
  0
LINE
  8
別途部材
  6
CONTINUOUS
 10
-60.242993
 20
-66.95793
 11
-60.242993
 21
-79.624597
  0
LINE
  8
別途部材
  6
CONTINUOUS
 10
-53.242993
 20
-66.95793
 11
-53.242993
 21
-79.624597
  0
LINE
  8
別途部材
  6
CONTINUOUS
 10
-55.242993
 20
-67.95793
 11
-55.242993
 21
-79.624597
  0
LINE
  8
別途部材
  6
CONTINUOUS
 10
-58.242993
 20
-67.95793
 11
-58.242993
 21
-79.624597
  0
LINE
  8
別途部材
  6
CONTINUOUS
 10
-59.242993
 20
-67.95793
 11
-59.242993
 21
-79.624597
  0
LINE
  8
別途部材
  6
CONTINUOUS
 10
-49.242993
 20
-66.95793
 11
-49.242993
 21
-79.624597
  0
LINE
  8
別途部材
  6
CONTINUOUS
 10
-48.242993
 20
-66.95793
 11
-48.242993
 21
-79.624597
  0
LINE
  8
別途部材
  6
CONTINUOUS
 10
-50.242993
 20
-67.95793
 11
-50.242993
 21
-79.624597
  0
LINE
  8
別途部材
  6
CONTINUOUS
 10
-56.242993
 20
-66.95793
 11
-56.242993
 21
-79.624597
  0
LINE
  8
別途部材
  6
CONTINUOUS
 10
-42.242993
 20
-67.95793
 11
-42.242993
 21
-79.624597
  0
LINE
  8
別途部材
  6
CONTINUOUS
 10
-43.242993
 20
-67.95793
 11
-43.242993
 21
-79.624597
  0
LINE
  8
別途部材
  6
CONTINUOUS
 10
-41.242993
 20
-66.95793
 11
-41.242993
 21
-79.624597
  0
LINE
  8
別途部材
  6
CONTINUOUS
 10
-39.242993
 20
-67.95793
 11
-39.242993
 21
-79.624597
  0
LINE
  8
別途部材
  6
CONTINUOUS
 10
-40.242993
 20
-66.95793
 11
-40.242993
 21
-79.624597
  0
LINE
  8
別途部材
  6
CONTINUOUS
 10
-38.242993
 20
-67.95793
 11
-38.242993
 21
-79.624597
  0
LINE
  8
別途部材
  6
CONTINUOUS
 10
-36.242993
 20
-66.95793
 11
-36.242993
 21
-79.624597
  0
LINE
  8
別途部材
  6
CONTINUOUS
 10
-37.242993
 20
-66.95793
 11
-37.242993
 21
-79.624597
  0
LINE
  8
別途部材
  6
CONTINUOUS
 10
-31.242993
 20
-67.95793
 11
-31.242993
 21
-79.624597
  0
LINE
  8
別途部材
  6
CONTINUOUS
 10
-75.242993
 20
-67.95793
 11
-76.242993
 21
-66.95793
  0
LINE
  8
別途部材
  6
CONTINUOUS
 10
-77.242993
 20
-66.95793
 11
-78.242993
 21
-67.95793
  0
LINE
  8
別途部材
  6
CONTINUOUS
 10
-76.242993
 20
-66.95793
 11
-77.242993
 21
-66.95793
  0
LINE
  8
別途部材
  6
CONTINUOUS
 10
-79.242993
 20
-67.95793
 11
-80.242993
 21
-66.95793
  0
LINE
  8
別途部材
  6
CONTINUOUS
 10
-81.242993
 20
-66.95793
 11
-82.242993
 21
-67.95793
  0
LINE
  8
別途部材
  6
CONTINUOUS
 10
-80.242993
 20
-66.95793
 11
-81.242993
 21
-66.95793
  0
LINE
  8
別途部材
  6
CONTINUOUS
 10
-83.242993
 20
-67.95793
 11
-84.242993
 21
-66.95793
  0
LINE
  8
別途部材
  6
CONTINUOUS
 10
-85.242993
 20
-66.95793
 11
-86.242993
 21
-67.95793
  0
LINE
  8
別途部材
  6
CONTINUOUS
 10
-84.242993
 20
-66.95793
 11
-85.242993
 21
-66.95793
  0
LINE
  8
別途部材
  6
CONTINUOUS
 10
-87.242993
 20
-67.95793
 11
-88.242993
 21
-66.95793
  0
LINE
  8
別途部材
  6
CONTINUOUS
 10
-89.242993
 20
-66.95793
 11
-90.242993
 21
-67.95793
  0
LINE
  8
別途部材
  6
CONTINUOUS
 10
-88.242993
 20
-66.95793
 11
-89.242993
 21
-66.95793
  0
LINE
  8
別途部材
  6
CONTINUOUS
 10
-91.242993
 20
-67.95793
 11
-92.242993
 21
-66.95793
  0
LINE
  8
別途部材
  6
CONTINUOUS
 10
-93.242993
 20
-66.95793
 11
-94.242993
 21
-67.95793
  0
LINE
  8
別途部材
  6
CONTINUOUS
 10
-92.242993
 20
-66.95793
 11
-93.242993
 21
-66.95793
  0
LINE
  8
別途部材
  6
CONTINUOUS
 10
-95.242993
 20
-67.95793
 11
-96.242993
 21
-66.95793
  0
LINE
  8
別途部材
  6
CONTINUOUS
 10
-97.242993
 20
-66.95793
 11
-98.242993
 21
-67.95793
  0
LINE
  8
別途部材
  6
CONTINUOUS
 10
-96.242993
 20
-66.95793
 11
-97.242993
 21
-66.95793
  0
LINE
  8
別途部材
  6
CONTINUOUS
 10
-99.242993
 20
-67.95793
 11
-100.242993
 21
-66.95793
  0
LINE
  8
別途部材
  6
CONTINUOUS
 10
-101.242993
 20
-66.95793
 11
-102.242993
 21
-67.95793
  0
LINE
  8
別途部材
  6
CONTINUOUS
 10
-100.242993
 20
-66.95793
 11
-101.242993
 21
-66.95793
  0
LINE
  8
別途部材
  6
CONTINUOUS
 10
-103.242993
 20
-67.95793
 11
-104.242993
 21
-66.95793
  0
LINE
  8
別途部材
  6
CONTINUOUS
 10
-105.242993
 20
-66.95793
 11
-106.242993
 21
-67.95793
  0
LINE
  8
別途部材
  6
CONTINUOUS
 10
-104.242993
 20
-66.95793
 11
-105.242993
 21
-66.95793
  0
LINE
  8
別途部材
  6
CONTINUOUS
 10
-106.242993
 20
-67.95793
 11
-107.242993
 21
-67.95793
  0
LINE
  8
別途部材
  6
CONTINUOUS
 10
-102.242993
 20
-67.95793
 11
-103.242993
 21
-67.95793
  0
LINE
  8
別途部材
  6
CONTINUOUS
 10
-98.242993
 20
-67.95793
 11
-99.242993
 21
-67.95793
  0
LINE
  8
別途部材
  6
CONTINUOUS
 10
-94.242993
 20
-67.95793
 11
-95.242993
 21
-67.95793
  0
LINE
  8
別途部材
  6
CONTINUOUS
 10
-90.242993
 20
-67.95793
 11
-91.242993
 21
-67.95793
  0
LINE
  8
別途部材
  6
CONTINUOUS
 10
-86.242993
 20
-67.95793
 11
-87.242993
 21
-67.95793
  0
LINE
  8
別途部材
  6
CONTINUOUS
 10
-82.242993
 20
-67.95793
 11
-83.242993
 21
-67.95793
  0
LINE
  8
別途部材
  6
CONTINUOUS
 10
-78.242993
 20
-67.95793
 11
-79.242993
 21
-67.95793
  0
LINE
  8
別途部材
  6
CONTINUOUS
 10
-74.242993
 20
-67.95793
 11
-75.242993
 21
-67.95793
  0
LINE
  8
別途部材
  6
CONTINUOUS
 10
-106.242993
 20
-67.95793
 11
-106.242993
 21
-79.624597
  0
LINE
  8
別途部材
  6
CONTINUOUS
 10
-99.242993
 20
-67.95793
 11
-99.242993
 21
-79.624597
  0
LINE
  8
別途部材
  6
CONTINUOUS
 10
-101.242993
 20
-66.95793
 11
-101.242993
 21
-79.624597
  0
LINE
  8
別途部材
  6
CONTINUOUS
 10
-102.242993
 20
-67.95793
 11
-102.242993
 21
-79.624597
  0
LINE
  8
別途部材
  6
CONTINUOUS
 10
-104.242993
 20
-66.95793
 11
-104.242993
 21
-79.624597
  0
LINE
  8
別途部材
  6
CONTINUOUS
 10
-105.242993
 20
-66.95793
 11
-105.242993
 21
-79.624597
  0
LINE
  8
別途部材
  6
CONTINUOUS
 10
-103.242993
 20
-67.95793
 11
-103.242993
 21
-79.624597
  0
LINE
  8
別途部材
  6
CONTINUOUS
 10
-100.242993
 20
-66.95793
 11
-100.242993
 21
-79.624597
  0
LINE
  8
別途部材
  6
CONTINUOUS
 10
-98.242993
 20
-67.95793
 11
-98.242993
 21
-79.624597
  0
LINE
  8
別途部材
  6
CONTINUOUS
 10
-97.242993
 20
-66.95793
 11
-97.242993
 21
-79.624597
  0
LINE
  8
別途部材
  6
CONTINUOUS
 10
-87.242993
 20
-67.95793
 11
-87.242993
 21
-79.624597
  0
LINE
  8
別途部材
  6
CONTINUOUS
 10
-81.242993
 20
-66.95793
 11
-81.242993
 21
-79.624597
  0
LINE
  8
別途部材
  6
CONTINUOUS
 10
-80.242993
 20
-66.95793
 11
-80.242993
 21
-79.624597
  0
LINE
  8
別途部材
  6
CONTINUOUS
 10
-82.242993
 20
-67.95793
 11
-82.242993
 21
-79.624597
  0
LINE
  8
別途部材
  6
CONTINUOUS
 10
-83.242993
 20
-67.95793
 11
-83.242993
 21
-79.624597
  0
LINE
  8
別途部材
  6
CONTINUOUS
 10
-88.242993
 20
-66.95793
 11
-88.242993
 21
-79.624597
  0
LINE
  8
別途部材
  6
CONTINUOUS
 10
-90.242993
 20
-67.95793
 11
-90.242993
 21
-79.624597
  0
LINE
  8
別途部材
  6
CONTINUOUS
 10
-93.242993
 20
-66.95793
 11
-93.242993
 21
-79.624597
  0
LINE
  8
別途部材
  6
CONTINUOUS
 10
-96.242993
 20
-66.95793
 11
-96.242993
 21
-79.624597
  0
LINE
  8
別途部材
  6
CONTINUOUS
 10
-89.242993
 20
-66.95793
 11
-89.242993
 21
-79.624597
  0
LINE
  8
別途部材
  6
CONTINUOUS
 10
-91.242993
 20
-67.95793
 11
-91.242993
 21
-79.624597
  0
LINE
  8
別途部材
  6
CONTINUOUS
 10
-94.242993
 20
-67.95793
 11
-94.242993
 21
-79.624597
  0
LINE
  8
別途部材
  6
CONTINUOUS
 10
-95.242993
 20
-67.95793
 11
-95.242993
 21
-79.624597
  0
LINE
  8
別途部材
  6
CONTINUOUS
 10
-85.242993
 20
-66.95793
 11
-85.242993
 21
-79.624597
  0
LINE
  8
別途部材
  6
CONTINUOUS
 10
-84.242993
 20
-66.95793
 11
-84.242993
 21
-79.624597
  0
LINE
  8
別途部材
  6
CONTINUOUS
 10
-86.242993
 20
-67.95793
 11
-86.242993
 21
-79.624597
  0
LINE
  8
別途部材
  6
CONTINUOUS
 10
-92.242993
 20
-66.95793
 11
-92.242993
 21
-79.624597
  0
LINE
  8
別途部材
  6
CONTINUOUS
 10
-78.242993
 20
-67.95793
 11
-78.242993
 21
-79.624597
  0
LINE
  8
別途部材
  6
CONTINUOUS
 10
-79.242993
 20
-67.95793
 11
-79.242993
 21
-79.624597
  0
LINE
  8
別途部材
  6
CONTINUOUS
 10
-77.242993
 20
-66.95793
 11
-77.242993
 21
-79.624597
  0
LINE
  8
別途部材
  6
CONTINUOUS
 10
-75.242993
 20
-67.95793
 11
-75.242993
 21
-79.624597
  0
LINE
  8
別途部材
  6
CONTINUOUS
 10
-76.242993
 20
-66.95793
 11
-76.242993
 21
-79.624597
  0
LINE
  8
別途部材
  6
CONTINUOUS
 62
    96
 10
72.923675
 20
-79.624597
 11
73.323675
 21
-80.624597
  0
LINE
  8
別途部材
  6
CONTINUOUS
 62
    96
 10
72.923675
 20
-79.624597
 11
-28.742993
 21
-79.624597
  0
LINE
  8
別途部材
  6
CONTINUOUS
 10
73.323675
 20
-80.624597
 11
-28.742993
 21
-80.624597
  0
ARC
  8
別途部材
  6
CONTINUOUS
 10
49.590341
 20
-93.910312
 40
25.952382
 50
33.398488
 51
90.0
  0
LINE
  8
別途部材
  6
CONTINUOUS
 10
-28.242993
 20
-66.95793
 11
-27.242993
 21
-67.95793
  0
LINE
  8
別途部材
  6
CONTINUOUS
 10
-26.242993
 20
-67.95793
 11
-25.242993
 21
-66.95793
  0
LINE
  8
別途部材
  6
CONTINUOUS
 10
-24.242993
 20
-66.95793
 11
-23.242993
 21
-67.95793
  0
LINE
  8
別途部材
  6
CONTINUOUS
 10
-25.242993
 20
-66.95793
 11
-24.242993
 21
-66.95793
  0
LINE
  8
別途部材
  6
CONTINUOUS
 10
-28.242993
 20
-66.95793
 11
-28.742993
 21
-66.95793
  0
LINE
  8
別途部材
  6
CONTINUOUS
 10
-22.242993
 20
-67.95793
 11
-21.242993
 21
-66.95793
  0
LINE
  8
別途部材
  6
CONTINUOUS
 10
-20.242993
 20
-66.95793
 11
-19.242993
 21
-67.95793
  0
LINE
  8
別途部材
  6
CONTINUOUS
 10
-21.242993
 20
-66.95793
 11
-20.242993
 21
-66.95793
  0
LINE
  8
別途部材
  6
CONTINUOUS
 10
-18.242993
 20
-67.95793
 11
-17.242993
 21
-66.95793
  0
LINE
  8
別途部材
  6
CONTINUOUS
 10
-16.242993
 20
-66.95793
 11
-15.242993
 21
-67.95793
  0
LINE
  8
別途部材
  6
CONTINUOUS
 10
-17.242993
 20
-66.95793
 11
-16.242993
 21
-66.95793
  0
LINE
  8
別途部材
  6
CONTINUOUS
 10
-14.242993
 20
-67.95793
 11
-13.242993
 21
-66.95793
  0
LINE
  8
別途部材
  6
CONTINUOUS
 10
-12.242993
 20
-66.95793
 11
-11.242993
 21
-67.95793
  0
LINE
  8
別途部材
  6
CONTINUOUS
 10
-13.242993
 20
-66.95793
 11
-12.242993
 21
-66.95793
  0
LINE
  8
別途部材
  6
CONTINUOUS
 10
-10.242993
 20
-67.95793
 11
-9.242993
 21
-66.95793
  0
LINE
  8
別途部材
  6
CONTINUOUS
 10
-8.242993
 20
-66.95793
 11
-7.242993
 21
-67.95793
  0
LINE
  8
別途部材
  6
CONTINUOUS
 10
-9.242993
 20
-66.95793
 11
-8.242993
 21
-66.95793
  0
LINE
  8
別途部材
  6
CONTINUOUS
 10
-6.242993
 20
-67.95793
 11
-5.242993
 21
-66.95793
  0
LINE
  8
別途部材
  6
CONTINUOUS
 10
-4.242993
 20
-66.95793
 11
-3.242993
 21
-67.95793
  0
LINE
  8
別途部材
  6
CONTINUOUS
 10
-5.242993
 20
-66.95793
 11
-4.242993
 21
-66.95793
  0
LINE
  8
別途部材
  6
CONTINUOUS
 10
-2.242993
 20
-67.95793
 11
-1.242993
 21
-66.95793
  0
LINE
  8
別途部材
  6
CONTINUOUS
 10
-0.242993
 20
-66.95793
 11
0.757007
 21
-67.95793
  0
LINE
  8
別途部材
  6
CONTINUOUS
 10
-1.242993
 20
-66.95793
 11
-0.242993
 21
-66.95793
  0
LINE
  8
別途部材
  6
CONTINUOUS
 10
1.757007
 20
-67.95793
 11
2.757007
 21
-66.95793
  0
LINE
  8
別途部材
  6
CONTINUOUS
 10
3.757007
 20
-66.95793
 11
4.757007
 21
-67.95793
  0
LINE
  8
別途部材
  6
CONTINUOUS
 10
2.757007
 20
-66.95793
 11
3.757007
 21
-66.95793
  0
LINE
  8
別途部材
  6
CONTINUOUS
 10
5.757007
 20
-67.95793
 11
6.757007
 21
-66.95793
  0
LINE
  8
別途部材
  6
CONTINUOUS
 10
7.757007
 20
-66.95793
 11
8.757007
 21
-67.95793
  0
LINE
  8
別途部材
  6
CONTINUOUS
 10
6.757007
 20
-66.95793
 11
7.757007
 21
-66.95793
  0
LINE
  8
別途部材
  6
CONTINUOUS
 10
9.757007
 20
-67.95793
 11
10.757007
 21
-66.95793
  0
LINE
  8
別途部材
  6
CONTINUOUS
 10
11.757007
 20
-66.95793
 11
12.757007
 21
-67.95793
  0
LINE
  8
別途部材
  6
CONTINUOUS
 10
10.757007
 20
-66.95793
 11
11.757007
 21
-66.95793
  0
LINE
  8
別途部材
  6
CONTINUOUS
 10
13.757007
 20
-67.95793
 11
14.757007
 21
-66.95793
  0
LINE
  8
別途部材
  6
CONTINUOUS
 10
15.757007
 20
-66.95793
 11
16.757007
 21
-67.95793
  0
LINE
  8
別途部材
  6
CONTINUOUS
 10
14.757007
 20
-66.95793
 11
15.757007
 21
-66.95793
  0
LINE
  8
別途部材
  6
CONTINUOUS
 10
12.757007
 20
-67.95793
 11
13.757007
 21
-67.95793
  0
LINE
  8
別途部材
  6
CONTINUOUS
 10
8.757007
 20
-67.95793
 11
9.757007
 21
-67.95793
  0
LINE
  8
別途部材
  6
CONTINUOUS
 10
4.757007
 20
-67.95793
 11
5.757007
 21
-67.95793
  0
LINE
  8
別途部材
  6
CONTINUOUS
 10
0.757007
 20
-67.95793
 11
1.757007
 21
-67.95793
  0
LINE
  8
別途部材
  6
CONTINUOUS
 10
-3.242993
 20
-67.95793
 11
-2.242993
 21
-67.95793
  0
LINE
  8
別途部材
  6
CONTINUOUS
 10
-7.242993
 20
-67.95793
 11
-6.242993
 21
-67.95793
  0
LINE
  8
別途部材
  6
CONTINUOUS
 10
-11.242993
 20
-67.95793
 11
-10.242993
 21
-67.95793
  0
LINE
  8
別途部材
  6
CONTINUOUS
 10
-15.242993
 20
-67.95793
 11
-14.242993
 21
-67.95793
  0
LINE
  8
別途部材
  6
CONTINUOUS
 10
-19.242993
 20
-67.95793
 11
-18.242993
 21
-67.95793
  0
LINE
  8
別途部材
  6
CONTINUOUS
 10
-23.242993
 20
-67.95793
 11
-22.242993
 21
-67.95793
  0
LINE
  8
別途部材
  6
CONTINUOUS
 10
-26.242993
 20
-67.95793
 11
-27.242993
 21
-67.95793
  0
LINE
  8
別途部材
  6
CONTINUOUS
 10
13.757007
 20
-67.95793
 11
13.757007
 21
-79.624597
  0
LINE
  8
別途部材
  6
CONTINUOUS
 10
12.757007
 20
-67.95793
 11
12.757007
 21
-79.624597
  0
LINE
  8
別途部材
  6
CONTINUOUS
 10
14.757007
 20
-66.95793
 11
14.757007
 21
-79.624597
  0
LINE
  8
別途部材
  6
CONTINUOUS
 10
16.757007
 20
-67.95793
 11
16.757007
 21
-79.624597
  0
LINE
  8
別途部材
  6
CONTINUOUS
 10
15.757007
 20
-66.95793
 11
15.757007
 21
-79.624597
  0
LINE
  8
別途部材
  6
CONTINUOUS
 10
5.757007
 20
-67.95793
 11
5.757007
 21
-79.624597
  0
LINE
  8
別途部材
  6
CONTINUOUS
 10
7.757007
 20
-66.95793
 11
7.757007
 21
-79.624597
  0
LINE
  8
別途部材
  6
CONTINUOUS
 10
8.757007
 20
-67.95793
 11
8.757007
 21
-79.624597
  0
LINE
  8
別途部材
  6
CONTINUOUS
 10
10.757007
 20
-66.95793
 11
10.757007
 21
-79.624597
  0
LINE
  8
別途部材
  6
CONTINUOUS
 10
11.757007
 20
-66.95793
 11
11.757007
 21
-79.624597
  0
LINE
  8
別途部材
  6
CONTINUOUS
 10
9.757007
 20
-67.95793
 11
9.757007
 21
-79.624597
  0
LINE
  8
別途部材
  6
CONTINUOUS
 10
6.757007
 20
-66.95793
 11
6.757007
 21
-79.624597
  0
LINE
  8
別途部材
  6
CONTINUOUS
 10
4.757007
 20
-67.95793
 11
4.757007
 21
-79.624597
  0
LINE
  8
別途部材
  6
CONTINUOUS
 10
3.757007
 20
-66.95793
 11
3.757007
 21
-79.624597
  0
LINE
  8
別途部材
  6
CONTINUOUS
 10
-6.242993
 20
-67.95793
 11
-6.242993
 21
-79.624597
  0
LINE
  8
別途部材
  6
CONTINUOUS
 10
-12.242993
 20
-66.95793
 11
-12.242993
 21
-79.624597
  0
LINE
  8
別途部材
  6
CONTINUOUS
 10
-13.242993
 20
-66.95793
 11
-13.242993
 21
-79.624597
  0
LINE
  8
別途部材
  6
CONTINUOUS
 10
-23.242993
 20
-67.95793
 11
-23.242993
 21
-79.624597
  0
LINE
  8
別途部材
  6
CONTINUOUS
 10
-28.242993
 20
-66.95793
 11
-28.242993
 21
-79.624597
  0
LINE
  8
別途部材
  6
CONTINUOUS
 10
-27.242993
 20
-67.95793
 11
-27.242993
 21
-79.624597
  0
LINE
  8
別途部材
  6
CONTINUOUS
 10
-25.242993
 20
-66.95793
 11
-25.242993
 21
-79.624597
  0
LINE
  8
別途部材
  6
CONTINUOUS
 10
-24.242993
 20
-66.95793
 11
-24.242993
 21
-79.624597
  0
LINE
  8
別途部材
  6
CONTINUOUS
 10
-22.242993
 20
-67.95793
 11
-22.242993
 21
-79.624597
  0
LINE
  8
別途部材
  6
CONTINUOUS
 10
-11.242993
 20
-67.95793
 11
-11.242993
 21
-79.624597
  0
LINE
  8
別途部材
  6
CONTINUOUS
 10
-10.242993
 20
-67.95793
 11
-10.242993
 21
-79.624597
  0
LINE
  8
別途部材
  6
CONTINUOUS
 10
-5.242993
 20
-66.95793
 11
-5.242993
 21
-79.624597
  0
LINE
  8
別途部材
  6
CONTINUOUS
 10
-3.242993
 20
-67.95793
 11
-3.242993
 21
-79.624597
  0
LINE
  8
別途部材
  6
CONTINUOUS
 10
-0.242993
 20
-66.95793
 11
-0.242993
 21
-79.624597
  0
LINE
  8
別途部材
  6
CONTINUOUS
 10
2.757007
 20
-66.95793
 11
2.757007
 21
-79.624597
  0
LINE
  8
別途部材
  6
CONTINUOUS
 10
-4.242993
 20
-66.95793
 11
-4.242993
 21
-79.624597
  0
LINE
  8
別途部材
  6
CONTINUOUS
 10
-2.242993
 20
-67.95793
 11
-2.242993
 21
-79.624597
  0
LINE
  8
別途部材
  6
CONTINUOUS
 10
0.757007
 20
-67.95793
 11
0.757007
 21
-79.624597
  0
LINE
  8
別途部材
  6
CONTINUOUS
 10
1.757007
 20
-67.95793
 11
1.757007
 21
-79.624597
  0
LINE
  8
別途部材
  6
CONTINUOUS
 10
-8.242993
 20
-66.95793
 11
-8.242993
 21
-79.624597
  0
LINE
  8
別途部材
  6
CONTINUOUS
 10
-9.242993
 20
-66.95793
 11
-9.242993
 21
-79.624597
  0
LINE
  8
別途部材
  6
CONTINUOUS
 10
-7.242993
 20
-67.95793
 11
-7.242993
 21
-79.624597
  0
LINE
  8
別途部材
  6
CONTINUOUS
 10
-1.242993
 20
-66.95793
 11
-1.242993
 21
-79.624597
  0
LINE
  8
別途部材
  6
CONTINUOUS
 10
-15.242993
 20
-67.95793
 11
-15.242993
 21
-79.624597
  0
LINE
  8
別途部材
  6
CONTINUOUS
 10
-14.242993
 20
-67.95793
 11
-14.242993
 21
-79.624597
  0
LINE
  8
別途部材
  6
CONTINUOUS
 10
-16.242993
 20
-66.95793
 11
-16.242993
 21
-79.624597
  0
LINE
  8
別途部材
  6
CONTINUOUS
 10
-18.242993
 20
-67.95793
 11
-18.242993
 21
-79.624597
  0
LINE
  8
別途部材
  6
CONTINUOUS
 10
-17.242993
 20
-66.95793
 11
-17.242993
 21
-79.624597
  0
LINE
  8
別途部材
  6
CONTINUOUS
 10
-19.242993
 20
-67.95793
 11
-19.242993
 21
-79.624597
  0
LINE
  8
別途部材
  6
CONTINUOUS
 10
-21.242993
 20
-66.95793
 11
-21.242993
 21
-79.624597
  0
LINE
  8
別途部材
  6
CONTINUOUS
 10
-20.242993
 20
-66.95793
 11
-20.242993
 21
-79.624597
  0
LINE
  8
別途部材
  6
CONTINUOUS
 10
-26.242993
 20
-67.95793
 11
-26.242993
 21
-79.624597
  0
LINE
  8
別途部材
  6
CONTINUOUS
 10
17.757007
 20
-67.95793
 11
18.757007
 21
-66.95793
  0
LINE
  8
別途部材
  6
CONTINUOUS
 10
19.757007
 20
-66.95793
 11
20.757007
 21
-67.95793
  0
LINE
  8
別途部材
  6
CONTINUOUS
 10
18.757007
 20
-66.95793
 11
19.757007
 21
-66.95793
  0
LINE
  8
別途部材
  6
CONTINUOUS
 10
21.757007
 20
-67.95793
 11
22.757007
 21
-66.95793
  0
LINE
  8
別途部材
  6
CONTINUOUS
 10
23.757007
 20
-66.95793
 11
24.757007
 21
-67.95793
  0
LINE
  8
別途部材
  6
CONTINUOUS
 10
22.757007
 20
-66.95793
 11
23.757007
 21
-66.95793
  0
LINE
  8
別途部材
  6
CONTINUOUS
 10
25.757007
 20
-67.95793
 11
26.757007
 21
-66.95793
  0
LINE
  8
別途部材
  6
CONTINUOUS
 10
27.757007
 20
-66.95793
 11
28.757007
 21
-67.95793
  0
LINE
  8
別途部材
  6
CONTINUOUS
 10
26.757007
 20
-66.95793
 11
27.757007
 21
-66.95793
  0
LINE
  8
別途部材
  6
CONTINUOUS
 10
29.757007
 20
-67.95793
 11
30.757007
 21
-66.95793
  0
LINE
  8
別途部材
  6
CONTINUOUS
 10
31.757007
 20
-66.95793
 11
32.757007
 21
-67.95793
  0
LINE
  8
別途部材
  6
CONTINUOUS
 10
30.757007
 20
-66.95793
 11
31.757007
 21
-66.95793
  0
LINE
  8
別途部材
  6
CONTINUOUS
 10
33.757007
 20
-67.95793
 11
34.757007
 21
-66.95793
  0
LINE
  8
別途部材
  6
CONTINUOUS
 10
35.757007
 20
-66.95793
 11
36.757007
 21
-67.95793
  0
LINE
  8
別途部材
  6
CONTINUOUS
 10
34.757007
 20
-66.95793
 11
35.757007
 21
-66.95793
  0
LINE
  8
別途部材
  6
CONTINUOUS
 10
37.757007
 20
-67.95793
 11
38.757007
 21
-66.95793
  0
LINE
  8
別途部材
  6
CONTINUOUS
 10
39.757007
 20
-66.95793
 11
40.757007
 21
-67.95793
  0
LINE
  8
別途部材
  6
CONTINUOUS
 10
38.757007
 20
-66.95793
 11
39.757007
 21
-66.95793
  0
LINE
  8
別途部材
  6
CONTINUOUS
 10
41.757007
 20
-67.95793
 11
42.757007
 21
-66.95793
  0
LINE
  8
別途部材
  6
CONTINUOUS
 10
43.757007
 20
-66.95793
 11
44.757007
 21
-67.95793
  0
LINE
  8
別途部材
  6
CONTINUOUS
 10
42.757007
 20
-66.95793
 11
43.757007
 21
-66.95793
  0
LINE
  8
別途部材
  6
CONTINUOUS
 10
45.757007
 20
-67.95793
 11
46.757007
 21
-66.95793
  0
LINE
  8
別途部材
  6
CONTINUOUS
 10
47.757007
 20
-66.95793
 11
48.757007
 21
-67.95793
  0
LINE
  8
別途部材
  6
CONTINUOUS
 10
46.757007
 20
-66.95793
 11
47.757007
 21
-66.95793
  0
LINE
  8
別途部材
  6
CONTINUOUS
 10
48.757007
 20
-67.95793
 11
49.757007
 21
-67.95793
  0
LINE
  8
別途部材
  6
CONTINUOUS
 10
44.757007
 20
-67.95793
 11
45.757007
 21
-67.95793
  0
LINE
  8
別途部材
  6
CONTINUOUS
 10
40.757007
 20
-67.95793
 11
41.757007
 21
-67.95793
  0
LINE
  8
別途部材
  6
CONTINUOUS
 10
36.757007
 20
-67.95793
 11
37.757007
 21
-67.95793
  0
LINE
  8
別途部材
  6
CONTINUOUS
 10
32.757007
 20
-67.95793
 11
33.757007
 21
-67.95793
  0
LINE
  8
別途部材
  6
CONTINUOUS
 10
28.757007
 20
-67.95793
 11
29.757007
 21
-67.95793
  0
LINE
  8
別途部材
  6
CONTINUOUS
 10
24.757007
 20
-67.95793
 11
25.757007
 21
-67.95793
  0
LINE
  8
別途部材
  6
CONTINUOUS
 10
20.757007
 20
-67.95793
 11
21.757007
 21
-67.95793
  0
LINE
  8
別途部材
  6
CONTINUOUS
 10
16.757007
 20
-67.95793
 11
17.757007
 21
-67.95793
  0
LINE
  8
別途部材
  6
CONTINUOUS
 10
48.757007
 20
-67.95793
 11
48.757007
 21
-79.624597
  0
LINE
  8
別途部材
  6
CONTINUOUS
 10
41.757007
 20
-67.95793
 11
41.757007
 21
-79.624597
  0
LINE
  8
別途部材
  6
CONTINUOUS
 10
43.757007
 20
-66.95793
 11
43.757007
 21
-79.624597
  0
LINE
  8
別途部材
  6
CONTINUOUS
 10
44.757007
 20
-67.95793
 11
44.757007
 21
-79.624597
  0
LINE
  8
別途部材
  6
CONTINUOUS
 10
46.757007
 20
-66.95793
 11
46.757007
 21
-79.624597
  0
LINE
  8
別途部材
  6
CONTINUOUS
 10
47.757007
 20
-66.95793
 11
47.757007
 21
-79.624597
  0
LINE
  8
別途部材
  6
CONTINUOUS
 10
45.757007
 20
-67.95793
 11
45.757007
 21
-79.624597
  0
LINE
  8
別途部材
  6
CONTINUOUS
 10
42.757007
 20
-66.95793
 11
42.757007
 21
-79.624597
  0
LINE
  8
別途部材
  6
CONTINUOUS
 10
40.757007
 20
-67.95793
 11
40.757007
 21
-79.624597
  0
LINE
  8
別途部材
  6
CONTINUOUS
 10
39.757007
 20
-66.95793
 11
39.757007
 21
-79.624597
  0
LINE
  8
別途部材
  6
CONTINUOUS
 10
29.757007
 20
-67.95793
 11
29.757007
 21
-79.624597
  0
LINE
  8
別途部材
  6
CONTINUOUS
 10
23.757007
 20
-66.95793
 11
23.757007
 21
-79.624597
  0
LINE
  8
別途部材
  6
CONTINUOUS
 10
22.757007
 20
-66.95793
 11
22.757007
 21
-79.624597
  0
LINE
  8
別途部材
  6
CONTINUOUS
 10
24.757007
 20
-67.95793
 11
24.757007
 21
-79.624597
  0
LINE
  8
別途部材
  6
CONTINUOUS
 10
25.757007
 20
-67.95793
 11
25.757007
 21
-79.624597
  0
LINE
  8
別途部材
  6
CONTINUOUS
 10
30.757007
 20
-66.95793
 11
30.757007
 21
-79.624597
  0
LINE
  8
別途部材
  6
CONTINUOUS
 10
32.757007
 20
-67.95793
 11
32.757007
 21
-79.624597
  0
LINE
  8
別途部材
  6
CONTINUOUS
 10
35.757007
 20
-66.95793
 11
35.757007
 21
-79.624597
  0
LINE
  8
別途部材
  6
CONTINUOUS
 10
38.757007
 20
-66.95793
 11
38.757007
 21
-79.624597
  0
LINE
  8
別途部材
  6
CONTINUOUS
 10
31.757007
 20
-66.95793
 11
31.757007
 21
-79.624597
  0
LINE
  8
別途部材
  6
CONTINUOUS
 10
33.757007
 20
-67.95793
 11
33.757007
 21
-79.624597
  0
LINE
  8
別途部材
  6
CONTINUOUS
 10
36.757007
 20
-67.95793
 11
36.757007
 21
-79.624597
  0
LINE
  8
別途部材
  6
CONTINUOUS
 10
37.757007
 20
-67.95793
 11
37.757007
 21
-79.624597
  0
LINE
  8
別途部材
  6
CONTINUOUS
 10
27.757007
 20
-66.95793
 11
27.757007
 21
-79.624597
  0
LINE
  8
別途部材
  6
CONTINUOUS
 10
26.757007
 20
-66.95793
 11
26.757007
 21
-79.624597
  0
LINE
  8
別途部材
  6
CONTINUOUS
 10
28.757007
 20
-67.95793
 11
28.757007
 21
-79.624597
  0
LINE
  8
別途部材
  6
CONTINUOUS
 10
34.757007
 20
-66.95793
 11
34.757007
 21
-79.624597
  0
LINE
  8
別途部材
  6
CONTINUOUS
 10
20.757007
 20
-67.95793
 11
20.757007
 21
-79.624597
  0
LINE
  8
別途部材
  6
CONTINUOUS
 10
21.757007
 20
-67.95793
 11
21.757007
 21
-79.624597
  0
LINE
  8
別途部材
  6
CONTINUOUS
 10
19.757007
 20
-66.95793
 11
19.757007
 21
-79.624597
  0
LINE
  8
別途部材
  6
CONTINUOUS
 10
17.757007
 20
-67.95793
 11
17.757007
 21
-79.624597
  0
LINE
  8
別途部材
  6
CONTINUOUS
 10
18.757007
 20
-66.95793
 11
18.757007
 21
-79.624597
  0
ENDBLK
  0
BLOCK
  2
*DIM_0008
 70
    65
 10
0.0
 20
0.0
  0
LINE
  8
寸法
  6
BYBLOCK
 62
     0
 10
46.757007
 20
-67.95793
 11
93.39925
 21
-67.95793
  0
LINE
  8
寸法
  6
BYBLOCK
 62
     0
 10
93.39925
 20
-79.624597
 11
93.39925
 21
-67.95793
  0
POINT
  8
寸法
 62
     0
 10
93.39925
 20
-67.95793
  0
TEXT
  7
TextStyle03
  8
寸法
  6
CONTINUOUS
 62
     0
 10
93.0
 20
-76.2375
  1
350
 40
3.0
 50
90.0
 72
     5
 11
93.0
 21
-71.3625
  0
ENDBLK
  0
BLOCK
  2
*GRP_0009
 70
    65
 10
0.0
 20
0.0
  0
LINE
  8
補助線
  6
BYBLOCK
 62
    64
 10
-108.68107
 20
-84.528995
 11
-108.804915
 21
-84.64053
  0
LINE
  8
補助線
  6
BYBLOCK
 62
    64
 10
-108.798762
 20
-84.522837
 11
-108.687225
 21
-84.646685
  0
LINE
  8
補助線
  6
BYBLOCK
 62
    64
 10
-97.965967
 20
-74.87897
 11
-98.089812
 21
-74.990505
  0
LINE
  8
補助線
  6
BYBLOCK
 62
    64
 10
-98.083658
 20
-74.872812
 11
-97.972123
 21
-74.99666
  0
LINE
  8
補助線
  6
BYBLOCK
 62
    64
 10
-87.37471
 20
-65.34048
 11
-87.250867
 21
-65.228945
  0
LINE
  8
補助線
  6
BYBLOCK
 62
    64
 10
-87.368558
 20
-65.222787
 11
-87.25702
 21
-65.346635
  0
LINE
  8
型材断面
  6
CONTINUOUS
 10
-109.54836
 20
-84.188608
 11
-109.585287
 21
-84.894747
  0
LINE
  8
型材断面
  6
CONTINUOUS
 10
-109.585287
 20
-84.894747
 11
-109.139148
 21
-85.39013
  0
LINE
  8
型材断面
  6
CONTINUOUS
 10
-109.139148
 20
-85.39013
 11
-108.433005
 21
-85.42706
  0
LINE
  8
型材断面
  6
CONTINUOUS
 10
-87.622772
 20
-64.442418
 11
-86.916633
 21
-64.479348
  0
LINE
  8
型材断面
  6
CONTINUOUS
 10
-86.916633
 20
-64.479348
 11
-86.47049
 21
-64.974727
  0
LINE
  8
型材断面
  6
CONTINUOUS
 10
-86.47049
 20
-64.974727
 11
-86.50742
 21
-65.680872
  0
LINE
  8
型材断面
  6
CONTINUOUS
 10
-108.433005
 20
-85.42706
 11
-86.50742
 21
-65.680872
  0
LINE
  8
型材断面
  6
CONTINUOUS
 10
-109.54836
 20
-84.188608
 11
-87.622772
 21
-64.442418
  0
CIRCLE
  8
ボルト／ビス
  6
CONTINUOUS
 10
-108.742993
 20
-84.584763
 40
0.250185
  0
CIRCLE
  8
ボルト／ビス
  6
CONTINUOUS
 10
-108.742993
 20
-84.584763
 40
0.301025
  0
LINE
  8
ボルト／ビス
  6
CONTINUOUS
 62
    64
 10
-108.987705
 20
-84.636808
 11
-108.91042
 21
-84.398858
  0
LINE
  8
ボルト／ビス
  6
CONTINUOUS
 62
    64
 10
-108.665708
 20
-84.346813
 11
-108.91042
 21
-84.398858
  0
LINE
  8
ボルト／ビス
  6
CONTINUOUS
 62
    64
 10
-108.820277
 20
-84.822713
 11
-108.575565
 21
-84.770668
  0
LINE
  8
ボルト／ビス
  6
CONTINUOUS
 62
    64
 10
-108.49828
 20
-84.532718
 11
-108.575565
 21
-84.770668
  0
LINE
  8
ボルト／ビス
  6
CONTINUOUS
 62
    64
 10
-108.987705
 20
-84.636808
 11
-108.820277
 21
-84.822713
  0
LINE
  8
ボルト／ビス
  6
CONTINUOUS
 62
    64
 10
-108.665708
 20
-84.346813
 11
-108.49828
 21
-84.532718
  0
CIRCLE
  8
ボルト／ビス
  6
CONTINUOUS
 62
    64
 10
-108.742993
 20
-84.584763
 40
0.216668
  0
CIRCLE
  8
ボルト／ビス
  6
CONTINUOUS
 10
-98.02789
 20
-74.93474
 40
0.250185
  0
CIRCLE
  8
ボルト／ビス
  6
CONTINUOUS
 10
-98.02789
 20
-74.93474
 40
0.301025
  0
LINE
  8
ボルト／ビス
  6
CONTINUOUS
 62
    64
 10
-98.272605
 20
-74.986783
 11
-98.195317
 21
-74.748833
  0
LINE
  8
ボルト／ビス
  6
CONTINUOUS
 62
    64
 10
-97.950605
 20
-74.69679
 11
-98.195317
 21
-74.748833
  0
LINE
  8
ボルト／ビス
  6
CONTINUOUS
 62
    64
 10
-98.105177
 20
-75.172688
 11
-97.860465
 21
-75.120643
  0
LINE
  8
ボルト／ビス
  6
CONTINUOUS
 62
    64
 10
-97.783177
 20
-74.882695
 11
-97.860465
 21
-75.120643
  0
LINE
  8
ボルト／ビス
  6
CONTINUOUS
 62
    64
 10
-98.272605
 20
-74.986783
 11
-98.105177
 21
-75.172688
  0
LINE
  8
ボルト／ビス
  6
CONTINUOUS
 62
    64
 10
-97.950605
 20
-74.69679
 11
-97.783177
 21
-74.882695
  0
CIRCLE
  8
ボルト／ビス
  6
CONTINUOUS
 62
    64
 10
-98.02789
 20
-74.93474
 40
0.216668
  0
CIRCLE
  8
ボルト／ビス
  6
CONTINUOUS
 10
-87.31279
 20
-65.284713
 40
0.250185
  0
CIRCLE
  8
ボルト／ビス
  6
CONTINUOUS
 10
-87.31279
 20
-65.284713
 40
0.301025
  0
LINE
  8
ボルト／ビス
  6
CONTINUOUS
 62
    64
 10
-87.235502
 20
-65.046763
 11
-87.480215
 21
-65.098808
  0
LINE
  8
ボルト／ビス
  6
CONTINUOUS
 62
    64
 10
-87.5575
 20
-65.336758
 11
-87.480215
 21
-65.098808
  0
LINE
  8
ボルト／ビス
  6
CONTINUOUS
 62
    64
 10
-87.068075
 20
-65.232668
 11
-87.145363
 21
-65.470618
  0
LINE
  8
ボルト／ビス
  6
CONTINUOUS
 62
    64
 10
-87.390075
 20
-65.522663
 11
-87.145363
 21
-65.470618
  0
LINE
  8
ボルト／ビス
  6
CONTINUOUS
 62
    64
 10
-87.235502
 20
-65.046763
 11
-87.068075
 21
-65.232668
  0
LINE
  8
ボルト／ビス
  6
CONTINUOUS
 62
    64
 10
-87.5575
 20
-65.336758
 11
-87.390075
 21
-65.522663
  0
CIRCLE
  8
ボルト／ビス
  6
CONTINUOUS
 62
    64
 10
-87.31279
 20
-65.284713
 40
0.216668
  0
ENDBLK
  0
BLOCK
  2
*GRP_0010
 70
    65
 10
0.0
 20
0.0
  0
LINE
  8
補助線
  6
BYBLOCK
 62
    64
 10
-87.37471
 20
-84.528995
 11
-87.250865
 21
-84.64053
  0
LINE
  8
補助線
  6
BYBLOCK
 62
    64
 10
-87.257017
 20
-84.522837
 11
-87.368555
 21
-84.646685
  0
LINE
  8
補助線
  6
BYBLOCK
 62
    64
 10
-98.089812
 20
-74.87897
 11
-97.965967
 21
-74.990505
  0
LINE
  8
補助線
  6
BYBLOCK
 62
    64
 10
-97.972123
 20
-74.872812
 11
-98.083658
 21
-74.99666
  0
LINE
  8
補助線
  6
BYBLOCK
 62
    64
 10
-108.68107
 20
-65.34048
 11
-108.804912
 21
-65.228945
  0
LINE
  8
補助線
  6
BYBLOCK
 62
    64
 10
-108.687223
 20
-65.222787
 11
-108.79876
 21
-65.346635
  0
LINE
  8
型材断面
  6
CONTINUOUS
 10
-86.50742
 20
-84.188608
 11
-86.470493
 21
-84.894747
  0
LINE
  8
型材断面
  6
CONTINUOUS
 10
-86.470493
 20
-84.894747
 11
-86.916633
 21
-85.39013
  0
LINE
  8
型材断面
  6
CONTINUOUS
 10
-86.916633
 20
-85.39013
 11
-87.622775
 21
-85.42706
  0
LINE
  8
型材断面
  6
CONTINUOUS
 10
-108.433007
 20
-64.442418
 11
-109.139148
 21
-64.479348
  0
LINE
  8
型材断面
  6
CONTINUOUS
 10
-109.139148
 20
-64.479348
 11
-109.58529
 21
-64.974727
  0
LINE
  8
型材断面
  6
CONTINUOUS
 10
-109.58529
 20
-64.974727
 11
-109.54836
 21
-65.680872
  0
LINE
  8
型材断面
  6
CONTINUOUS
 10
-87.622775
 20
-85.42706
 11
-109.54836
 21
-65.680872
  0
LINE
  8
型材断面
  6
CONTINUOUS
 10
-86.50742
 20
-84.188608
 11
-108.433007
 21
-64.442418
  0
CIRCLE
  8
ボルト／ビス
  6
CONTINUOUS
 10
-87.312788
 20
-84.584763
 40
0.250185
  0
CIRCLE
  8
ボルト／ビス
  6
CONTINUOUS
 10
-87.312788
 20
-84.584763
 40
0.301025
  0
LINE
  8
ボルト／ビス
  6
CONTINUOUS
 62
    64
 10
-87.068075
 20
-84.636808
 11
-87.14536
 21
-84.398858
  0
LINE
  8
ボルト／ビス
  6
CONTINUOUS
 62
    64
 10
-87.390073
 20
-84.346813
 11
-87.14536
 21
-84.398858
  0
LINE
  8
ボルト／ビス
  6
CONTINUOUS
 62
    64
 10
-87.235502
 20
-84.822713
 11
-87.480215
 21
-84.770668
  0
LINE
  8
ボルト／ビス
  6
CONTINUOUS
 62
    64
 10
-87.5575
 20
-84.532718
 11
-87.480215
 21
-84.770668
  0
LINE
  8
ボルト／ビス
  6
CONTINUOUS
 62
    64
 10
-87.068075
 20
-84.636808
 11
-87.235502
 21
-84.822713
  0
LINE
  8
ボルト／ビス
  6
CONTINUOUS
 62
    64
 10
-87.390073
 20
-84.346813
 11
-87.5575
 21
-84.532718
  0
CIRCLE
  8
ボルト／ビス
  6
CONTINUOUS
 62
    64
 10
-87.312788
 20
-84.584763
 40
0.216668
  0
CIRCLE
  8
ボルト／ビス
  6
CONTINUOUS
 10
-98.02789
 20
-74.93474
 40
0.250185
  0
CIRCLE
  8
ボルト／ビス
  6
CONTINUOUS
 10
-98.02789
 20
-74.93474
 40
0.301025
  0
LINE
  8
ボルト／ビス
  6
CONTINUOUS
 62
    64
 10
-97.783175
 20
-74.986783
 11
-97.860462
 21
-74.748833
  0
LINE
  8
ボルト／ビス
  6
CONTINUOUS
 62
    64
 10
-98.105175
 20
-74.69679
 11
-97.860462
 21
-74.748833
  0
LINE
  8
ボルト／ビス
  6
CONTINUOUS
 62
    64
 10
-97.950602
 20
-75.172688
 11
-98.195315
 21
-75.120643
  0
LINE
  8
ボルト／ビス
  6
CONTINUOUS
 62
    64
 10
-98.272602
 20
-74.882695
 11
-98.195315
 21
-75.120643
  0
LINE
  8
ボルト／ビス
  6
CONTINUOUS
 62
    64
 10
-97.783175
 20
-74.986783
 11
-97.950602
 21
-75.172688
  0
LINE
  8
ボルト／ビス
  6
CONTINUOUS
 62
    64
 10
-98.105175
 20
-74.69679
 11
-98.272602
 21
-74.882695
  0
CIRCLE
  8
ボルト／ビス
  6
CONTINUOUS
 62
    64
 10
-98.02789
 20
-74.93474
 40
0.216668
  0
CIRCLE
  8
ボルト／ビス
  6
CONTINUOUS
 10
-108.74299
 20
-65.284713
 40
0.250185
  0
CIRCLE
  8
ボルト／ビス
  6
CONTINUOUS
 10
-108.74299
 20
-65.284713
 40
0.301025
  0
LINE
  8
ボルト／ビス
  6
CONTINUOUS
 62
    64
 10
-108.820277
 20
-65.046763
 11
-108.575565
 21
-65.098808
  0
LINE
  8
ボルト／ビス
  6
CONTINUOUS
 62
    64
 10
-108.49828
 20
-65.336758
 11
-108.575565
 21
-65.098808
  0
LINE
  8
ボルト／ビス
  6
CONTINUOUS
 62
    64
 10
-108.987705
 20
-65.232668
 11
-108.910418
 21
-65.470618
  0
LINE
  8
ボルト／ビス
  6
CONTINUOUS
 62
    64
 10
-108.665705
 20
-65.522663
 11
-108.910418
 21
-65.470618
  0
LINE
  8
ボルト／ビス
  6
CONTINUOUS
 62
    64
 10
-108.820277
 20
-65.046763
 11
-108.987705
 21
-65.232668
  0
LINE
  8
ボルト／ビス
  6
CONTINUOUS
 62
    64
 10
-108.49828
 20
-65.336758
 11
-108.665705
 21
-65.522663
  0
CIRCLE
  8
ボルト／ビス
  6
CONTINUOUS
 62
    64
 10
-108.74299
 20
-65.284713
 40
0.216668
  0
ENDBLK
  0
BLOCK
  2
*GRP_0011
 70
    65
 10
0.0
 20
0.0
  0
LINE
  8
補助線
  6
BYBLOCK
 62
    64
 10
51.195085
 20
-84.528995
 11
51.31893
 21
-84.64053
  0
LINE
  8
補助線
  6
BYBLOCK
 62
    64
 10
51.312778
 20
-84.522837
 11
51.20124
 21
-84.646685
  0
LINE
  8
補助線
  6
BYBLOCK
 62
    64
 10
40.479983
 20
-74.87897
 11
40.603828
 21
-74.990505
  0
LINE
  8
補助線
  6
BYBLOCK
 62
    64
 10
40.597673
 20
-74.872812
 11
40.486138
 21
-74.99666
  0
LINE
  8
補助線
  6
BYBLOCK
 62
    64
 10
29.888725
 20
-65.34048
 11
29.764883
 21
-65.228945
  0
LINE
  8
補助線
  6
BYBLOCK
 62
    64
 10
29.882573
 20
-65.222787
 11
29.771035
 21
-65.346635
  0
LINE
  8
型材断面
  6
CONTINUOUS
 10
52.062375
 20
-84.188608
 11
52.099302
 21
-84.894747
  0
LINE
  8
型材断面
  6
CONTINUOUS
 10
52.099302
 20
-84.894747
 11
51.653162
 21
-85.39013
  0
LINE
  8
型材断面
  6
CONTINUOUS
 10
51.653162
 20
-85.39013
 11
50.94702
 21
-85.42706
  0
LINE
  8
型材断面
  6
CONTINUOUS
 10
30.136787
 20
-64.442418
 11
29.430647
 21
-64.479348
  0
LINE
  8
型材断面
  6
CONTINUOUS
 10
29.430647
 20
-64.479348
 11
28.984505
 21
-64.974727
  0
LINE
  8
型材断面
  6
CONTINUOUS
 10
28.984505
 20
-64.974727
 11
29.021435
 21
-65.680872
  0
LINE
  8
型材断面
  6
CONTINUOUS
 10
50.94702
 20
-85.42706
 11
29.021435
 21
-65.680872
  0
LINE
  8
型材断面
  6
CONTINUOUS
 10
52.062375
 20
-84.188608
 11
30.136787
 21
-64.442418
  0
CIRCLE
  8
ボルト／ビス
  6
CONTINUOUS
 10
51.257007
 20
-84.584763
 40
0.250185
  0
CIRCLE
  8
ボルト／ビス
  6
CONTINUOUS
 10
51.257007
 20
-84.584763
 40
0.301025
  0
LINE
  8
ボルト／ビス
  6
CONTINUOUS
 62
    64
 10
51.50172
 20
-84.636808
 11
51.424435
 21
-84.398858
  0
LINE
  8
ボルト／ビス
  6
CONTINUOUS
 62
    64
 10
51.179723
 20
-84.346813
 11
51.424435
 21
-84.398858
  0
LINE
  8
ボルト／ビス
  6
CONTINUOUS
 62
    64
 10
51.334293
 20
-84.822713
 11
51.08958
 21
-84.770668
  0
LINE
  8
ボルト／ビス
  6
CONTINUOUS
 62
    64
 10
51.012295
 20
-84.532718
 11
51.08958
 21
-84.770668
  0
LINE
  8
ボルト／ビス
  6
CONTINUOUS
 62
    64
 10
51.50172
 20
-84.636808
 11
51.334293
 21
-84.822713
  0
LINE
  8
ボルト／ビス
  6
CONTINUOUS
 62
    64
 10
51.179723
 20
-84.346813
 11
51.012295
 21
-84.532718
  0
CIRCLE
  8
ボルト／ビス
  6
CONTINUOUS
 62
    64
 10
51.257007
 20
-84.584763
 40
0.216668
  0
CIRCLE
  8
ボルト／ビス
  6
CONTINUOUS
 10
40.541905
 20
-74.93474
 40
0.250185
  0
CIRCLE
  8
ボルト／ビス
  6
CONTINUOUS
 10
40.541905
 20
-74.93474
 40
0.301025
  0
LINE
  8
ボルト／ビス
  6
CONTINUOUS
 62
    64
 10
40.78662
 20
-74.986783
 11
40.709332
 21
-74.748833
  0
LINE
  8
ボルト／ビス
  6
CONTINUOUS
 62
    64
 10
40.46462
 20
-74.69679
 11
40.709332
 21
-74.748833
  0
LINE
  8
ボルト／ビス
  6
CONTINUOUS
 62
    64
 10
40.619192
 20
-75.172688
 11
40.37448
 21
-75.120643
  0
LINE
  8
ボルト／ビス
  6
CONTINUOUS
 62
    64
 10
40.297192
 20
-74.882695
 11
40.37448
 21
-75.120643
  0
LINE
  8
ボルト／ビス
  6
CONTINUOUS
 62
    64
 10
40.78662
 20
-74.986783
 11
40.619192
 21
-75.172688
  0
LINE
  8
ボルト／ビス
  6
CONTINUOUS
 62
    64
 10
40.46462
 20
-74.69679
 11
40.297192
 21
-74.882695
  0
CIRCLE
  8
ボルト／ビス
  6
CONTINUOUS
 62
    64
 10
40.541905
 20
-74.93474
 40
0.216668
  0
CIRCLE
  8
ボルト／ビス
  6
CONTINUOUS
 10
29.826805
 20
-65.284713
 40
0.250185
  0
CIRCLE
  8
ボルト／ビス
  6
CONTINUOUS
 10
29.826805
 20
-65.284713
 40
0.301025
  0
LINE
  8
ボルト／ビス
  6
CONTINUOUS
 62
    64
 10
29.749518
 20
-65.046763
 11
29.99423
 21
-65.098808
  0
LINE
  8
ボルト／ビス
  6
CONTINUOUS
 62
    64
 10
30.071515
 20
-65.336758
 11
29.99423
 21
-65.098808
  0
LINE
  8
ボルト／ビス
  6
CONTINUOUS
 62
    64
 10
29.58209
 20
-65.232668
 11
29.659377
 21
-65.470618
  0
LINE
  8
ボルト／ビス
  6
CONTINUOUS
 62
    64
 10
29.90409
 20
-65.522663
 11
29.659377
 21
-65.470618
  0
LINE
  8
ボルト／ビス
  6
CONTINUOUS
 62
    64
 10
29.749518
 20
-65.046763
 11
29.58209
 21
-65.232668
  0
LINE
  8
ボルト／ビス
  6
CONTINUOUS
 62
    64
 10
30.071515
 20
-65.336758
 11
29.90409
 21
-65.522663
  0
CIRCLE
  8
ボルト／ビス
  6
CONTINUOUS
 62
    64
 10
29.826805
 20
-65.284713
 40
0.216668
  0
ENDBLK
  0
BLOCK
  2
*GRP_0012
 70
    65
 10
0.0
 20
0.0
  0
LINE
  8
補助線
  6
BYBLOCK
 62
    64
 10
29.888725
 20
-84.528995
 11
29.76488
 21
-84.64053
  0
LINE
  8
補助線
  6
BYBLOCK
 62
    64
 10
29.771033
 20
-84.522837
 11
29.88257
 21
-84.646685
  0
LINE
  8
補助線
  6
BYBLOCK
 62
    64
 10
40.603828
 20
-74.87897
 11
40.479983
 21
-74.990505
  0
LINE
  8
補助線
  6
BYBLOCK
 62
    64
 10
40.486138
 20
-74.872812
 11
40.597673
 21
-74.99666
  0
LINE
  8
補助線
  6
BYBLOCK
 62
    64
 10
51.195085
 20
-65.34048
 11
51.318928
 21
-65.228945
  0
LINE
  8
補助線
  6
BYBLOCK
 62
    64
 10
51.201238
 20
-65.222787
 11
51.312775
 21
-65.346635
  0
LINE
  8
型材断面
  6
CONTINUOUS
 10
29.021435
 20
-84.188608
 11
28.984507
 21
-84.894747
  0
LINE
  8
型材断面
  6
CONTINUOUS
 10
28.984507
 20
-84.894747
 11
29.430647
 21
-85.39013
  0
LINE
  8
型材断面
  6
CONTINUOUS
 10
29.430647
 20
-85.39013
 11
30.13679
 21
-85.42706
  0
LINE
  8
型材断面
  6
CONTINUOUS
 10
50.947022
 20
-64.442418
 11
51.653162
 21
-64.479348
  0
LINE
  8
型材断面
  6
CONTINUOUS
 10
51.653162
 20
-64.479348
 11
52.099305
 21
-64.974727
  0
LINE
  8
型材断面
  6
CONTINUOUS
 10
52.099305
 20
-64.974727
 11
52.062375
 21
-65.680872
  0
LINE
  8
型材断面
  6
CONTINUOUS
 10
30.13679
 20
-85.42706
 11
52.062375
 21
-65.680872
  0
LINE
  8
型材断面
  6
CONTINUOUS
 10
29.021435
 20
-84.188608
 11
50.947022
 21
-64.442418
  0
CIRCLE
  8
ボルト／ビス
  6
CONTINUOUS
 10
29.826802
 20
-84.584763
 40
0.250185
  0
CIRCLE
  8
ボルト／ビス
  6
CONTINUOUS
 10
29.826802
 20
-84.584763
 40
0.301025
  0
LINE
  8
ボルト／ビス
  6
CONTINUOUS
 62
    64
 10
29.58209
 20
-84.636808
 11
29.659375
 21
-84.398858
  0
LINE
  8
ボルト／ビス
  6
CONTINUOUS
 62
    64
 10
29.904088
 20
-84.346813
 11
29.659375
 21
-84.398858
  0
LINE
  8
ボルト／ビス
  6
CONTINUOUS
 62
    64
 10
29.749518
 20
-84.822713
 11
29.99423
 21
-84.770668
  0
LINE
  8
ボルト／ビス
  6
CONTINUOUS
 62
    64
 10
30.071515
 20
-84.532718
 11
29.99423
 21
-84.770668
  0
LINE
  8
ボルト／ビス
  6
CONTINUOUS
 62
    64
 10
29.58209
 20
-84.636808
 11
29.749518
 21
-84.822713
  0
LINE
  8
ボルト／ビス
  6
CONTINUOUS
 62
    64
 10
29.904088
 20
-84.346813
 11
30.071515
 21
-84.532718
  0
CIRCLE
  8
ボルト／ビス
  6
CONTINUOUS
 62
    64
 10
29.826802
 20
-84.584763
 40
0.216668
  0
CIRCLE
  8
ボルト／ビス
  6
CONTINUOUS
 10
40.541905
 20
-74.93474
 40
0.250185
  0
CIRCLE
  8
ボルト／ビス
  6
CONTINUOUS
 10
40.541905
 20
-74.93474
 40
0.301025
  0
LINE
  8
ボルト／ビス
  6
CONTINUOUS
 62
    64
 10
40.29719
 20
-74.986783
 11
40.374477
 21
-74.748833
  0
LINE
  8
ボルト／ビス
  6
CONTINUOUS
 62
    64
 10
40.61919
 20
-74.69679
 11
40.374477
 21
-74.748833
  0
LINE
  8
ボルト／ビス
  6
CONTINUOUS
 62
    64
 10
40.464617
 20
-75.172688
 11
40.70933
 21
-75.120643
  0
LINE
  8
ボルト／ビス
  6
CONTINUOUS
 62
    64
 10
40.786617
 20
-74.882695
 11
40.70933
 21
-75.120643
  0
LINE
  8
ボルト／ビス
  6
CONTINUOUS
 62
    64
 10
40.29719
 20
-74.986783
 11
40.464617
 21
-75.172688
  0
LINE
  8
ボルト／ビス
  6
CONTINUOUS
 62
    64
 10
40.61919
 20
-74.69679
 11
40.786617
 21
-74.882695
  0
CIRCLE
  8
ボルト／ビス
  6
CONTINUOUS
 62
    64
 10
40.541905
 20
-74.93474
 40
0.216668
  0
CIRCLE
  8
ボルト／ビス
  6
CONTINUOUS
 10
51.257005
 20
-65.284713
 40
0.250185
  0
CIRCLE
  8
ボルト／ビス
  6
CONTINUOUS
 10
51.257005
 20
-65.284713
 40
0.301025
  0
LINE
  8
ボルト／ビス
  6
CONTINUOUS
 62
    64
 10
51.334293
 20
-65.046763
 11
51.08958
 21
-65.098808
  0
LINE
  8
ボルト／ビス
  6
CONTINUOUS
 62
    64
 10
51.012295
 20
-65.336758
 11
51.08958
 21
-65.098808
  0
LINE
  8
ボルト／ビス
  6
CONTINUOUS
 62
    64
 10
51.50172
 20
-65.232668
 11
51.424432
 21
-65.470618
  0
LINE
  8
ボルト／ビス
  6
CONTINUOUS
 62
    64
 10
51.17972
 20
-65.522663
 11
51.424432
 21
-65.470618
  0
LINE
  8
ボルト／ビス
  6
CONTINUOUS
 62
    64
 10
51.334293
 20
-65.046763
 11
51.50172
 21
-65.232668
  0
LINE
  8
ボルト／ビス
  6
CONTINUOUS
 62
    64
 10
51.012295
 20
-65.336758
 11
51.17972
 21
-65.522663
  0
CIRCLE
  8
ボルト／ビス
  6
CONTINUOUS
 62
    64
 10
51.257005
 20
-65.284713
 40
0.216668
  0
ENDBLK
  0
BLOCK
  2
*DIM_0013
 70
    65
 10
0.0
 20
0.0
  0
LINE
  8
寸法
  6
BYBLOCK
 62
     0
 10
-131.742993
 20
23.399048
 11
-160.688158
 21
23.399048
  0
LINE
  8
寸法
  6
BYBLOCK
 62
     0
 10
-131.742993
 20
46.732382
 11
-160.688158
 21
46.732382
  0
LINE
  8
寸法
  6
BYBLOCK
 62
     0
 10
-160.688158
 20
23.399048
 11
-160.688158
 21
46.732382
  0
POINT
  8
寸法
 62
     0
 10
-160.688158
 20
23.399048
  0
POINT
  8
寸法
 62
     0
 10
-160.688158
 20
46.732382
  0
TEXT
  7
TextStyle03
  8
寸法
  6
CONTINUOUS
 62
     0
 10
-161.0
 20
32.6125
  1
700
 40
3.0
 50
90.0
 72
     5
 11
-161.0
 21
37.4875
  0
ENDBLK
  0
BLOCK
  2
*DIM_0014
 70
    65
 10
0.0
 20
0.0
  0
LINE
  8
寸法
  6
BYBLOCK
 62
     0
 10
-122.076325
 20
59.73238
 11
-122.076325
 21
88.840452
  0
LINE
  8
寸法
  6
BYBLOCK
 62
     0
 10
-98.742993
 20
59.73238
 11
-98.742993
 21
88.840452
  0
LINE
  8
寸法
  6
BYBLOCK
 62
     0
 10
-122.076325
 20
88.840452
 11
-98.742993
 21
88.840452
  0
POINT
  8
寸法
 62
     0
 10
-122.076325
 20
88.840452
  0
POINT
  8
寸法
 62
     0
 10
-98.742993
 20
88.840452
  0
TEXT
  7
TextStyle03
  8
寸法
  6
CONTINUOUS
 62
     0
 10
-112.8625
 20
89.2
  1
700
 40
3.0
 72
     5
 11
-107.9875
 21
89.2
  0
ENDBLK
  0
BLOCK
  2
*DIM_0015
 70
    65
 10
0.0
 20
0.0
  0
LINE
  8
寸法
  6
BYBLOCK
 62
     0
 10
-75.40966
 20
59.73238
 11
-75.40966
 21
88.840452
  0
LINE
  8
寸法
  6
BYBLOCK
 62
     0
 10
-98.742993
 20
88.840452
 11
-75.40966
 21
88.840452
  0
POINT
  8
寸法
 62
     0
 10
-75.40966
 20
88.840452
  0
TEXT
  7
TextStyle03
  8
寸法
  6
CONTINUOUS
 62
     0
 10
-89.5375
 20
89.2
  1
700
 40
3.0
 72
     5
 11
-84.6625
 21
89.2
  0
ENDBLK
  0
BLOCK
  2
*DIM_0016
 70
    65
 10
0.0
 20
0.0
  0
LINE
  8
寸法
  6
BYBLOCK
 62
     0
 10
-52.076325
 20
59.73238
 11
-52.076325
 21
88.840452
  0
LINE
  8
寸法
  6
BYBLOCK
 62
     0
 10
-75.40966
 20
88.840452
 11
-52.076325
 21
88.840452
  0
POINT
  8
寸法
 62
     0
 10
-52.076325
 20
88.840452
  0
TEXT
  7
TextStyle03
  8
寸法
  6
CONTINUOUS
 62
     0
 10
-66.1875
 20
89.2
  1
700
 40
3.0
 72
     5
 11
-61.3125
 21
89.2
  0
ENDBLK
  0
BLOCK
  2
*DIM_0017
 70
    65
 10
0.0
 20
0.0
  0
LINE
  8
寸法
  6
BYBLOCK
 62
     0
 10
-28.742993
 20
59.73238
 11
-28.742993
 21
88.840452
  0
LINE
  8
寸法
  6
BYBLOCK
 62
     0
 10
-52.076325
 20
88.840452
 11
-28.742993
 21
88.840452
  0
POINT
  8
寸法
 62
     0
 10
-28.742993
 20
88.840452
  0
TEXT
  7
TextStyle03
  8
寸法
  6
CONTINUOUS
 62
     0
 10
-42.8625
 20
89.2
  1
700
 40
3.0
 72
     5
 11
-37.9875
 21
89.2
  0
ENDBLK
  0
BLOCK
  2
*DIM_0018
 70
    65
 10
0.0
 20
0.0
  0
LINE
  8
寸法
  6
BYBLOCK
 62
     0
 10
-5.40966
 20
59.73238
 11
-5.40966
 21
88.840452
  0
LINE
  8
寸法
  6
BYBLOCK
 62
     0
 10
-28.742993
 20
88.840452
 11
-5.40966
 21
88.840452
  0
POINT
  8
寸法
 62
     0
 10
-5.40966
 20
88.840452
  0
TEXT
  7
TextStyle03
  8
寸法
  6
CONTINUOUS
 62
     0
 10
-19.5375
 20
89.2
  1
700
 40
3.0
 72
     5
 11
-14.6625
 21
89.2
  0
ENDBLK
  0
BLOCK
  2
*DIM_0019
 70
    65
 10
0.0
 20
0.0
  0
LINE
  8
寸法
  6
BYBLOCK
 62
     0
 10
17.923675
 20
59.73238
 11
17.923675
 21
88.840452
  0
LINE
  8
寸法
  6
BYBLOCK
 62
     0
 10
-5.40966
 20
88.840452
 11
17.923675
 21
88.840452
  0
POINT
  8
寸法
 62
     0
 10
17.923675
 20
88.840452
  0
TEXT
  7
TextStyle03
  8
寸法
  6
CONTINUOUS
 62
     0
 10
3.8125
 20
89.2
  1
700
 40
3.0
 72
     5
 11
8.6875
 21
89.2
  0
ENDBLK
  0
BLOCK
  2
*DIM_0020
 70
    65
 10
0.0
 20
0.0
  0
LINE
  8
寸法
  6
BYBLOCK
 62
     0
 10
41.257007
 20
59.73238
 11
41.257007
 21
88.840452
  0
LINE
  8
寸法
  6
BYBLOCK
 62
     0
 10
17.923675
 20
88.840452
 11
41.257007
 21
88.840452
  0
POINT
  8
寸法
 62
     0
 10
41.257007
 20
88.840452
  0
TEXT
  7
TextStyle03
  8
寸法
  6
CONTINUOUS
 62
     0
 10
27.1375
 20
89.2
  1
700
 40
3.0
 72
     5
 11
32.0125
 21
89.2
  0
ENDBLK
  0
BLOCK
  2
*DIM_0021
 70
    65
 10
0.0
 20
0.0
  0
LINE
  8
寸法
  6
BYBLOCK
 62
     0
 10
64.59034
 20
59.73238
 11
64.59034
 21
88.840452
  0
LINE
  8
寸法
  6
BYBLOCK
 62
     0
 10
41.257007
 20
88.840452
 11
64.59034
 21
88.840452
  0
POINT
  8
寸法
 62
     0
 10
64.59034
 20
88.840452
  0
TEXT
  7
TextStyle03
  8
寸法
  6
CONTINUOUS
 62
     0
 10
50.4625
 20
89.2
  1
700
 40
3.0
 72
     5
 11
55.3375
 21
89.2
  0
ENDBLK
  0
BLOCK
  2
*GRP_0022
 70
    65
 10
0.0
 20
0.0
  0
LINE
  8
補助線
  6
BYBLOCK
 62
    64
 10
-39.396173
 20
-84.528997
 11
-39.520017
 21
-84.640532
  0
LINE
  8
補助線
  6
BYBLOCK
 62
    64
 10
-39.513865
 20
-84.52284
 11
-39.402327
 21
-84.646688
  0
LINE
  8
補助線
  6
BYBLOCK
 62
    64
 10
-28.68107
 20
-74.878972
 11
-28.804915
 21
-74.990507
  0
LINE
  8
補助線
  6
BYBLOCK
 62
    64
 10
-28.79876
 20
-74.872815
 11
-28.687225
 21
-74.996662
  0
LINE
  8
補助線
  6
BYBLOCK
 62
    64
 10
-18.089812
 20
-65.340482
 11
-17.96597
 21
-65.228947
  0
LINE
  8
補助線
  6
BYBLOCK
 62
    64
 10
-18.08366
 20
-65.22279
 11
-17.972123
 21
-65.346638
  0
LINE
  8
型材断面
  6
CONTINUOUS
 10
-40.263462
 20
-84.18861
 11
-40.30039
 21
-84.89475
  0
LINE
  8
型材断面
  6
CONTINUOUS
 10
-40.30039
 20
-84.89475
 11
-39.85425
 21
-85.390132
  0
LINE
  8
型材断面
  6
CONTINUOUS
 10
-39.85425
 20
-85.390132
 11
-39.148107
 21
-85.427063
  0
LINE
  8
型材断面
  6
CONTINUOUS
 10
-18.337875
 20
-64.44242
 11
-17.631735
 21
-64.47935
  0
LINE
  8
型材断面
  6
CONTINUOUS
 10
-17.631735
 20
-64.47935
 11
-17.185592
 21
-64.97473
  0
LINE
  8
型材断面
  6
CONTINUOUS
 10
-17.185592
 20
-64.97473
 11
-17.222523
 21
-65.680875
  0
LINE
  8
型材断面
  6
CONTINUOUS
 10
-39.148107
 20
-85.427063
 11
-17.222523
 21
-65.680875
  0
LINE
  8
型材断面
  6
CONTINUOUS
 10
-40.263462
 20
-84.18861
 11
-18.337875
 21
-64.44242
  0
CIRCLE
  8
ボルト／ビス
  6
CONTINUOUS
 10
-39.458095
 20
-84.584765
 40
0.250185
  0
CIRCLE
  8
ボルト／ビス
  6
CONTINUOUS
 10
-39.458095
 20
-84.584765
 40
0.301025
  0
LINE
  8
ボルト／ビス
  6
CONTINUOUS
 62
    64
 10
-39.702808
 20
-84.63681
 11
-39.625522
 21
-84.39886
  0
LINE
  8
ボルト／ビス
  6
CONTINUOUS
 62
    64
 10
-39.38081
 20
-84.346815
 11
-39.625522
 21
-84.39886
  0
LINE
  8
ボルト／ビス
  6
CONTINUOUS
 62
    64
 10
-39.53538
 20
-84.822715
 11
-39.290668
 21
-84.77067
  0
LINE
  8
ボルト／ビス
  6
CONTINUOUS
 62
    64
 10
-39.213382
 20
-84.53272
 11
-39.290668
 21
-84.77067
  0
LINE
  8
ボルト／ビス
  6
CONTINUOUS
 62
    64
 10
-39.702808
 20
-84.63681
 11
-39.53538
 21
-84.822715
  0
LINE
  8
ボルト／ビス
  6
CONTINUOUS
 62
    64
 10
-39.38081
 20
-84.346815
 11
-39.213382
 21
-84.53272
  0
CIRCLE
  8
ボルト／ビス
  6
CONTINUOUS
 62
    64
 10
-39.458095
 20
-84.584765
 40
0.216668
  0
CIRCLE
  8
ボルト／ビス
  6
CONTINUOUS
 10
-28.742993
 20
-74.934742
 40
0.250185
  0
CIRCLE
  8
ボルト／ビス
  6
CONTINUOUS
 10
-28.742993
 20
-74.934742
 40
0.301025
  0
LINE
  8
ボルト／ビス
  6
CONTINUOUS
 62
    64
 10
-28.987708
 20
-74.986785
 11
-28.91042
 21
-74.748835
  0
LINE
  8
ボルト／ビス
  6
CONTINUOUS
 62
    64
 10
-28.665708
 20
-74.696792
 11
-28.91042
 21
-74.748835
  0
LINE
  8
ボルト／ビス
  6
CONTINUOUS
 62
    64
 10
-28.82028
 20
-75.17269
 11
-28.575568
 21
-75.120645
  0
LINE
  8
ボルト／ビス
  6
CONTINUOUS
 62
    64
 10
-28.49828
 20
-74.882697
 11
-28.575568
 21
-75.120645
  0
LINE
  8
ボルト／ビス
  6
CONTINUOUS
 62
    64
 10
-28.987708
 20
-74.986785
 11
-28.82028
 21
-75.17269
  0
LINE
  8
ボルト／ビス
  6
CONTINUOUS
 62
    64
 10
-28.665708
 20
-74.696792
 11
-28.49828
 21
-74.882697
  0
CIRCLE
  8
ボルト／ビス
  6
CONTINUOUS
 62
    64
 10
-28.742993
 20
-74.934742
 40
0.216668
  0
CIRCLE
  8
ボルト／ビス
  6
CONTINUOUS
 10
-18.027892
 20
-65.284715
 40
0.250185
  0
CIRCLE
  8
ボルト／ビス
  6
CONTINUOUS
 10
-18.027892
 20
-65.284715
 40
0.301025
  0
LINE
  8
ボルト／ビス
  6
CONTINUOUS
 62
    64
 10
-17.950605
 20
-65.046765
 11
-18.195317
 21
-65.09881
  0
LINE
  8
ボルト／ビス
  6
CONTINUOUS
 62
    64
 10
-18.272602
 20
-65.33676
 11
-18.195317
 21
-65.09881
  0
LINE
  8
ボルト／ビス
  6
CONTINUOUS
 62
    64
 10
-17.783177
 20
-65.23267
 11
-17.860465
 21
-65.47062
  0
LINE
  8
ボルト／ビス
  6
CONTINUOUS
 62
    64
 10
-18.105177
 20
-65.522665
 11
-17.860465
 21
-65.47062
  0
LINE
  8
ボルト／ビス
  6
CONTINUOUS
 62
    64
 10
-17.950605
 20
-65.046765
 11
-17.783177
 21
-65.23267
  0
LINE
  8
ボルト／ビス
  6
CONTINUOUS
 62
    64
 10
-18.272602
 20
-65.33676
 11
-18.105177
 21
-65.522665
  0
CIRCLE
  8
ボルト／ビス
  6
CONTINUOUS
 62
    64
 10
-18.027892
 20
-65.284715
 40
0.216668
  0
ENDBLK
  0
BLOCK
  2
*GRP_0023
 70
    65
 10
0.0
 20
0.0
  0
LINE
  8
補助線
  6
BYBLOCK
 62
    64
 10
-18.089812
 20
-84.528997
 11
-17.965967
 21
-84.640532
  0
LINE
  8
補助線
  6
BYBLOCK
 62
    64
 10
-17.97212
 20
-84.52284
 11
-18.083658
 21
-84.646688
  0
LINE
  8
補助線
  6
BYBLOCK
 62
    64
 10
-28.804915
 20
-74.878972
 11
-28.68107
 21
-74.990507
  0
LINE
  8
補助線
  6
BYBLOCK
 62
    64
 10
-28.687225
 20
-74.872815
 11
-28.79876
 21
-74.996662
  0
LINE
  8
補助線
  6
BYBLOCK
 62
    64
 10
-39.396173
 20
-65.340482
 11
-39.520015
 21
-65.228947
  0
LINE
  8
補助線
  6
BYBLOCK
 62
    64
 10
-39.402325
 20
-65.22279
 11
-39.513862
 21
-65.346638
  0
LINE
  8
型材断面
  6
CONTINUOUS
 10
-17.222523
 20
-84.18861
 11
-17.185595
 21
-84.89475
  0
LINE
  8
型材断面
  6
CONTINUOUS
 10
-17.185595
 20
-84.89475
 11
-17.631735
 21
-85.390132
  0
LINE
  8
型材断面
  6
CONTINUOUS
 10
-17.631735
 20
-85.390132
 11
-18.337878
 21
-85.427063
  0
LINE
  8
型材断面
  6
CONTINUOUS
 10
-39.14811
 20
-64.44242
 11
-39.85425
 21
-64.47935
  0
LINE
  8
型材断面
  6
CONTINUOUS
 10
-39.85425
 20
-64.47935
 11
-40.300393
 21
-64.97473
  0
LINE
  8
型材断面
  6
CONTINUOUS
 10
-40.300393
 20
-64.97473
 11
-40.263462
 21
-65.680875
  0
LINE
  8
型材断面
  6
CONTINUOUS
 10
-18.337878
 20
-85.427063
 11
-40.263462
 21
-65.680875
  0
LINE
  8
型材断面
  6
CONTINUOUS
 10
-17.222523
 20
-84.18861
 11
-39.14811
 21
-64.44242
  0
CIRCLE
  8
ボルト／ビス
  6
CONTINUOUS
 10
-18.02789
 20
-84.584765
 40
0.250185
  0
CIRCLE
  8
ボルト／ビス
  6
CONTINUOUS
 10
-18.02789
 20
-84.584765
 40
0.301025
  0
LINE
  8
ボルト／ビス
  6
CONTINUOUS
 62
    64
 10
-17.783177
 20
-84.63681
 11
-17.860462
 21
-84.39886
  0
LINE
  8
ボルト／ビス
  6
CONTINUOUS
 62
    64
 10
-18.105175
 20
-84.346815
 11
-17.860462
 21
-84.39886
  0
LINE
  8
ボルト／ビス
  6
CONTINUOUS
 62
    64
 10
-17.950605
 20
-84.822715
 11
-18.195317
 21
-84.77067
  0
LINE
  8
ボルト／ビス
  6
CONTINUOUS
 62
    64
 10
-18.272602
 20
-84.53272
 11
-18.195317
 21
-84.77067
  0
LINE
  8
ボルト／ビス
  6
CONTINUOUS
 62
    64
 10
-17.783177
 20
-84.63681
 11
-17.950605
 21
-84.822715
  0
LINE
  8
ボルト／ビス
  6
CONTINUOUS
 62
    64
 10
-18.105175
 20
-84.346815
 11
-18.272602
 21
-84.53272
  0
CIRCLE
  8
ボルト／ビス
  6
CONTINUOUS
 62
    64
 10
-18.02789
 20
-84.584765
 40
0.216668
  0
CIRCLE
  8
ボルト／ビス
  6
CONTINUOUS
 10
-28.742993
 20
-74.934742
 40
0.250185
  0
CIRCLE
  8
ボルト／ビス
  6
CONTINUOUS
 10
-28.742993
 20
-74.934742
 40
0.301025
  0
LINE
  8
ボルト／ビス
  6
CONTINUOUS
 62
    64
 10
-28.498278
 20
-74.986785
 11
-28.575565
 21
-74.748835
  0
LINE
  8
ボルト／ビス
  6
CONTINUOUS
 62
    64
 10
-28.820277
 20
-74.696792
 11
-28.575565
 21
-74.748835
  0
LINE
  8
ボルト／ビス
  6
CONTINUOUS
 62
    64
 10
-28.665705
 20
-75.17269
 11
-28.910418
 21
-75.120645
  0
LINE
  8
ボルト／ビス
  6
CONTINUOUS
 62
    64
 10
-28.987705
 20
-74.882697
 11
-28.910418
 21
-75.120645
  0
LINE
  8
ボルト／ビス
  6
CONTINUOUS
 62
    64
 10
-28.498278
 20
-74.986785
 11
-28.665705
 21
-75.17269
  0
LINE
  8
ボルト／ビス
  6
CONTINUOUS
 62
    64
 10
-28.820277
 20
-74.696792
 11
-28.987705
 21
-74.882697
  0
CIRCLE
  8
ボルト／ビス
  6
CONTINUOUS
 62
    64
 10
-28.742993
 20
-74.934742
 40
0.216668
  0
CIRCLE
  8
ボルト／ビス
  6
CONTINUOUS
 10
-39.458093
 20
-65.284715
 40
0.250185
  0
CIRCLE
  8
ボルト／ビス
  6
CONTINUOUS
 10
-39.458093
 20
-65.284715
 40
0.301025
  0
LINE
  8
ボルト／ビス
  6
CONTINUOUS
 62
    64
 10
-39.53538
 20
-65.046765
 11
-39.290668
 21
-65.09881
  0
LINE
  8
ボルト／ビス
  6
CONTINUOUS
 62
    64
 10
-39.213382
 20
-65.33676
 11
-39.290668
 21
-65.09881
  0
LINE
  8
ボルト／ビス
  6
CONTINUOUS
 62
    64
 10
-39.702808
 20
-65.23267
 11
-39.62552
 21
-65.47062
  0
LINE
  8
ボルト／ビス
  6
CONTINUOUS
 62
    64
 10
-39.380807
 20
-65.522665
 11
-39.62552
 21
-65.47062
  0
LINE
  8
ボルト／ビス
  6
CONTINUOUS
 62
    64
 10
-39.53538
 20
-65.046765
 11
-39.702808
 21
-65.23267
  0
LINE
  8
ボルト／ビス
  6
CONTINUOUS
 62
    64
 10
-39.213382
 20
-65.33676
 11
-39.380807
 21
-65.522665
  0
CIRCLE
  8
ボルト／ビス
  6
CONTINUOUS
 62
    64
 10
-39.458093
 20
-65.284715
 40
0.216668
  0
ENDBLK
  0
BLOCK
  2
*DIM_0024
 70
    65
 10
0.0
 20
0.0
  0
LINE
  8
寸法
  6
CONTINUOUS
 10
71.257007
 20
-22.536362
 11
74.020337
 21
-22.536362
  0
POINT
  8
寸法
 10
71.257007
 20
-22.536362
  0
POINT
  8
寸法
 10
74.020337
 20
-22.536362
  0
TEXT
  7
TextStyle03
  8
寸法
  6
CONTINUOUS
 10
73.19375
 20
-21.35
  1
82.9
 40
3.0
 72
     5
 11
79.75625
 21
-21.35
  0
ENDBLK
  0
BLOCK
  2
*DIM_0025
 70
    65
 10
0.0
 20
0.0
  0
LINE
  8
寸法
  6
CONTINUOUS
 10
-128.742993
 20
-22.536362
 11
-131.506322
 21
-22.536362
  0
POINT
  8
寸法
 10
-128.742993
 20
-22.536362
  0
POINT
  8
寸法
 10
-131.506322
 20
-22.536362
  0
TEXT
  7
TextStyle03
  8
寸法
  6
CONTINUOUS
 10
-137.18125
 20
-21.4
  1
82.9
 40
3.0
 72
     5
 11
-130.61875
 21
-21.4
  0
ENDBLK
  0
BLOCK
  2
*DIM_0027
 70
    65
 10
0.0
 20
0.0
  0
LINE
  8
寸法
  6
CONTINUOUS
 10
129.6748
 20
-45.540773
 11
129.6748
 21
-39.373193
  0
LINE
  8
寸法
  6
CONTINUOUS
 10
162.108132
 20
-45.540773
 11
162.108132
 21
-39.373193
  0
LINE
  8
寸法
  6
CONTINUOUS
 10
129.6748
 20
-39.373193
 11
162.108132
 21
-39.373193
  0
POINT
  8
寸法
 10
129.6748
 20
-39.373193
  0
POINT
  8
寸法
 10
162.108132
 20
-39.373193
  0
TEXT
  7
TextStyle03
  8
寸法
  6
CONTINUOUS
 10
143.4375
 20
-39.0
  1
973
 40
3.0
 72
     5
 11
148.3125
 21
-39.0
  0
ENDBLK
  0
BLOCK
  2
*DIM_0028
 70
    65
 10
0.0
 20
0.0
  0
LINE
  8
寸法
  6
CONTINUOUS
 10
167.108132
 20
-50.540773
 11
176.42286
 21
-50.540773
  0
LINE
  8
寸法
  6
CONTINUOUS
 10
167.108132
 20
-93.874105
 11
176.42286
 21
-93.874105
  0
LINE
  8
寸法
  6
CONTINUOUS
 10
176.42286
 20
-50.540773
 11
176.42286
 21
-93.874105
  0
POINT
  8
寸法
 10
176.42286
 20
-50.540773
  0
POINT
  8
寸法
 10
176.42286
 20
-93.874105
  0
TEXT
  7
TextStyle03
  8
寸法
  6
CONTINUOUS
 10
176.025
 20
-75.50625
  1
1300
 40
3.0
 50
90.0
 72
     5
 11
176.025
 21
-68.94375
  0
ENDBLK
  0
BLOCK
  2
*DIM_0029
 70
    65
 10
0.0
 20
0.0
  0
LINE
  8
寸法
  6
CONTINUOUS
 10
77.923675
 20
-79.624597
 11
93.39925
 21
-79.624597
  0
LINE
  8
寸法
  6
CONTINUOUS
 10
79.020337
 20
-87.124605
 11
93.39925
 21
-87.124605
  0
LINE
  8
寸法
  6
CONTINUOUS
 10
93.39925
 20
-79.624597
 11
93.39925
 21
-87.124605
  0
POINT
  8
寸法
 10
93.39925
 20
-79.624597
  0
POINT
  8
寸法
 10
93.39925
 20
-87.124605
  0
TEXT
  7
TextStyle03
  8
寸法
  6
CONTINUOUS
 10
93.0
 20
-85.8125
  1
225
 40
3.0
 50
90.0
 72
     5
 11
93.0
 21
-80.9375
  0
ENDBLK
  0
BLOCK
  2
*DIM_0030
 70
    65
 10
0.0
 20
0.0
  0
LINE
  8
寸法
  6
BYBLOCK
 62
     0
 10
105.583485
 20
13.399048
 11
105.583485
 21
56.73238
  0
POINT
  8
寸法
 62
     0
 10
105.583485
 20
13.399048
  0
POINT
  8
寸法
 62
     0
 10
105.583485
 20
56.73238
  0
TEXT
  7
TextStyle03
  8
寸法
  6
CONTINUOUS
 62
     0
 10
105.2
 20
23.33125
  1
呼称寸法　1300
 40
3.0
 50
90.0
 72
     5
 11
105.2
 21
46.76875
  0
ENDBLK
  0
BLOCK
  2
*DIM_0031
 70
    65
 10
0.0
 20
0.0
  0
LINE
  8
寸法
  6
BYBLOCK
 62
     0
 10
149.430432
 20
36.065715
 11
149.430432
 21
72.668433
  0
LINE
  8
寸法
  6
BYBLOCK
 62
     0
 10
161.0971
 20
72.668433
 11
149.430432
 21
72.668433
  0
POINT
  8
寸法
 62
     0
 10
149.430432
 20
72.668433
  0
TEXT
  7
TextStyle03
  8
寸法
  6
CONTINUOUS
 62
     0
 10
152.8125
 20
73.025
  1
350
 40
3.0
 72
     5
 11
157.6875
 21
73.025
  0
ENDBLK
  0
BLOCK
  2
*DIM_0032
 70
    65
 10
0.0
 20
0.0
  0
LINE
  8
寸法
  6
CONTINUOUS
 10
105.583485
 20
13.399048
 11
105.583485
 21
10.635715
  0
POINT
  8
寸法
 10
105.583485
 20
13.399048
  0
POINT
  8
寸法
 10
105.583485
 20
10.635715
  0
TEXT
  7
TextStyle03
  8
寸法
  6
CONTINUOUS
 10
104.275
 20
5.16875
  1
82.9
 40
3.0
 50
90.0
 72
     5
 11
104.275
 21
11.73125
  0
ENDBLK
  0
BLOCK
  2
*DIM_0033
 70
    65
 10
0.0
 20
0.0
  0
LINE
  8
寸法
  6
CONTINUOUS
 10
105.583485
 20
59.495715
 11
105.583485
 21
56.73238
  0
POINT
  8
寸法
 10
105.583485
 20
59.495715
  0
POINT
  8
寸法
 10
105.583485
 20
56.73238
  0
TEXT
  7
TextStyle03
  8
寸法
  6
CONTINUOUS
 10
104.175
 20
58.44375
  1
82.9
 40
3.0
 50
90.0
 72
     5
 11
104.175
 21
65.00625
  0
ENDBLK
  0
BLOCK
  2
*DIM_0034
 70
    65
 10
0.0
 20
0.0
  0
LINE
  8
寸法
  6
CONTINUOUS
 10
161.0971
 20
63.39905
 11
161.0971
 21
72.668433
  0
LINE
  8
寸法
  6
CONTINUOUS
 10
168.597105
 20
64.495715
 11
168.597105
 21
72.668433
  0
LINE
  8
寸法
  6
CONTINUOUS
 10
161.0971
 20
72.668433
 11
168.597105
 21
72.668433
  0
POINT
  8
寸法
 10
161.0971
 20
72.668433
  0
POINT
  8
寸法
 10
168.597105
 20
72.668433
  0
TEXT
  7
TextStyle03
  8
寸法
  6
CONTINUOUS
 10
162.3375
 20
73.025
  1
225
 40
3.0
 72
     5
 11
167.2125
 21
73.025
  0
ENDBLK
  0
BLOCK
  2
*GRP_0035
 70
    65
 10
0.0
 20
0.0
  0
LINE
  8
ボルト／ビス
  6
CONTINUOUS
 10
161.0971
 20
57.39905
 11
160.630435
 21
57.39905
  0
LINE
  8
ボルト／ビス
  6
CONTINUOUS
 10
161.0971
 20
57.032385
 11
161.030435
 21
57.032385
  0
LINE
  8
ボルト／ビス
  6
CONTINUOUS
 10
161.030435
 20
57.032385
 11
161.030435
 21
57.765718
  0
LINE
  8
ボルト／ビス
  6
CONTINUOUS
 10
161.030435
 20
57.765718
 11
161.0971
 21
57.765718
  0
LINE
  8
ボルト／ビス
  6
CONTINUOUS
 10
161.0971
 20
57.032385
 11
161.0971
 21
57.765718
  0
LINE
  8
ボルト／ビス
  6
CONTINUOUS
 10
160.9971
 20
57.09905
 11
161.030435
 21
57.09905
  0
LINE
  8
ボルト／ビス
  6
CONTINUOUS
 10
160.9971
 20
57.09905
 11
160.9971
 21
57.69905
  0
LINE
  8
ボルト／ビス
  6
CONTINUOUS
 10
160.9971
 20
57.69905
 11
161.030435
 21
57.69905
  0
LINE
  8
ボルト／ビス
  6
CONTINUOUS
 62
    64
 10
160.7971
 20
57.238675
 11
160.808775
 21
57.2066
  0
ARC
  8
ボルト／ビス
  6
CONTINUOUS
 62
    64
 10
160.902076
 20
57.254714
 40
0.104978
 50
152.721967
 51
180.0
  0
ARC
  8
ボルト／ビス
  6
CONTINUOUS
 62
    64
 10
161.1995
 20
57.399052
 40
0.402402
 50
166.165002
 51
193.834985
  0
LINE
  8
ボルト／ビス
  6
CONTINUOUS
 62
    64
 10
160.7971
 20
57.559425
 11
160.808775
 21
57.5915
  0
ARC
  8
ボルト／ビス
  6
CONTINUOUS
 62
    64
 10
160.902076
 20
57.54339
 40
0.104978
 50
180.0
 51
207.278033
  0
LINE
  8
ボルト／ビス
  6
CONTINUOUS
 62
    64
 10
160.7971
 20
57.238675
 11
160.7971
 21
57.559425
  0
LINE
  8
ボルト／ビス
  6
CONTINUOUS
 62
    64
 10
160.808775
 20
57.5915
 11
160.930435
 21
57.5915
  0
LINE
  8
ボルト／ビス
  6
CONTINUOUS
 62
    64
 10
160.808775
 20
57.495275
 11
160.930435
 21
57.495275
  0
LINE
  8
ボルト／ビス
  6
CONTINUOUS
 62
    64
 10
160.808775
 20
57.2066
 11
160.930435
 21
57.2066
  0
LINE
  8
ボルト／ビス
  6
CONTINUOUS
 62
    64
 10
160.808775
 20
57.302825
 11
160.930435
 21
57.302825
  0
LINE
  8
ボルト／ビス
  6
CONTINUOUS
 10
160.930435
 20
57.2066
 11
160.930435
 21
57.5915
  0
LINE
  8
ボルト／ビス
  6
CONTINUOUS
 10
160.930435
 20
57.19905
 11
160.9971
 21
57.19905
  0
LINE
  8
ボルト／ビス
  6
CONTINUOUS
 10
160.930435
 20
57.19905
 11
160.930435
 21
57.59905
  0
LINE
  8
ボルト／ビス
  6
CONTINUOUS
 10
160.930435
 20
57.59905
 11
160.9971
 21
57.59905
  0
ENDBLK
  0
BLOCK
  2
*GRP_0036
 70
    65
 10
0.0
 20
0.0
  0
LINE
  8
ボルト／ビス
  6
CONTINUOUS
 10
161.0971
 20
12.73238
 11
160.630435
 21
12.73238
  0
LINE
  8
ボルト／ビス
  6
CONTINUOUS
 10
161.0971
 20
13.099045
 11
161.030435
 21
13.099045
  0
LINE
  8
ボルト／ビス
  6
CONTINUOUS
 10
161.030435
 20
13.099045
 11
161.030435
 21
12.365712
  0
LINE
  8
ボルト／ビス
  6
CONTINUOUS
 10
161.030435
 20
12.365712
 11
161.0971
 21
12.365712
  0
LINE
  8
ボルト／ビス
  6
CONTINUOUS
 10
161.0971
 20
13.099045
 11
161.0971
 21
12.365712
  0
LINE
  8
ボルト／ビス
  6
CONTINUOUS
 10
160.9971
 20
13.03238
 11
161.030435
 21
13.03238
  0
LINE
  8
ボルト／ビス
  6
CONTINUOUS
 10
160.9971
 20
13.03238
 11
160.9971
 21
12.43238
  0
LINE
  8
ボルト／ビス
  6
CONTINUOUS
 10
160.9971
 20
12.43238
 11
161.030435
 21
12.43238
  0
LINE
  8
ボルト／ビス
  6
CONTINUOUS
 62
    64
 10
160.7971
 20
12.892755
 11
160.808775
 21
12.92483
  0
ARC
  8
ボルト／ビス
  6
CONTINUOUS
 62
    64
 10
160.902076
 20
12.876716
 40
0.104978
 50
180.0
 51
207.278033
  0
ARC
  8
ボルト／ビス
  6
CONTINUOUS
 62
    64
 10
161.1995
 20
12.732378
 40
0.402402
 50
166.165015
 51
193.834998
  0
LINE
  8
ボルト／ビス
  6
CONTINUOUS
 62
    64
 10
160.7971
 20
12.572005
 11
160.808775
 21
12.53993
  0
ARC
  8
ボルト／ビス
  6
CONTINUOUS
 62
    64
 10
160.902076
 20
12.58804
 40
0.104978
 50
152.721967
 51
180.0
  0
LINE
  8
ボルト／ビス
  6
CONTINUOUS
 62
    64
 10
160.7971
 20
12.892755
 11
160.7971
 21
12.572005
  0
LINE
  8
ボルト／ビス
  6
CONTINUOUS
 62
    64
 10
160.808775
 20
12.53993
 11
160.930435
 21
12.53993
  0
LINE
  8
ボルト／ビス
  6
CONTINUOUS
 62
    64
 10
160.808775
 20
12.636155
 11
160.930435
 21
12.636155
  0
LINE
  8
ボルト／ビス
  6
CONTINUOUS
 62
    64
 10
160.808775
 20
12.92483
 11
160.930435
 21
12.92483
  0
LINE
  8
ボルト／ビス
  6
CONTINUOUS
 62
    64
 10
160.808775
 20
12.828605
 11
160.930435
 21
12.828605
  0
LINE
  8
ボルト／ビス
  6
CONTINUOUS
 10
160.930435
 20
12.92483
 11
160.930435
 21
12.53993
  0
LINE
  8
ボルト／ビス
  6
CONTINUOUS
 10
160.930435
 20
12.93238
 11
160.9971
 21
12.93238
  0
LINE
  8
ボルト／ビス
  6
CONTINUOUS
 10
160.930435
 20
12.93238
 11
160.930435
 21
12.53238
  0
LINE
  8
ボルト／ビス
  6
CONTINUOUS
 10
160.930435
 20
12.53238
 11
160.9971
 21
12.53238
  0
ENDBLK
  0
BLOCK
  2
*GRP_0037
 70
    65
 10
0.0
 20
0.0
  0
LINE
  8
型材断面
  6
DOT
 10
-28.742993
 20
-64.008053
 11
-130.103137
 21
-64.008053
  0
LINE
  8
型材断面
  6
DOT
 10
-28.742993
 20
-65.158053
 11
-131.506322
 21
-65.158053
  0
LINE
  8
型材断面
  6
DOT
 10
-28.742993
 20
-66.32472
 11
-131.506322
 21
-66.32472
  0
LINE
  8
型材断面
  6
DOT
 10
-28.742993
 20
-64.008053
 11
72.617152
 21
-64.008053
  0
LINE
  8
型材断面
  6
DOT
 10
-28.742993
 20
-65.158053
 11
74.020337
 21
-65.158053
  0
LINE
  8
型材断面
  6
DOT
 10
-28.742993
 20
-66.32472
 11
74.020337
 21
-66.32472
  0
LINE
  8
別途部材
  6
DOT
 62
    96
 10
-130.409657
 20
-62.95793
 11
-130.809657
 21
-63.95793
  0
LINE
  8
別途部材
  6
DOT
 62
    96
 10
-130.409657
 20
-62.95793
 11
-28.742993
 21
-62.95793
  0
LINE
  8
別途部材
  6
DOT
 10
-130.809657
 20
-63.95793
 11
-28.742993
 21
-63.95793
  0
LINE
  8
別途部材
  6
DOT
 62
    96
 10
72.923675
 20
-62.95793
 11
73.323675
 21
-63.95793
  0
LINE
  8
別途部材
  6
DOT
 62
    96
 10
72.923675
 20
-62.95793
 11
-28.742993
 21
-62.95793
  0
LINE
  8
別途部材
  6
DOT
 10
73.323675
 20
-63.95793
 11
-28.742993
 21
-63.95793
  0
ARC
  8
別途部材
  6
DOT
 10
49.590341
 20
-77.243645
 40
25.952382
 50
33.398488
 51
90.0
  0
LINE
  8
別途部材
  6
DOT
 10
49.59034
 20
-51.291262
 11
-28.742993
 21
-51.291262
  0
LINE
  8
別途部材
  6
DOT
 10
-107.076325
 20
-51.291262
 11
-28.742993
 21
-51.291262
  0
ARC
  8
別途部材
  6
DOT
 10
-107.076324
 20
-77.243645
 40
25.952382
 50
90.0
 51
146.601512
  0
LINE
  8
鉄骨等
  6
DOT
 62
    47
 10
-131.506322
 20
-66.32472
 11
-131.506322
 21
-65.158053
  0
LINE
  8
鉄骨等
  6
DOT
 62
    47
 10
-131.506322
 20
-65.158053
 11
-130.103137
 21
-64.008053
  0
LINE
  8
鉄骨等
  6
DOT
 62
    47
 10
-130.103137
 20
-64.008053
 11
-130.103137
 21
-63.957932
  0
LINE
  8
鉄骨等
  6
DOT
 62
    47
 10
74.020337
 20
-66.32472
 11
74.020337
 21
-65.158053
  0
LINE
  8
鉄骨等
  6
DOT
 62
    47
 10
74.020337
 20
-65.158053
 11
72.617152
 21
-64.008053
  0
LINE
  8
鉄骨等
  6
DOT
 62
    47
 10
72.617152
 20
-64.008053
 11
72.617152
 21
-63.957932
  0
ENDBLK
  0
BLOCK
  2
*GRP_0038
 70
    65
 10
0.0
 20
0.0
  0
LINE
  8
ボルト／ビス
  6
CONTINUOUS
 10
71.923675
 20
-79.624597
 11
71.923675
 21
-79.157932
  0
LINE
  8
ボルト／ビス
  6
CONTINUOUS
 10
72.29034
 20
-79.624597
 11
72.29034
 21
-79.557932
  0
LINE
  8
ボルト／ビス
  6
CONTINUOUS
 10
72.29034
 20
-79.557932
 11
71.557007
 21
-79.557932
  0
LINE
  8
ボルト／ビス
  6
CONTINUOUS
 10
71.557007
 20
-79.557932
 11
71.557007
 21
-79.624597
  0
LINE
  8
ボルト／ビス
  6
CONTINUOUS
 10
72.29034
 20
-79.624597
 11
71.557007
 21
-79.624597
  0
LINE
  8
ボルト／ビス
  6
CONTINUOUS
 10
72.223675
 20
-79.524597
 11
72.223675
 21
-79.557932
  0
LINE
  8
ボルト／ビス
  6
CONTINUOUS
 10
72.223675
 20
-79.524597
 11
71.623675
 21
-79.524597
  0
LINE
  8
ボルト／ビス
  6
CONTINUOUS
 10
71.623675
 20
-79.524597
 11
71.623675
 21
-79.557932
  0
LINE
  8
ボルト／ビス
  6
CONTINUOUS
 62
    64
 10
72.08405
 20
-79.324597
 11
72.116125
 21
-79.336272
  0
ARC
  8
ボルト／ビス
  6
CONTINUOUS
 62
    64
 10
72.068009
 20
-79.429576
 40
0.104978
 50
90.0
 51
117.278033
  0
ARC
  8
ボルト／ビス
  6
CONTINUOUS
 62
    64
 10
71.923672
 20
-79.727
 40
0.402402
 50
76.165015
 51
103.834998
  0
LINE
  8
ボルト／ビス
  6
CONTINUOUS
 62
    64
 10
71.7633
 20
-79.324597
 11
71.731225
 21
-79.336272
  0
ARC
  8
ボルト／ビス
  6
CONTINUOUS
 62
    64
 10
71.779334
 20
-79.429576
 40
0.104978
 50
62.721967
 51
90.0
  0
LINE
  8
ボルト／ビス
  6
CONTINUOUS
 62
    64
 10
72.08405
 20
-79.324597
 11
71.7633
 21
-79.324597
  0
LINE
  8
ボルト／ビス
  6
CONTINUOUS
 62
    64
 10
71.731225
 20
-79.336272
 11
71.731225
 21
-79.457932
  0
LINE
  8
ボルト／ビス
  6
CONTINUOUS
 62
    64
 10
71.82745
 20
-79.336272
 11
71.82745
 21
-79.457932
  0
LINE
  8
ボルト／ビス
  6
CONTINUOUS
 62
    64
 10
72.116125
 20
-79.336272
 11
72.116125
 21
-79.457932
  0
LINE
  8
ボルト／ビス
  6
CONTINUOUS
 62
    64
 10
72.0199
 20
-79.336272
 11
72.0199
 21
-79.457932
  0
LINE
  8
ボルト／ビス
  6
CONTINUOUS
 10
72.116125
 20
-79.457932
 11
71.731225
 21
-79.457932
  0
LINE
  8
ボルト／ビス
  6
CONTINUOUS
 10
72.123675
 20
-79.457932
 11
72.123675
 21
-79.524597
  0
LINE
  8
ボルト／ビス
  6
CONTINUOUS
 10
72.123675
 20
-79.457932
 11
71.723675
 21
-79.457932
  0
LINE
  8
ボルト／ビス
  6
CONTINUOUS
 10
71.723675
 20
-79.457932
 11
71.723675
 21
-79.524597
  0
ENDBLK
  0
BLOCK
  2
*GRP_0039
 70
    65
 10
0.0
 20
0.0
  0
LINE
  8
ボルト／ビス
  6
DOT
 10
71.923675
 20
-62.95793
 11
71.923675
 21
-62.491265
  0
LINE
  8
ボルト／ビス
  6
DOT
 10
72.29034
 20
-62.95793
 11
72.29034
 21
-62.891265
  0
LINE
  8
ボルト／ビス
  6
DOT
 10
72.29034
 20
-62.891265
 11
71.557007
 21
-62.891265
  0
LINE
  8
ボルト／ビス
  6
DOT
 10
71.557007
 20
-62.891265
 11
71.557007
 21
-62.95793
  0
LINE
  8
ボルト／ビス
  6
DOT
 10
72.29034
 20
-62.95793
 11
71.557007
 21
-62.95793
  0
LINE
  8
ボルト／ビス
  6
DOT
 10
72.223675
 20
-62.85793
 11
72.223675
 21
-62.891265
  0
LINE
  8
ボルト／ビス
  6
DOT
 10
72.223675
 20
-62.85793
 11
71.623675
 21
-62.85793
  0
LINE
  8
ボルト／ビス
  6
DOT
 10
71.623675
 20
-62.85793
 11
71.623675
 21
-62.891265
  0
LINE
  8
ボルト／ビス
  6
DOT
 62
    64
 10
72.08405
 20
-62.65793
 11
72.116125
 21
-62.669605
  0
ARC
  8
ボルト／ビス
  6
DOT
 62
    64
 10
72.068009
 20
-62.762908
 40
0.104978
 50
90.0
 51
117.278033
  0
ARC
  8
ボルト／ビス
  6
DOT
 62
    64
 10
71.923672
 20
-63.060332
 40
0.402402
 50
76.165015
 51
103.834998
  0
LINE
  8
ボルト／ビス
  6
DOT
 62
    64
 10
71.7633
 20
-62.65793
 11
71.731225
 21
-62.669605
  0
ARC
  8
ボルト／ビス
  6
DOT
 62
    64
 10
71.779334
 20
-62.762908
 40
0.104978
 50
62.721967
 51
90.0
  0
LINE
  8
ボルト／ビス
  6
DOT
 62
    64
 10
72.08405
 20
-62.65793
 11
71.7633
 21
-62.65793
  0
LINE
  8
ボルト／ビス
  6
DOT
 62
    64
 10
71.731225
 20
-62.669605
 11
71.731225
 21
-62.791265
  0
LINE
  8
ボルト／ビス
  6
DOT
 62
    64
 10
71.82745
 20
-62.669605
 11
71.82745
 21
-62.791265
  0
LINE
  8
ボルト／ビス
  6
DOT
 62
    64
 10
72.116125
 20
-62.669605
 11
72.116125
 21
-62.791265
  0
LINE
  8
ボルト／ビス
  6
DOT
 62
    64
 10
72.0199
 20
-62.669605
 11
72.0199
 21
-62.791265
  0
LINE
  8
ボルト／ビス
  6
DOT
 10
72.116125
 20
-62.791265
 11
71.731225
 21
-62.791265
  0
LINE
  8
ボルト／ビス
  6
DOT
 10
72.123675
 20
-62.791265
 11
72.123675
 21
-62.85793
  0
LINE
  8
ボルト／ビス
  6
DOT
 10
72.123675
 20
-62.791265
 11
71.723675
 21
-62.791265
  0
LINE
  8
ボルト／ビス
  6
DOT
 10
71.723675
 20
-62.791265
 11
71.723675
 21
-62.85793
  0
ENDBLK
  0
BLOCK
  2
*GRP_0040
 70
    65
 10
0.0
 20
0.0
  0
LINE
  8
ボルト／ビス
  6
CONTINUOUS
 10
-129.40966
 20
-79.624597
 11
-129.40966
 21
-79.157932
  0
LINE
  8
ボルト／ビス
  6
CONTINUOUS
 10
-129.776325
 20
-79.624597
 11
-129.776325
 21
-79.557932
  0
LINE
  8
ボルト／ビス
  6
CONTINUOUS
 10
-129.776325
 20
-79.557932
 11
-129.042993
 21
-79.557932
  0
LINE
  8
ボルト／ビス
  6
CONTINUOUS
 10
-129.042993
 20
-79.557932
 11
-129.042993
 21
-79.624597
  0
LINE
  8
ボルト／ビス
  6
CONTINUOUS
 10
-129.776325
 20
-79.624597
 11
-129.042993
 21
-79.624597
  0
LINE
  8
ボルト／ビス
  6
CONTINUOUS
 10
-129.70966
 20
-79.524597
 11
-129.70966
 21
-79.557932
  0
LINE
  8
ボルト／ビス
  6
CONTINUOUS
 10
-129.70966
 20
-79.524597
 11
-129.10966
 21
-79.524597
  0
LINE
  8
ボルト／ビス
  6
CONTINUOUS
 10
-129.10966
 20
-79.524597
 11
-129.10966
 21
-79.557932
  0
LINE
  8
ボルト／ビス
  6
CONTINUOUS
 62
    64
 10
-129.570035
 20
-79.324597
 11
-129.60211
 21
-79.336272
  0
ARC
  8
ボルト／ビス
  6
CONTINUOUS
 62
    64
 10
-129.553994
 20
-79.429576
 40
0.104978
 50
62.721967
 51
90.0
  0
ARC
  8
ボルト／ビス
  6
CONTINUOUS
 62
    64
 10
-129.409657
 20
-79.727
 40
0.402402
 50
76.165002
 51
103.834985
  0
LINE
  8
ボルト／ビス
  6
CONTINUOUS
 62
    64
 10
-129.249285
 20
-79.324597
 11
-129.21721
 21
-79.336272
  0
ARC
  8
ボルト／ビス
  6
CONTINUOUS
 62
    64
 10
-129.265319
 20
-79.429576
 40
0.104978
 50
90.0
 51
117.278033
  0
LINE
  8
ボルト／ビス
  6
CONTINUOUS
 62
    64
 10
-129.570035
 20
-79.324597
 11
-129.249285
 21
-79.324597
  0
LINE
  8
ボルト／ビス
  6
CONTINUOUS
 62
    64
 10
-129.21721
 20
-79.336272
 11
-129.21721
 21
-79.457932
  0
LINE
  8
ボルト／ビス
  6
CONTINUOUS
 62
    64
 10
-129.313435
 20
-79.336272
 11
-129.313435
 21
-79.457932
  0
LINE
  8
ボルト／ビス
  6
CONTINUOUS
 62
    64
 10
-129.60211
 20
-79.336272
 11
-129.60211
 21
-79.457932
  0
LINE
  8
ボルト／ビス
  6
CONTINUOUS
 62
    64
 10
-129.505885
 20
-79.336272
 11
-129.505885
 21
-79.457932
  0
LINE
  8
ボルト／ビス
  6
CONTINUOUS
 10
-129.60211
 20
-79.457932
 11
-129.21721
 21
-79.457932
  0
LINE
  8
ボルト／ビス
  6
CONTINUOUS
 10
-129.60966
 20
-79.457932
 11
-129.60966
 21
-79.524597
  0
LINE
  8
ボルト／ビス
  6
CONTINUOUS
 10
-129.60966
 20
-79.457932
 11
-129.20966
 21
-79.457932
  0
LINE
  8
ボルト／ビス
  6
CONTINUOUS
 10
-129.20966
 20
-79.457932
 11
-129.20966
 21
-79.524597
  0
ENDBLK
  0
BLOCK
  2
*GRP_0041
 70
    65
 10
0.0
 20
0.0
  0
LINE
  8
ボルト／ビス
  6
DOT
 10
-129.40966
 20
-62.95793
 11
-129.40966
 21
-62.491265
  0
LINE
  8
ボルト／ビス
  6
DOT
 10
-129.776325
 20
-62.95793
 11
-129.776325
 21
-62.891265
  0
LINE
  8
ボルト／ビス
  6
DOT
 10
-129.776325
 20
-62.891265
 11
-129.042993
 21
-62.891265
  0
LINE
  8
ボルト／ビス
  6
DOT
 10
-129.042993
 20
-62.891265
 11
-129.042993
 21
-62.95793
  0
LINE
  8
ボルト／ビス
  6
DOT
 10
-129.776325
 20
-62.95793
 11
-129.042993
 21
-62.95793
  0
LINE
  8
ボルト／ビス
  6
DOT
 10
-129.70966
 20
-62.85793
 11
-129.70966
 21
-62.891265
  0
LINE
  8
ボルト／ビス
  6
DOT
 10
-129.70966
 20
-62.85793
 11
-129.10966
 21
-62.85793
  0
LINE
  8
ボルト／ビス
  6
DOT
 10
-129.10966
 20
-62.85793
 11
-129.10966
 21
-62.891265
  0
LINE
  8
ボルト／ビス
  6
DOT
 62
    64
 10
-129.570035
 20
-62.65793
 11
-129.60211
 21
-62.669605
  0
ARC
  8
ボルト／ビス
  6
DOT
 62
    64
 10
-129.553994
 20
-62.762908
 40
0.104978
 50
62.721967
 51
90.0
  0
ARC
  8
ボルト／ビス
  6
DOT
 62
    64
 10
-129.409657
 20
-63.060332
 40
0.402402
 50
76.165002
 51
103.834985
  0
LINE
  8
ボルト／ビス
  6
DOT
 62
    64
 10
-129.249285
 20
-62.65793
 11
-129.21721
 21
-62.669605
  0
ARC
  8
ボルト／ビス
  6
DOT
 62
    64
 10
-129.265319
 20
-62.762908
 40
0.104978
 50
90.0
 51
117.278033
  0
LINE
  8
ボルト／ビス
  6
DOT
 62
    64
 10
-129.570035
 20
-62.65793
 11
-129.249285
 21
-62.65793
  0
LINE
  8
ボルト／ビス
  6
DOT
 62
    64
 10
-129.21721
 20
-62.669605
 11
-129.21721
 21
-62.791265
  0
LINE
  8
ボルト／ビス
  6
DOT
 62
    64
 10
-129.313435
 20
-62.669605
 11
-129.313435
 21
-62.791265
  0
LINE
  8
ボルト／ビス
  6
DOT
 62
    64
 10
-129.60211
 20
-62.669605
 11
-129.60211
 21
-62.791265
  0
LINE
  8
ボルト／ビス
  6
DOT
 62
    64
 10
-129.505885
 20
-62.669605
 11
-129.505885
 21
-62.791265
  0
LINE
  8
ボルト／ビス
  6
DOT
 10
-129.60211
 20
-62.791265
 11
-129.21721
 21
-62.791265
  0
LINE
  8
ボルト／ビス
  6
DOT
 10
-129.60966
 20
-62.791265
 11
-129.60966
 21
-62.85793
  0
LINE
  8
ボルト／ビス
  6
DOT
 10
-129.60966
 20
-62.791265
 11
-129.20966
 21
-62.791265
  0
LINE
  8
ボルト／ビス
  6
DOT
 10
-129.20966
 20
-62.791265
 11
-129.20966
 21
-62.85793
  0
ENDBLK
  0
BLOCK
  2
*DIM_0042
 70
    65
 10
0.0
 20
0.0
  0
LINE
  8
寸法
  6
BYBLOCK
 62
     0
 10
52.59034
 20
-51.291262
 11
93.39925
 21
-51.291262
  0
LINE
  8
寸法
  6
BYBLOCK
 62
     0
 10
93.39925
 20
-67.95793
 11
93.39925
 21
-51.291262
  0
POINT
  8
寸法
 62
     0
 10
93.39925
 20
-51.291262
  0
TEXT
  7
TextStyle03
  8
寸法
  6
CONTINUOUS
 62
     0
 10
92.6
 20
-50.0875
  1
上昇高さ500
 40
3.0
 50
90.0
 72
     5
 11
92.6
 21
-31.7125
  0
ENDBLK
  0
ENDSEC
  0
SECTION
  2
ENTITIES
  0
POLYLINE
  8
通り芯
  6
CONTINUOUS
 66
     1
 70
     1
  0
VERTEX
  8
通り芯
 10
-210.0
 20
-148.5
  0
VERTEX
  8
通り芯
 10
210.0
 20
-148.5
  0
VERTEX
  8
通り芯
 10
210.0
 20
148.5
  0
VERTEX
  8
通り芯
 10
-210.0
 20
148.5
  0
SEQEND
  0
INSERT
  2
*GRP_0001
  8
型材断面
  6
CONTINUOUS
 10
0.0
 20
0.0
  0
LINE
  8
型材断面
  6
DASHDOT
 10
-128.742993
 20
13.399048
 11
168.93377
 21
13.399048
  0
LINE
  8
型材断面
  6
DASHDOT
 10
-128.742993
 20
56.73238
 11
168.93377
 21
56.73238
  0
LINE
  8
型材断面
  6
DASHDOT
 10
-128.742993
 20
35.065715
 11
168.93377
 21
35.065715
  0
POLYLINE
  8
型材断面
  6
CONTINUOUS
 66
     1
 70
     1
  0
VERTEX
  8
型材断面
 10
-19.342983
 20
66.508305
  0
VERTEX
  8
型材断面
 10
-38.114912
 20
66.508305
  0
VERTEX
  8
型材断面
 10
-38.114912
 20
71.245147
  0
VERTEX
  8
型材断面
 10
-19.342983
 20
71.245147
  0
SEQEND
  0
LINE
  8
型材断面
  6
DASHDOT
 10
-128.742993
 20
-87.251428
 11
-128.742993
 21
56.73238
  0
LINE
  8
型材断面
  6
DASHDOT
 10
-28.742993
 20
-87.251428
 11
-28.742993
 21
56.73238
  0
LINE
  8
型材断面
  6
DASHDOT
 10
71.257007
 20
-87.251428
 11
71.257007
 21
56.73238
  0
POLYLINE
  8
型材断面
  6
CONTINUOUS
 66
     1
 70
     1
  0
VERTEX
  8
型材断面
 10
-19.342983
 20
3.623125
  0
VERTEX
  8
型材断面
 10
-38.114912
 20
3.623125
  0
VERTEX
  8
型材断面
 10
-38.114912
 20
-1.113717
  0
VERTEX
  8
型材断面
 10
-19.342983
 20
-1.113717
  0
SEQEND
  0
LINE
  8
型材断面
  6
CONTINUOUS
 10
-169.5952
 20
94.709852
 11
-168.999145
 21
92.119345
  0
LINE
  8
型材断面
  6
CONTINUOUS
 10
-169.5952
 20
94.709852
 11
-170.191258
 21
92.119345
  0
LINE
  8
型材断面
  6
CONTINUOUS
 10
-170.191258
 20
92.119345
 11
-168.999145
 21
92.119345
  0
LINE
  8
型材断面
  6
CONTINUOUS
 10
-175.617788
 20
88.840452
 11
-129.37601
 21
88.840452
  0
LINE
  8
型材断面
  6
CONTINUOUS
 10
-169.5952
 20
101.239727
 11
-171.09083
 21
98.64922
  0
LINE
  8
型材断面
  6
CONTINUOUS
 10
-169.5952
 20
101.239727
 11
-168.09957
 21
98.64922
  0
LINE
  8
型材断面
  6
CONTINUOUS
 10
-168.09957
 20
98.64922
 11
-171.09083
 21
98.64922
  0
LINE
  8
型材断面
  6
CONTINUOUS
 10
-175.617788
 20
97.710625
 11
-129.37601
 21
97.710625
  0
LINE
  8
型材断面
  6
CONTINUOUS
 10
-175.617788
 20
83.05242
 11
-129.37601
 21
83.05242
  0
LINE
  8
型材断面
  6
DOT
 10
-29.992993
 20
56.73238
 11
-29.992993
 21
13.399048
  0
LINE
  8
型材断面
  6
DOT
 10
-27.492993
 20
56.73238
 11
-27.492993
 21
13.399048
  0
INSERT
  2
*GRP_0009
  8
型材断面
  6
CONTINUOUS
 10
0.0
 20
0.0
  0
INSERT
  2
*GRP_0010
  8
型材断面
  6
CONTINUOUS
 10
0.0
 20
0.0
  0
INSERT
  2
*GRP_0011
  8
型材断面
  6
CONTINUOUS
 10
0.0
 20
0.0
  0
INSERT
  2
*GRP_0012
  8
型材断面
  6
CONTINUOUS
 10
0.0
 20
0.0
  0
LINE
  8
型材断面
  6
CONTINUOUS
 10
-175.617788
 20
77.264387
 11
-129.37601
 21
77.264387
  0
INSERT
  2
*GRP_0022
  8
型材断面
  6
CONTINUOUS
 10
0.0
 20
0.0
  0
INSERT
  2
*GRP_0023
  8
型材断面
  6
CONTINUOUS
 10
0.0
 20
0.0
  0
LINE
  8
型材断面
  6
CONTINUOUS
 10
-28.742993
 20
-80.67472
 11
-130.103137
 21
-80.67472
  0
LINE
  8
型材断面
  6
CONTINUOUS
 10
-28.742993
 20
-81.82472
 11
-131.506322
 21
-81.82472
  0
LINE
  8
型材断面
  6
CONTINUOUS
 10
-28.742993
 20
-82.991388
 11
-131.506322
 21
-82.991388
  0
LINE
  8
型材断面
  6
CONTINUOUS
 10
-28.742993
 20
-80.67472
 11
72.617152
 21
-80.67472
  0
LINE
  8
型材断面
  6
CONTINUOUS
 10
-28.742993
 20
-81.82472
 11
74.020337
 21
-81.82472
  0
LINE
  8
型材断面
  6
CONTINUOUS
 10
-28.742993
 20
-82.991388
 11
74.020337
 21
-82.991388
  0
LINE
  8
型材断面
  6
CONTINUOUS
 10
73.323675
 20
58.79905
 11
74.020337
 21
59.49571
  0
LINE
  8
型材断面
  6
CONTINUOUS
 10
73.323675
 20
11.33238
 11
74.020342
 21
10.635715
  0
LINE
  8
型材断面
  6
CONTINUOUS
 10
74.020337
 20
59.495715
 11
74.020337
 21
10.635715
  0
LINE
  8
型材断面
  6
CONTINUOUS
 10
-130.80966
 20
11.33238
 11
-131.506328
 21
10.635715
  0
LINE
  8
型材断面
  6
CONTINUOUS
 10
74.020337
 20
10.635715
 11
-131.506322
 21
10.635715
  0
LINE
  8
型材断面
  6
CONTINUOUS
 10
-131.506322
 20
10.635715
 11
-131.506322
 21
59.495715
  0
LINE
  8
型材断面
  6
CONTINUOUS
 10
74.020337
 20
59.495715
 11
-131.506322
 21
59.495715
  0
LINE
  8
型材断面
  6
CONTINUOUS
 10
-130.80966
 20
58.79905
 11
-131.506328
 21
59.495715
  0
LINE
  8
型材断面
  6
CONTINUOUS
 10
-131.506322
 20
35.065715
 11
-134.09683
 21
36.561345
  0
LINE
  8
型材断面
  6
CONTINUOUS
 10
-131.506322
 20
35.065715
 11
-134.09683
 21
33.570085
  0
LINE
  8
型材断面
  6
CONTINUOUS
 10
-134.09683
 20
33.570085
 11
-134.09683
 21
36.561345
  0
LINE
  8
型材断面
  6
CONTINUOUS
 10
-131.506322
 20
53.032382
 11
-134.096832
 21
52.43633
  0
LINE
  8
型材断面
  6
CONTINUOUS
 10
-131.506322
 20
53.032382
 11
-134.09683
 21
53.628442
  0
LINE
  8
型材断面
  6
CONTINUOUS
 10
-134.09683
 20
53.628442
 11
-134.096832
 21
52.43633
  0
LINE
  8
型材断面
  6
CONTINUOUS
 10
-131.506322
 20
17.099048
 11
-134.096832
 21
17.6951
  0
LINE
  8
型材断面
  6
CONTINUOUS
 10
-131.506322
 20
17.099048
 11
-134.09683
 21
16.502988
  0
LINE
  8
型材断面
  6
CONTINUOUS
 10
-134.09683
 20
16.502988
 11
-134.096832
 21
17.6951
  0
LINE
  8
型材断面
  6
CONTINUOUS
 10
-112.076325
 20
59.495715
 11
-113.571955
 21
62.086223
  0
LINE
  8
型材断面
  6
CONTINUOUS
 10
-112.076325
 20
59.495715
 11
-110.580695
 21
62.086223
  0
LINE
  8
型材断面
  6
CONTINUOUS
 10
-110.580695
 20
62.086223
 11
-113.571955
 21
62.086223
  0
LINE
  8
型材断面
  6
CONTINUOUS
 10
-28.742993
 20
59.495715
 11
-30.238623
 21
62.086223
  0
LINE
  8
型材断面
  6
CONTINUOUS
 10
-28.742993
 20
59.495715
 11
-27.247362
 21
62.086223
  0
LINE
  8
型材断面
  6
CONTINUOUS
 10
-27.247362
 20
62.086223
 11
-30.238623
 21
62.086223
  0
LINE
  8
型材断面
  6
CONTINUOUS
 10
54.59034
 20
59.495715
 11
53.09471
 21
62.086223
  0
LINE
  8
型材断面
  6
CONTINUOUS
 10
54.59034
 20
59.495715
 11
56.08597
 21
62.086223
  0
LINE
  8
型材断面
  6
CONTINUOUS
 10
56.08597
 20
62.086223
 11
53.09471
 21
62.086223
  0
LINE
  8
型材断面
  6
CONTINUOUS
 10
74.020337
 20
35.065715
 11
76.610845
 21
36.561345
  0
LINE
  8
型材断面
  6
CONTINUOUS
 10
74.020337
 20
35.065715
 11
76.610845
 21
33.570085
  0
LINE
  8
型材断面
  6
CONTINUOUS
 10
76.610845
 20
33.570085
 11
76.610845
 21
36.561345
  0
LINE
  8
型材断面
  6
CONTINUOUS
 10
74.020337
 20
53.032382
 11
76.610848
 21
52.43633
  0
LINE
  8
型材断面
  6
CONTINUOUS
 10
74.020337
 20
53.032382
 11
76.610845
 21
53.628442
  0
LINE
  8
型材断面
  6
CONTINUOUS
 10
76.610845
 20
53.628442
 11
76.610848
 21
52.43633
  0
LINE
  8
型材断面
  6
CONTINUOUS
 10
74.020337
 20
17.099048
 11
76.610848
 21
17.6951
  0
LINE
  8
型材断面
  6
CONTINUOUS
 10
74.020337
 20
17.099048
 11
76.610845
 21
16.502988
  0
LINE
  8
型材断面
  6
CONTINUOUS
 10
76.610845
 20
16.502988
 11
76.610848
 21
17.6951
  0
LINE
  8
型材断面
  6
CONTINUOUS
 10
-112.076325
 20
10.635715
 11
-113.571955
 21
8.045207
  0
LINE
  8
型材断面
  6
CONTINUOUS
 10
-112.076325
 20
10.635715
 11
-110.580695
 21
8.045207
  0
LINE
  8
型材断面
  6
CONTINUOUS
 10
-110.580695
 20
8.045207
 11
-113.571955
 21
8.045207
  0
LINE
  8
型材断面
  6
CONTINUOUS
 10
-28.742993
 20
10.635715
 11
-30.238623
 21
8.045207
  0
LINE
  8
型材断面
  6
CONTINUOUS
 10
-28.742993
 20
10.635715
 11
-27.247362
 21
8.045207
  0
LINE
  8
型材断面
  6
CONTINUOUS
 10
-27.247362
 20
8.045207
 11
-30.238623
 21
8.045207
  0
LINE
  8
型材断面
  6
CONTINUOUS
 10
54.59034
 20
10.635715
 11
53.09471
 21
8.045207
  0
LINE
  8
型材断面
  6
CONTINUOUS
 10
54.59034
 20
10.635715
 11
56.08597
 21
8.045207
  0
LINE
  8
型材断面
  6
CONTINUOUS
 10
56.08597
 20
8.045207
 11
53.09471
 21
8.045207
  0
LINE
  8
型材断面
  6
DASHDOT
 10
-95.766327
 20
13.399048
 11
-95.766327
 21
56.73238
  0
LINE
  8
型材断面
  6
DOT
 10
-94.516327
 20
56.73238
 11
-94.516327
 21
13.399048
  0
LINE
  8
型材断面
  6
DOT
 10
-97.016327
 20
56.73238
 11
-97.016327
 21
13.399048
  0
LINE
  8
型材断面
  6
DASHDOT
 10
-62.256328
 20
13.399048
 11
-62.256328
 21
56.73238
  0
LINE
  8
型材断面
  6
DOT
 10
-63.506328
 20
56.73238
 11
-63.506328
 21
13.399048
  0
LINE
  8
型材断面
  6
DOT
 10
-61.006328
 20
56.73238
 11
-61.006328
 21
13.399048
  0
LINE
  8
型材断面
  6
DASHDOT
 10
38.280343
 20
13.399048
 11
38.280343
 21
56.73238
  0
LINE
  8
型材断面
  6
DOT
 10
37.030343
 20
56.73238
 11
37.030343
 21
13.399048
  0
LINE
  8
型材断面
  6
DOT
 10
39.530343
 20
56.73238
 11
39.530343
 21
13.399048
  0
LINE
  8
型材断面
  6
DASHDOT
 10
4.770342
 20
13.399048
 11
4.770342
 21
56.73238
  0
LINE
  8
型材断面
  6
DOT
 10
6.020342
 20
56.73238
 11
6.020342
 21
13.399048
  0
LINE
  8
型材断面
  6
DOT
 10
3.520342
 20
56.73238
 11
3.520342
 21
13.399048
  0
LINE
  8
型材断面
  6
CONTINUOUS
 10
73.520337
 20
-87.124605
 11
73.520337
 21
-87.46127
  0
LINE
  8
型材断面
  6
CONTINUOUS
 10
74.020337
 20
-87.124605
 11
73.520337
 21
-87.124605
  0
LINE
  8
型材断面
  6
CONTINUOUS
 10
74.020337
 20
-83.224723
 11
73.823712
 21
-83.0281
  0
LINE
  8
型材断面
  6
CONTINUOUS
 10
74.020337
 20
-83.224723
 11
74.020337
 21
-87.124605
  0
LINE
  8
型材断面
  6
CONTINUOUS
 10
74.020337
 20
-87.124605
 11
-28.742998
 21
-87.124605
  0
LINE
  8
型材断面
  6
CONTINUOUS
 10
73.520337
 20
-87.46127
 11
-28.742998
 21
-87.46127
  0
LINE
  8
型材断面
  6
CONTINUOUS
 10
74.020337
 20
-83.224723
 11
-28.742998
 21
-83.224723
  0
LINE
  8
型材断面
  6
CONTINUOUS
 62
    47
 10
73.823712
 20
-83.0281
 11
-28.742998
 21
-83.0281
  0
LINE
  8
型材断面
  6
CONTINUOUS
 10
164.463888
 20
10.635715
 11
164.463888
 21
35.065715
  0
LINE
  8
型材断面
  6
CONTINUOUS
 10
162.14722
 20
12.0389
 11
162.14722
 21
35.065715
  0
LINE
  8
型材断面
  6
CONTINUOUS
 10
163.29722
 20
35.065715
 11
163.29722
 21
10.635715
  0
LINE
  8
型材断面
  6
CONTINUOUS
 10
164.463888
 20
59.495715
 11
164.463888
 21
35.065715
  0
LINE
  8
型材断面
  6
CONTINUOUS
 10
162.14722
 20
58.09253
 11
162.14722
 21
35.065715
  0
LINE
  8
型材断面
  6
CONTINUOUS
 10
163.29722
 20
35.065715
 11
163.29722
 21
59.495715
  0
LINE
  8
型材断面
  6
CONTINUOUS
 10
168.597105
 20
58.995715
 11
168.93377
 21
58.995715
  0
LINE
  8
型材断面
  6
CONTINUOUS
 10
168.597105
 20
59.495715
 11
168.597105
 21
58.995715
  0
LINE
  8
型材断面
  6
CONTINUOUS
 10
164.697222
 20
59.495715
 11
164.5006
 21
59.29909
  0
LINE
  8
型材断面
  6
CONTINUOUS
 10
164.697222
 20
59.495715
 11
168.597105
 21
59.495715
  0
LINE
  8
型材断面
  6
CONTINUOUS
 62
    47
 10
164.5006
 20
59.29909
 11
164.5006
 21
35.065715
  0
LINE
  8
型材断面
  6
CONTINUOUS
 10
164.697222
 20
59.495715
 11
164.697222
 21
35.065715
  0
LINE
  8
型材断面
  6
CONTINUOUS
 10
168.93377
 20
58.995715
 11
168.93377
 21
35.065715
  0
LINE
  8
型材断面
  6
CONTINUOUS
 10
168.597105
 20
59.495715
 11
168.597105
 21
35.065715
  0
LINE
  8
型材断面
  6
CONTINUOUS
 10
168.597105
 20
11.135715
 11
168.93377
 21
11.135715
  0
LINE
  8
型材断面
  6
CONTINUOUS
 10
168.597105
 20
10.635715
 11
168.597105
 21
11.135715
  0
LINE
  8
型材断面
  6
CONTINUOUS
 10
164.697222
 20
10.635715
 11
164.5006
 21
10.83234
  0
LINE
  8
型材断面
  6
CONTINUOUS
 10
164.697222
 20
10.635715
 11
168.597105
 21
10.635715
  0
LINE
  8
型材断面
  6
CONTINUOUS
 62
    47
 10
164.5006
 20
10.83234
 11
164.5006
 21
35.065715
  0
LINE
  8
型材断面
  6
CONTINUOUS
 10
164.697222
 20
10.635715
 11
164.697222
 21
35.065715
  0
LINE
  8
型材断面
  6
CONTINUOUS
 10
168.93377
 20
11.135715
 11
168.93377
 21
35.065715
  0
LINE
  8
型材断面
  6
CONTINUOUS
 10
168.597105
 20
10.635715
 11
168.597105
 21
35.065715
  0
LINE
  8
型材断面
  6
CONTINUOUS
 10
-131.006322
 20
-87.124605
 11
-131.006322
 21
-87.46127
  0
LINE
  8
型材断面
  6
CONTINUOUS
 10
-131.506322
 20
-87.124605
 11
-131.006322
 21
-87.124605
  0
LINE
  8
型材断面
  6
CONTINUOUS
 10
-131.506322
 20
-83.224723
 11
-131.309698
 21
-83.0281
  0
LINE
  8
型材断面
  6
CONTINUOUS
 10
-131.506322
 20
-83.224723
 11
-131.506322
 21
-87.124605
  0
LINE
  8
型材断面
  6
CONTINUOUS
 10
-131.506322
 20
-87.124605
 11
-28.742987
 21
-87.124605
  0
LINE
  8
型材断面
  6
CONTINUOUS
 10
-131.006322
 20
-87.46127
 11
-28.742987
 21
-87.46127
  0
LINE
  8
型材断面
  6
CONTINUOUS
 10
-131.506322
 20
-83.224723
 11
-28.742987
 21
-83.224723
  0
LINE
  8
型材断面
  6
CONTINUOUS
 62
    47
 10
-131.309698
 20
-83.0281
 11
-28.742987
 21
-83.0281
  0
TEXT
  7
TextStyle03
  8
文字
  6
CONTINUOUS
 10
-37.025
 20
67.2
  1
可動装置側
 40
3.0
 72
     5
 11
-20.525
 21
67.2
  0
TEXT
  7
TextStyle03
  8
文字
  6
CONTINUOUS
 10
-37.025
 20
-0.075
  1
可動装置側
 40
3.0
 72
     5
 11
-20.525
 21
-0.075
  0
TEXT
  7
TextStyle03
  8
文字
  6
CONTINUOUS
 10
-166.775
 20
93.325
  1
はケーシング位置を示す
 40
3.0
 72
     5
 11
-130.025
 21
93.325
  0
TEXT
  7
TextStyle03
  8
文字
  6
CONTINUOUS
 10
-166.775
 20
89.95
  1
４ヶ所中1ヶ所に設定
 40
3.0
 72
     5
 11
-135.0875
 21
89.95
  0
TEXT
  7
TextStyle03
  8
文字
  6
CONTINUOUS
 10
-166.775
 20
98.85
  1
は排水穴位置を示す
 40
3.0
 72
     5
 11
-136.775
 21
98.85
  0
TEXT
  7
TextStyle03
  8
文字
  6
CONTINUOUS
 10
-166.2
 20
23.975
  1
アンカーピッチ
 40
3.0
 50
90.0
 72
     5
 11
-166.2
 21
47.225
  0
TEXT
  7
TextStyle03
  8
文字
  6
CONTINUOUS
 10
-115.3
 20
93.875
  1
アンカーピッチ
 40
3.0
 72
     5
 11
-92.05
 21
93.875
  0
TEXT
  7
TextStyle03
  8
文字
  6
CONTINUOUS
 10
-170.5
 20
83.975
  1
アンカー数量　２２ヶ所
 40
3.0
 72
     5
 11
-133.75
 21
83.975
  0
TEXT
  7
TextStyle03
  8
文字
  6
CONTINUOUS
 10
-175.5
 20
73.25
  1
※重量に依るのでご相談ください
 40
3.0
 72
     5
 11
-125.25
 21
73.25
  0
TEXT
  7
TextStyle03
  8
文字
  6
CONTINUOUS
 10
-175.5
 20
78.2
  1
アームユニット数　※６～８ヶ所
 40
3.0
 72
     5
 11
-125.25
 21
78.2
  0
LINE
  8
文字
  6
CONTINUOUS
 10
74.020337
 20
-22.536362
 11
74.020337
 21
-80.731595
  0
LINE
  8
文字
  6
CONTINUOUS
 10
-131.506322
 20
-22.536362
 11
-131.506322
 21
-80.735257
  0
TEXT
  7
TextStyle03
  8
文字
  6
CONTINUOUS
 10
142.8
 20
-87.175
  1
網入り6.8t
 40
3.0
 72
     5
 11
159.4875
 21
-87.175
  0
TEXT
  7
TextStyle03
  8
文字
  6
CONTINUOUS
 10
149.475
 20
-91.85
  1
×６枚
 40
3.0
 72
     5
 11
159.225
 21
-91.85
  0
TEXT
  7
TextStyle03
  8
文字
  6
CONTINUOUS
 10
78.1
 20
125.25
  1
シリーズ：ＴＤ１Ｌ
 40
5.0
 72
     5
 11
128.1
 21
125.25
  0
TEXT
  7
TextStyle03
  8
文字
  6
CONTINUOUS
 10
78.1
 20
119.625
  1
　　　　　（上下可動）1300×6000タイプ
 40
5.0
 72
     5
 11
184.35
 21
119.625
  0
TEXT
  7
TextStyle03
  8
文字
  6
CONTINUOUS
 10
78.1
 20
114.0
  1
図面名　：外観姿図
 40
5.0
 72
     5
 11
128.1
 21
114.0
  0
TEXT
  7
TextStyle03
  8
文字
  6
CONTINUOUS
 10
78.1
 20
108.375
  1
　　　　　　
 40
5.0
 72
     5
 11
111.225
 21
108.375
  0
TEXT
  7
TextStyle03
  8
文字
  6
CONTINUOUS
 10
77.925
 20
103.925
  1
ＮＳコード：ＮＳＤＬ
 40
5.0
 72
     5
 11
133.55
 21
103.925
  0
LINE
  8
文字
  6
CONTINUOUS
 10
105.583485
 20
59.495715
 11
162.589945
 21
59.495715
  0
LINE
  8
文字
  6
CONTINUOUS
 10
105.583485
 20
10.635715
 11
162.589945
 21
10.635715
  0
INSERT
  2
*DIM_0002
  8
寸法
  6
CONTINUOUS
 10
0.0
 20
0.0
  0
INSERT
  2
*DIM_0003
  8
寸法
  6
CONTINUOUS
 10
0.0
 20
0.0
  0
INSERT
  2
*DIM_0004
  8
寸法
  6
CONTINUOUS
 10
0.0
 20
0.0
  0
INSERT
  2
*DIM_0005
  8
寸法
  6
CONTINUOUS
 10
0.0
 20
0.0
  0
INSERT
  2
*DIM_0006
  8
寸法
  6
CONTINUOUS
 10
0.0
 20
0.0
  0
INSERT
  2
*DIM_0008
  8
寸法
  6
CONTINUOUS
 10
0.0
 20
0.0
  0
INSERT
  2
*DIM_0013
  8
寸法
  6
CONTINUOUS
 10
0.0
 20
0.0
  0
INSERT
  2
*DIM_0014
  8
寸法
  6
CONTINUOUS
 10
0.0
 20
0.0
  0
INSERT
  2
*DIM_0015
  8
寸法
  6
CONTINUOUS
 10
0.0
 20
0.0
  0
INSERT
  2
*DIM_0016
  8
寸法
  6
CONTINUOUS
 10
0.0
 20
0.0
  0
INSERT
  2
*DIM_0017
  8
寸法
  6
CONTINUOUS
 10
0.0
 20
0.0
  0
INSERT
  2
*DIM_0018
  8
寸法
  6
CONTINUOUS
 10
0.0
 20
0.0
  0
INSERT
  2
*DIM_0019
  8
寸法
  6
CONTINUOUS
 10
0.0
 20
0.0
  0
INSERT
  2
*DIM_0020
  8
寸法
  6
CONTINUOUS
 10
0.0
 20
0.0
  0
INSERT
  2
*DIM_0021
  8
寸法
  6
CONTINUOUS
 10
0.0
 20
0.0
  0
INSERT
  2
*DIM_0024
  8
寸法
  6
CONTINUOUS
 10
0.0
 20
0.0
  0
INSERT
  2
*DIM_0025
  8
寸法
  6
CONTINUOUS
 10
0.0
 20
0.0
  0
INSERT
  2
*DIM_0027
  8
寸法
  6
CONTINUOUS
 10
0.0
 20
0.0
  0
INSERT
  2
*DIM_0028
  8
寸法
  6
CONTINUOUS
 10
0.0
 20
0.0
  0
INSERT
  2
*DIM_0029
  8
寸法
  6
CONTINUOUS
 10
0.0
 20
0.0
  0
INSERT
  2
*DIM_0030
  8
寸法
  6
CONTINUOUS
 10
0.0
 20
0.0
  0
INSERT
  2
*DIM_0031
  8
寸法
  6
CONTINUOUS
 10
0.0
 20
0.0
  0
INSERT
  2
*DIM_0032
  8
寸法
  6
CONTINUOUS
 10
0.0
 20
0.0
  0
INSERT
  2
*DIM_0033
  8
寸法
  6
CONTINUOUS
 10
0.0
 20
0.0
  0
INSERT
  2
*DIM_0034
  8
寸法
  6
CONTINUOUS
 10
0.0
 20
0.0
  0
INSERT
  2
*DIM_0042
  8
寸法
  6
CONTINUOUS
 10
0.0
 20
0.0
  0
LINE
  8
別途部材
  6
CONTINUOUS
 10
73.323675
 20
11.33238
 11
72.923675
 21
11.73238
  0
LINE
  8
別途部材
  6
CONTINUOUS
 10
71.257007
 20
13.399048
 11
63.197753
 21
21.458305
  0
LINE
  8
別途部材
  6
CONTINUOUS
 10
72.923675
 20
11.73238
 11
72.923675
 21
35.065715
  0
LINE
  8
別途部材
  6
CONTINUOUS
 10
73.323675
 20
11.33238
 11
73.323675
 21
35.065715
  0
LINE
  8
別途部材
  6
CONTINUOUS
 10
72.923675
 20
11.73238
 11
-28.742993
 21
11.73238
  0
LINE
  8
別途部材
  6
CONTINUOUS
 10
73.323675
 20
11.33238
 11
-28.742993
 21
11.33238
  0
LINE
  8
別途部材
  6
CONTINUOUS
 10
73.323675
 20
58.79905
 11
72.923675
 21
58.39905
  0
LINE
  8
別途部材
  6
CONTINUOUS
 10
72.923675
 20
58.39905
 11
72.923675
 21
35.065715
  0
LINE
  8
別途部材
  6
CONTINUOUS
 10
73.323675
 20
58.79905
 11
73.323675
 21
35.065715
  0
LINE
  8
別途部材
  6
CONTINUOUS
 10
72.923675
 20
58.39905
 11
-28.742993
 21
58.39905
  0
LINE
  8
別途部材
  6
CONTINUOUS
 10
73.323675
 20
58.79905
 11
-28.742993
 21
58.79905
  0
LINE
  8
別途部材
  6
CONTINUOUS
 10
-130.80966
 20
58.79905
 11
-130.40966
 21
58.39905
  0
LINE
  8
別途部材
  6
CONTINUOUS
 10
-130.40966
 20
58.39905
 11
-130.40966
 21
35.065715
  0
LINE
  8
別途部材
  6
CONTINUOUS
 10
-130.80966
 20
58.79905
 11
-130.80966
 21
35.065715
  0
LINE
  8
別途部材
  6
CONTINUOUS
 10
-130.40966
 20
58.39905
 11
-28.742993
 21
58.39905
  0
LINE
  8
別途部材
  6
CONTINUOUS
 10
-130.80966
 20
58.79905
 11
-28.742993
 21
58.79905
  0
LINE
  8
別途部材
  6
CONTINUOUS
 10
-130.80966
 20
11.33238
 11
-130.40966
 21
11.73238
  0
LINE
  8
別途部材
  6
CONTINUOUS
 10
-130.40966
 20
11.73238
 11
-130.40966
 21
35.065715
  0
LINE
  8
別途部材
  6
CONTINUOUS
 10
-130.80966
 20
11.33238
 11
-130.80966
 21
35.065715
  0
LINE
  8
別途部材
  6
CONTINUOUS
 10
-130.40966
 20
11.73238
 11
-28.742993
 21
11.73238
  0
LINE
  8
別途部材
  6
CONTINUOUS
 10
-130.80966
 20
11.33238
 11
-28.742993
 21
11.33238
  0
INSERT
  2
*GRP_0007
  8
別途部材
  6
CONTINUOUS
 10
0.0
 20
0.0
  0
LINE
  8
別途部材
  6
CONTINUOUS
 62
    96
 10
161.0971
 20
11.73238
 11
162.0971
 21
11.33238
  0
LINE
  8
別途部材
  6
CONTINUOUS
 10
162.0971
 20
11.33238
 11
162.0971
 21
35.065715
  0
LINE
  8
別途部材
  6
CONTINUOUS
 62
    96
 10
161.0971
 20
11.73238
 11
161.0971
 21
35.065715
  0
LINE
  8
別途部材
  6
CONTINUOUS
 62
    96
 10
161.0971
 20
58.39905
 11
162.0971
 21
58.79905
  0
LINE
  8
別途部材
  6
CONTINUOUS
 10
162.0971
 20
58.79905
 11
162.0971
 21
35.065715
  0
LINE
  8
別途部材
  6
CONTINUOUS
 62
    96
 10
161.0971
 20
58.39905
 11
161.0971
 21
35.065715
  0
ARC
  8
別途部材
  6
CONTINUOUS
 10
175.382812
 20
35.065713
 40
25.95238
 50
123.398485
 51
236.601515
  0
INSERT
  2
*GRP_0035
  8
別途部材
  6
DOT
 10
0.0
 20
0.0
  0
INSERT
  2
*GRP_0036
  8
別途部材
  6
DOT
 10
0.0
 20
0.0
  0
INSERT
  2
*GRP_0038
  8
別途部材
  6
DOT
 10
0.0
 20
0.0
  0
INSERT
  2
*GRP_0039
  8
別途部材
  6
DOT
 10
0.0
 20
0.0
  0
INSERT
  2
*GRP_0040
  8
別途部材
  6
DOT
 10
0.0
 20
0.0
  0
INSERT
  2
*GRP_0041
  8
別途部材
  6
DOT
 10
0.0
 20
0.0
  0
POLYLINE
  8
曲げ物
  6
CONTINUOUS
 66
     1
 70
     1
  0
VERTEX
  8
曲げ物
 10
162.108132
 20
-50.540773
  0
VERTEX
  8
曲げ物
 10
129.6748
 20
-50.540773
  0
VERTEX
  8
曲げ物
 10
129.6748
 20
-93.874105
  0
VERTEX
  8
曲げ物
 10
162.108132
 20
-93.874105
  0
SEQEND
  0
INSERT
  2
*GRP_0037
  8
曲げ物
  6
CONTINUOUS
 10
0.0
 20
0.0
  0
LINE
  8
鉄骨等
  6
CONTINUOUS
 62
    47
 10
-131.506322
 20
-82.991388
 11
-131.506322
 21
-81.82472
  0
LINE
  8
鉄骨等
  6
CONTINUOUS
 62
    47
 10
-131.506322
 20
-81.82472
 11
-130.103137
 21
-80.67472
  0
LINE
  8
鉄骨等
  6
CONTINUOUS
 62
    47
 10
-130.103137
 20
-80.67472
 11
-130.103137
 21
-80.6246
  0
LINE
  8
鉄骨等
  6
CONTINUOUS
 62
    47
 10
74.020337
 20
-82.991388
 11
74.020337
 21
-81.82472
  0
LINE
  8
鉄骨等
  6
CONTINUOUS
 62
    47
 10
74.020337
 20
-81.82472
 11
72.617152
 21
-80.67472
  0
LINE
  8
鉄骨等
  6
CONTINUOUS
 62
    47
 10
72.617152
 20
-80.67472
 11
72.617152
 21
-80.6246
  0
LINE
  8
鉄骨等
  6
CONTINUOUS
 62
    47
 10
164.463888
 20
10.635715
 11
163.29722
 21
10.635715
  0
LINE
  8
鉄骨等
  6
CONTINUOUS
 62
    47
 10
163.29722
 20
10.635715
 11
162.14722
 21
12.0389
  0
LINE
  8
鉄骨等
  6
CONTINUOUS
 62
    47
 10
162.14722
 20
12.0389
 11
162.0971
 21
12.0389
  0
LINE
  8
鉄骨等
  6
CONTINUOUS
 62
    47
 10
164.463888
 20
59.495715
 11
163.29722
 21
59.495715
  0
LINE
  8
鉄骨等
  6
CONTINUOUS
 62
    47
 10
163.29722
 20
59.495715
 11
162.14722
 21
58.09253
  0
LINE
  8
鉄骨等
  6
CONTINUOUS
 62
    47
 10
162.14722
 20
58.09253
 11
162.0971
 21
58.09253
  0
ENDSEC
  0
EOF
