  0
SECTION
  2
HEADER
  9
$EXTMIN
 10
-210.0
 20
-148.5
  9
$EXTMAX
 10
210.0
 20
148.5
  9
$PDMODE
 70
    32
  9
$PDSIZE
 40
1.5
  9
$LTSCALE
 40
10.0
  0
ENDSEC
  0
SECTION
  2
TABLES
  0
TABLE
  2
LTYPE
 70
    15
  0
LTYPE
  2
CONTINUOUS
 70
    64
  3
実線
 72
    65
 73
     0
 40
0.0
  0
LTYPE
  2
DASHED
 70
    64
  3
破線A
 72
    65
 73
     2
 40
0.6
 49
0.4
 49
-0.2
  0
LTYPE
  2
DASHEDX2
 70
    64
  3
破線B
 72
    65
 73
     2
 40
1.3
 49
0.9
 49
-0.4
  0
LTYPE
  2
DASHDOT
 70
    64
  3
１点鎖線A
 72
    65
 73
     4
 40
0.5375
 49
0.375
 49
-0.05
 49
0.0625
 49
-0.05
  0
LTYPE
  2
DASHDOTX2
 70
    64
  3
１点鎖線B
 72
    65
 73
     4
 40
1.075
 49
0.75
 49
-0.1
 49
0.125
 49
-0.1
  0
LTYPE
  2
DIVIDE2
 70
    64
  3
２点鎖線A
 72
    65
 73
     6
 40
0.5125
 49
0.3
 49
-0.0375
 49
0.05
 49
-0.0375
 49
0.05
 49
-0.0375
  0
LTYPE
  2
DIVIDE
 70
    64
  3
２点鎖線B
 72
    65
 73
     6
 40
1.05
 49
0.55
 49
-0.1
 49
0.1
 49
-0.1
 49
0.1
 49
-0.1
  0
LTYPE
  2
DOT
 70
    64
  3
点線A
 72
    65
 73
     2
 40
0.1125
 49
0.0625
 49
-0.05
  0
LTYPE
  2
DOTX2
 70
    64
  3
点線B
 72
    65
 73
     2
 40
0.275
 49
0.15
 49
-0.125
  0
LTYPE
  2
CONTINUOUS
 70
    64
  3
実線
 72
    65
 73
     0
 40
0.0
  0
LTYPE
  2
CONTINUOUS
 70
    64
  3
実線
 72
    65
 73
     0
 40
0.0
  0
LTYPE
  2
CONTINUOUS
 70
    64
  3
実線
 72
    65
 73
     0
 40
0.0
  0
LTYPE
  2
CONTINUOUS
 70
    64
  3
実線
 72
    65
 73
     0
 40
0.0
  0
LTYPE
  2
CONTINUOUS
 70
    64
  3
実線
 72
    65
 73
     0
 40
0.0
  0
LTYPE
  2
CONTINUOUS
 70
    64
  3
実線
 72
    65
 73
     0
 40
0.0
  0
ENDTAB
  0
TABLE
  2
LAYER
 70
    34
  0
LAYER
  2
通り芯
 70
     0
 62
    15
  6
CONTINUOUS
  0
LAYER
  2
補助線
 70
     0
 62
    16
  6
DOT
  0
LAYER
  2
躯体
 70
     0
 62
    31
  6
CONTINUOUS
  0
LAYER
  2
型材
 70
     0
 62
    32
  6
CONTINUOUS
  0
LAYER
  2
型材断面
 70
     0
 62
    47
  6
CONTINUOUS
  0
LAYER
  2
ガラス
 70
     0
 62
    48
  6
CONTINUOUS
  0
LAYER
  2
ゴム等
 70
     0
 62
    63
  6
CONTINUOUS
  0
LAYER
  2
ボルト／ビス
 70
     0
 62
    64
  6
CONTINUOUS
  0
LAYER
  2
文字
 70
     0
 62
    79
  6
CONTINUOUS
  0
LAYER
  2
寸法
 70
     0
 62
    80
  6
CONTINUOUS
  0
LAYER
  2
ﾊｯﾁﾝｸﾞ
 70
     0
 62
    95
  6
CONTINUOUS
  0
LAYER
  2
別途部材
 70
     0
 62
    96
  6
CONTINUOUS
  0
LAYER
  2
曲げ物
 70
     0
 62
   111
  6
CONTINUOUS
  0
LAYER
  2
鉄骨等
 70
     0
 62
   112
  6
CONTINUOUS
  0
LAYER
  2
St
 70
     0
 62
   127
  6
CONTINUOUS
  0
LAYER
  2
その他部品等
 70
     0
 62
   128
  6
CONTINUOUS
  0
LAYER
  2
ｶﾞｽｹｯﾄ
 70
     0
 62
   143
  6
CONTINUOUS
  0
LAYER
  2
ｽｹｯﾁ
 70
     0
 62
    14
  6
CONTINUOUS
  0
LAYER
  2
0
 70
     0
 62
    17
  6
CONTINUOUS
  0
LAYER
  2
1
 70
     0
 62
    30
  6
CONTINUOUS
  0
LAYER
  2
4
 70
     0
 62
    33
  6
CONTINUOUS
  0
LAYER
  2
ﾚｲﾔ3
 70
     0
 62
    46
  6
CONTINUOUS
  0
LAYER
  2
外形線
 70
     0
 62
    49
  6
CONTINUOUS
  0
LAYER
  2
部品
 70
     0
 62
    14
  6
CONTINUOUS
  0
LAYER
  2
サッシ芯
 70
     0
 62
    17
  6
DASHDOTX2
  0
LAYER
  2
寸法線
 70
     0
 62
    62
  6
CONTINUOUS
  0
LAYER
  2
姿図外形線
 70
     0
 62
    65
  6
CONTINUOUS
  0
LAYER
  2
姿補助線
 70
     0
 62
    30
  6
CONTINUOUS
  0
LAYER
  2
透視線
 70
     0
 62
    78
  6
DOT
  0
LAYER
  2
用紙
 70
     0
 62
    81
  6
CONTINUOUS
  0
LAYER
  2
実線図枠
 70
     0
 62
    94
  6
CONTINUOUS
  0
LAYER
  2
補助図枠
 70
     0
 62
    97
  6
CONTINUOUS
  0
LAYER
  2
建具記号
 70
     0
 62
   110
  6
CONTINUOUS
  0
LAYER
  2
補助文字
 70
     0
 62
   113
  6
CONTINUOUS
  0
ENDTAB
  0
TABLE
  2
STYLE
 70
    10
  0
STYLE
  2
STANDARD
 70
     0
 40
1.0
 41
1.0
 42
1.0
 50
0.0
 71
     0
  3
TXT
  4
BIGFONT
  0
STYLE
  2
TATE
 70
     4
 40
1.0
 41
1.0
 42
1.0
 50
0.0
 71
     0
  3
TXT
  4
BIGFONT
  0
STYLE
  2
TextStyle03
 70
     0
 40
1.0
 41
1.0
 42
1.0
 50
0.0
 71
     0
  3
MONOTXT
  4
BIGFONT
  0
STYLE
  2
TextStyle04
 70
     0
 40
1.0
 41
1.0
 42
1.0
 50
0.0
 71
     0
  3
MONOTXT
  4
BIGFONT
  0
STYLE
  2
TextStyle05
 70
     0
 40
1.0
 41
1.0
 42
1.0
 50
0.0
 71
     0
  3
MONOTXT
  4
BIGFONT
  0
STYLE
  2
TextStyle06
 70
     0
 40
1.0
 41
1.0
 42
1.0
 50
0.0
 71
     0
  3
MONOTXT
  4
BIGFONT
  0
STYLE
  2
TextStyle07
 70
     0
 40
1.0
 41
1.0
 42
1.0
 50
0.0
 71
     0
  3
MONOTXT
  4
BIGFONT
  0
STYLE
  2
TextStyle08
 70
     0
 40
1.0
 41
1.0
 42
1.0
 50
0.0
 71
     0
  3
MONOTXT
  4
BIGFONT
  0
STYLE
  2
TextStyle09
 70
     0
 40
1.0
 41
1.0
 42
1.0
 50
0.0
 71
     0
  3
MONOTXT
  4
BIGFONT
  0
STYLE
  2
TextStyle10
 70
     0
 40
1.0
 41
1.0
 42
1.0
 50
0.0
 71
     0
  3
MONOTXT
  4
BIGFONT
  0
ENDTAB
  0
ENDSEC
  0
SECTION
  2
BLOCKS
  0
BLOCK
  2
*HAT_0001
 70
    65
 10
0.0
 20
0.0
  0
LINE
  8
ゴム等
 10
-71.275
 20
-30.175
 11
-72.85
 21
-31.75
  0
LINE
  8
ゴム等
 10
-73.825
 20
-32.65
 11
-75.175
 21
-34.0
  0
LINE
  8
ゴム等
 10
-69.925
 20
-30.175
 11
-75.175
 21
-35.425
  0
LINE
  8
ゴム等
 10
-68.5
 20
-30.175
 11
-75.175
 21
-36.85
  0
LINE
  8
ゴム等
 10
-67.675
 20
-30.7
 11
-74.575
 21
-37.675
  0
LINE
  8
ゴム等
 10
-67.375
 20
-31.9
 11
-73.15
 21
-37.675
  0
LINE
  8
ゴム等
 10
-66.775
 20
-32.65
 11
-71.725
 21
-37.675
  0
LINE
  8
ゴム等
 10
-65.35
 20
-32.65
 11
-70.0
 21
-37.3
  0
LINE
  8
ゴム等
 10
-65.125
 20
-33.925
 11
-68.95
 21
-37.675
  0
LINE
  8
ゴム等
 10
-65.125
 20
-35.275
 11
-67.525
 21
-37.675
  0
LINE
  8
ゴム等
 10
-65.125
 20
-36.7
 11
-66.1
 21
-37.675
  0
ENDBLK
  0
BLOCK
  2
*HAT_0002
 70
    65
 10
0.0
 20
0.0
  0
LINE
  8
ゴム等
  6
DOT
 10
-74.125
 20
12.125
 11
-76.375
 21
9.95
  0
LINE
  8
ゴム等
  6
DOT
 10
-74.125
 20
14.675
 11
-78.925
 21
9.95
  0
LINE
  8
ゴム等
  6
DOT
 10
-74.125
 20
17.225
 11
-80.35
 21
11.0
  0
LINE
  8
ゴム等
  6
DOT
 10
-74.125
 20
19.775
 11
-80.35
 21
13.55
  0
LINE
  8
ゴム等
  6
DOT
 10
-76.525
 20
19.925
 11
-80.35
 21
16.1
  0
LINE
  8
ゴム等
  6
DOT
 10
-79.075
 20
19.925
 11
-80.35
 21
18.65
  0
ENDBLK
  0
BLOCK
  2
*HAT_0003
 70
    65
 10
0.0
 20
0.0
  0
LINE
  8
ゴム等
  6
DOT
 10
26.025
 20
-65.85
 11
27.6
 21
-64.275
  0
LINE
  8
ゴム等
  6
DOT
 10
28.575
 20
-63.375
 11
29.925
 21
-62.025
  0
LINE
  8
ゴム等
  6
DOT
 10
24.675
 20
-65.85
 11
29.925
 21
-60.6
  0
LINE
  8
ゴム等
  6
DOT
 10
23.25
 20
-65.85
 11
29.925
 21
-59.175
  0
LINE
  8
ゴム等
  6
DOT
 10
22.425
 20
-65.25
 11
29.325
 21
-58.35
  0
LINE
  8
ゴム等
  6
DOT
 10
22.125
 20
-64.125
 11
27.9
 21
-58.35
  0
LINE
  8
ゴム等
  6
DOT
 10
21.525
 20
-63.375
 11
26.475
 21
-58.35
  0
LINE
  8
ゴム等
  6
DOT
 10
20.1
 20
-63.375
 11
24.75
 21
-58.65
  0
LINE
  8
ゴム等
  6
DOT
 10
19.875
 20
-62.1
 11
23.7
 21
-58.35
  0
LINE
  8
ゴム等
  6
DOT
 10
19.875
 20
-60.675
 11
22.275
 21
-58.35
  0
LINE
  8
ゴム等
  6
DOT
 10
19.875
 20
-59.25
 11
20.85
 21
-58.35
  0
ENDBLK
  0
BLOCK
  2
*HAT_0004
 70
    65
 10
0.0
 20
0.0
  0
LINE
  8
ゴム等
  6
DOT
 10
122.4
 20
-44.475
 11
120.825
 21
-46.05
  0
LINE
  8
ゴム等
  6
DOT
 10
119.85
 20
-47.025
 11
118.5
 21
-48.375
  0
LINE
  8
ゴム等
  6
DOT
 10
122.4
 20
-43.125
 11
117.075
 21
-48.375
  0
LINE
  8
ゴム等
  6
DOT
 10
122.4
 20
-41.7
 11
115.725
 21
-48.375
  0
LINE
  8
ゴム等
  6
DOT
 10
121.8
 20
-40.875
 11
114.9
 21
-47.775
  0
LINE
  8
ゴム等
  6
DOT
 10
120.6
 20
-40.575
 11
114.9
 21
-46.35
  0
LINE
  8
ゴム等
  6
DOT
 10
119.85
 20
-39.975
 11
114.9
 21
-44.925
  0
LINE
  8
ゴム等
  6
DOT
 10
119.85
 20
-38.55
 11
115.2
 21
-43.2
  0
LINE
  8
ゴム等
  6
DOT
 10
118.65
 20
-38.325
 11
114.9
 21
-42.15
  0
LINE
  8
ゴム等
  6
DOT
 10
117.225
 20
-38.325
 11
114.9
 21
-40.725
  0
LINE
  8
ゴム等
  6
DOT
 10
115.8
 20
-38.325
 11
114.9
 21
-39.3
  0
ENDBLK
  0
BLOCK
  2
*HAT_0005
 70
    65
 10
0.0
 20
0.0
  0
LINE
  8
ゴム等
 10
16.875
 20
-48.075
 11
15.9
 21
-47.175
  0
LINE
  8
ゴム等
 10
16.875
 20
-49.95
 11
13.5
 21
-46.575
  0
LINE
  8
ゴム等
 10
10.875
 20
-43.95
 11
10.275
 21
-43.35
  0
LINE
  8
ゴム等
 10
16.875
 20
-51.825
 11
12.375
 21
-47.325
  0
LINE
  8
ゴム等
 10
10.875
 20
-45.825
 11
8.4
 21
-43.35
  0
LINE
  8
ゴム等
 10
16.875
 20
-53.7
 11
15.3
 21
-52.125
  0
LINE
  8
ゴム等
 10
13.05
 20
-49.875
 11
7.2
 21
-44.025
  0
LINE
  8
ゴム等
 10
16.65
 20
-55.425
 11
14.1
 21
-52.875
  0
LINE
  8
ゴム等
 10
11.325
 20
-50.025
 11
6.675
 21
-45.375
  0
LINE
  8
ゴム等
 10
15.15
 20
-55.725
 11
12.225
 21
-52.875
  0
LINE
  8
ゴム等
 10
10.875
 20
-51.525
 11
6.675
 21
-47.325
  0
LINE
  8
ゴム等
 10
13.65
 20
-56.1
 11
13.05
 21
-55.575
  0
LINE
  8
ゴム等
 10
12.9
 20
-55.35
 11
6.675
 21
-49.125
  0
LINE
  8
ゴム等
 10
10.95
 20
-55.35
 11
6.675
 21
-51.075
  0
LINE
  8
ゴム等
 10
10.875
 20
-57.15
 11
6.675
 21
-52.95
  0
LINE
  8
ゴム等
 10
9.15
 20
-57.375
 11
6.675
 21
-54.825
  0
LINE
  8
ゴム等
 10
8.175
 20
-58.2
 11
6.675
 21
-56.7
  0
LINE
  8
ゴム等
 10
7.95
 20
-59.85
 11
6.675
 21
-58.575
  0
ENDBLK
  0
BLOCK
  2
*HAT_0006
 70
    65
 10
0.0
 20
0.0
  0
LINE
  8
ゴム等
 10
13.725
 20
-60.75
 11
12.675
 21
-59.775
  0
LINE
  8
ゴム等
 10
10.725
 20
-57.75
 11
10.65
 21
-57.75
  0
LINE
  8
ゴム等
 10
17.175
 20
-66.15
 11
15.825
 21
-64.8
  0
LINE
  8
ゴム等
 10
13.725
 20
-62.7
 11
10.8
 21
-59.775
  0
LINE
  8
ゴム等
 10
10.725
 20
-59.7
 11
8.775
 21
-57.75
  0
LINE
  8
ゴム等
 10
17.175
 20
-68.1
 11
14.925
 21
-65.775
  0
LINE
  8
ゴム等
 10
13.725
 20
-64.575
 11
8.175
 21
-59.1
  0
LINE
  8
ゴム等
 10
17.175
 20
-69.9
 11
8.175
 21
-60.9
  0
LINE
  8
ゴム等
 10
16.575
 20
-71.25
 11
8.175
 21
-62.85
  0
LINE
  8
ゴム等
 10
14.25
 20
-70.8
 11
7.575
 21
-64.05
  0
LINE
  8
ゴム等
 10
13.725
 20
-72.075
 11
7.125
 21
-65.55
  0
LINE
  8
ゴム等
 10
13.725
 20
-73.95
 11
6.825
 21
-67.05
  0
LINE
  8
ゴム等
 10
12.6
 20
-74.775
 11
6.675
 21
-68.85
  0
LINE
  8
ゴム等
 10
10.725
 20
-74.775
 11
6.9
 21
-70.95
  0
LINE
  8
ゴム等
 10
8.775
 20
-74.775
 11
7.65
 21
-73.575
  0
ENDBLK
  0
BLOCK
  2
*HAT_0007
 70
    65
 10
0.0
 20
0.0
  0
LINE
  8
別途部材
  6
DOT
 10
135.375
 20
-79.8
 11
135.15
 21
-80.025
  0
LINE
  8
別途部材
  6
DOT
 10
135.375
 20
-77.325
 11
132.6
 21
-80.025
  0
LINE
  8
別途部材
  6
DOT
 10
135.375
 20
-74.775
 11
130.05
 21
-80.025
  0
LINE
  8
別途部材
  6
DOT
 10
135.375
 20
-72.225
 11
127.5
 21
-80.025
  0
LINE
  8
別途部材
  6
DOT
 10
135.0
 20
-70.05
 11
125.325
 21
-79.65
  0
LINE
  8
別途部材
  6
DOT
 10
132.45
 20
-70.05
 11
125.325
 21
-77.1
  0
LINE
  8
別途部材
  6
DOT
 10
129.9
 20
-70.05
 11
125.325
 21
-74.625
  0
LINE
  8
別途部材
  6
DOT
 10
127.35
 20
-70.05
 11
125.325
 21
-72.075
  0
ENDBLK
  0
BLOCK
  2
*GRP_0001
 70
    65
 10
0.0
 20
0.0
  0
LINE
  8
通り芯
  6
CONTINUOUS
 10
-62.407185
 20
-18.33975
 11
-52.307145
 21
-18.33975
  0
LINE
  8
通り芯
  6
CONTINUOUS
 10
-62.407185
 20
-0.44415
 11
-64.707187
 21
-0.44415
  0
LINE
  8
通り芯
  6
CONTINUOUS
 10
-79.90719
 20
-5.444153
 11
-78.40719
 21
-5.444153
  0
LINE
  8
通り芯
  6
CONTINUOUS
 10
-78.40719
 20
-7.64415
 11
-78.40719
 21
-5.444153
  0
LINE
  8
通り芯
  6
CONTINUOUS
 10
-62.407185
 20
-0.44415
 11
-62.407185
 21
-7.64415
  0
LINE
  8
通り芯
  6
CONTINUOUS
 10
-79.90719
 20
-5.444153
 11
-79.90719
 21
-7.64415
  0
LINE
  8
通り芯
  6
CONTINUOUS
 10
-62.407185
 20
-7.64415
 11
-78.40719
 21
-7.64415
  0
LINE
  8
通り芯
  6
CONTINUOUS
 10
-79.90719
 20
-7.64415
 11
-82.207208
 21
-7.64415
  0
LINE
  8
通り芯
  6
CONTINUOUS
 10
-82.207208
 20
-9.14415
 11
-82.207208
 21
-7.64415
  0
LINE
  8
通り芯
  6
CONTINUOUS
 10
-62.407185
 20
-18.33975
 11
-62.407185
 21
-9.14415
  0
LINE
  8
通り芯
  6
CONTINUOUS
 10
-60.407145
 20
-16.83975
 11
-60.407212
 21
21.355845
  0
LINE
  8
通り芯
  6
CONTINUOUS
 10
-62.40717
 20
1.05585
 11
-62.407222
 21
20.155838
  0
LINE
  8
通り芯
  6
CONTINUOUS
 10
-60.407212
 20
21.355845
 11
-64.407225
 21
21.35583
  0
LINE
  8
通り芯
  6
CONTINUOUS
 10
-64.407225
 20
21.35583
 11
-64.407225
 21
20.155838
  0
LINE
  8
通り芯
  6
CONTINUOUS
 10
-62.407222
 20
20.155838
 11
-64.407225
 21
20.155838
  0
LINE
  8
通り芯
  6
CONTINUOUS
 10
-62.407185
 20
1.05585
 11
-66.207187
 21
1.05585
  0
LINE
  8
通り芯
  6
CONTINUOUS
 10
-66.207187
 20
1.05585
 11
-66.207187
 21
-2.944147
  0
LINE
  8
通り芯
  6
CONTINUOUS
 10
-66.207187
 20
-2.944147
 11
-64.707187
 21
-2.944147
  0
LINE
  8
通り芯
  6
CONTINUOUS
 10
-64.707187
 20
-0.44415
 11
-64.707187
 21
-2.944147
  0
LINE
  8
通り芯
  6
CONTINUOUS
 10
-55.307145
 20
-17.13975
 11
-55.607145
 21
-16.83975
  0
LINE
  8
通り芯
  6
CONTINUOUS
 10
-55.307145
 20
-17.13975
 11
-55.007145
 21
-16.83975
  0
LINE
  8
通り芯
  6
CONTINUOUS
 10
-57.607147
 20
-16.83975
 11
-57.607147
 21
-15.63975
  0
LINE
  8
通り芯
  6
CONTINUOUS
 10
-53.007143
 20
-15.63975
 11
-52.307145
 21
-15.63975
  0
LINE
  8
通り芯
  6
CONTINUOUS
 10
-55.007145
 20
-16.83975
 11
-53.007143
 21
-16.83975
  0
LINE
  8
通り芯
  6
CONTINUOUS
 10
-53.007143
 20
-15.63975
 11
-53.007143
 21
-16.83975
  0
LINE
  8
通り芯
  6
CONTINUOUS
 10
-57.607147
 20
-16.83975
 11
-55.607145
 21
-16.83975
  0
LINE
  8
通り芯
  6
CONTINUOUS
 10
-57.607147
 20
-15.63975
 11
-58.307145
 21
-15.63975
  0
LINE
  8
通り芯
  6
CONTINUOUS
 10
-58.307145
 20
-15.63975
 11
-58.307145
 21
-16.83975
  0
LINE
  8
通り芯
  6
CONTINUOUS
 10
-60.407145
 20
-16.83975
 11
-58.307145
 21
-16.83975
  0
LINE
  8
通り芯
  6
CONTINUOUS
 10
-52.307145
 20
-18.33975
 11
-52.307145
 21
-15.63975
  0
LINE
  8
通り芯
  6
CONTINUOUS
 10
-75.20721
 20
-12.44415
 11
-75.20721
 21
-9.14415
  0
LINE
  8
通り芯
  6
CONTINUOUS
 10
-62.407185
 20
-9.14415
 11
-75.20721
 21
-9.14415
  0
LINE
  8
通り芯
  6
CONTINUOUS
 10
-76.70721
 20
-10.94415
 11
-76.70721
 21
-9.14415
  0
LINE
  8
通り芯
  6
CONTINUOUS
 10
-82.207208
 20
-9.14415
 11
-76.70721
 21
-9.14415
  0
LINE
  8
通り芯
  6
CONTINUOUS
 10
-75.20721
 20
-12.44415
 11
-79.70721
 21
-12.44415
  0
LINE
  8
通り芯
  6
CONTINUOUS
 10
-79.70721
 20
-12.44415
 11
-79.70721
 21
-10.94415
  0
LINE
  8
通り芯
  6
CONTINUOUS
 10
-76.70721
 20
-10.94415
 11
-79.70721
 21
-10.94415
  0
ENDBLK
  0
BLOCK
  2
*GRP_0002
 70
    65
 10
0.0
 20
0.0
  0
LINE
  8
通り芯
  6
CONTINUOUS
 10
-7.36043
 20
-79.739743
 11
-7.36043
 21
-77.73974
  0
LINE
  8
通り芯
  6
CONTINUOUS
 10
-10.860425
 20
-79.739743
 11
-10.860425
 21
-77.73974
  0
LINE
  8
通り芯
  6
CONTINUOUS
 10
-10.860425
 20
-79.23974
 11
-7.36043
 21
-79.23974
  0
LINE
  8
通り芯
  6
CONTINUOUS
 10
-10.860425
 20
-78.739737
 11
-7.36043
 21
-78.739737
  0
LINE
  8
通り芯
  6
CONTINUOUS
 10
-10.860425
 20
-78.239743
 11
-7.36043
 21
-78.239743
  0
INSERT
  2
*GRP_0039
  8
通り芯
  6
CONTINUOUS
 10
0.0
 20
0.0
  0
LINE
  8
型材断面
  6
CONTINUOUS
 10
-10.860425
 20
-80.739747
 11
-7.360423
 21
-80.739747
  0
LINE
  8
型材断面
  6
CONTINUOUS
 10
-10.860425
 20
-80.239745
 11
-7.360423
 21
-80.239745
  0
LINE
  8
型材断面
  6
CONTINUOUS
 10
-10.860425
 20
-79.739743
 11
-10.860425
 21
-81.239753
  0
LINE
  8
型材断面
  6
CONTINUOUS
 10
-7.360423
 20
-79.739743
 11
-7.360423
 21
-81.239753
  0
LINE
  8
型材断面
  6
CONTINUOUS
 10
-9.110427
 20
-74.31089
 11
-9.110427
 21
-84.730198
  0
ENDBLK
  0
BLOCK
  2
*GRP_0003
 70
    65
 10
0.0
 20
0.0
  0
LINE
  8
通り芯
  6
CONTINUOUS
 10
-29.44593
 20
-70.040935
 11
-27.899063
 21
-68.77318
  0
LINE
  8
通り芯
  6
CONTINUOUS
 10
-31.6645
 20
-67.333922
 11
-30.11763
 21
-66.066168
  0
LINE
  8
通り芯
  6
CONTINUOUS
 10
-31.27778
 20
-67.016982
 11
-29.059213
 21
-69.723995
  0
LINE
  8
通り芯
  6
CONTINUOUS
 10
-30.891063
 20
-66.700043
 11
-28.672493
 21
-69.407055
  0
LINE
  8
通り芯
  6
CONTINUOUS
 10
-30.50435
 20
-66.383108
 11
-28.28578
 21
-69.09012
  0
INSERT
  2
*GRP_0040
  8
通り芯
  6
CONTINUOUS
 10
0.0
 20
0.0
  0
LINE
  8
型材断面
  6
CONTINUOUS
 10
-32.437935
 20
-67.967805
 11
-30.219362
 21
-70.674823
  0
LINE
  8
型材断面
  6
CONTINUOUS
 10
-32.051217
 20
-67.650863
 11
-29.832645
 21
-70.357882
  0
LINE
  8
型材断面
  6
CONTINUOUS
 10
-31.6645
 20
-67.333922
 11
-32.824658
 21
-68.284745
  0
LINE
  8
型材断面
  6
CONTINUOUS
 10
-29.445925
 20
-70.040942
 11
-30.606082
 21
-70.991765
  0
LINE
  8
型材断面
  6
CONTINUOUS
 10
-26.35636
 20
-65.246202
 11
-34.415
 21
-71.850767
  0
ENDBLK
  0
BLOCK
  2
*GRP_0004
 70
    65
 10
0.0
 20
0.0
  0
LINE
  8
通り芯
  6
CONTINUOUS
 10
-48.099
 20
-47.281167
 11
-46.552132
 21
-46.013412
  0
LINE
  8
通り芯
  6
CONTINUOUS
 10
-50.31757
 20
-44.574155
 11
-48.7707
 21
-43.3064
  0
LINE
  8
通り芯
  6
CONTINUOUS
 10
-49.93085
 20
-44.257215
 11
-47.712283
 21
-46.964228
  0
LINE
  8
通り芯
  6
CONTINUOUS
 10
-49.544132
 20
-43.940275
 11
-47.325562
 21
-46.647288
  0
LINE
  8
通り芯
  6
CONTINUOUS
 10
-49.15742
 20
-43.62334
 11
-46.93885
 21
-46.330353
  0
INSERT
  2
*GRP_0041
  8
通り芯
  6
CONTINUOUS
 10
0.0
 20
0.0
  0
LINE
  8
型材断面
  6
CONTINUOUS
 10
-51.091005
 20
-45.208037
 11
-48.872433
 21
-47.915055
  0
LINE
  8
型材断面
  6
CONTINUOUS
 10
-50.704288
 20
-44.891095
 11
-48.485715
 21
-47.598115
  0
LINE
  8
型材断面
  6
CONTINUOUS
 10
-50.31757
 20
-44.574155
 11
-51.477728
 21
-45.524978
  0
LINE
  8
型材断面
  6
CONTINUOUS
 10
-48.098995
 20
-47.281175
 11
-49.259152
 21
-48.231998
  0
LINE
  8
型材断面
  6
CONTINUOUS
 10
-45.00943
 20
-42.486435
 11
-53.06807
 21
-49.091
  0
ENDBLK
  0
BLOCK
  2
*GRP_0005
 70
    65
 10
0.0
 20
0.0
  0
LINE
  8
通り芯
  6
CONTINUOUS
 10
-7.36043
 20
-79.739743
 11
-7.36043
 21
-77.73974
  0
LINE
  8
通り芯
  6
CONTINUOUS
 10
-10.860425
 20
-79.739743
 11
-10.860425
 21
-77.73974
  0
LINE
  8
通り芯
  6
CONTINUOUS
 10
-10.860425
 20
-79.23974
 11
-7.36043
 21
-79.23974
  0
LINE
  8
通り芯
  6
CONTINUOUS
 10
-10.860425
 20
-78.739737
 11
-7.36043
 21
-78.739737
  0
LINE
  8
通り芯
  6
CONTINUOUS
 10
-10.860425
 20
-78.239743
 11
-7.36043
 21
-78.239743
  0
INSERT
  2
*GRP_0042
  8
通り芯
  6
CONTINUOUS
 10
0.0
 20
0.0
  0
LINE
  8
型材断面
  6
CONTINUOUS
 10
-10.860425
 20
-80.739747
 11
-7.360423
 21
-80.739747
  0
LINE
  8
型材断面
  6
CONTINUOUS
 10
-10.860425
 20
-80.239745
 11
-7.360423
 21
-80.239745
  0
LINE
  8
型材断面
  6
CONTINUOUS
 10
-10.860425
 20
-79.739743
 11
-10.860425
 21
-81.239753
  0
LINE
  8
型材断面
  6
CONTINUOUS
 10
-7.360423
 20
-79.739743
 11
-7.360423
 21
-81.239753
  0
LINE
  8
型材断面
  6
CONTINUOUS
 10
-9.110427
 20
-74.31089
 11
-9.110427
 21
-84.730198
  0
ENDBLK
  0
BLOCK
  2
*GRP_0006
 70
    65
 10
0.0
 20
0.0
  0
POLYLINE
  8
寸法
  6
BYBLOCK
 62
     0
 66
     1
  0
VERTEX
  8
寸法
 10
-50.807145
 20
-13.041675
  0
VERTEX
  8
寸法
 10
-52.307145
 20
-15.63975
  0
VERTEX
  8
寸法
 10
-49.70907
 20
-14.13975
  0
SEQEND
  0
POLYLINE
  8
寸法
  6
BYBLOCK
 62
     0
 66
     1
  0
VERTEX
  8
寸法
 10
-52.307145
 20
-15.63975
  0
VERTEX
  8
寸法
 10
-45.480175
 20
-8.81278
  0
VERTEX
  8
寸法
 10
-45.480175
 20
11.554567
  0
SEQEND
  0
ENDBLK
  0
BLOCK
  2
*GRP_0007
 70
    65
 10
0.0
 20
0.0
  0
LINE
  8
型材断面
  6
CONTINUOUS
 10
195.0
 20
133.5
 11
195.0
 21
-133.5
  0
LINE
  8
型材断面
  6
CONTINUOUS
 10
195.0
 20
-133.5
 11
-185.0
 21
-133.5
  0
LINE
  8
型材断面
  6
CONTINUOUS
 10
-185.0
 20
-133.5
 11
-185.0
 21
133.5
  0
LINE
  8
型材断面
  6
CONTINUOUS
 10
195.0
 20
133.5
 11
-185.0
 21
133.5
  0
LINE
  8
型材断面
  6
CONTINUOUS
 10
145.0
 20
-133.5
 11
145.0
 21
-118.5
  0
LINE
  8
型材断面
  6
CONTINUOUS
 10
195.0
 20
-118.5
 11
145.0
 21
-118.5
  0
ENDBLK
  0
BLOCK
  2
*GRP_0008
 70
    65
 10
0.0
 20
0.0
  0
LINE
  8
型材断面
  6
DOT
 10
-80.407185
 20
-3.44415
 11
-64.40718
 21
-3.44415
  0
LINE
  8
型材断面
  6
DOT
 10
-80.407185
 20
20.155845
 11
-80.407185
 21
-3.44415
  0
ARC
  8
型材断面
  6
DOT
 10
-82.107177
 20
21.055866
 40
0.3
 50
90.0
 51
180.0
  0
LINE
  8
型材断面
  6
DOT
 10
-80.407185
 20
20.155845
 11
-79.70718
 21
20.155845
  0
ARC
  8
型材断面
  6
DOT
 10
-79.707177
 20
20.455866
 40
0.3
 50
270.0
 51
360.0
  0
LINE
  8
型材断面
  6
DOT
 10
-79.40718
 20
21.055845
 11
-79.40718
 21
20.455845
  0
LINE
  8
型材断面
  6
DOT
 10
-79.70718
 20
21.355845
 11
-82.10718
 21
21.355845
  0
ARC
  8
型材断面
  6
DOT
 10
-79.707177
 20
21.055866
 40
0.3
 50
0.0
 51
90.0
  0
LINE
  8
型材断面
  6
DOT
 10
-82.40718
 20
21.055845
 11
-82.40718
 21
-5.144153
  0
LINE
  8
型材断面
  6
DOT
 10
-82.10718
 20
-5.444153
 11
-77.90718
 21
-5.444153
  0
ARC
  8
型材断面
  6
DOT
 10
-82.107177
 20
-5.144134
 40
0.3
 50
180.0
 51
270.0
  0
LINE
  8
型材断面
  6
DOT
 10
-76.40718
 20
-5.444153
 11
-62.707185
 21
-5.444153
  0
ARC
  8
型材断面
  6
DOT
 10
-62.707177
 20
-5.144134
 40
0.3
 50
270.0
 51
360.0
  0
LINE
  8
型材断面
  6
DOT
 10
-62.407185
 20
-1.04415
 11
-62.407185
 21
-5.144153
  0
ARC
  8
型材断面
  6
DOT
 10
-62.707177
 20
-1.044134
 40
0.3
 50
0.0
 51
90.0
  0
LINE
  8
型材断面
  6
DOT
 10
-64.10718
 20
-0.74415
 11
-62.707185
 21
-0.74415
  0
LINE
  8
型材断面
  6
DOT
 10
-64.40718
 20
-1.04415
 11
-64.40718
 21
-3.44415
  0
ARC
  8
型材断面
  6
DOT
 10
-64.107177
 20
-1.044134
 40
0.3
 50
90.0
 51
180.0
  0
LINE
  8
型材断面
  6
DOT
 10
-77.90718
 20
-6.944153
 11
-77.90718
 21
-5.444153
  0
ARC
  8
型材断面
  6
DOT
 10
-77.607177
 20
-6.944134
 40
0.3
 50
180.0
 51
270.0
  0
LINE
  8
型材断面
  6
DOT
 10
-77.60718
 20
-7.244153
 11
-76.70718
 21
-7.244153
  0
LINE
  8
型材断面
  6
DOT
 10
-76.40718
 20
-6.944153
 11
-76.40718
 21
-5.444153
  0
ARC
  8
型材断面
  6
DOT
 10
-76.707177
 20
-6.944134
 40
0.3
 50
270.0
 51
360.0
  0
ENDBLK
  0
BLOCK
  2
*GRP_0009
 70
    65
 10
0.0
 20
0.0
  0
LINE
  8
ゴム等
  6
CONTINUOUS
 10
-72.607275
 20
-30.13968
 11
-73.107277
 21
-32.639678
  0
LINE
  8
ゴム等
  6
CONTINUOUS
 10
-67.30728
 20
-32.639678
 11
-67.807275
 21
-30.13968
  0
LINE
  8
ゴム等
  6
CONTINUOUS
 10
-65.20728
 20
-37.63968
 11
-65.20728
 21
-32.639678
  0
LINE
  8
ゴム等
  6
CONTINUOUS
 10
-75.207277
 20
-37.63968
 11
-75.207277
 21
-32.639678
  0
LINE
  8
ゴム等
  6
CONTINUOUS
 10
-72.607275
 20
-30.13968
 11
-67.807275
 21
-30.13968
  0
LINE
  8
ゴム等
  6
CONTINUOUS
 10
-65.20728
 20
-32.639678
 11
-67.30728
 21
-32.639678
  0
LINE
  8
ゴム等
  6
CONTINUOUS
 10
-73.107277
 20
-32.639678
 11
-75.207277
 21
-32.639678
  0
LINE
  8
ゴム等
  6
CONTINUOUS
 10
-70.207275
 20
-37.139678
 11
-69.70728
 21
-37.63968
  0
LINE
  8
ゴム等
  6
CONTINUOUS
 10
-70.207275
 20
-37.139678
 11
-70.707277
 21
-37.63968
  0
LINE
  8
ゴム等
  6
CONTINUOUS
 10
-75.207277
 20
-37.63968
 11
-70.707277
 21
-37.63968
  0
LINE
  8
ゴム等
  6
CONTINUOUS
 10
-69.70728
 20
-37.63968
 11
-65.20728
 21
-37.63968
  0
INSERT
  2
*HAT_0001
  8
ゴム等
 10
0.0
 20
0.0
  0
ENDBLK
  0
BLOCK
  2
*GRP_0010
 70
    65
 10
0.0
 20
0.0
  0
LINE
  8
ゴム等
  6
CONTINUOUS
 10
-67.407225
 20
20.155838
 11
-62.407222
 21
20.155838
  0
LINE
  8
ゴム等
  6
CONTINUOUS
 10
-67.407225
 20
20.155838
 11
-67.407225
 21
10.15584
  0
LINE
  8
ゴム等
  6
CONTINUOUS
 10
-67.407225
 20
10.15584
 11
-62.407222
 21
10.15584
  0
LINE
  8
ゴム等
  6
CONTINUOUS
 10
-62.407222
 20
20.155838
 11
-62.407222
 21
10.15584
  0
LINE
  8
ゴム等
  6
CONTINUOUS
 10
-63.737348
 20
10.15584
 11
-62.407222
 21
11.485965
  0
LINE
  8
ゴム等
  6
CONTINUOUS
 10
-65.151562
 20
10.15584
 11
-62.407222
 21
12.90018
  0
LINE
  8
ゴム等
  6
CONTINUOUS
 10
-66.56577
 20
10.15584
 11
-62.407222
 21
14.314387
  0
LINE
  8
ゴム等
  6
CONTINUOUS
 10
-67.407225
 20
13.55703
 11
-62.407222
 21
18.557033
  0
LINE
  8
ゴム等
  6
CONTINUOUS
 10
-67.407225
 20
12.142815
 11
-62.407222
 21
17.142817
  0
LINE
  8
ゴム等
  6
CONTINUOUS
 10
-67.407225
 20
10.728607
 11
-62.407222
 21
15.728602
  0
LINE
  8
ゴム等
  6
CONTINUOUS
 10
-67.407225
 20
14.971245
 11
-62.407222
 21
19.971248
  0
LINE
  8
ゴム等
  6
CONTINUOUS
 10
-67.407225
 20
16.38546
 11
-63.63684
 21
20.155838
  0
LINE
  8
ゴム等
  6
CONTINUOUS
 10
-67.407225
 20
17.799668
 11
-65.051055
 21
20.155838
  0
LINE
  8
ゴム等
  6
CONTINUOUS
 10
-67.407225
 20
19.213883
 11
-66.46527
 21
20.155838
  0
ENDBLK
  0
BLOCK
  2
*GRP_0011
 70
    65
 10
0.0
 20
0.0
  0
LINE
  8
ゴム等
  6
DOT
 10
-80.407185
 20
20.155845
 11
-74.207183
 21
20.155845
  0
LINE
  8
ゴム等
  6
DOT
 10
-74.207183
 20
20.155845
 11
-74.207183
 21
10.155847
  0
LINE
  8
ゴム等
  6
DOT
 10
-74.207183
 20
10.155847
 11
-80.407185
 21
10.155847
  0
LINE
  8
ゴム等
  6
DOT
 10
-80.407185
 20
20.155845
 11
-80.407185
 21
10.155847
  0
INSERT
  2
*HAT_0002
  8
ゴム等
 10
0.0
 20
0.0
  0
ENDBLK
  0
BLOCK
  2
*GRP_0012
 70
    65
 10
0.0
 20
0.0
  0
LINE
  8
ゴム等
  6
CONTINUOUS
 10
-0.50721
 20
-60.939743
 11
-3.007208
 21
-60.439747
  0
LINE
  8
ゴム等
  6
CONTINUOUS
 10
-3.007208
 20
-66.239745
 11
-0.50721
 21
-65.739743
  0
LINE
  8
ゴム等
  6
CONTINUOUS
 10
-8.00721
 20
-68.339745
 11
-3.007208
 21
-68.339745
  0
LINE
  8
ゴム等
  6
CONTINUOUS
 10
-8.00721
 20
-58.339747
 11
-3.007208
 21
-58.339747
  0
LINE
  8
ゴム等
  6
CONTINUOUS
 10
-0.50721
 20
-60.939743
 11
-0.50721
 21
-65.739743
  0
LINE
  8
ゴム等
  6
CONTINUOUS
 10
-3.007208
 20
-68.339745
 11
-3.007208
 21
-66.239745
  0
LINE
  8
ゴム等
  6
CONTINUOUS
 10
-3.007208
 20
-60.439747
 11
-3.007208
 21
-58.339747
  0
LINE
  8
ゴム等
  6
CONTINUOUS
 10
-7.507208
 20
-63.339743
 11
-8.00721
 21
-63.839745
  0
LINE
  8
ゴム等
  6
CONTINUOUS
 10
-7.507208
 20
-63.339743
 11
-8.00721
 21
-62.839747
  0
LINE
  8
ゴム等
  6
CONTINUOUS
 10
-8.00721
 20
-58.339747
 11
-8.00721
 21
-62.839747
  0
LINE
  8
ゴム等
  6
CONTINUOUS
 10
-8.00721
 20
-63.839745
 11
-8.00721
 21
-68.339745
  0
LINE
  8
ゴム等
  6
CONTINUOUS
 10
-0.50721
 20
-63.111825
 11
-5.279288
 21
-58.339747
  0
LINE
  8
ゴム等
  6
CONTINUOUS
 10
-0.50721
 20
-65.23314
 11
-7.400602
 21
-58.339747
  0
LINE
  8
ゴム等
  6
CONTINUOUS
 10
-1.852815
 20
-66.008865
 11
-8.00721
 21
-59.85447
  0
LINE
  8
ゴム等
  6
CONTINUOUS
 10
-3.007208
 20
-66.975788
 11
-8.00721
 21
-61.975785
  0
LINE
  8
ゴム等
  6
CONTINUOUS
 10
-5.885895
 20
-68.339745
 11
-8.00721
 21
-66.21843
  0
LINE
  8
ゴム等
  6
CONTINUOUS
 10
-3.764565
 20
-68.339745
 11
-8.00721
 21
-64.0971
  0
ENDBLK
  0
BLOCK
  2
*GRP_0013
 70
    65
 10
0.0
 20
0.0
  0
LINE
  8
ボルト／ビス
  6
CONTINUOUS
 10
-88.21083
 20
-29.339718
 11
-90.210833
 21
-29.339718
  0
LINE
  8
ボルト／ビス
  6
CONTINUOUS
 10
-90.210833
 20
-29.339718
 11
-90.210833
 21
-7.339713
  0
LINE
  8
ボルト／ビス
  6
CONTINUOUS
 10
-90.210833
 20
-7.339713
 11
-88.21083
 21
-7.339713
  0
LINE
  8
ボルト／ビス
  6
CONTINUOUS
 10
-88.21083
 20
-29.339718
 11
-88.21083
 21
-7.339713
  0
LINE
  8
ボルト／ビス
  6
CONTINUOUS
 10
-91.21083
 20
-27.339715
 11
-90.210833
 21
-27.339715
  0
LINE
  8
ボルト／ビス
  6
CONTINUOUS
 10
-91.21083
 20
-27.339715
 11
-91.21083
 21
-9.339715
  0
LINE
  8
ボルト／ビス
  6
CONTINUOUS
 10
-91.21083
 20
-9.339715
 11
-90.210833
 21
-9.339715
  0
LINE
  8
ボルト／ビス
  6
CONTINUOUS
 62
    64
 10
-97.21083
 20
-23.150965
 11
-96.860602
 21
-24.113215
  0
ARC
  8
ボルト／ビス
  6
CONTINUOUS
 62
    64
 10
-94.061479
 20
-22.669837
 40
3.149352
 50
152.721967
 51
180.0
  0
ARC
  8
ボルト／ビス
  6
CONTINUOUS
 62
    64
 10
-85.138764
 20
-18.33971
 40
12.072067
 50
166.165002
 51
193.834985
  0
LINE
  8
ボルト／ビス
  6
CONTINUOUS
 62
    64
 10
-97.21083
 20
-13.528465
 11
-96.860602
 21
-12.566215
  0
ARC
  8
ボルト／ビス
  6
CONTINUOUS
 62
    64
 10
-94.061479
 20
-14.009582
 40
3.149352
 50
180.0
 51
207.278033
  0
LINE
  8
ボルト／ビス
  6
CONTINUOUS
 62
    64
 10
-97.21083
 20
-23.150965
 11
-97.21083
 21
-13.528465
  0
LINE
  8
ボルト／ビス
  6
CONTINUOUS
 62
    64
 10
-96.860602
 20
-12.566215
 11
-93.210833
 21
-12.566215
  0
LINE
  8
ボルト／ビス
  6
CONTINUOUS
 62
    64
 10
-96.860602
 20
-15.452965
 11
-93.210833
 21
-15.452965
  0
LINE
  8
ボルト／ビス
  6
CONTINUOUS
 62
    64
 10
-96.860602
 20
-24.113215
 11
-93.210833
 21
-24.113215
  0
LINE
  8
ボルト／ビス
  6
CONTINUOUS
 62
    64
 10
-96.860602
 20
-21.226465
 11
-93.210833
 21
-21.226465
  0
LINE
  8
ボルト／ビス
  6
CONTINUOUS
 62
    64
 10
-63.210833
 20
-20.639718
 11
-63.210833
 21
-16.039713
  0
LINE
  8
ボルト／ビス
  6
CONTINUOUS
 62
    64
 10
-64.21083
 20
-15.339715
 11
-63.210833
 21
-16.039713
  0
LINE
  8
ボルト／ビス
  6
CONTINUOUS
 62
    64
 10
-64.21083
 20
-21.339715
 11
-63.210833
 21
-20.639718
  0
LINE
  8
ボルト／ビス
  6
CONTINUOUS
 62
    64
 10
-64.21083
 20
-21.339715
 11
-64.21083
 21
-15.339715
  0
LINE
  8
ボルト／ビス
  6
CONTINUOUS
 62
    64
 10
-63.210833
 20
-20.639718
 11
-63.210833
 21
-16.039713
  0
LINE
  8
ボルト／ビス
  6
CONTINUOUS
 10
-93.210833
 20
-24.113215
 11
-93.210833
 21
-12.566215
  0
LINE
  8
ボルト／ビス
  6
CONTINUOUS
 10
-93.210833
 20
-24.339715
 11
-91.21083
 21
-24.339715
  0
LINE
  8
ボルト／ビス
  6
CONTINUOUS
 10
-93.210833
 20
-24.339715
 11
-93.210833
 21
-12.339715
  0
LINE
  8
ボルト／ビス
  6
CONTINUOUS
 10
-93.210833
 20
-12.339715
 11
-91.21083
 21
-12.339715
  0
LINE
  8
ボルト／ビス
  6
CONTINUOUS
 62
    64
 10
-88.21083
 20
-16.039713
 11
-63.210833
 21
-16.039713
  0
LINE
  8
ボルト／ビス
  6
CONTINUOUS
 62
    64
 10
-88.21083
 20
-20.639718
 11
-63.210833
 21
-20.639718
  0
LINE
  8
ボルト／ビス
  6
CONTINUOUS
 62
    64
 10
-88.21083
 20
-21.339715
 11
-64.21083
 21
-21.339715
  0
LINE
  8
ボルト／ビス
  6
CONTINUOUS
 62
    64
 10
-88.21083
 20
-15.339715
 11
-64.21083
 21
-15.339715
  0
ENDBLK
  0
BLOCK
  2
*GRP_0014
 70
    65
 10
0.0
 20
0.0
  0
LINE
  8
ボルト／ビス
  6
CONTINUOUS
 10
-73.707277
 20
-39.639682
 11
-73.615575
 21
-40.687845
  0
ARC
  8
ボルト／ビス
  6
CONTINUOUS
 10
-71.922045
 20
-40.539679
 40
1.7
 50
184.999989
 51
270.0
  0
LINE
  8
ボルト／ビス
  6
CONTINUOUS
 10
-71.922045
 20
-42.239678
 11
-70.207275
 21
-42.239678
  0
LINE
  8
ボルト／ビス
  6
CONTINUOUS
 10
-66.70728
 20
-39.639682
 11
-66.798982
 21
-40.687845
  0
ARC
  8
ボルト／ビス
  6
CONTINUOUS
 10
-68.492511
 20
-40.539679
 40
1.7
 50
270.0
 51
355.000011
  0
LINE
  8
ボルト／ビス
  6
CONTINUOUS
 10
-68.492512
 20
-42.239678
 11
-70.207275
 21
-42.239678
  0
LINE
  8
ボルト／ビス
  6
CONTINUOUS
 10
-72.603915
 20
-41.854777
 11
-72.603915
 21
-42.096937
  0
LINE
  8
ボルト／ビス
  6
CONTINUOUS
 10
-70.90728
 20
-41.204692
 11
-70.207275
 21
-41.204692
  0
LINE
  8
ボルト／ビス
  6
CONTINUOUS
 10
-71.307277
 20
-41.854777
 11
-72.603915
 21
-41.854777
  0
LINE
  8
ボルト／ビス
  6
CONTINUOUS
 10
-70.90728
 20
-41.204692
 11
-70.90728
 21
-41.454773
  0
ARC
  8
ボルト／ビス
  6
CONTINUOUS
 10
-71.307278
 20
-41.454774
 40
0.4
 50
270.0
 51
360.0
  0
LINE
  8
ボルト／ビス
  6
CONTINUOUS
 10
-67.810635
 20
-41.854777
 11
-67.810635
 21
-42.096937
  0
LINE
  8
ボルト／ビス
  6
CONTINUOUS
 10
-69.507277
 20
-41.204692
 11
-70.207275
 21
-41.204692
  0
LINE
  8
ボルト／ビス
  6
CONTINUOUS
 10
-69.10728
 20
-41.854777
 11
-67.810635
 21
-41.854777
  0
LINE
  8
ボルト／ビス
  6
CONTINUOUS
 10
-69.507277
 20
-41.204692
 11
-69.507277
 21
-41.454773
  0
ARC
  8
ボルト／ビス
  6
CONTINUOUS
 10
-69.107278
 20
-41.454774
 40
0.4
 50
180.0
 51
270.0
  0
LINE
  8
ボルト／ビス
  6
CONTINUOUS
 10
-73.707277
 20
-39.639682
 11
-66.70728
 21
-39.639682
  0
LINE
  8
ボルト／ビス
  6
CONTINUOUS
 10
-70.207275
 20
-44.211067
 11
-70.207275
 21
-17.366805
  0
LINE
  8
ボルト／ビス
  6
CONTINUOUS
 10
-72.207277
 20
-20.139682
 11
-71.707275
 21
-19.63968
  0
LINE
  8
ボルト／ビス
  6
CONTINUOUS
 10
-68.20728
 20
-20.139682
 11
-68.707275
 21
-19.63968
  0
LINE
  8
ボルト／ビス
  6
CONTINUOUS
 10
-72.207277
 20
-20.139682
 11
-68.20728
 21
-20.139682
  0
LINE
  8
ボルト／ビス
  6
CONTINUOUS
 10
-71.707275
 20
-19.63968
 11
-68.707275
 21
-19.63968
  0
LINE
  8
ボルト／ビス
  6
CONTINUOUS
 10
-71.707275
 20
-39.639682
 11
-71.707275
 21
-19.63968
  0
LINE
  8
ボルト／ビス
  6
CONTINUOUS
 10
-68.707275
 20
-39.639682
 11
-68.707275
 21
-19.63968
  0
LINE
  8
ボルト／ビス
  6
CONTINUOUS
 10
-72.207277
 20
-39.639682
 11
-72.207277
 21
-20.139682
  0
LINE
  8
ボルト／ビス
  6
CONTINUOUS
 10
-68.20728
 20
-39.639682
 11
-68.20728
 21
-20.139682
  0
ENDBLK
  0
BLOCK
  2
*GRP_0015
 70
    65
 10
0.0
 20
0.0
  0
LINE
  8
ボルト／ビス
  6
CONTINUOUS
 62
    64
 10
3.59133
 20
-59.839747
 11
4.639493
 21
-59.93145
  0
ARC
  8
ボルト／ビス
  6
CONTINUOUS
 62
    64
 10
4.491343
 20
-61.624975
 40
1.7
 50
0.0
 51
85.000011
  0
LINE
  8
ボルト／ビス
  6
CONTINUOUS
 62
    64
 10
6.191332
 20
-61.62498
 11
6.191332
 21
-63.33975
  0
LINE
  8
ボルト／ビス
  6
CONTINUOUS
 62
    64
 10
3.59133
 20
-66.839753
 11
4.639493
 21
-66.74805
  0
ARC
  8
ボルト／ビス
  6
CONTINUOUS
 62
    64
 10
4.491343
 20
-65.054508
 40
1.7
 50
274.999989
 51
360.0
  0
LINE
  8
ボルト／ビス
  6
CONTINUOUS
 62
    64
 10
6.191332
 20
-65.05452
 11
6.191332
 21
-63.33975
  0
LINE
  8
ボルト／ビス
  6
CONTINUOUS
 62
    64
 10
5.806425
 20
-60.94311
 11
6.048585
 21
-60.94311
  0
LINE
  8
ボルト／ビス
  6
CONTINUOUS
 62
    64
 10
5.15634
 20
-62.639753
 11
5.15634
 21
-63.33975
  0
LINE
  8
ボルト／ビス
  6
CONTINUOUS
 62
    64
 10
5.806425
 20
-62.239747
 11
5.806425
 21
-60.94311
  0
LINE
  8
ボルト／ビス
  6
CONTINUOUS
 62
    64
 10
5.15634
 20
-62.639753
 11
5.406428
 21
-62.639753
  0
ARC
  8
ボルト／ビス
  6
CONTINUOUS
 62
    64
 10
5.406438
 20
-62.239741
 40
0.4
 50
270.0
 51
360.0
  0
LINE
  8
ボルト／ビス
  6
CONTINUOUS
 62
    64
 10
5.806425
 20
-65.73639
 11
6.048585
 21
-65.73639
  0
LINE
  8
ボルト／ビス
  6
CONTINUOUS
 62
    64
 10
5.15634
 20
-64.039747
 11
5.15634
 21
-63.33975
  0
LINE
  8
ボルト／ビス
  6
CONTINUOUS
 62
    64
 10
5.806425
 20
-64.439753
 11
5.806425
 21
-65.73639
  0
LINE
  8
ボルト／ビス
  6
CONTINUOUS
 62
    64
 10
5.15634
 20
-64.039747
 11
5.406428
 21
-64.039747
  0
ARC
  8
ボルト／ビス
  6
CONTINUOUS
 62
    64
 10
5.406438
 20
-64.439741
 40
0.4
 50
0.0
 51
90.0
  0
LINE
  8
ボルト／ビス
  6
CONTINUOUS
 62
    64
 10
3.59133
 20
-59.839747
 11
3.59133
 21
-66.839753
  0
LINE
  8
ボルト／ビス
  6
CONTINUOUS
 62
    64
 10
-11.908673
 20
-61.339747
 11
-12.408667
 21
-61.83975
  0
LINE
  8
ボルト／ビス
  6
CONTINUOUS
 62
    64
 10
-11.908673
 20
-65.339753
 11
-12.408667
 21
-64.83975
  0
LINE
  8
ボルト／ビス
  6
CONTINUOUS
 62
    64
 10
-11.908673
 20
-61.339747
 11
-11.908673
 21
-65.339753
  0
LINE
  8
ボルト／ビス
  6
CONTINUOUS
 62
    64
 10
-12.408667
 20
-61.83975
 11
-12.408667
 21
-64.83975
  0
LINE
  8
ボルト／ビス
  6
CONTINUOUS
 62
    64
 10
3.59133
 20
-65.339753
 11
-11.908673
 21
-65.339753
  0
LINE
  8
ボルト／ビス
  6
CONTINUOUS
 62
    64
 10
3.59133
 20
-61.339747
 11
-11.908673
 21
-61.339747
  0
LINE
  8
ボルト／ビス
  6
CONTINUOUS
 62
    64
 10
3.59133
 20
-61.83975
 11
-12.408667
 21
-61.83975
  0
LINE
  8
ボルト／ビス
  6
CONTINUOUS
 62
    64
 10
3.59133
 20
-64.83975
 11
-12.408667
 21
-64.83975
  0
LINE
  8
ボルト／ビス
  6
DASHDOT
 62
    64
 10
9.191332
 20
-63.33975
 11
-15.408667
 21
-63.33975
  0
ENDBLK
  0
BLOCK
  2
*GRP_0016
 70
    65
 10
0.0
 20
0.0
  0
LINE
  8
ボルト／ビス
  6
CONTINUOUS
 62
    64
 10
-58.807147
 20
-13.83975
 11
-58.715445
 21
-12.791587
  0
ARC
  8
ボルト／ビス
  6
CONTINUOUS
 62
    64
 10
-57.021908
 20
-12.939754
 40
1.7
 50
90.0
 51
175.000011
  0
LINE
  8
ボルト／ビス
  6
CONTINUOUS
 62
    64
 10
-57.021915
 20
-11.239755
 11
-55.307145
 21
-11.239755
  0
LINE
  8
ボルト／ビス
  6
CONTINUOUS
 62
    64
 10
-51.80715
 20
-13.83975
 11
-51.898852
 21
-12.791587
  0
ARC
  8
ボルト／ビス
  6
CONTINUOUS
 62
    64
 10
-53.592375
 20
-12.939754
 40
1.7
 50
4.999989
 51
90.0
  0
LINE
  8
ボルト／ビス
  6
CONTINUOUS
 62
    64
 10
-53.592382
 20
-11.239755
 11
-55.307145
 21
-11.239755
  0
LINE
  8
ボルト／ビス
  6
CONTINUOUS
 62
    64
 10
-57.703785
 20
-11.624655
 11
-57.703785
 21
-11.382495
  0
LINE
  8
ボルト／ビス
  6
CONTINUOUS
 62
    64
 10
-56.00715
 20
-12.27474
 11
-55.307145
 21
-12.27474
  0
LINE
  8
ボルト／ビス
  6
CONTINUOUS
 62
    64
 10
-56.407147
 20
-11.624655
 11
-57.703785
 21
-11.624655
  0
LINE
  8
ボルト／ビス
  6
CONTINUOUS
 62
    64
 10
-56.00715
 20
-12.27474
 11
-56.00715
 21
-12.02466
  0
ARC
  8
ボルト／ビス
  6
CONTINUOUS
 62
    64
 10
-56.407141
 20
-12.024659
 40
0.4
 50
0.0
 51
90.0
  0
LINE
  8
ボルト／ビス
  6
CONTINUOUS
 62
    64
 10
-52.910505
 20
-11.624655
 11
-52.910505
 21
-11.382495
  0
LINE
  8
ボルト／ビス
  6
CONTINUOUS
 62
    64
 10
-54.607147
 20
-12.27474
 11
-55.307145
 21
-12.27474
  0
LINE
  8
ボルト／ビス
  6
CONTINUOUS
 62
    64
 10
-54.20715
 20
-11.624655
 11
-52.910505
 21
-11.624655
  0
LINE
  8
ボルト／ビス
  6
CONTINUOUS
 62
    64
 10
-54.607147
 20
-12.27474
 11
-54.607147
 21
-12.02466
  0
ARC
  8
ボルト／ビス
  6
CONTINUOUS
 62
    64
 10
-54.207141
 20
-12.024659
 40
0.4
 50
90.0
 51
180.0
  0
LINE
  8
ボルト／ビス
  6
CONTINUOUS
 62
    64
 10
-58.807147
 20
-13.83975
 11
-51.80715
 21
-13.83975
  0
LINE
  8
ボルト／ビス
  6
CONTINUOUS
 62
    64
 10
-57.307147
 20
-25.339755
 11
-56.807145
 21
-25.83975
  0
LINE
  8
ボルト／ビス
  6
CONTINUOUS
 62
    64
 10
-53.30715
 20
-25.339755
 11
-53.807145
 21
-25.83975
  0
LINE
  8
ボルト／ビス
  6
CONTINUOUS
 62
    64
 10
-57.307147
 20
-25.339755
 11
-53.30715
 21
-25.339755
  0
LINE
  8
ボルト／ビス
  6
CONTINUOUS
 62
    64
 10
-56.807145
 20
-25.83975
 11
-53.807145
 21
-25.83975
  0
LINE
  8
ボルト／ビス
  6
CONTINUOUS
 62
    64
 10
-56.807145
 20
-13.83975
 11
-56.807145
 21
-25.83975
  0
LINE
  8
ボルト／ビス
  6
CONTINUOUS
 62
    64
 10
-53.807145
 20
-13.83975
 11
-53.807145
 21
-25.83975
  0
LINE
  8
ボルト／ビス
  6
CONTINUOUS
 62
    64
 10
-53.30715
 20
-13.83975
 11
-53.30715
 21
-25.339755
  0
LINE
  8
ボルト／ビス
  6
CONTINUOUS
 62
    64
 10
-57.307147
 20
-13.83975
 11
-57.307147
 21
-25.339755
  0
LINE
  8
ボルト／ビス
  6
DASHDOT
 62
    64
 10
-55.307145
 20
-8.239755
 11
-55.307145
 21
-28.83975
  0
ENDBLK
  0
BLOCK
  2
*DIM_0017
 70
    65
 10
0.0
 20
0.0
  0
LINE
  8
寸法
  6
BYBLOCK
 62
     0
 10
-128.657528
 20
1.660288
 11
-127.095583
 21
1.660288
  0
LINE
  8
寸法
  6
BYBLOCK
 62
     0
 10
-128.657528
 20
59.160318
 11
-127.095583
 21
59.160318
  0
LINE
  8
寸法
  6
BYBLOCK
 62
     0
 10
-127.095583
 20
1.660288
 11
-127.095583
 21
59.160318
  0
POINT
  8
寸法
 62
     0
 10
-127.095583
 20
1.660288
 50
-90.0
  0
POINT
  8
寸法
 62
     0
 10
-127.095583
 20
59.160318
 50
-90.0
  0
TEXT
  7
TextStyle03
  8
寸法
  6
CONTINUOUS
 62
     0
 10
-127.425
 20
26.5125
  1
57.5
 40
3.5
 50
90.0
 72
     5
 11
-127.425
 21
34.1875
  0
ENDBLK
  0
BLOCK
  2
*DIM_0018
 70
    65
 10
0.0
 20
0.0
  0
LINE
  8
寸法
  6
BYBLOCK
 62
     0
 10
-90.210793
 20
-48.339707
 11
-127.095583
 21
-48.339707
  0
LINE
  8
寸法
  6
BYBLOCK
 62
     0
 10
-127.095583
 20
1.660288
 11
-127.095583
 21
-48.339707
  0
POINT
  8
寸法
 62
     0
 10
-127.095583
 20
1.660288
 50
-90.0
  0
POINT
  8
寸法
 62
     0
 10
-127.095583
 20
-48.339707
 50
-90.0
  0
TEXT
  7
TextStyle03
  8
寸法
  6
CONTINUOUS
 62
     0
 10
-127.425
 20
-25.2625
  1
50
 40
3.5
 50
90.0
 72
     5
 11
-127.425
 21
-21.5375
  0
ENDBLK
  0
BLOCK
  2
*GRP_0019
 70
    65
 10
0.0
 20
0.0
  0
POLYLINE
  8
寸法
  6
BYBLOCK
 62
     0
 66
     1
  0
VERTEX
  8
寸法
 10
-86.707208
 20
-27.530632
  0
VERTEX
  8
寸法
 10
-85.207208
 20
-24.932555
  0
VERTEX
  8
寸法
 10
-87.805282
 20
-26.432555
  0
SEQEND
  0
POLYLINE
  8
寸法
  6
BYBLOCK
 62
     0
 66
     1
  0
VERTEX
  8
寸法
 10
-85.207208
 20
-24.932555
  0
VERTEX
  8
寸法
 10
-102.971332
 20
-42.696683
  0
VERTEX
  8
寸法
 10
-102.971332
 20
-52.918833
  0
SEQEND
  0
ENDBLK
  0
BLOCK
  2
*GRP_0020
 70
    65
 10
0.0
 20
0.0
  0
POLYLINE
  8
寸法
  6
BYBLOCK
 62
     0
 66
     1
  0
VERTEX
  8
寸法
 10
-62.620137
 20
-36.788857
  0
VERTEX
  8
寸法
 10
-65.218213
 20
-35.288857
  0
VERTEX
  8
寸法
 10
-63.718213
 20
-37.886932
  0
SEQEND
  0
POLYLINE
  8
寸法
  6
BYBLOCK
 62
     0
 66
     1
  0
VERTEX
  8
寸法
 10
-65.218213
 20
-35.288857
  0
VERTEX
  8
寸法
 10
-49.905215
 20
-50.601855
  0
VERTEX
  8
寸法
 10
-49.905215
 20
-52.603535
  0
SEQEND
  0
ENDBLK
  0
BLOCK
  2
*GRP_0021
 70
    65
 10
0.0
 20
0.0
  0
POLYLINE
  8
寸法
  6
BYBLOCK
 62
     0
 66
     1
  0
VERTEX
  8
寸法
 10
-85.005343
 20
13.601285
  0
VERTEX
  8
寸法
 10
-82.407268
 20
12.101285
  0
VERTEX
  8
寸法
 10
-83.907268
 20
14.69936
  0
SEQEND
  0
POLYLINE
  8
寸法
  6
BYBLOCK
 62
     0
 66
     1
  0
VERTEX
  8
寸法
 10
-82.407268
 20
12.101285
  0
VERTEX
  8
寸法
 10
-98.257572
 20
27.951587
  0
VERTEX
  8
寸法
 10
-98.257572
 20
29.794055
  0
SEQEND
  0
ENDBLK
  0
BLOCK
  2
*GRP_0022
 70
    65
 10
0.0
 20
0.0
  0
POLYLINE
  8
寸法
  6
BYBLOCK
 62
     0
 66
     1
  0
VERTEX
  8
寸法
 10
14.34294
 20
-66.371045
  0
VERTEX
  8
寸法
 10
12.177578
 20
-68.447387
  0
VERTEX
  8
寸法
 10
15.091007
 20
-67.731905
  0
SEQEND
  0
POLYLINE
  8
寸法
  6
BYBLOCK
 62
     0
 66
     1
  0
VERTEX
  8
寸法
 10
12.177578
 20
-68.447387
  0
VERTEX
  8
寸法
 10
34.214003
 20
-56.33391
  0
VERTEX
  8
寸法
 10
34.214003
 20
-58.70233
  0
SEQEND
  0
ENDBLK
  0
BLOCK
  2
*GRP_0023
 70
    65
 10
0.0
 20
0.0
  0
POLYLINE
  8
寸法
  6
BYBLOCK
 62
     0
 66
     1
  0
VERTEX
  8
寸法
 10
3.906142
 20
-48.786432
  0
VERTEX
  8
寸法
 10
6.892677
 20
-48.502527
  0
VERTEX
  8
寸法
 10
4.164307
 20
-47.25513
  0
SEQEND
  0
POLYLINE
  8
寸法
  6
BYBLOCK
 62
     0
 66
     1
  0
VERTEX
  8
寸法
 10
6.892677
 20
-48.502527
  0
VERTEX
  8
寸法
 10
-11.50815
 20
-45.40028
  0
VERTEX
  8
寸法
 10
-11.50815
 20
-41.835555
  0
SEQEND
  0
ENDBLK
  0
BLOCK
  2
*GRP_0024
 70
    65
 10
0.0
 20
0.0
  0
POLYLINE
  8
寸法
  6
BYBLOCK
 62
     0
 66
     1
  0
VERTEX
  8
寸法
 10
-23.366733
 20
3.16032
  0
VERTEX
  8
寸法
 10
-20.768657
 20
1.66032
  0
VERTEX
  8
寸法
 10
-22.268657
 20
4.258395
  0
SEQEND
  0
POLYLINE
  8
寸法
  6
BYBLOCK
 62
     0
 66
     1
  0
VERTEX
  8
寸法
 10
-20.768657
 20
1.66032
  0
VERTEX
  8
寸法
 10
-27.67618
 20
8.567843
  0
VERTEX
  8
寸法
 10
-27.67618
 20
13.984577
  0
SEQEND
  0
ENDBLK
  0
BLOCK
  2
*GRP_0025
 70
    65
 10
0.0
 20
0.0
  0
POLYLINE
  8
寸法
  6
BYBLOCK
 62
     0
 66
     1
  0
VERTEX
  8
寸法
 10
67.151293
 20
3.368292
  0
VERTEX
  8
寸法
 10
69.749367
 20
1.868292
  0
VERTEX
  8
寸法
 10
68.249367
 20
4.466367
  0
SEQEND
  0
POLYLINE
  8
寸法
  6
BYBLOCK
 62
     0
 66
     1
  0
VERTEX
  8
寸法
 10
69.749367
 20
1.868292
  0
VERTEX
  8
寸法
 10
62.841845
 20
8.775815
  0
VERTEX
  8
寸法
 10
62.841845
 20
14.19255
  0
SEQEND
  0
ENDBLK
  0
BLOCK
  2
*GRP_0026
 70
    65
 10
0.0
 20
0.0
  0
POLYLINE
  8
寸法
  6
BYBLOCK
 62
     0
 66
     1
  0
VERTEX
  8
寸法
 10
84.496105
 20
11.451258
  0
VERTEX
  8
寸法
 10
87.09418
 20
9.951258
  0
VERTEX
  8
寸法
 10
85.59418
 20
12.549332
  0
SEQEND
  0
POLYLINE
  8
寸法
  6
BYBLOCK
 62
     0
 66
     1
  0
VERTEX
  8
寸法
 10
87.09418
 20
9.951258
  0
VERTEX
  8
寸法
 10
78.523603
 20
18.521835
  0
VERTEX
  8
寸法
 10
78.523603
 20
24.511847
  0
SEQEND
  0
ENDBLK
  0
BLOCK
  2
*DIM_0027
 70
    65
 10
0.0
 20
0.0
  0
LINE
  8
寸法
  6
BYBLOCK
 62
     0
 10
-117.79514
 20
1.660288
 11
-118.627978
 21
1.660288
  0
LINE
  8
寸法
  6
BYBLOCK
 62
     0
 10
-101.910793
 20
-18.339713
 11
-118.627978
 21
-18.339713
  0
LINE
  8
寸法
  6
BYBLOCK
 62
     0
 10
-118.627978
 20
1.660288
 11
-118.627978
 21
-18.339713
  0
POINT
  8
寸法
 62
     0
 10
-118.627978
 20
1.660288
  0
POINT
  8
寸法
 62
     0
 10
-118.627978
 20
-18.339713
  0
TEXT
  7
TextStyle03
  8
寸法
  6
CONTINUOUS
 62
     0
 10
-119.025
 20
-9.94375
  1
20
 40
3.0
 50
90.0
 72
     5
 11
-119.025
 21
-6.75625
  0
ENDBLK
  0
BLOCK
  2
*DIM_0028
 70
    65
 10
0.0
 20
0.0
  0
LINE
  8
寸法
  6
BYBLOCK
 62
     0
 10
-101.910793
 20
-48.339707
 11
-118.627978
 21
-48.339707
  0
LINE
  8
寸法
  6
BYBLOCK
 62
     0
 10
-118.627978
 20
-18.339713
 11
-118.627978
 21
-48.339707
  0
POINT
  8
寸法
 62
     0
 10
-118.627978
 20
-48.339707
  0
TEXT
  7
TextStyle03
  8
寸法
  6
CONTINUOUS
 62
     0
 10
-119.025
 20
-34.94375
  1
30
 40
3.0
 50
90.0
 72
     5
 11
-119.025
 21
-31.75625
  0
ENDBLK
  0
BLOCK
  2
*DIM_0029
 70
    65
 10
0.0
 20
0.0
  0
LINE
  8
寸法
  6
CONTINUOUS
 10
-27.207208
 20
-81.239753
 11
-142.405447
 21
-81.239753
  0
LINE
  8
寸法
  6
CONTINUOUS
 10
89.939275
 20
59.160318
 11
-142.405447
 21
59.160318
  0
LINE
  8
寸法
  6
CONTINUOUS
 10
-142.405447
 20
-81.239753
 11
-142.405447
 21
59.160318
  0
POINT
  8
寸法
 10
-142.405447
 20
-81.239753
 50
-90.0
  0
POINT
  8
寸法
 10
-142.405447
 20
59.160318
 50
-90.0
  0
TEXT
  7
TextStyle03
  8
寸法
  6
CONTINUOUS
 10
-142.725
 20
-16.6
  1
140.4
 40
4.0
 50
90.0
 72
     5
 11
-142.725
 21
-5.6
  0
ENDBLK
  0
BLOCK
  2
*DIM_0030
 70
    65
 10
0.0
 20
0.0
  0
LINE
  8
寸法
  6
CONTINUOUS
 10
-97.714445
 20
1.660288
 11
-134.165272
 21
1.660288
  0
LINE
  8
寸法
  6
CONTINUOUS
 10
-27.207208
 20
-81.239753
 11
-134.165272
 21
-81.239753
  0
LINE
  8
寸法
  6
CONTINUOUS
 10
-134.165272
 20
1.660288
 11
-134.165272
 21
-81.239753
  0
POINT
  8
寸法
 10
-134.165272
 20
1.660288
 50
-90.0
  0
POINT
  8
寸法
 10
-134.165272
 20
-81.239753
 50
-90.0
  0
TEXT
  7
TextStyle03
  8
寸法
  6
CONTINUOUS
 10
-134.475
 20
-44.225
  1
82.9
 40
4.0
 50
90.0
 72
     5
 11
-134.475
 21
-35.475
  0
ENDBLK
  0
BLOCK
  2
*GRP_0031
 70
    65
 10
0.0
 20
0.0
  0
POLYLINE
  8
寸法
  6
BYBLOCK
 62
     0
 66
     1
  0
VERTEX
  8
寸法
 10
-4.166482
 20
-66.839753
  0
VERTEX
  8
寸法
 10
-6.764557
 20
-65.339753
  0
VERTEX
  8
寸法
 10
-5.264557
 20
-67.937827
  0
SEQEND
  0
POLYLINE
  8
寸法
  6
BYBLOCK
 62
     0
 66
     1
  0
VERTEX
  8
寸法
 10
-6.764557
 20
-65.339753
  0
VERTEX
  8
寸法
 10
5.56742
 20
-77.67173
  0
VERTEX
  8
寸法
 10
5.56742
 20
-99.615915
  0
SEQEND
  0
ENDBLK
  0
BLOCK
  2
*GRP_0032
 70
    65
 10
0.0
 20
0.0
  0
POLYLINE
  8
寸法
  6
BYBLOCK
 62
     0
 66
     1
  0
VERTEX
  8
寸法
 10
-39.823448
 20
-63.604662
  0
VERTEX
  8
寸法
 10
-38.323448
 20
-61.006588
  0
VERTEX
  8
寸法
 10
-40.921525
 20
-62.506588
  0
SEQEND
  0
POLYLINE
  8
寸法
  6
BYBLOCK
 62
     0
 66
     1
  0
VERTEX
  8
寸法
 10
-38.323448
 20
-61.006588
  0
VERTEX
  8
寸法
 10
-42.590727
 20
-65.273867
  0
VERTEX
  8
寸法
 10
-42.590727
 20
-69.25866
  0
SEQEND
  0
ENDBLK
  0
BLOCK
  2
*GRP_0033
 70
    65
 10
0.0
 20
0.0
  0
POLYLINE
  8
寸法
  6
BYBLOCK
 62
     0
 66
     1
  0
VERTEX
  8
寸法
 10
-60.34236
 20
18.68013
  0
VERTEX
  8
寸法
 10
-61.84236
 20
16.082055
  0
VERTEX
  8
寸法
 10
-59.244285
 20
17.582055
  0
SEQEND
  0
POLYLINE
  8
寸法
  6
BYBLOCK
 62
     0
 66
     1
  0
VERTEX
  8
寸法
 10
-61.84236
 20
16.082055
  0
VERTEX
  8
寸法
 10
-52.67534
 20
25.249072
  0
VERTEX
  8
寸法
 10
-52.67534
 20
27.67091
  0
SEQEND
  0
ENDBLK
  0
BLOCK
  2
*GRP_0034
 70
    65
 10
0.0
 20
0.0
  0
POLYLINE
  8
寸法
  6
BYBLOCK
 62
     0
 66
     1
  0
VERTEX
  8
寸法
 10
-65.394745
 20
18.68013
  0
VERTEX
  8
寸法
 10
-66.894745
 20
16.082055
  0
VERTEX
  8
寸法
 10
-64.29667
 20
17.582055
  0
SEQEND
  0
POLYLINE
  8
寸法
  6
BYBLOCK
 62
     0
 66
     1
  0
VERTEX
  8
寸法
 10
-66.894745
 20
16.082055
  0
VERTEX
  8
寸法
 10
-57.727725
 20
25.249072
  0
VERTEX
  8
寸法
 10
-57.727725
 20
27.67091
  0
SEQEND
  0
ENDBLK
  0
BLOCK
  2
*GRP_0035
 70
    65
 10
0.0
 20
0.0
  0
LINE
  8
鉄骨等
  6
CONTINUOUS
 10
12.792795
 20
-81.239753
 11
12.792795
 21
-79.739753
  0
LINE
  8
鉄骨等
  6
CONTINUOUS
 10
12.792795
 20
-79.739753
 11
3.59133
 21
-79.739753
  0
LINE
  8
鉄骨等
  6
CONTINUOUS
 10
2.09133
 20
-77.239755
 11
2.09133
 21
-79.739753
  0
LINE
  8
鉄骨等
  6
CONTINUOUS
 10
2.09133
 20
-77.239755
 11
0.091328
 21
-77.239755
  0
LINE
  8
鉄骨等
  6
CONTINUOUS
 10
2.09133
 20
-76.239757
 11
0.091328
 21
-76.239757
  0
LINE
  8
鉄骨等
  6
CONTINUOUS
 10
0.091328
 20
-77.239755
 11
0.091328
 21
-76.239757
  0
LINE
  8
鉄骨等
  6
CONTINUOUS
 10
-3.007208
 20
-60.33975
 11
-3.007208
 21
-58.339747
  0
LINE
  8
鉄骨等
  6
CONTINUOUS
 10
-3.007208
 20
-66.33975
 11
-3.007208
 21
-68.339753
  0
LINE
  8
鉄骨等
  6
CONTINUOUS
 10
-3.007208
 20
-66.33975
 11
2.09133
 21
-65.320043
  0
LINE
  8
鉄骨等
  6
CONTINUOUS
 10
2.09133
 20
-65.320043
 11
2.09133
 21
-61.359458
  0
LINE
  8
鉄骨等
  6
CONTINUOUS
 10
-3.007208
 20
-60.33975
 11
2.09133
 21
-61.359458
  0
LINE
  8
鉄骨等
  6
CONTINUOUS
 10
-1.507208
 20
-68.339753
 11
-1.507208
 21
-67.339747
  0
LINE
  8
鉄骨等
  6
CONTINUOUS
 10
-3.007208
 20
-68.339753
 11
-1.507208
 21
-68.339753
  0
LINE
  8
鉄骨等
  6
CONTINUOUS
 10
-3.007208
 20
-58.339747
 11
-1.507208
 21
-58.339747
  0
LINE
  8
鉄骨等
  6
CONTINUOUS
 10
-1.507208
 20
-59.339753
 11
-1.507208
 21
-58.339747
  0
LINE
  8
鉄骨等
  6
CONTINUOUS
 10
-1.507208
 20
-59.339753
 11
3.59133
 21
-59.339753
  0
LINE
  8
鉄骨等
  6
CONTINUOUS
 10
-1.507208
 20
-67.339747
 11
2.09133
 21
-67.339747
  0
LINE
  8
鉄骨等
  6
CONTINUOUS
 10
2.09133
 20
-76.239757
 11
2.09133
 21
-67.339747
  0
LINE
  8
鉄骨等
  6
CONTINUOUS
 10
-55.17759
 20
-38.644147
 11
-51.945248
 21
-38.644147
  0
LINE
  8
鉄骨等
  6
CONTINUOUS
 10
-51.945248
 20
-38.644147
 11
-50.677492
 21
-40.191015
  0
LINE
  8
鉄骨等
  6
CONTINUOUS
 10
-50.677492
 20
-40.191015
 11
-49.904062
 21
-39.557138
  0
LINE
  8
鉄骨等
  6
CONTINUOUS
 10
12.792795
 20
-81.239753
 11
-22.207208
 21
-81.239753
  0
LINE
  8
鉄骨等
  6
CONTINUOUS
 10
-55.17759
 20
-38.644147
 11
-22.023128
 21
-79.09797
  0
LINE
  8
鉄骨等
  6
CONTINUOUS
 10
2.09133
 20
-79.739753
 11
-20.667353
 21
-79.739753
  0
LINE
  8
鉄骨等
  6
CONTINUOUS
 10
-22.023128
 20
-79.09797
 11
-20.839695
 21
-76.597973
  0
LINE
  8
鉄骨等
  6
CONTINUOUS
 10
-20.667353
 20
-79.739753
 11
-19.48392
 21
-77.239755
  0
LINE
  8
鉄骨等
  6
CONTINUOUS
 10
-20.839695
 20
-76.597973
 11
-22.10745
 21
-75.051105
  0
LINE
  8
鉄骨等
  6
CONTINUOUS
 10
-22.10745
 20
-75.051105
 11
-21.334012
 21
-74.417227
  0
LINE
  8
鉄骨等
  6
CONTINUOUS
 10
-19.840335
 20
-76.239757
 11
-21.334012
 21
-74.417227
  0
LINE
  8
鉄骨等
  6
CONTINUOUS
 10
-19.48392
 20
-77.239755
 11
-17.483918
 21
-77.239755
  0
LINE
  8
鉄骨等
  6
CONTINUOUS
 10
-17.483918
 20
-77.239755
 11
-17.483918
 21
-76.239757
  0
LINE
  8
鉄骨等
  6
CONTINUOUS
 10
-19.840335
 20
-76.239757
 11
-17.483918
 21
-76.239757
  0
LINE
  8
鉄骨等
  6
CONTINUOUS
 10
3.29133
 20
-63.33975
 11
3.59133
 21
-63.03975
  0
LINE
  8
鉄骨等
  6
CONTINUOUS
 10
3.29133
 20
-63.33975
 11
3.59133
 21
-63.63975
  0
LINE
  8
鉄骨等
  6
CONTINUOUS
 10
3.59133
 20
-63.03975
 11
3.59133
 21
-59.339753
  0
ARC
  8
鉄骨等
  6
CONTINUOUS
 10
8.291345
 20
-68.339741
 40
0.5
 50
270.0
 51
360.0
  0
LINE
  8
鉄骨等
  6
CONTINUOUS
 10
8.791335
 20
-68.339745
 11
8.791335
 21
-67.83975
  0
ARC
  8
鉄骨等
  6
CONTINUOUS
 10
8.291345
 20
-67.839741
 40
0.5
 50
0.0
 51
90.0
  0
LINE
  8
鉄骨等
  6
CONTINUOUS
 10
3.59133
 20
-79.739753
 11
3.59133
 21
-68.839747
  0
LINE
  8
鉄骨等
  6
CONTINUOUS
 10
8.291332
 20
-68.839747
 11
3.59133
 21
-68.839747
  0
LINE
  8
鉄骨等
  6
CONTINUOUS
 10
8.291332
 20
-67.339747
 11
3.59133
 21
-67.339747
  0
LINE
  8
鉄骨等
  6
CONTINUOUS
 10
3.59133
 20
-63.63975
 11
3.59133
 21
-67.339747
  0
LINE
  8
鉄骨等
  6
CONTINUOUS
 10
-82.207208
 20
-37.64415
 11
-51.471878
 21
-37.64415
  0
LINE
  8
鉄骨等
  6
CONTINUOUS
 10
-49.904062
 20
-39.557138
 11
-51.471878
 21
-37.64415
  0
LINE
  8
鉄骨等
  6
CONTINUOUS
 10
-22.207208
 20
-81.239753
 11
-56.707215
 21
-39.14415
  0
LINE
  8
鉄骨等
  6
CONTINUOUS
 10
-82.207208
 20
-37.64415
 11
-82.207208
 21
-39.644153
  0
LINE
  8
鉄骨等
  6
CONTINUOUS
 10
-82.207208
 20
-39.644153
 11
-80.207205
 21
-39.644153
  0
LINE
  8
鉄骨等
  6
CONTINUOUS
 10
-80.207205
 20
-39.644153
 11
-80.207205
 21
-39.14415
  0
LINE
  8
鉄骨等
  6
CONTINUOUS
 10
-70.207208
 20
-39.344153
 11
-70.507208
 21
-39.644153
  0
LINE
  8
鉄骨等
  6
CONTINUOUS
 10
-70.207208
 20
-39.344153
 11
-69.907207
 21
-39.644153
  0
LINE
  8
鉄骨等
  6
CONTINUOUS
 10
-69.907207
 20
-39.644153
 11
-66.20721
 21
-39.644153
  0
LINE
  8
鉄骨等
  6
CONTINUOUS
 10
-70.507208
 20
-39.644153
 11
-74.207205
 21
-39.644153
  0
LINE
  8
鉄骨等
  6
CONTINUOUS
 10
-74.207205
 20
-39.644153
 11
-74.707208
 21
-39.14415
  0
LINE
  8
鉄骨等
  6
CONTINUOUS
 10
-80.207205
 20
-39.14415
 11
-74.707208
 21
-39.14415
  0
LINE
  8
鉄骨等
  6
CONTINUOUS
 10
-66.20721
 20
-39.644153
 11
-65.707208
 21
-39.14415
  0
LINE
  8
鉄骨等
  6
CONTINUOUS
 10
-56.707215
 20
-39.14415
 11
-65.707208
 21
-39.14415
  0
ENDBLK
  0
BLOCK
  2
*GRP_0036
 70
    65
 10
0.0
 20
0.0
  0
ARC
  8
別途部材
  6
CONTINUOUS
 62
    96
 10
-80.201274
 20
-42.916952
 40
5.005952
 50
180.001373
 51
248.200992
  0
LINE
  8
別途部材
  6
CONTINUOUS
 62
    96
 10
-88.210793
 20
-48.339707
 11
-88.210793
 21
1.660288
  0
LINE
  8
別途部材
  6
CONTINUOUS
 62
    96
 10
-85.207208
 20
-42.916953
 11
-85.207208
 21
3.324853
  0
LINE
  8
別途部材
  6
CONTINUOUS
 10
-58.210793
 20
-60.339685
 11
-58.210793
 21
-57.10474
  0
LINE
  8
別途部材
  6
CONTINUOUS
 62
    96
 10
-88.210793
 20
-48.339707
 11
-58.210793
 21
-60.339685
  0
LINE
  8
別途部材
  6
CONTINUOUS
 62
    96
 10
-82.06041
 20
-47.564898
 11
-58.210793
 21
-57.10474
  0
ARC
  8
別途部材
  6
CONTINUOUS
 10
-4.645872
 20
133.750163
 40
156.303653
 50
230.688004
 51
237.681046
  0
ARC
  8
別途部材
  6
CONTINUOUS
 10
-4.645872
 20
133.750163
 40
153.3
 50
229.762604
 51
238.297129
  0
ENDBLK
  0
BLOCK
  2
*GRP_0037
 70
    65
 10
0.0
 20
0.0
  0
ARC
  8
St
  6
CONTINUOUS
 10
-84.207208
 20
-2.886119
 40
1.0
 50
90.0
 51
180.0
  0
LINE
  8
St
  6
CONTINUOUS
 10
-84.20721
 20
-1.886118
 11
-83.207205
 21
-1.886118
  0
ARC
  8
St
  6
CONTINUOUS
 10
-83.207207
 20
-2.886119
 40
1.0
 50
0.0
 51
90.0
  0
LINE
  8
St
  6
CONTINUOUS
 10
-82.207208
 20
-40.886117
 11
-82.207208
 21
-2.886115
  0
ARC
  8
St
  6
CONTINUOUS
 10
-83.207207
 20
-40.886117
 40
1.0
 50
-90.0
 51
0.0
  0
LINE
  8
St
  6
CONTINUOUS
 10
-84.20721
 20
-41.886115
 11
-83.207205
 21
-41.886115
  0
LINE
  8
St
  6
CONTINUOUS
 10
-85.207208
 20
-40.886117
 11
-85.207208
 21
-2.886115
  0
ARC
  8
St
  6
CONTINUOUS
 10
-84.207208
 20
-40.886117
 40
1.0
 50
180.0
 51
270.0
  0
LINE
  8
St
  6
CONTINUOUS
 10
-83.310285
 20
-1.886118
 11
-82.207208
 21
-2.989195
  0
LINE
  8
St
  6
CONTINUOUS
 10
-85.017562
 20
-2.30017
 11
-82.207208
 21
-5.110525
  0
LINE
  8
St
  6
CONTINUOUS
 10
-85.207208
 20
-8.474485
 11
-82.207208
 21
-11.474485
  0
LINE
  8
St
  6
CONTINUOUS
 10
-85.207208
 20
-6.353155
 11
-82.207208
 21
-9.353155
  0
LINE
  8
St
  6
CONTINUOUS
 10
-85.207208
 20
-4.23184
 11
-82.207208
 21
-7.23184
  0
LINE
  8
St
  6
CONTINUOUS
 10
-85.207208
 20
-19.081075
 11
-82.207208
 21
-22.081075
  0
LINE
  8
St
  6
CONTINUOUS
 10
-85.207208
 20
-16.95976
 11
-82.207208
 21
-19.95976
  0
LINE
  8
St
  6
CONTINUOUS
 10
-85.207208
 20
-14.838445
 11
-82.207208
 21
-17.838445
  0
LINE
  8
St
  6
CONTINUOUS
 10
-85.207208
 20
-12.717115
 11
-82.207208
 21
-15.717115
  0
LINE
  8
St
  6
CONTINUOUS
 10
-85.207208
 20
-10.5958
 11
-82.207208
 21
-13.5958
  0
LINE
  8
St
  6
CONTINUOUS
 10
-85.207208
 20
-25.44505
 11
-82.207208
 21
-28.44505
  0
LINE
  8
St
  6
CONTINUOUS
 10
-85.207208
 20
-23.32372
 11
-82.207208
 21
-26.32372
  0
LINE
  8
St
  6
CONTINUOUS
 10
-85.207208
 20
-21.202405
 11
-82.207208
 21
-24.202405
  0
LINE
  8
St
  6
CONTINUOUS
 10
-85.207208
 20
-36.05164
 11
-82.207208
 21
-39.05164
  0
LINE
  8
St
  6
CONTINUOUS
 10
-85.207208
 20
-33.930325
 11
-82.207208
 21
-36.930325
  0
LINE
  8
St
  6
CONTINUOUS
 10
-85.207208
 20
-31.80901
 11
-82.207208
 21
-34.80901
  0
LINE
  8
St
  6
CONTINUOUS
 10
-85.207208
 20
-29.68768
 11
-82.207208
 21
-32.68768
  0
LINE
  8
St
  6
CONTINUOUS
 10
-85.207208
 20
-27.566365
 11
-82.207208
 21
-30.566365
  0
LINE
  8
St
  6
CONTINUOUS
 10
-85.207208
 20
-38.17297
 11
-82.240013
 21
-41.140165
  0
LINE
  8
St
  6
CONTINUOUS
 10
-85.207208
 20
-40.294285
 11
-83.615377
 21
-41.886115
  0
ENDBLK
  0
BLOCK
  2
*GRP_0038
 70
    65
 10
0.0
 20
0.0
  0
LINE
  8
St
  6
CONTINUOUS
 10
3.591338
 20
-18.33975
 11
3.591338
 21
-29.644147
  0
LINE
  8
St
  6
CONTINUOUS
 10
-64.70721
 20
-32.644147
 11
-64.70721
 21
-32.944147
  0
LINE
  8
St
  6
CONTINUOUS
 10
-64.70721
 20
-32.944147
 11
-65.207212
 21
-32.944147
  0
LINE
  8
St
  6
CONTINUOUS
 10
-65.207212
 20
-32.944147
 11
-65.207212
 21
-32.644147
  0
LINE
  8
St
  6
CONTINUOUS
 10
-79.207208
 20
-21.839783
 11
-80.207205
 21
-22.83978
  0
LINE
  8
St
  6
CONTINUOUS
 10
-60.407115
 20
-30.644145
 11
2.091338
 21
-30.644145
  0
LINE
  8
St
  6
CONTINUOUS
 10
-80.207205
 20
-27.644145
 11
-80.207205
 21
-22.83978
  0
LINE
  8
St
  6
CONTINUOUS
 10
-77.207205
 20
-30.644145
 11
-62.407185
 21
-30.644145
  0
ARC
  8
St
  6
CONTINUOUS
 10
-77.207193
 20
-27.644144
 40
3.0
 50
180.0
 51
270.0
  0
LINE
  8
St
  6
CONTINUOUS
 10
-62.407185
 20
-30.644145
 11
-62.407185
 21
-18.33975
  0
LINE
  8
St
  6
CONTINUOUS
 10
-79.207208
 20
-14.839762
 11
-80.207205
 21
-13.839765
  0
LINE
  8
St
  6
CONTINUOUS
 10
-79.207208
 20
-21.839783
 11
-79.207208
 21
-14.839762
  0
LINE
  8
St
  6
CONTINUOUS
 10
-60.407138
 20
-20.339753
 11
-52.90719
 21
-20.339753
  0
LINE
  8
St
  6
CONTINUOUS
 10
-52.407187
 20
-19.83975
 11
-52.90719
 21
-20.339753
  0
LINE
  8
St
  6
CONTINUOUS
 10
2.091338
 20
-25.339755
 11
0.091335
 21
-25.339755
  0
LINE
  8
St
  6
CONTINUOUS
 10
0.091335
 20
-25.339755
 11
0.091335
 21
-23.839755
  0
LINE
  8
St
  6
CONTINUOUS
 10
2.091338
 20
-23.839755
 11
0.091335
 21
-23.839755
  0
LINE
  8
St
  6
CONTINUOUS
 10
-60.40713
 20
-25.339793
 11
-58.407128
 21
-25.339793
  0
LINE
  8
St
  6
CONTINUOUS
 10
-58.407128
 20
-25.339793
 11
-58.407128
 21
-23.839793
  0
LINE
  8
St
  6
CONTINUOUS
 10
-60.40713
 20
-23.839793
 11
-58.407128
 21
-23.839793
  0
LINE
  8
St
  6
CONTINUOUS
 10
-60.407115
 20
-30.644145
 11
-60.40713
 21
-25.339793
  0
LINE
  8
St
  6
CONTINUOUS
 10
-60.407138
 20
-20.339753
 11
-60.40713
 21
-23.839793
  0
LINE
  8
St
  6
CONTINUOUS
 10
2.091338
 20
-30.644145
 11
2.091338
 21
-25.339755
  0
LINE
  8
St
  6
CONTINUOUS
 10
0.091335
 20
-20.339753
 11
2.091338
 21
-20.339753
  0
LINE
  8
St
  6
CONTINUOUS
 10
2.091338
 20
-23.839755
 11
2.091338
 21
-20.339753
  0
LINE
  8
St
  6
CONTINUOUS
 10
0.091335
 20
-20.339753
 11
0.091335
 21
-19.83975
  0
LINE
  8
St
  6
CONTINUOUS
 10
-52.407187
 20
-19.83975
 11
0.091335
 21
-19.83975
  0
LINE
  8
St
  6
CONTINUOUS
 10
-80.207205
 20
-13.839765
 11
-80.207205
 21
-10.64415
  0
LINE
  8
St
  6
CONTINUOUS
 10
2.091338
 20
-50.539747
 11
-33.729615
 21
-50.539747
  0
LINE
  8
St
  6
CONTINUOUS
 10
3.591338
 20
-29.644147
 11
3.591338
 21
-50.539747
  0
LINE
  8
St
  6
CONTINUOUS
 10
3.591338
 20
-18.33975
 11
-50.807145
 21
-18.33975
  0
LINE
  8
St
  6
CONTINUOUS
 10
-9.50721
 20
-52.039747
 11
-35.207205
 21
-52.039747
  0
LINE
  8
St
  6
CONTINUOUS
 10
-35.207205
 20
-52.039747
 11
-35.207205
 21
-32.644147
  0
LINE
  8
St
  6
CONTINUOUS
 10
2.091338
 20
-32.644147
 11
-33.707205
 21
-32.644147
  0
LINE
  8
St
  6
CONTINUOUS
 10
-81.907207
 20
-18.339772
 11
-82.207208
 21
-18.039772
  0
LINE
  8
St
  6
CONTINUOUS
 10
-81.907207
 20
-18.339772
 11
-82.207208
 21
-18.639772
  0
LINE
  8
St
  6
CONTINUOUS
 10
-82.207208
 20
-32.644147
 11
-82.207208
 21
-18.639772
  0
LINE
  8
St
  6
CONTINUOUS
 10
-82.207208
 20
-18.039772
 11
-82.207208
 21
-9.14415
  0
LINE
  8
St
  6
CONTINUOUS
 10
-78.207203
 20
-32.344147
 11
-78.507203
 21
-32.644147
  0
LINE
  8
St
  6
CONTINUOUS
 10
-78.207203
 20
-32.344147
 11
-77.907203
 21
-32.644147
  0
LINE
  8
St
  6
CONTINUOUS
 10
-78.507203
 20
-32.644147
 11
-82.207208
 21
-32.644147
  0
LINE
  8
St
  6
CONTINUOUS
 10
-70.207208
 20
-32.344147
 11
-70.507208
 21
-32.644147
  0
LINE
  8
St
  6
CONTINUOUS
 10
-70.207208
 20
-32.344147
 11
-69.907207
 21
-32.644147
  0
LINE
  8
St
  6
CONTINUOUS
 10
-65.207212
 20
-32.644147
 11
-69.907207
 21
-32.644147
  0
LINE
  8
St
  6
CONTINUOUS
 10
-70.507208
 20
-32.644147
 11
-77.907203
 21
-32.644147
  0
LINE
  8
St
  6
CONTINUOUS
 10
-8.30721
 20
-63.339743
 11
-8.00721
 21
-63.639743
  0
LINE
  8
St
  6
CONTINUOUS
 10
-8.00721
 20
-63.039743
 11
-8.30721
 21
-63.339743
  0
LINE
  8
St
  6
CONTINUOUS
 10
-8.00721
 20
-63.039743
 11
-8.00721
 21
-52.039747
  0
ARC
  8
St
  6
CONTINUOUS
 10
-29.516861
 20
-40.197802
 40
0.75
 50
227.457576
 51
407.457232
  0
ARC
  8
St
  6
CONTINUOUS
 10
-29.516861
 20
-43.881689
 40
0.75
 50
312.542364
 51
492.542397
  0
ARC
  8
St
  6
CONTINUOUS
 10
-31.2072
 20
-42.039745
 40
1.75
 50
47.457615
 51
312.542407
  0
ARC
  8
St
  6
CONTINUOUS
 10
-31.2072
 20
-42.039745
 40
3.25
 50
237.769086
 51
312.542389
  0
ARC
  8
St
  6
CONTINUOUS
 10
-33.207198
 20
-45.211891
 40
0.5
 50
57.769086
 51
180.0
  0
ARC
  8
St
  6
CONTINUOUS
 10
-31.2072
 20
-42.039745
 40
3.25
 50
47.457518
 51
122.230914
  0
ARC
  8
St
  6
CONTINUOUS
 10
-33.207198
 20
-38.8676
 40
0.5
 50
180.0
 51
302.230914
  0
ARC
  8
St
  6
CONTINUOUS
 10
-1.598989
 20
-40.197802
 40
0.75
 50
132.542768
 51
312.542424
  0
ARC
  8
St
  6
CONTINUOUS
 10
-1.598989
 20
-43.881689
 40
0.75
 50
47.457603
 51
227.457636
  0
ARC
  8
St
  6
CONTINUOUS
 10
0.091349
 20
-42.039745
 40
1.75
 50
227.457593
 51
492.542385
  0
ARC
  8
St
  6
CONTINUOUS
 10
0.091349
 20
-42.039745
 40
3.25
 50
66.421841
 51
132.542482
  0
ARC
  8
St
  6
CONTINUOUS
 10
1.591348
 20
-38.602813
 40
0.5
 50
246.421841
 51
360.0
  0
ARC
  8
St
  6
CONTINUOUS
 10
0.091349
 20
-42.039745
 40
3.25
 50
227.457611
 51
293.578159
  0
ARC
  8
St
  6
CONTINUOUS
 10
1.591348
 20
-45.476678
 40
0.5
 50
0.0
 51
113.578159
  0
LINE
  8
St
  6
CONTINUOUS
 10
-33.707205
 20
-32.644147
 11
-33.707205
 21
-38.867602
  0
LINE
  8
St
  6
CONTINUOUS
 10
-33.707205
 20
-50.539747
 11
-33.707205
 21
-45.211898
  0
LINE
  8
St
  6
CONTINUOUS
 10
2.091338
 20
-50.539747
 11
2.091338
 21
-45.476685
  0
LINE
  8
St
  6
CONTINUOUS
 10
2.091338
 20
-32.644147
 11
2.091338
 21
-38.602823
  0
LINE
  8
St
  6
CONTINUOUS
 10
-10.007205
 20
-60.839745
 11
-9.50721
 21
-60.339743
  0
LINE
  8
St
  6
CONTINUOUS
 10
-9.50721
 20
-52.039747
 11
-9.50721
 21
-60.339743
  0
LINE
  8
St
  6
CONTINUOUS
 10
-10.007205
 20
-65.839747
 11
-9.50721
 21
-66.339743
  0
LINE
  8
St
  6
CONTINUOUS
 10
-10.007205
 20
-65.839747
 11
-10.007205
 21
-60.839745
  0
LINE
  8
St
  6
CONTINUOUS
 10
-8.00721
 20
-63.639743
 11
-8.00721
 21
-68.339745
  0
LINE
  8
St
  6
CONTINUOUS
 10
-9.50721
 20
-66.339743
 11
-9.50721
 21
-68.339745
  0
LINE
  8
St
  6
CONTINUOUS
 10
-8.00721
 20
-68.339745
 11
-9.50721
 21
-68.339745
  0
LINE
  8
St
  6
CONTINUOUS
 10
3.591338
 20
-50.539747
 11
6.391305
 21
-50.539747
  0
ARC
  8
St
  6
CONTINUOUS
 10
6.391311
 20
-51.539742
 40
0.5
 50
270.0
 51
360.0
  0
LINE
  8
St
  6
CONTINUOUS
 10
6.8913
 20
-51.539745
 11
6.8913
 21
-51.03975
  0
ARC
  8
St
  6
CONTINUOUS
 10
6.391311
 20
-51.039742
 40
0.5
 50
0.0
 51
90.0
  0
LINE
  8
St
  6
CONTINUOUS
 10
-62.407185
 20
-18.33975
 11
-52.307145
 21
-18.33975
  0
LINE
  8
St
  6
CONTINUOUS
 10
-60.107145
 20
-13.83975
 11
-60.107145
 21
-15.33975
  0
LINE
  8
St
  6
CONTINUOUS
 10
-60.107145
 20
-15.33975
 11
-52.307145
 21
-15.33975
  0
LINE
  8
St
  6
CONTINUOUS
 10
-55.307145
 20
-14.13975
 11
-55.607145
 21
-13.83975
  0
LINE
  8
St
  6
CONTINUOUS
 10
-55.307145
 20
-14.13975
 11
-55.007145
 21
-13.83975
  0
LINE
  8
St
  6
CONTINUOUS
 10
-60.107145
 20
-13.83975
 11
-55.607145
 21
-13.83975
  0
LINE
  8
St
  6
CONTINUOUS
 10
-55.007145
 20
-13.83975
 11
-50.807145
 21
-13.83975
  0
LINE
  8
St
  6
CONTINUOUS
 10
-52.307145
 20
-18.33975
 11
-52.307145
 21
-15.33975
  0
LINE
  8
St
  6
CONTINUOUS
 10
-50.807145
 20
-18.33975
 11
-50.807145
 21
-13.83975
  0
LINE
  8
St
  6
CONTINUOUS
 10
-77.207205
 20
-9.14415
 11
-77.207205
 21
-10.64415
  0
LINE
  8
St
  6
CONTINUOUS
 10
-80.207205
 20
-10.64415
 11
-77.207205
 21
-10.64415
  0
LINE
  8
St
  6
CONTINUOUS
 10
-82.207208
 20
-9.14415
 11
-77.207205
 21
-9.14415
  0
LINE
  8
St
  6
CONTINUOUS
 10
-2.4087
 20
-51.739747
 11
-2.1087
 21
-52.039747
  0
LINE
  8
St
  6
CONTINUOUS
 10
6.391305
 20
-52.039747
 11
-2.1087
 21
-52.039747
  0
LINE
  8
St
  6
CONTINUOUS
 10
-2.4087
 20
-51.739747
 11
-2.7087
 21
-52.039747
  0
LINE
  8
St
  6
CONTINUOUS
 10
-8.00721
 20
-52.039747
 11
-2.7087
 21
-52.039747
  0
LINE
  8
St
  6
CONTINUOUS
 10
-40.407203
 20
-32.344147
 11
-40.707203
 21
-32.644147
  0
LINE
  8
St
  6
CONTINUOUS
 10
-40.407203
 20
-32.344147
 11
-40.107203
 21
-32.644147
  0
LINE
  8
St
  6
CONTINUOUS
 10
-35.207205
 20
-32.644147
 11
-40.107203
 21
-32.644147
  0
LINE
  8
St
  6
CONTINUOUS
 10
-64.70721
 20
-32.644147
 11
-40.707203
 21
-32.644147
  0
ENDBLK
  0
BLOCK
  2
*GRP_0039
 70
    65
 10
0.0
 20
0.0
  0
LINE
  8
ボルト／ビス
  6
CONTINUOUS
 10
-12.110427
 20
-76.73975
 11
-6.110427
 21
-76.73975
  0
LINE
  8
ボルト／ビス
  6
CONTINUOUS
 10
-12.110427
 20
-76.73975
 11
-12.110427
 21
-77.739755
  0
LINE
  8
ボルト／ビス
  6
CONTINUOUS
 10
-6.110427
 20
-76.73975
 11
-6.110427
 21
-77.739747
  0
LINE
  8
ボルト／ビス
  6
CONTINUOUS
 10
-12.110427
 20
-77.739755
 11
-6.110427
 21
-77.739747
  0
LINE
  8
ボルト／ビス
  6
CONTINUOUS
 10
-11.110423
 20
-76.73975
 11
-11.110423
 21
-76.73975
  0
ARC
  8
ボルト／ビス
  6
CONTINUOUS
 10
-10.610425
 20
-76.739747
 40
0.5
 50
90.000036
 51
180.0
  0
LINE
  8
ボルト／ビス
  6
CONTINUOUS
 10
-10.610427
 20
-76.239755
 11
-7.610427
 21
-76.239747
  0
LINE
  8
ボルト／ビス
  6
CONTINUOUS
 10
-7.110425
 20
-76.73975
 11
-7.110425
 21
-76.73975
  0
ARC
  8
ボルト／ビス
  6
CONTINUOUS
 10
-7.610425
 20
-76.739745
 40
0.5
 50
0.0
 51
90.000041
  0
LINE
  8
ボルト／ビス
  6
CONTINUOUS
 10
-12.110427
 20
-81.239753
 11
-6.110427
 21
-81.239753
  0
LINE
  8
ボルト／ビス
  6
CONTINUOUS
 10
-12.110427
 20
-81.239753
 11
-11.610425
 21
-81.739755
  0
LINE
  8
ボルト／ビス
  6
CONTINUOUS
 10
-6.110427
 20
-81.239753
 11
-6.610423
 21
-81.739747
  0
LINE
  8
ボルト／ビス
  6
CONTINUOUS
 10
-11.610425
 20
-81.739755
 11
-6.610423
 21
-81.739747
  0
LINE
  8
ボルト／ビス
  6
CONTINUOUS
 10
-11.110423
 20
-77.739755
 11
-11.110423
 21
-81.239753
  0
LINE
  8
ボルト／ビス
  6
CONTINUOUS
 10
-7.110425
 20
-77.739747
 11
-7.110425
 21
-81.239753
  0
ENDBLK
  0
BLOCK
  2
*GRP_0040
 70
    65
 10
0.0
 20
0.0
  0
LINE
  8
ボルト／ビス
  6
CONTINUOUS
 10
-30.136553
 20
-64.465502
 11
-26.333288
 21
-69.106102
  0
LINE
  8
ボルト／ビス
  6
CONTINUOUS
 10
-30.136553
 20
-64.465502
 11
-30.90999
 21
-65.099382
  0
LINE
  8
ボルト／ビス
  6
CONTINUOUS
 10
-26.333288
 20
-69.106102
 11
-27.10672
 21
-69.739977
  0
LINE
  8
ボルト／ビス
  6
CONTINUOUS
 10
-30.90999
 20
-65.099382
 11
-27.10672
 21
-69.739977
  0
LINE
  8
ボルト／ビス
  6
CONTINUOUS
 10
-29.502672
 20
-65.238937
 11
-29.502672
 21
-65.238937
  0
ARC
  8
ボルト／ビス
  6
CONTINUOUS
 10
-29.185733
 20
-65.62565
 40
0.5
 50
39.336826
 51
129.33679
  0
LINE
  8
ボルト／ビス
  6
CONTINUOUS
 10
-28.799025
 20
-65.308715
 11
-26.897385
 21
-67.62901
  0
LINE
  8
ボルト／ビス
  6
CONTINUOUS
 10
-26.967162
 20
-68.33267
 11
-26.967162
 21
-68.33267
  0
ARC
  8
ボルト／ビス
  6
CONTINUOUS
 10
-27.284099
 20
-67.945949
 40
0.5
 50
-50.66321
 51
39.336831
  0
LINE
  8
ボルト／ビス
  6
CONTINUOUS
 10
-33.617005
 20
-67.317952
 11
-29.81374
 21
-71.958553
  0
LINE
  8
ボルト／ビス
  6
CONTINUOUS
 10
-33.617005
 20
-67.317952
 11
-33.686783
 21
-68.021612
  0
LINE
  8
ボルト／ビス
  6
CONTINUOUS
 10
-29.81374
 20
-71.958553
 11
-30.517388
 21
-71.888775
  0
LINE
  8
ボルト／ビス
  6
CONTINUOUS
 10
-33.686783
 20
-68.021612
 11
-30.517388
 21
-71.888775
  0
LINE
  8
ボルト／ビス
  6
CONTINUOUS
 10
-30.27611
 20
-65.87282
 11
-32.983125
 21
-68.09139
  0
LINE
  8
ボルト／ビス
  6
CONTINUOUS
 10
-27.740595
 20
-68.966547
 11
-30.447615
 21
-71.18512
  0
ENDBLK
  0
BLOCK
  2
*GRP_0041
 70
    65
 10
0.0
 20
0.0
  0
LINE
  8
ボルト／ビス
  6
CONTINUOUS
 10
-48.789623
 20
-41.705735
 11
-44.986358
 21
-46.346335
  0
LINE
  8
ボルト／ビス
  6
CONTINUOUS
 10
-48.789623
 20
-41.705735
 11
-49.56306
 21
-42.339615
  0
LINE
  8
ボルト／ビス
  6
CONTINUOUS
 10
-44.986358
 20
-46.346335
 11
-45.75979
 21
-46.98021
  0
LINE
  8
ボルト／ビス
  6
CONTINUOUS
 10
-49.56306
 20
-42.339615
 11
-45.75979
 21
-46.98021
  0
LINE
  8
ボルト／ビス
  6
CONTINUOUS
 10
-48.155742
 20
-42.47917
 11
-48.155742
 21
-42.47917
  0
ARC
  8
ボルト／ビス
  6
CONTINUOUS
 10
-47.838803
 20
-42.865883
 40
0.5
 50
39.336826
 51
129.33679
  0
LINE
  8
ボルト／ビス
  6
CONTINUOUS
 10
-47.452095
 20
-42.548948
 11
-45.550455
 21
-44.869243
  0
LINE
  8
ボルト／ビス
  6
CONTINUOUS
 10
-45.620233
 20
-45.572902
 11
-45.620233
 21
-45.572902
  0
ARC
  8
ボルト／ビス
  6
CONTINUOUS
 10
-45.937169
 20
-45.186181
 40
0.5
 50
-50.66321
 51
39.336831
  0
LINE
  8
ボルト／ビス
  6
CONTINUOUS
 10
-52.270075
 20
-44.558185
 11
-48.46681
 21
-49.198785
  0
LINE
  8
ボルト／ビス
  6
CONTINUOUS
 10
-52.270075
 20
-44.558185
 11
-52.339852
 21
-45.261845
  0
LINE
  8
ボルト／ビス
  6
CONTINUOUS
 10
-48.46681
 20
-49.198785
 11
-49.170457
 21
-49.129007
  0
LINE
  8
ボルト／ビス
  6
CONTINUOUS
 10
-52.339852
 20
-45.261845
 11
-49.170457
 21
-49.129007
  0
LINE
  8
ボルト／ビス
  6
CONTINUOUS
 10
-48.92918
 20
-43.113052
 11
-51.636195
 21
-45.331622
  0
LINE
  8
ボルト／ビス
  6
CONTINUOUS
 10
-46.393665
 20
-46.20678
 11
-49.100685
 21
-48.425353
  0
ENDBLK
  0
BLOCK
  2
*GRP_0042
 70
    65
 10
0.0
 20
0.0
  0
LINE
  8
ボルト／ビス
  6
CONTINUOUS
 10
-12.110427
 20
-76.73975
 11
-6.110427
 21
-76.73975
  0
LINE
  8
ボルト／ビス
  6
CONTINUOUS
 10
-12.110427
 20
-76.73975
 11
-12.110427
 21
-77.739755
  0
LINE
  8
ボルト／ビス
  6
CONTINUOUS
 10
-6.110427
 20
-76.73975
 11
-6.110427
 21
-77.739747
  0
LINE
  8
ボルト／ビス
  6
CONTINUOUS
 10
-12.110427
 20
-77.739755
 11
-6.110427
 21
-77.739747
  0
LINE
  8
ボルト／ビス
  6
CONTINUOUS
 10
-11.110423
 20
-76.73975
 11
-11.110423
 21
-76.73975
  0
ARC
  8
ボルト／ビス
  6
CONTINUOUS
 10
-10.610425
 20
-76.739747
 40
0.5
 50
90.000036
 51
180.0
  0
LINE
  8
ボルト／ビス
  6
CONTINUOUS
 10
-10.610427
 20
-76.239755
 11
-7.610427
 21
-76.239747
  0
LINE
  8
ボルト／ビス
  6
CONTINUOUS
 10
-7.110425
 20
-76.73975
 11
-7.110425
 21
-76.73975
  0
ARC
  8
ボルト／ビス
  6
CONTINUOUS
 10
-7.610425
 20
-76.739745
 40
0.5
 50
0.0
 51
90.000041
  0
LINE
  8
ボルト／ビス
  6
CONTINUOUS
 10
-12.110427
 20
-81.239753
 11
-6.110427
 21
-81.239753
  0
LINE
  8
ボルト／ビス
  6
CONTINUOUS
 10
-12.110427
 20
-81.239753
 11
-11.610425
 21
-81.739755
  0
LINE
  8
ボルト／ビス
  6
CONTINUOUS
 10
-6.110427
 20
-81.239753
 11
-6.610423
 21
-81.739747
  0
LINE
  8
ボルト／ビス
  6
CONTINUOUS
 10
-11.610425
 20
-81.739755
 11
-6.610423
 21
-81.739747
  0
LINE
  8
ボルト／ビス
  6
CONTINUOUS
 10
-11.110423
 20
-77.739755
 11
-11.110423
 21
-81.239753
  0
LINE
  8
ボルト／ビス
  6
CONTINUOUS
 10
-7.110425
 20
-77.739747
 11
-7.110425
 21
-81.239753
  0
ENDBLK
  0
BLOCK
  2
*GRP_0043
 70
    65
 10
0.0
 20
0.0
  0
LINE
  8
ボルト／ビス
  6
CONTINUOUS
 62
    64
 10
118.294177
 20
-28.322895
 11
119.34234
 21
-28.414598
  0
ARC
  8
ボルト／ビス
  6
CONTINUOUS
 62
    64
 10
119.194176
 20
-30.108139
 40
1.7
 50
359.999999
 51
445.00001
  0
LINE
  8
ボルト／ビス
  6
CONTINUOUS
 62
    64
 10
120.89418
 20
-30.108127
 11
120.89418
 21
-31.822898
  0
LINE
  8
ボルト／ビス
  6
CONTINUOUS
 62
    64
 10
118.29417
 20
-35.322893
 11
119.342332
 21
-35.23119
  0
ARC
  8
ボルト／ビス
  6
CONTINUOUS
 62
    64
 10
119.194176
 20
-33.537672
 40
1.7
 50
274.999988
 51
359.999999
  0
LINE
  8
ボルト／ビス
  6
CONTINUOUS
 62
    64
 10
120.894173
 20
-33.53766
 11
120.89418
 21
-31.822898
  0
LINE
  8
ボルト／ビス
  6
CONTINUOUS
 62
    64
 10
120.509273
 20
-29.426257
 11
120.751425
 21
-29.426265
  0
LINE
  8
ボルト／ビス
  6
CONTINUOUS
 62
    64
 10
119.859188
 20
-31.1229
 11
119.859188
 21
-31.822898
  0
LINE
  8
ボルト／ビス
  6
CONTINUOUS
 62
    64
 10
120.509273
 20
-30.722895
 11
120.509273
 21
-29.426257
  0
LINE
  8
ボルト／ビス
  6
CONTINUOUS
 62
    64
 10
119.859188
 20
-31.1229
 11
120.109275
 21
-31.122893
  0
ARC
  8
ボルト／ビス
  6
CONTINUOUS
 62
    64
 10
120.109271
 20
-30.722906
 40
0.4
 50
269.999999
 51
359.999999
  0
LINE
  8
ボルト／ビス
  6
CONTINUOUS
 62
    64
 10
120.509273
 20
-34.219538
 11
120.751425
 21
-34.219545
  0
LINE
  8
ボルト／ビス
  6
CONTINUOUS
 62
    64
 10
119.859195
 20
-32.522895
 11
119.859188
 21
-31.822898
  0
LINE
  8
ボルト／ビス
  6
CONTINUOUS
 62
    64
 10
120.509273
 20
-32.922893
 11
120.509273
 21
-34.219538
  0
LINE
  8
ボルト／ビス
  6
CONTINUOUS
 62
    64
 10
119.859195
 20
-32.522895
 11
120.109267
 21
-32.522895
  0
ARC
  8
ボルト／ビス
  6
CONTINUOUS
 62
    64
 10
120.109271
 20
-32.922906
 40
0.4
 50
359.999999
 51
449.999999
  0
LINE
  8
ボルト／ビス
  6
CONTINUOUS
 62
    64
 10
118.294177
 20
-28.322895
 11
118.29417
 21
-35.322893
  0
LINE
  8
ボルト／ビス
  6
CONTINUOUS
 62
    64
 10
110.794177
 20
-29.822902
 11
110.294175
 21
-30.322905
  0
LINE
  8
ボルト／ビス
  6
CONTINUOUS
 62
    64
 10
110.794177
 20
-33.822893
 11
110.294168
 21
-33.322897
  0
LINE
  8
ボルト／ビス
  6
CONTINUOUS
 62
    64
 10
118.29417
 20
-30.322905
 11
110.294175
 21
-30.322905
  0
LINE
  8
ボルト／ビス
  6
CONTINUOUS
 62
    64
 10
118.294177
 20
-29.822895
 11
110.794177
 21
-29.822902
  0
LINE
  8
ボルト／ビス
  6
CONTINUOUS
 62
    64
 10
118.29417
 20
-33.322905
 11
110.294168
 21
-33.322897
  0
LINE
  8
ボルト／ビス
  6
CONTINUOUS
 62
    64
 10
118.294177
 20
-33.822893
 11
110.794177
 21
-33.822893
  0
LINE
  8
ボルト／ビス
  6
CONTINUOUS
 62
    64
 10
110.794177
 20
-29.822902
 11
110.794177
 21
-33.822893
  0
LINE
  8
ボルト／ビス
  6
CONTINUOUS
 62
    64
 10
110.294175
 20
-30.322905
 11
110.294168
 21
-33.322897
  0
LINE
  8
ボルト／ビス
  6
CONTINUOUS
 62
    64
 10
122.865562
 20
-31.822898
 11
108.04368
 21
-31.822898
  0
ENDBLK
  0
BLOCK
  2
*GRP_0044
 70
    65
 10
0.0
 20
0.0
  0
LINE
  8
ボルト／ビス
  6
CONTINUOUS
 62
    64
 10
118.294185
 20
24.660232
 11
119.342332
 21
24.56853
  0
ARC
  8
ボルト／ビス
  6
CONTINUOUS
 62
    64
 10
119.194172
 20
22.874989
 40
1.7
 50
359.999999
 51
445.00001
  0
LINE
  8
ボルト／ビス
  6
CONTINUOUS
 62
    64
 10
120.89418
 20
22.874993
 11
120.89418
 21
21.16023
  0
LINE
  8
ボルト／ビス
  6
CONTINUOUS
 62
    64
 10
118.294177
 20
17.660235
 11
119.34234
 21
17.751937
  0
ARC
  8
ボルト／ビス
  6
CONTINUOUS
 62
    64
 10
119.194172
 20
19.445455
 40
1.7
 50
274.999988
 51
359.999999
  0
LINE
  8
ボルト／ビス
  6
CONTINUOUS
 62
    64
 10
120.89418
 20
19.445468
 11
120.89418
 21
21.16023
  0
LINE
  8
ボルト／ビス
  6
CONTINUOUS
 62
    64
 10
120.509273
 20
23.55687
 11
120.751433
 21
23.556862
  0
LINE
  8
ボルト／ビス
  6
CONTINUOUS
 62
    64
 10
119.859188
 20
21.860235
 11
119.859188
 21
21.160223
  0
LINE
  8
ボルト／ビス
  6
CONTINUOUS
 62
    64
 10
120.509273
 20
22.260232
 11
120.509273
 21
23.55687
  0
LINE
  8
ボルト／ビス
  6
CONTINUOUS
 62
    64
 10
119.859188
 20
21.860235
 11
120.109275
 21
21.860235
  0
ARC
  8
ボルト／ビス
  6
CONTINUOUS
 62
    64
 10
120.109267
 20
22.260222
 40
0.4
 50
269.999999
 51
359.999999
  0
LINE
  8
ボルト／ビス
  6
CONTINUOUS
 62
    64
 10
120.509273
 20
18.76359
 11
120.751425
 21
18.763582
  0
LINE
  8
ボルト／ビス
  6
CONTINUOUS
 62
    64
 10
119.85918
 20
20.460225
 11
119.859188
 21
21.160223
  0
LINE
  8
ボルト／ビス
  6
CONTINUOUS
 62
    64
 10
120.509265
 20
20.060235
 11
120.509273
 21
18.76359
  0
LINE
  8
ボルト／ビス
  6
CONTINUOUS
 62
    64
 10
119.85918
 20
20.460225
 11
120.109275
 21
20.460232
  0
ARC
  8
ボルト／ビス
  6
CONTINUOUS
 62
    64
 10
120.109267
 20
20.060222
 40
0.4
 50
359.999999
 51
449.999999
  0
LINE
  8
ボルト／ビス
  6
CONTINUOUS
 62
    64
 10
118.294185
 20
24.660232
 11
118.294177
 21
17.660235
  0
LINE
  8
ボルト／ビス
  6
CONTINUOUS
 62
    64
 10
110.794177
 20
23.160225
 11
110.294175
 21
22.66023
  0
LINE
  8
ボルト／ビス
  6
CONTINUOUS
 62
    64
 10
110.794177
 20
19.160235
 11
110.294175
 21
19.66023
  0
LINE
  8
ボルト／ビス
  6
CONTINUOUS
 62
    64
 10
118.294177
 20
22.66023
 11
110.294175
 21
22.66023
  0
LINE
  8
ボルト／ビス
  6
CONTINUOUS
 62
    64
 10
118.294177
 20
23.160232
 11
110.794177
 21
23.160225
  0
LINE
  8
ボルト／ビス
  6
CONTINUOUS
 62
    64
 10
118.294177
 20
19.66023
 11
110.294175
 21
19.66023
  0
LINE
  8
ボルト／ビス
  6
CONTINUOUS
 62
    64
 10
118.294177
 20
19.160235
 11
110.794177
 21
19.160235
  0
LINE
  8
ボルト／ビス
  6
CONTINUOUS
 62
    64
 10
110.794177
 20
23.160225
 11
110.794177
 21
19.160235
  0
LINE
  8
ボルト／ビス
  6
CONTINUOUS
 62
    64
 10
110.294175
 20
22.66023
 11
110.294175
 21
19.66023
  0
LINE
  8
ボルト／ビス
  6
CONTINUOUS
 62
    64
 10
122.865562
 20
21.16023
 11
108.04368
 21
21.16023
  0
ENDBLK
  0
BLOCK
  2
*GRP_0045
 70
    65
 10
0.0
 20
0.0
  0
LINE
  8
St
  6
CONTINUOUS
 10
128.385885
 20
-22.639785
 11
131.585895
 21
-25.839787
  0
LINE
  8
St
  6
CONTINUOUS
 10
127.67877
 20
-22.639785
 11
130.87878
 21
-25.839787
  0
ARC
  8
St
  6
CONTINUOUS
 62
   127
 10
118.292853
 20
-22.639788
 40
3.2
 50
180.0
 51
270.0
  0
LINE
  8
St
  6
CONTINUOUS
 10
115.092848
 20
14.5947
 11
118.29285
 21
11.394705
  0
LINE
  8
St
  6
CONTINUOUS
 10
115.092848
 20
13.887593
 11
118.29285
 21
10.687598
  0
LINE
  8
St
  6
CONTINUOUS
 10
115.092848
 20
-14.046773
 11
118.29285
 21
-17.246767
  0
LINE
  8
St
  6
CONTINUOUS
 10
115.092848
 20
-14.75388
 11
118.29285
 21
-17.953875
  0
LINE
  8
St
  6
CONTINUOUS
 10
115.092848
 20
-30.039765
 11
118.29285
 21
-30.039765
  0
LINE
  8
St
  6
CONTINUOUS
 10
115.092848
 20
-33.53976
 11
118.29285
 21
-33.53976
  0
LINE
  8
St
  6
CONTINUOUS
 10
115.092848
 20
19.410232
 11
118.29285
 21
19.410232
  0
LINE
  8
St
  6
CONTINUOUS
 10
115.092848
 20
22.910227
 11
118.29285
 21
22.910227
  0
LINE
  8
St
  6
CONTINUOUS
 10
120.11994
 20
-31.789762
 11
113.46288
 21
-31.789762
  0
LINE
  8
St
  6
CONTINUOUS
 10
120.11994
 20
21.16023
 11
113.46288
 21
21.16023
  0
LINE
  8
St
  6
CONTINUOUS
 10
115.89285
 20
22.910227
 11
115.89285
 21
19.410232
  0
LINE
  8
St
  6
CONTINUOUS
 10
116.692845
 20
22.910227
 11
116.692845
 21
19.410232
  0
LINE
  8
St
  6
CONTINUOUS
 10
117.492848
 20
22.910227
 11
117.492848
 21
19.410232
  0
LINE
  8
St
  6
CONTINUOUS
 10
115.89285
 20
-30.039765
 11
115.89285
 21
-33.53976
  0
LINE
  8
St
  6
CONTINUOUS
 10
116.692845
 20
-30.039765
 11
116.692845
 21
-33.53976
  0
LINE
  8
St
  6
CONTINUOUS
 10
117.492848
 20
-30.039765
 11
117.492848
 21
-33.53976
  0
LINE
  8
St
  6
CONTINUOUS
 10
115.092848
 20
-35.64621
 11
118.29285
 21
-35.64621
  0
LINE
  8
St
  6
CONTINUOUS
 62
   127
 10
115.092848
 20
-35.64621
 11
115.092848
 21
26.16024
  0
LINE
  8
St
  6
CONTINUOUS
 62
   127
 10
118.29285
 20
-35.64621
 11
118.29285
 21
26.16024
  0
LINE
  8
St
  6
CONTINUOUS
 10
115.092848
 20
26.16024
 11
118.29285
 21
26.16024
  0
LINE
  8
St
  6
CONTINUOUS
 10
165.092835
 20
-22.639785
 11
165.092835
 21
-25.839787
  0
LINE
  8
St
  6
CONTINUOUS
 10
155.09283
 20
-22.639785
 11
155.09283
 21
-25.839787
  0
LINE
  8
St
  6
CONTINUOUS
 62
   127
 10
155.09283
 20
-23.439787
 11
165.092835
 21
-23.439787
  0
LINE
  8
St
  6
CONTINUOUS
 62
   127
 10
155.09283
 20
-24.239783
 11
165.092835
 21
-24.239783
  0
LINE
  8
St
  6
CONTINUOUS
 62
   127
 10
155.09283
 20
-25.039785
 11
165.092835
 21
-25.039785
  0
LINE
  8
St
  6
CONTINUOUS
 10
160.092833
 20
-19.511542
 11
160.092833
 21
-29.259375
  0
LINE
  8
St
  6
CONTINUOUS
 10
175.392848
 20
-22.639785
 11
175.392848
 21
-25.839787
  0
LINE
  8
St
  6
CONTINUOUS
 62
   127
 10
118.29285
 20
-22.639785
 11
175.392848
 21
-22.639785
  0
LINE
  8
St
  6
CONTINUOUS
 62
   127
 10
118.29285
 20
-25.839787
 11
175.392848
 21
-25.839787
  0
ENDBLK
  0
BLOCK
  2
*DIM_0046
 70
    65
 10
0.0
 20
0.0
  0
LINE
  8
寸法
  6
CONTINUOUS
 10
108.592785
 20
64.16024
 11
108.592785
 21
92.56893
  0
LINE
  8
寸法
  6
CONTINUOUS
 10
115.092848
 20
92.56893
 11
108.592785
 21
92.56893
  0
POINT
  8
寸法
 10
108.592785
 20
92.56893
  0
TEXT
  7
TextStyle03
  8
寸法
  6
CONTINUOUS
 10
109.3875
 20
92.925
  1
6.5
 40
3.0
 72
     5
 11
114.2625
 21
92.925
  0
ENDBLK
  0
BLOCK
  2
*DIM_0047
 70
    65
 10
0.0
 20
0.0
  0
LINE
  8
寸法
  6
CONTINUOUS
 10
94.59279
 20
64.16024
 11
94.59279
 21
92.56893
  0
LINE
  8
寸法
  6
CONTINUOUS
 10
108.592785
 20
92.56893
 11
94.59279
 21
92.56893
  0
POINT
  8
寸法
 10
94.59279
 20
92.56893
  0
TEXT
  7
TextStyle03
  8
寸法
  6
CONTINUOUS
 10
99.98125
 20
92.925
  1
14
 40
3.0
 72
     5
 11
103.16875
 21
92.925
  0
ENDBLK
  0
BLOCK
  2
*DIM_0048
 70
    65
 10
0.0
 20
0.0
  0
LINE
  8
寸法
  6
CONTINUOUS
 10
94.59279
 20
64.16024
 11
94.59279
 21
92.56893
  0
LINE
  8
寸法
  6
CONTINUOUS
 10
-82.40718
 20
25.620017
 11
-82.40718
 21
92.56893
  0
LINE
  8
寸法
  6
CONTINUOUS
 10
94.59279
 20
92.56893
 11
-82.40718
 21
92.56893
  0
POINT
  8
寸法
 10
94.59279
 20
92.56893
  0
POINT
  8
寸法
 10
-82.40718
 20
92.56893
  0
TEXT
  7
TextStyle03
  8
寸法
  6
CONTINUOUS
 10
3.6375
 20
92.925
  1
177
 40
3.0
 72
     5
 11
8.5125
 21
92.925
  0
ENDBLK
  0
BLOCK
  2
*GRP_0049
 70
    65
 10
0.0
 20
0.0
  0
POLYLINE
  8
寸法
  6
BYBLOCK
 62
     0
 66
     1
  0
VERTEX
  8
寸法
 10
108.78927
 20
-84.837867
  0
VERTEX
  8
寸法
 10
110.28927
 20
-82.239793
  0
VERTEX
  8
寸法
 10
107.691195
 20
-83.739793
  0
SEQEND
  0
POLYLINE
  8
寸法
  6
BYBLOCK
 62
     0
 66
     1
  0
VERTEX
  8
寸法
 10
110.28927
 20
-82.239793
  0
VERTEX
  8
寸法
 10
102.448315
 20
-90.080747
  0
VERTEX
  8
寸法
 10
102.448315
 20
-109.507237
  0
SEQEND
  0
ENDBLK
  0
BLOCK
  2
*GRP_0050
 70
    65
 10
0.0
 20
0.0
  0
POLYLINE
  8
寸法
  6
BYBLOCK
 62
     0
 66
     1
  0
VERTEX
  8
寸法
 10
119.138175
 20
11.297275
  0
VERTEX
  8
寸法
 10
117.638175
 20
8.6992
  0
VERTEX
  8
寸法
 10
120.23625
 20
10.1992
  0
SEQEND
  0
POLYLINE
  8
寸法
  6
BYBLOCK
 62
     0
 66
     1
  0
VERTEX
  8
寸法
 10
117.638175
 20
8.6992
  0
VERTEX
  8
寸法
 10
130.001002
 20
21.062027
  0
VERTEX
  8
寸法
 10
130.001002
 20
28.05952
  0
SEQEND
  0
ENDBLK
  0
BLOCK
  2
*DIM_0051
 70
    65
 10
0.0
 20
0.0
  0
LINE
  8
寸法
  6
CONTINUOUS
 10
3.591338
 20
-13.33975
 11
3.591338
 21
82.015862
  0
LINE
  8
寸法
  6
CONTINUOUS
 10
11.0913
 20
-38.339755
 11
11.0913
 21
82.015862
  0
LINE
  8
寸法
  6
CONTINUOUS
 10
3.591338
 20
82.015862
 11
11.0913
 21
82.015862
  0
POINT
  8
寸法
 10
3.591338
 20
82.015862
  0
POINT
  8
寸法
 10
11.0913
 20
82.015862
  0
TEXT
  7
TextStyle03
  8
寸法
  6
CONTINUOUS
 10
4.8875
 20
82.375
  1
7.5
 40
3.0
 72
     5
 11
9.7625
 21
82.375
  0
ENDBLK
  0
BLOCK
  2
*DIM_0052
 70
    65
 10
0.0
 20
0.0
  0
LINE
  8
寸法
  6
CONTINUOUS
 10
30.592785
 20
-13.33975
 11
30.592785
 21
82.015862
  0
LINE
  8
寸法
  6
CONTINUOUS
 10
20.091293
 20
82.015862
 11
30.592785
 21
82.015862
  0
POINT
  8
寸法
 10
30.592785
 20
82.015862
  0
TEXT
  7
TextStyle03
  8
寸法
  6
CONTINUOUS
 10
22.04375
 20
82.375
  1
10.5
 40
3.0
 72
     5
 11
28.60625
 21
82.375
  0
ENDBLK
  0
BLOCK
  2
*DIM_0053
 70
    65
 10
0.0
 20
0.0
  0
LINE
  8
寸法
  6
CONTINUOUS
 10
94.59279
 20
64.16024
 11
94.59279
 21
82.015862
  0
LINE
  8
寸法
  6
CONTINUOUS
 10
30.592785
 20
82.015862
 11
94.59279
 21
82.015862
  0
POINT
  8
寸法
 10
94.59279
 20
82.015862
  0
TEXT
  7
TextStyle03
  8
寸法
  6
CONTINUOUS
 10
60.98125
 20
82.375
  1
64
 40
3.0
 72
     5
 11
64.16875
 21
82.375
  0
ENDBLK
  0
BLOCK
  2
*DIM_0054
 70
    65
 10
0.0
 20
0.0
  0
LINE
  8
寸法
  6
CONTINUOUS
 10
11.0913
 20
-38.339755
 11
11.0913
 21
82.015862
  0
LINE
  8
寸法
  6
CONTINUOUS
 10
20.091293
 20
-38.339762
 11
20.091293
 21
82.015862
  0
LINE
  8
寸法
  6
CONTINUOUS
 10
11.0913
 20
82.015862
 11
20.091293
 21
82.015862
  0
POINT
  8
寸法
 10
11.0913
 20
82.015862
  0
POINT
  8
寸法
 10
20.091293
 20
82.015862
  0
TEXT
  7
TextStyle03
  8
寸法
  6
CONTINUOUS
 10
14.825
 20
82.375
  1
9
 40
3.0
 72
     5
 11
16.325
 21
82.375
  0
ENDBLK
  0
BLOCK
  2
*DIM_0055
 70
    65
 10
0.0
 20
0.0
  0
LINE
  8
寸法
  6
CONTINUOUS
 10
-51.80715
 20
-8.83975
 11
-51.80715
 21
82.015862
  0
LINE
  8
寸法
  6
CONTINUOUS
 10
3.592728
 20
82.015862
 11
-51.80715
 21
82.015862
  0
POINT
  8
寸法
 10
3.592728
 20
82.015862
  0
POINT
  8
寸法
 10
-51.80715
 20
82.015862
  0
TEXT
  7
TextStyle03
  8
寸法
  6
CONTINUOUS
 10
-27.40625
 20
82.375
  1
55.4
 40
3.0
 72
     5
 11
-20.84375
 21
82.375
  0
ENDBLK
  0
BLOCK
  2
*DIM_0056
 70
    65
 10
0.0
 20
0.0
  0
LINE
  8
寸法
  6
CONTINUOUS
 10
-51.80715
 20
82.015862
 11
-60.407275
 21
82.015862
  0
POINT
  8
寸法
 10
-60.407275
 20
82.015862
  0
TEXT
  7
TextStyle03
  8
寸法
  6
CONTINUOUS
 10
-58.5625
 20
82.375
  1
8.6
 40
3.0
 72
     5
 11
-53.6875
 21
82.375
  0
ENDBLK
  0
BLOCK
  2
*DIM_0057
 70
    65
 10
0.0
 20
0.0
  0
LINE
  8
寸法
  6
CONTINUOUS
 10
-60.407275
 20
35.360318
 11
-60.407275
 21
82.015862
  0
LINE
  8
寸法
  6
CONTINUOUS
 10
-82.407268
 20
82.015862
 11
-60.407275
 21
82.015862
  0
POINT
  8
寸法
 10
-82.407268
 20
82.015862
  0
POINT
  8
寸法
 10
-60.407275
 20
82.015862
  0
TEXT
  7
TextStyle03
  8
寸法
  6
CONTINUOUS
 10
-73.01875
 20
82.375
  1
22
 40
3.0
 72
     5
 11
-69.83125
 21
82.375
  0
ENDBLK
  0
BLOCK
  2
*DIM_0058
 70
    65
 10
0.0
 20
0.0
  0
LINE
  8
寸法
  6
CONTINUOUS
 10
12.792795
 20
-86.239753
 11
12.792795
 21
-88.77322
  0
LINE
  8
寸法
  6
CONTINUOUS
 10
19.792845
 20
-86.239775
 11
19.792845
 21
-88.77322
  0
LINE
  8
寸法
  6
CONTINUOUS
 10
12.792795
 20
-88.77322
 11
19.792845
 21
-88.77322
  0
POINT
  8
寸法
 10
12.792795
 20
-88.77322
  0
POINT
  8
寸法
 10
19.792845
 20
-88.77322
  0
TEXT
  7
TextStyle03
  8
寸法
  6
CONTINUOUS
 10
15.525
 20
-88.4
  1
7
 40
3.0
 72
     5
 11
17.025
 21
-88.4
  0
ENDBLK
  0
BLOCK
  2
*DIM_0059
 70
    65
 10
0.0
 20
0.0
  0
LINE
  8
寸法
  6
CONTINUOUS
 10
-22.207208
 20
-86.239753
 11
-22.207208
 21
-88.77322
  0
LINE
  8
寸法
  6
CONTINUOUS
 10
12.792795
 20
-88.77322
 11
-22.207208
 21
-88.77322
  0
POINT
  8
寸法
 10
-22.207208
 20
-88.77322
  0
TEXT
  7
TextStyle03
  8
寸法
  6
CONTINUOUS
 10
-6.31875
 20
-88.4
  1
35
 40
3.0
 72
     5
 11
-3.13125
 21
-88.4
  0
ENDBLK
  0
BLOCK
  2
*DIM_0060
 70
    65
 10
0.0
 20
0.0
  0
LINE
  8
寸法
  6
CONTINUOUS
 10
-58.210793
 20
-65.339685
 11
-58.210793
 21
-88.77322
  0
LINE
  8
寸法
  6
CONTINUOUS
 10
-22.207208
 20
-88.77322
 11
-58.210793
 21
-88.77322
  0
POINT
  8
寸法
 10
-22.207208
 20
-88.77322
  0
POINT
  8
寸法
 10
-58.210793
 20
-88.77322
  0
TEXT
  7
TextStyle03
  8
寸法
  6
CONTINUOUS
 10
-41.76875
 20
-92.75
  1
36
 40
3.0
 72
     5
 11
-38.58125
 21
-92.75
  0
ENDBLK
  0
BLOCK
  2
*DIM_0061
 70
    65
 10
0.0
 20
0.0
  0
LINE
  8
寸法
  6
CONTINUOUS
 10
-88.210793
 20
-53.339707
 11
-88.210793
 21
-88.77322
  0
LINE
  8
寸法
  6
CONTINUOUS
 10
-58.210793
 20
-88.77322
 11
-88.210793
 21
-88.77322
  0
POINT
  8
寸法
 10
-88.210793
 20
-88.77322
  0
TEXT
  7
TextStyle03
  8
寸法
  6
CONTINUOUS
 10
-74.81875
 20
-88.4
  1
30
 40
3.0
 72
     5
 11
-71.63125
 21
-88.4
  0
ENDBLK
  0
BLOCK
  2
*GRP_0062
 70
    65
 10
0.0
 20
0.0
  0
LINE
  8
通り芯
  6
CONTINUOUS
 10
20.989283
 20
-79.739783
 11
20.989283
 21
-77.73978
  0
LINE
  8
通り芯
  6
CONTINUOUS
 10
20.989283
 20
-77.73978
 11
133.289272
 21
-77.73978
  0
LINE
  8
通り芯
  6
CONTINUOUS
 10
20.989283
 20
-79.739783
 11
133.289272
 21
-79.739783
  0
ARC
  8
通り芯
  6
CONTINUOUS
 10
133.289274
 20
-77.739782
 40
2.0
 50
-90.0
 51
0.0
  0
INSERT
  2
*GRP_0063
  8
通り芯
  6
DOT
 10
0.0
 20
0.0
  0
INSERT
  2
*GRP_0064
  8
通り芯
  6
DOT
 10
0.0
 20
0.0
  0
LINE
  8
通り芯
  6
CONTINUOUS
 10
135.289275
 20
-77.73978
 11
135.289275
 21
-50.23979
  0
LINE
  8
通り芯
  6
CONTINUOUS
 10
133.289272
 20
-77.73978
 11
133.289272
 21
-50.23979
  0
LINE
  8
通り芯
  6
CONTINUOUS
 10
135.289275
 20
-50.23979
 11
133.289272
 21
-50.23979
  0
ENDBLK
  0
BLOCK
  2
*GRP_0063
 70
    65
 10
0.0
 20
0.0
  0
LINE
  8
通り芯
  6
CONTINUOUS
 10
45.989287
 20
-75.923423
 11
45.989287
 21
-80.54829
  0
LINE
  8
通り芯
  6
CONTINUOUS
 10
44.339287
 20
-79.73979
 11
44.339287
 21
-77.739787
  0
LINE
  8
通り芯
  6
CONTINUOUS
 10
47.639287
 20
-79.73979
 11
47.639287
 21
-77.739787
  0
LINE
  8
通り芯
  6
CONTINUOUS
 10
44.339287
 20
-78.23979
 11
47.639287
 21
-78.23979
  0
LINE
  8
通り芯
  6
CONTINUOUS
 10
44.339287
 20
-78.739793
 11
47.639287
 21
-78.739793
  0
LINE
  8
通り芯
  6
CONTINUOUS
 10
44.339287
 20
-79.239787
 11
47.639287
 21
-79.239787
  0
LINE
  8
型材断面
  6
CONTINUOUS
 10
45.989287
 20
-78.239797
 11
45.989287
 21
-83.11611
  0
LINE
  8
型材断面
  6
CONTINUOUS
 10
47.639287
 20
-81.23979
 11
47.639287
 21
-79.239795
  0
LINE
  8
型材断面
  6
CONTINUOUS
 10
44.339287
 20
-81.23979
 11
44.339287
 21
-79.239795
  0
LINE
  8
型材断面
  6
CONTINUOUS
 10
44.339287
 20
-80.739787
 11
47.639287
 21
-80.739787
  0
LINE
  8
型材断面
  6
CONTINUOUS
 10
44.339287
 20
-80.239793
 11
47.639287
 21
-80.239793
  0
LINE
  8
型材断面
  6
CONTINUOUS
 10
44.339287
 20
-79.73979
 11
47.639287
 21
-79.73979
  0
LINE
  8
ボルト／ビス
  6
CONTINUOUS
 10
42.989287
 20
-81.23979
 11
48.989287
 21
-81.23979
  0
LINE
  8
ボルト／ビス
  6
CONTINUOUS
 10
42.989287
 20
-81.23979
 11
43.48929
 21
-81.739793
  0
LINE
  8
ボルト／ビス
  6
CONTINUOUS
 10
48.989287
 20
-81.23979
 11
48.489293
 21
-81.739785
  0
LINE
  8
ボルト／ビス
  6
CONTINUOUS
 10
43.48929
 20
-81.739793
 11
48.489293
 21
-81.739785
  0
LINE
  8
ボルト／ビス
  6
CONTINUOUS
 10
42.989287
 20
-76.739783
 11
48.989287
 21
-76.739783
  0
LINE
  8
ボルト／ビス
  6
CONTINUOUS
 10
42.989287
 20
-76.739783
 11
42.989287
 21
-77.739787
  0
LINE
  8
ボルト／ビス
  6
CONTINUOUS
 10
48.989287
 20
-76.739783
 11
48.989287
 21
-77.73978
  0
LINE
  8
ボルト／ビス
  6
CONTINUOUS
 10
42.989287
 20
-77.739787
 11
48.989287
 21
-77.73978
  0
LINE
  8
ボルト／ビス
  6
CONTINUOUS
 10
43.989293
 20
-76.739783
 11
43.989293
 21
-76.739783
  0
ARC
  8
ボルト／ビス
  6
CONTINUOUS
 10
44.489281
 20
-76.739787
 40
0.5
 50
90.000036
 51
180.0
  0
LINE
  8
ボルト／ビス
  6
CONTINUOUS
 10
44.489287
 20
-76.239787
 11
47.489287
 21
-76.23978
  0
LINE
  8
ボルト／ビス
  6
CONTINUOUS
 10
47.98929
 20
-76.739783
 11
47.98929
 21
-76.739783
  0
ARC
  8
ボルト／ビス
  6
CONTINUOUS
 10
47.489281
 20
-76.739785
 40
0.5
 50
0.0
 51
90.000041
  0
LINE
  8
ボルト／ビス
  6
CONTINUOUS
 10
43.989293
 20
-81.23979
 11
43.989293
 21
-77.739787
  0
LINE
  8
ボルト／ビス
  6
CONTINUOUS
 10
47.98929
 20
-81.23979
 11
47.98929
 21
-77.739787
  0
ENDBLK
  0
BLOCK
  2
*GRP_0064
 70
    65
 10
0.0
 20
0.0
  0
LINE
  8
通り芯
  6
CONTINUOUS
 10
110.28927
 20
-75.923423
 11
110.28927
 21
-80.54829
  0
LINE
  8
通り芯
  6
CONTINUOUS
 10
108.63927
 20
-79.73979
 11
108.63927
 21
-77.739787
  0
LINE
  8
通り芯
  6
CONTINUOUS
 10
111.93927
 20
-79.73979
 11
111.93927
 21
-77.739787
  0
LINE
  8
通り芯
  6
CONTINUOUS
 10
108.63927
 20
-78.23979
 11
111.93927
 21
-78.23979
  0
LINE
  8
通り芯
  6
CONTINUOUS
 10
108.63927
 20
-78.739793
 11
111.93927
 21
-78.739793
  0
LINE
  8
通り芯
  6
CONTINUOUS
 10
108.63927
 20
-79.239787
 11
111.93927
 21
-79.239787
  0
LINE
  8
型材断面
  6
CONTINUOUS
 10
110.28927
 20
-78.239797
 11
110.28927
 21
-83.11611
  0
LINE
  8
型材断面
  6
CONTINUOUS
 10
111.93927
 20
-81.23979
 11
111.93927
 21
-79.239795
  0
LINE
  8
型材断面
  6
CONTINUOUS
 10
108.63927
 20
-81.23979
 11
108.63927
 21
-79.239795
  0
LINE
  8
型材断面
  6
CONTINUOUS
 10
108.63927
 20
-80.739787
 11
111.93927
 21
-80.739787
  0
LINE
  8
型材断面
  6
CONTINUOUS
 10
108.63927
 20
-80.239793
 11
111.93927
 21
-80.239793
  0
LINE
  8
型材断面
  6
CONTINUOUS
 10
108.63927
 20
-79.73979
 11
111.93927
 21
-79.73979
  0
LINE
  8
ボルト／ビス
  6
CONTINUOUS
 10
107.28927
 20
-81.23979
 11
113.28927
 21
-81.23979
  0
LINE
  8
ボルト／ビス
  6
CONTINUOUS
 10
107.28927
 20
-81.23979
 11
107.789272
 21
-81.739793
  0
LINE
  8
ボルト／ビス
  6
CONTINUOUS
 10
113.28927
 20
-81.23979
 11
112.789275
 21
-81.739785
  0
LINE
  8
ボルト／ビス
  6
CONTINUOUS
 10
107.789272
 20
-81.739793
 11
112.789275
 21
-81.739785
  0
LINE
  8
ボルト／ビス
  6
CONTINUOUS
 10
107.28927
 20
-76.739783
 11
113.28927
 21
-76.739783
  0
LINE
  8
ボルト／ビス
  6
CONTINUOUS
 10
107.28927
 20
-76.739783
 11
107.28927
 21
-77.739787
  0
LINE
  8
ボルト／ビス
  6
CONTINUOUS
 10
113.28927
 20
-76.739783
 11
113.28927
 21
-77.73978
  0
LINE
  8
ボルト／ビス
  6
CONTINUOUS
 10
107.28927
 20
-77.739787
 11
113.28927
 21
-77.73978
  0
LINE
  8
ボルト／ビス
  6
CONTINUOUS
 10
108.289275
 20
-76.739783
 11
108.289275
 21
-76.739783
  0
ARC
  8
ボルト／ビス
  6
CONTINUOUS
 10
108.789263
 20
-76.739787
 40
0.5
 50
90.000036
 51
180.0
  0
LINE
  8
ボルト／ビス
  6
CONTINUOUS
 10
108.78927
 20
-76.239787
 11
111.78927
 21
-76.23978
  0
LINE
  8
ボルト／ビス
  6
CONTINUOUS
 10
112.289272
 20
-76.739783
 11
112.289272
 21
-76.739783
  0
ARC
  8
ボルト／ビス
  6
CONTINUOUS
 10
111.789263
 20
-76.739785
 40
0.5
 50
0.0
 51
90.000041
  0
LINE
  8
ボルト／ビス
  6
CONTINUOUS
 10
108.289275
 20
-81.23979
 11
108.289275
 21
-77.739787
  0
LINE
  8
ボルト／ビス
  6
CONTINUOUS
 10
112.289272
 20
-81.23979
 11
112.289272
 21
-77.739787
  0
ENDBLK
  0
BLOCK
  2
*GRP_0065
 70
    65
 10
0.0
 20
0.0
  0
LINE
  8
St
  6
CONTINUOUS
 10
2.0913
 20
-23.539755
 11
2.0913
 21
-20.339753
  0
LINE
  8
St
  6
CONTINUOUS
 10
-6.170783
 20
-20.339753
 11
-2.970788
 21
-23.539755
  0
LINE
  8
St
  6
CONTINUOUS
 10
-5.463682
 20
-20.339753
 11
-2.263688
 21
-23.539755
  0
LINE
  8
St
  6
CONTINUOUS
 10
-59.40714
 20
-20.33976
 11
-59.40714
 21
-23.539762
  0
LINE
  8
St
  6
CONTINUOUS
 10
-55.33902
 20
-20.33976
 11
-52.139025
 21
-23.539762
  0
LINE
  8
St
  6
CONTINUOUS
 10
-54.63192
 20
-20.33976
 11
-51.431925
 21
-23.539762
  0
LINE
  8
St
  6
CONTINUOUS
 10
2.0913
 20
-23.539755
 11
-59.40714
 21
-23.539755
  0
LINE
  8
St
  6
CONTINUOUS
 10
2.0913
 20
-20.339753
 11
-59.40714
 21
-20.339753
  0
ENDBLK
  0
BLOCK
  2
*GRP_0066
 70
    65
 10
0.0
 20
0.0
  0
INSERT
  2
*GRP_0067
  8
別途部材
  6
CONTINUOUS
 10
0.0
 20
0.0
  0
INSERT
  2
*GRP_0068
  8
別途部材
  6
CONTINUOUS
 10
0.0
 20
0.0
  0
INSERT
  2
*GRP_0069
  8
その他部品等
  6
CONTINUOUS
 10
0.0
 20
0.0
  0
INSERT
  2
*GRP_0070
  8
その他部品等
  6
CONTINUOUS
 10
0.0
 20
0.0
  0
ENDBLK
  0
BLOCK
  2
*GRP_0067
 70
    65
 10
0.0
 20
0.0
  0
LINE
  8
別途部材
  6
CONTINUOUS
 10
-40.408665
 20
-7.833307
 11
3.591338
 21
-7.833307
  0
ARC
  8
別途部材
  6
CONTINUOUS
 10
-40.408659
 20
-1.833295
 40
6.0
 50
180.0
 51
270.0
  0
LINE
  8
別途部材
  6
CONTINUOUS
 10
-40.408665
 20
4.166692
 11
3.591338
 21
4.166692
  0
ARC
  8
別途部材
  6
CONTINUOUS
 10
-40.408659
 20
-1.833295
 40
6.0
 50
90.0
 51
180.0
  0
CIRCLE
  8
別途部材
  6
CONTINUOUS
 10
-40.408665
 20
-1.833307
 40
3.0
  0
LINE
  8
別途部材
  6
CONTINUOUS
 10
-40.408665
 20
-4.833307
 11
-40.408665
 21
1.166692
  0
LINE
  8
別途部材
  6
CONTINUOUS
 10
-43.408665
 20
-1.833307
 11
-37.408665
 21
-1.833307
  0
LINE
  8
別途部材
  6
CONTINUOUS
 10
3.591338
 20
-7.833307
 11
3.591338
 21
-5.833298
  0
LINE
  8
別途部材
  6
CONTINUOUS
 10
3.591338
 20
2.166698
 11
3.591338
 21
4.166692
  0
LINE
  8
別途部材
  6
CONTINUOUS
 10
3.591338
 20
-5.833298
 11
-34.408665
 21
-5.833298
  0
LINE
  8
別途部材
  6
CONTINUOUS
 10
-34.408665
 20
-5.833298
 11
-34.408665
 21
2.166698
  0
LINE
  8
別途部材
  6
CONTINUOUS
 10
3.591338
 20
2.166698
 11
-34.408665
 21
2.166698
  0
ARC
  8
別途部材
  6
CONTINUOUS
 10
3.133008
 20
-1.833295
 40
2.541667
 50
100.38896
 51
259.61104
  0
LINE
  8
別途部材
  6
CONTINUOUS
 10
3.591338
 20
1.666703
 11
3.591338
 21
0.666698
  0
LINE
  8
別途部材
  6
CONTINUOUS
 10
3.591338
 20
-5.333302
 11
3.591338
 21
-4.333298
  0
CIRCLE
  8
別途部材
  6
CONTINUOUS
 10
-30.408667
 20
-1.833307
 40
0.999997
  0
LINE
  8
別途部材
  6
CONTINUOUS
 10
-30.408667
 20
-0.833302
 11
-30.408667
 21
-2.833298
  0
LINE
  8
別途部材
  6
CONTINUOUS
 10
-31.408665
 20
-1.833307
 11
-29.408662
 21
-1.833307
  0
ARC
  8
別途部材
  6
CONTINUOUS
 10
-31.950332
 20
-1.833295
 40
2.541667
 50
280.38896
 51
439.61104
  0
LINE
  8
別途部材
  6
CONTINUOUS
 10
-32.408662
 20
1.666703
 11
-32.408662
 21
0.666698
  0
LINE
  8
別途部材
  6
CONTINUOUS
 10
-32.408662
 20
-4.333298
 11
-32.408662
 21
-5.333302
  0
LINE
  8
別途部材
  6
CONTINUOUS
 10
3.591338
 20
0.666698
 11
-32.408662
 21
0.666698
  0
LINE
  8
別途部材
  6
CONTINUOUS
 10
3.591338
 20
1.666703
 11
-32.408662
 21
1.666703
  0
LINE
  8
別途部材
  6
CONTINUOUS
 10
3.591338
 20
-4.333298
 11
-32.408662
 21
-4.333298
  0
LINE
  8
別途部材
  6
CONTINUOUS
 10
3.591338
 20
-5.333302
 11
-32.408662
 21
-5.333302
  0
ENDBLK
  0
BLOCK
  2
*GRP_0068
 70
    65
 10
0.0
 20
0.0
  0
LINE
  8
別途部材
  6
CONTINUOUS
 10
-46.408665
 20
-1.833307
 11
-46.408665
 21
-1.833307
  0
LINE
  8
別途部材
  6
CONTINUOUS
 10
-33.40866
 20
-7.833307
 11
-33.40866
 21
-10.333305
  0
LINE
  8
別途部材
  6
CONTINUOUS
 10
-46.90866
 20
-1.833307
 11
-46.408658
 21
-1.8333
  0
LINE
  8
別途部材
  6
CONTINUOUS
 10
-34.408665
 20
-18.333307
 11
-34.408665
 21
-10.333305
  0
ARC
  8
別途部材
  6
CONTINUOUS
 10
2.591339
 20
-17.333302
 40
1.0
 50
270.0
 51
360.0
  0
LINE
  8
別途部材
  6
CONTINUOUS
 10
3.591338
 20
-11.333302
 11
3.591338
 21
-17.333302
  0
ARC
  8
別途部材
  6
CONTINUOUS
 10
2.591339
 20
-11.333302
 40
1.0
 50
0.0
 51
90.0
  0
LINE
  8
別途部材
  6
CONTINUOUS
 10
2.59134
 20
-18.333307
 11
-45.908662
 21
-18.333307
  0
ARC
  8
別途部材
  6
CONTINUOUS
 10
-45.908661
 20
-17.333302
 40
1.0
 50
180.0
 51
270.0
  0
LINE
  8
別途部材
  6
CONTINUOUS
 10
2.59134
 20
-10.333305
 11
-45.908662
 21
-10.333305
  0
ARC
  8
別途部材
  6
CONTINUOUS
 10
-45.908661
 20
-11.333302
 40
1.0
 50
90.0
 51
180.0
  0
LINE
  8
別途部材
  6
CONTINUOUS
 10
-46.90866
 20
-17.333302
 11
-46.90866
 21
-1.833307
  0
LINE
  8
別途部材
  6
CONTINUOUS
 10
-27.40866
 20
-12.633307
 11
-22.408665
 21
-12.633307
  0
LINE
  8
別途部材
  6
CONTINUOUS
 10
-7.408665
 20
-12.633307
 11
-2.408655
 21
-12.633307
  0
POLYLINE
  8
別途部材
  6
CONTINUOUS
 66
     1
  0
VERTEX
  8
別途部材
 10
-28.90866
 20
-10.333305
  0
VERTEX
  8
別途部材
 10
-27.40866
 20
-12.633307
  0
VERTEX
  8
別途部材
 10
-27.40866
 20
-18.333307
  0
SEQEND
  0
LINE
  8
別途部材
  6
CONTINUOUS
 10
-24.908655
 20
-10.333305
 11
-24.908655
 21
-18.333307
  0
POLYLINE
  8
別途部材
  6
CONTINUOUS
 66
     1
  0
VERTEX
  8
別途部材
 10
-20.908665
 20
-10.333305
  0
VERTEX
  8
別途部材
 10
-22.408665
 20
-12.633307
  0
VERTEX
  8
別途部材
 10
-22.408665
 20
-18.333307
  0
SEQEND
  0
POLYLINE
  8
別途部材
  6
CONTINUOUS
 66
     1
  0
VERTEX
  8
別途部材
 10
-8.908665
 20
-10.333305
  0
VERTEX
  8
別途部材
 10
-7.408665
 20
-12.633307
  0
VERTEX
  8
別途部材
 10
-7.408665
 20
-18.333307
  0
SEQEND
  0
LINE
  8
別途部材
  6
CONTINUOUS
 10
-4.90866
 20
-10.333305
 11
-4.90866
 21
-18.333307
  0
POLYLINE
  8
別途部材
  6
CONTINUOUS
 66
     1
  0
VERTEX
  8
別途部材
 10
-0.908655
 20
-10.333305
  0
VERTEX
  8
別途部材
 10
-2.408655
 20
-12.633307
  0
VERTEX
  8
別途部材
 10
-2.408655
 20
-18.333307
  0
SEQEND
  0
ENDBLK
  0
BLOCK
  2
*GRP_0069
 70
    65
 10
0.0
 20
0.0
  0
LINE
  8
ボルト／ビス
  6
CONTINUOUS
 10
-8.908665
 20
-10.333305
 11
-7.408665
 21
-12.633307
  0
LINE
  8
ボルト／ビス
  6
CONTINUOUS
 10
-0.908662
 20
-10.333305
 11
-2.408662
 21
-12.633307
  0
LINE
  8
ボルト／ビス
  6
CONTINUOUS
 10
-8.908665
 20
-10.333305
 11
-0.908662
 21
-10.333305
  0
LINE
  8
ボルト／ビス
  6
CONTINUOUS
 10
-7.408665
 20
-12.633307
 11
-2.408662
 21
-12.633307
  0
LINE
  8
ボルト／ビス
  6
CONTINUOUS
 10
-7.408665
 20
-29.8333
 11
-6.908662
 21
-30.333302
  0
LINE
  8
ボルト／ビス
  6
CONTINUOUS
 10
-2.408662
 20
-29.8333
 11
-2.908665
 21
-30.333302
  0
LINE
  8
ボルト／ビス
  6
CONTINUOUS
 10
-2.908665
 20
-30.333302
 11
-6.908662
 21
-30.333302
  0
LINE
  8
ボルト／ビス
  6
CONTINUOUS
 10
-2.408662
 20
-29.8333
 11
-7.408665
 21
-29.8333
  0
LINE
  8
ボルト／ビス
  6
CONTINUOUS
 10
-6.908662
 20
-12.633307
 11
-6.908662
 21
-30.333302
  0
LINE
  8
ボルト／ビス
  6
CONTINUOUS
 10
-7.408665
 20
-12.633307
 11
-7.408665
 21
-29.8333
  0
LINE
  8
ボルト／ビス
  6
CONTINUOUS
 10
-2.908665
 20
-12.633307
 11
-2.908665
 21
-30.333302
  0
LINE
  8
ボルト／ビス
  6
CONTINUOUS
 10
-2.408662
 20
-12.633307
 11
-2.408662
 21
-29.8333
  0
LINE
  8
ボルト／ビス
  6
CONTINUOUS
 10
-4.90866
 20
-7.948103
 11
-4.90866
 21
-30.333302
  0
ENDBLK
  0
BLOCK
  2
*GRP_0070
 70
    65
 10
0.0
 20
0.0
  0
LINE
  8
ボルト／ビス
  6
CONTINUOUS
 10
-28.90866
 20
-10.333305
 11
-27.40866
 21
-12.633307
  0
LINE
  8
ボルト／ビス
  6
CONTINUOUS
 10
-20.908658
 20
-10.333305
 11
-22.408658
 21
-12.633307
  0
LINE
  8
ボルト／ビス
  6
CONTINUOUS
 10
-28.90866
 20
-10.333305
 11
-20.908658
 21
-10.333305
  0
LINE
  8
ボルト／ビス
  6
CONTINUOUS
 10
-27.40866
 20
-12.633307
 11
-22.408658
 21
-12.633307
  0
LINE
  8
ボルト／ビス
  6
CONTINUOUS
 10
-27.40866
 20
-29.8333
 11
-26.908658
 21
-30.333302
  0
LINE
  8
ボルト／ビス
  6
CONTINUOUS
 10
-22.408658
 20
-29.8333
 11
-22.90866
 21
-30.333302
  0
LINE
  8
ボルト／ビス
  6
CONTINUOUS
 10
-22.90866
 20
-30.333302
 11
-26.908658
 21
-30.333302
  0
LINE
  8
ボルト／ビス
  6
CONTINUOUS
 10
-22.408658
 20
-29.8333
 11
-27.40866
 21
-29.8333
  0
LINE
  8
ボルト／ビス
  6
CONTINUOUS
 10
-26.908658
 20
-12.633307
 11
-26.908658
 21
-30.333302
  0
LINE
  8
ボルト／ビス
  6
CONTINUOUS
 10
-27.40866
 20
-12.633307
 11
-27.40866
 21
-29.8333
  0
LINE
  8
ボルト／ビス
  6
CONTINUOUS
 10
-22.90866
 20
-12.633307
 11
-22.90866
 21
-30.333302
  0
LINE
  8
ボルト／ビス
  6
CONTINUOUS
 10
-22.408658
 20
-12.633307
 11
-22.408658
 21
-29.8333
  0
LINE
  8
ボルト／ビス
  6
CONTINUOUS
 10
-24.908655
 20
-7.948103
 11
-24.908655
 21
-30.333302
  0
ENDBLK
  0
BLOCK
  2
*GRP_0071
 70
    65
 10
0.0
 20
0.0
  0
INSERT
  2
*GRP_0072
  8
文字
  6
DOT
 10
0.0
 20
0.0
  0
INSERT
  2
*GRP_0073
  8
文字
  6
DOT
 10
0.0
 20
0.0
  0
INSERT
  2
*GRP_0074
  8
その他部品等
  6
CONTINUOUS
 10
0.0
 20
0.0
  0
INSERT
  2
*GRP_0075
  8
その他部品等
  6
CONTINUOUS
 10
0.0
 20
0.0
  0
INSERT
  2
*GRP_0076
  8
その他部品等
  6
CONTINUOUS
 10
0.0
 20
0.0
  0
ENDBLK
  0
BLOCK
  2
*GRP_0072
 70
    65
 10
0.0
 20
0.0
  0
INSERT
  2
*GRP_0077
  8
別途部材
  6
CONTINUOUS
 10
0.0
 20
0.0
  0
INSERT
  2
*GRP_0078
  8
別途部材
  6
CONTINUOUS
 10
0.0
 20
0.0
  0
ENDBLK
  0
BLOCK
  2
*GRP_0073
 70
    65
 10
0.0
 20
0.0
  0
INSERT
  2
*GRP_0079
  8
別途部材
  6
CONTINUOUS
 10
0.0
 20
0.0
  0
INSERT
  2
*GRP_0080
  8
別途部材
  6
CONTINUOUS
 10
0.0
 20
0.0
  0
ENDBLK
  0
BLOCK
  2
*GRP_0074
 70
    65
 10
0.0
 20
0.0
  0
LINE
  8
ボルト／ビス
  6
CONTINUOUS
 10
58.792778
 20
-10.344175
 11
60.292778
 21
-12.644178
  0
LINE
  8
ボルト／ビス
  6
CONTINUOUS
 10
66.79278
 20
-10.344175
 11
65.29278
 21
-12.644178
  0
LINE
  8
ボルト／ビス
  6
CONTINUOUS
 10
58.792778
 20
-10.344175
 11
66.79278
 21
-10.344175
  0
LINE
  8
ボルト／ビス
  6
CONTINUOUS
 10
60.292778
 20
-12.644178
 11
65.29278
 21
-12.644178
  0
LINE
  8
ボルト／ビス
  6
CONTINUOUS
 10
60.292778
 20
-29.84417
 11
60.79278
 21
-30.344172
  0
LINE
  8
ボルト／ビス
  6
CONTINUOUS
 10
65.29278
 20
-29.84417
 11
64.792778
 21
-30.344172
  0
LINE
  8
ボルト／ビス
  6
CONTINUOUS
 10
64.792778
 20
-30.344172
 11
60.79278
 21
-30.344172
  0
LINE
  8
ボルト／ビス
  6
CONTINUOUS
 10
65.29278
 20
-29.84417
 11
60.292778
 21
-29.84417
  0
LINE
  8
ボルト／ビス
  6
CONTINUOUS
 10
60.79278
 20
-12.644178
 11
60.79278
 21
-30.344172
  0
LINE
  8
ボルト／ビス
  6
CONTINUOUS
 10
60.292778
 20
-12.644178
 11
60.292778
 21
-29.84417
  0
LINE
  8
ボルト／ビス
  6
CONTINUOUS
 10
64.792778
 20
-12.644178
 11
64.792778
 21
-30.344172
  0
LINE
  8
ボルト／ビス
  6
CONTINUOUS
 10
65.29278
 20
-12.644178
 11
65.29278
 21
-29.84417
  0
LINE
  8
ボルト／ビス
  6
CONTINUOUS
 10
62.792783
 20
-7.958972
 11
62.792783
 21
-30.344172
  0
ENDBLK
  0
BLOCK
  2
*GRP_0075
 70
    65
 10
0.0
 20
0.0
  0
LINE
  8
ボルト／ビス
  6
CONTINUOUS
 10
68.292783
 20
-10.344175
 11
69.792783
 21
-12.644178
  0
LINE
  8
ボルト／ビス
  6
CONTINUOUS
 10
76.292785
 20
-10.344175
 11
74.792785
 21
-12.644178
  0
LINE
  8
ボルト／ビス
  6
CONTINUOUS
 10
68.292783
 20
-10.344175
 11
76.292785
 21
-10.344175
  0
LINE
  8
ボルト／ビス
  6
CONTINUOUS
 10
69.792783
 20
-12.644178
 11
74.792785
 21
-12.644178
  0
LINE
  8
ボルト／ビス
  6
CONTINUOUS
 10
69.792783
 20
-29.84417
 11
70.292785
 21
-30.344172
  0
LINE
  8
ボルト／ビス
  6
CONTINUOUS
 10
74.792785
 20
-29.84417
 11
74.292783
 21
-30.344172
  0
LINE
  8
ボルト／ビス
  6
CONTINUOUS
 10
74.292783
 20
-30.344172
 11
70.292785
 21
-30.344172
  0
LINE
  8
ボルト／ビス
  6
CONTINUOUS
 10
74.792785
 20
-29.84417
 11
69.792783
 21
-29.84417
  0
LINE
  8
ボルト／ビス
  6
CONTINUOUS
 10
70.292785
 20
-12.644178
 11
70.292785
 21
-30.344172
  0
LINE
  8
ボルト／ビス
  6
CONTINUOUS
 10
69.792783
 20
-12.644178
 11
69.792783
 21
-29.84417
  0
LINE
  8
ボルト／ビス
  6
CONTINUOUS
 10
74.292783
 20
-12.644178
 11
74.292783
 21
-30.344172
  0
LINE
  8
ボルト／ビス
  6
CONTINUOUS
 10
74.792785
 20
-12.644178
 11
74.792785
 21
-29.84417
  0
LINE
  8
ボルト／ビス
  6
CONTINUOUS
 10
72.292787
 20
-7.958972
 11
72.292787
 21
-30.344172
  0
ENDBLK
  0
BLOCK
  2
*GRP_0076
 70
    65
 10
0.0
 20
0.0
  0
LINE
  8
ボルト／ビス
  6
CONTINUOUS
 10
78.792772
 20
-10.344175
 11
80.292772
 21
-12.644178
  0
LINE
  8
ボルト／ビス
  6
CONTINUOUS
 10
86.792775
 20
-10.344175
 11
85.292775
 21
-12.644178
  0
LINE
  8
ボルト／ビス
  6
CONTINUOUS
 10
78.792772
 20
-10.344175
 11
86.792775
 21
-10.344175
  0
LINE
  8
ボルト／ビス
  6
CONTINUOUS
 10
80.292772
 20
-12.644178
 11
85.292775
 21
-12.644178
  0
LINE
  8
ボルト／ビス
  6
CONTINUOUS
 10
80.292772
 20
-29.84417
 11
80.792775
 21
-30.344172
  0
LINE
  8
ボルト／ビス
  6
CONTINUOUS
 10
85.292775
 20
-29.84417
 11
84.792772
 21
-30.344172
  0
LINE
  8
ボルト／ビス
  6
CONTINUOUS
 10
84.792772
 20
-30.344172
 11
80.792775
 21
-30.344172
  0
LINE
  8
ボルト／ビス
  6
CONTINUOUS
 10
85.292775
 20
-29.84417
 11
80.292772
 21
-29.84417
  0
LINE
  8
ボルト／ビス
  6
CONTINUOUS
 10
80.792775
 20
-12.644178
 11
80.792775
 21
-30.344172
  0
LINE
  8
ボルト／ビス
  6
CONTINUOUS
 10
80.292772
 20
-12.644178
 11
80.292772
 21
-29.84417
  0
LINE
  8
ボルト／ビス
  6
CONTINUOUS
 10
84.792772
 20
-12.644178
 11
84.792772
 21
-30.344172
  0
LINE
  8
ボルト／ビス
  6
CONTINUOUS
 10
85.292775
 20
-12.644178
 11
85.292775
 21
-29.84417
  0
LINE
  8
ボルト／ビス
  6
CONTINUOUS
 10
82.792778
 20
-7.958972
 11
82.792778
 21
-30.344172
  0
ENDBLK
  0
BLOCK
  2
*GRP_0077
 70
    65
 10
0.0
 20
0.0
  0
LINE
  8
別途部材
  6
CONTINUOUS
 10
82.29279
 20
-11.839755
 11
82.29279
 21
32.16024
  0
ARC
  8
別途部材
  6
CONTINUOUS
 10
88.292777
 20
-11.839765
 40
6.0
 50
179.999999
 51
269.999999
  0
LINE
  8
別途部材
  6
CONTINUOUS
 10
94.29279
 20
-11.839755
 11
94.29279
 21
32.16024
  0
ARC
  8
別途部材
  6
CONTINUOUS
 10
88.292777
 20
-11.839765
 40
6.0
 50
269.999999
 51
359.999999
  0
CIRCLE
  8
別途部材
  6
CONTINUOUS
 10
88.29279
 20
-11.839755
 40
3.0
  0
LINE
  8
別途部材
  6
CONTINUOUS
 10
85.29279
 20
-11.839755
 11
91.29279
 21
-11.839747
  0
LINE
  8
別途部材
  6
CONTINUOUS
 10
88.292798
 20
-14.839755
 11
88.29279
 21
-8.839755
  0
LINE
  8
別途部材
  6
CONTINUOUS
 10
82.29279
 20
32.16024
 11
84.2928
 21
32.16024
  0
LINE
  8
別途部材
  6
CONTINUOUS
 10
92.292795
 20
32.160247
 11
94.29279
 21
32.16024
  0
LINE
  8
別途部材
  6
CONTINUOUS
 10
84.2928
 20
32.16024
 11
84.292792
 21
-5.839755
  0
LINE
  8
別途部材
  6
CONTINUOUS
 10
84.292792
 20
-5.839755
 11
92.292795
 21
-5.839755
  0
LINE
  8
別途部材
  6
CONTINUOUS
 10
92.292795
 20
32.160247
 11
92.292795
 21
-5.839755
  0
ARC
  8
別途部材
  6
CONTINUOUS
 10
88.292777
 20
-4.381433
 40
2.541667
 50
269.999999
 51
269.999999
  0
ARC
  8
別途部材
  6
CONTINUOUS
 10
88.292778
 20
31.701902
 40
2.541667
 50
190.388959
 51
349.611039
  0
LINE
  8
別途部材
  6
CONTINUOUS
 10
91.7928
 20
32.16024
 11
90.792795
 21
32.16024
  0
LINE
  8
別途部材
  6
CONTINUOUS
 10
84.792795
 20
32.16024
 11
85.7928
 21
32.16024
  0
CIRCLE
  8
別途部材
  6
CONTINUOUS
 10
88.29279
 20
-1.839765
 40
0.999997
  0
LINE
  8
別途部材
  6
CONTINUOUS
 10
89.292802
 20
-1.839765
 11
87.292792
 21
-1.839765
  0
LINE
  8
別途部材
  6
CONTINUOUS
 10
88.292798
 20
-2.83977
 11
88.29279
 21
-0.83976
  0
ARC
  8
別途部材
  6
CONTINUOUS
 10
88.292777
 20
-3.381438
 40
2.541667
 50
10.388959
 51
169.611039
  0
LINE
  8
別途部材
  6
CONTINUOUS
 10
91.792792
 20
-3.83976
 11
90.792795
 21
-3.839753
  0
LINE
  8
別途部材
  6
CONTINUOUS
 10
85.7928
 20
-3.83976
 11
84.792795
 21
-3.83976
  0
LINE
  8
別途部材
  6
CONTINUOUS
 10
90.792795
 20
32.16024
 11
90.792795
 21
-3.839753
  0
LINE
  8
別途部材
  6
CONTINUOUS
 10
91.7928
 20
32.16024
 11
91.792792
 21
-3.83976
  0
LINE
  8
別途部材
  6
CONTINUOUS
 10
85.7928
 20
32.16024
 11
85.7928
 21
-3.83976
  0
LINE
  8
別途部材
  6
CONTINUOUS
 10
84.792795
 20
32.16024
 11
84.792795
 21
-3.83976
  0
ENDBLK
  0
BLOCK
  2
*GRP_0078
 70
    65
 10
0.0
 20
0.0
  0
LINE
  8
別途部材
  6
CONTINUOUS
 10
88.29279
 20
-17.839755
 11
88.29279
 21
-17.839755
  0
LINE
  8
別途部材
  6
CONTINUOUS
 10
69.79278
 20
-12.639757
 11
74.792783
 21
-12.639757
  0
LINE
  8
別途部材
  6
CONTINUOUS
 10
72.292792
 20
-10.339747
 11
72.292785
 21
-18.339757
  0
POLYLINE
  8
別途部材
  6
CONTINUOUS
 66
     1
  0
VERTEX
  8
別途部材
 10
76.292783
 20
-10.339755
  0
VERTEX
  8
別途部材
 10
74.792783
 20
-12.639757
  0
VERTEX
  8
別途部材
 10
74.792783
 20
-18.339757
  0
SEQEND
  0
POLYLINE
  8
別途部材
  6
CONTINUOUS
 66
     1
  0
VERTEX
  8
別途部材
 10
68.29278
 20
-10.339755
  0
VERTEX
  8
別途部材
 10
69.79278
 20
-12.639757
  0
VERTEX
  8
別途部材
 10
69.79278
 20
-18.339757
  0
SEQEND
  0
LINE
  8
別途部材
  6
CONTINUOUS
 10
88.29279
 20
-18.339757
 11
88.29279
 21
-17.839755
  0
ARC
  8
別途部材
  6
CONTINUOUS
 10
63.292768
 20
-11.339766
 40
1.0
 50
89.999999
 51
179.999999
  0
LINE
  8
別途部材
  6
CONTINUOUS
 10
62.292787
 20
-11.339753
 11
62.292787
 21
-17.339753
  0
ARC
  8
別途部材
  6
CONTINUOUS
 10
63.292768
 20
-17.339766
 40
1.0
 50
179.999999
 51
269.999999
  0
ARC
  8
別途部材
  6
CONTINUOUS
 10
79.292768
 20
-11.339766
 40
1.0
 50
-0.000001
 51
89.999999
  0
LINE
  8
別途部材
  6
CONTINUOUS
 10
80.292787
 20
-17.33976
 11
80.292787
 21
-11.33976
  0
ARC
  8
別途部材
  6
CONTINUOUS
 10
79.292768
 20
-17.339766
 40
1.0
 50
269.999999
 51
359.999999
  0
LINE
  8
別途部材
  6
CONTINUOUS
 10
63.292785
 20
-18.339757
 11
88.29279
 21
-18.339757
  0
LINE
  8
別途部材
  6
CONTINUOUS
 10
63.292792
 20
-10.339755
 11
82.29279
 21
-10.339755
  0
ENDBLK
  0
BLOCK
  2
*GRP_0079
 70
    65
 10
0.0
 20
0.0
  0
LINE
  8
別途部材
  6
CONTINUOUS
 10
98.292787
 20
-7.839757
 11
54.292785
 21
-7.839757
  0
ARC
  8
別途部材
  6
CONTINUOUS
 10
98.29277
 20
-1.839755
 40
6.0
 50
269.999999
 51
359.999999
  0
LINE
  8
別途部材
  6
CONTINUOUS
 10
98.292787
 20
4.160242
 11
54.292785
 21
4.160242
  0
ARC
  8
別途部材
  6
CONTINUOUS
 10
98.29277
 20
-1.839755
 40
6.0
 50
-0.000001
 51
89.999999
  0
CIRCLE
  8
別途部材
  6
CONTINUOUS
 10
98.292787
 20
-1.839757
 40
3.0
  0
LINE
  8
別途部材
  6
CONTINUOUS
 10
98.292787
 20
-4.839757
 11
98.292787
 21
1.160242
  0
LINE
  8
別途部材
  6
CONTINUOUS
 10
101.292787
 20
-1.839757
 11
95.292787
 21
-1.839757
  0
LINE
  8
別途部材
  6
CONTINUOUS
 10
54.292785
 20
-7.839757
 11
54.292785
 21
-5.83974
  0
LINE
  8
別途部材
  6
CONTINUOUS
 10
54.292785
 20
2.160247
 11
54.292785
 21
4.160242
  0
LINE
  8
別途部材
  6
CONTINUOUS
 10
54.292785
 20
-5.83974
 11
92.292795
 21
-5.839747
  0
LINE
  8
別途部材
  6
CONTINUOUS
 10
92.292795
 20
-5.839747
 11
92.292795
 21
2.160247
  0
LINE
  8
別途部材
  6
CONTINUOUS
 10
54.292785
 20
2.160247
 11
92.292795
 21
2.160247
  0
ARC
  8
別途部材
  6
CONTINUOUS
 10
54.751102
 20
-1.839754
 40
2.541667
 50
280.388959
 51
439.611039
  0
LINE
  8
別途部材
  6
CONTINUOUS
 10
54.292785
 20
1.66026
 11
54.292792
 21
0.660247
  0
LINE
  8
別途部材
  6
CONTINUOUS
 10
54.292785
 20
-5.339753
 11
54.292785
 21
-4.33974
  0
CIRCLE
  8
別途部材
  6
CONTINUOUS
 10
88.29279
 20
-1.839757
 40
0.999997
  0
LINE
  8
別途部材
  6
CONTINUOUS
 10
88.29279
 20
-0.839753
 11
88.292798
 21
-2.839755
  0
LINE
  8
別途部材
  6
CONTINUOUS
 10
89.292787
 20
-1.839757
 11
87.292785
 21
-1.839757
  0
ARC
  8
別途部材
  6
CONTINUOUS
 10
89.834442
 20
-1.839755
 40
2.541667
 50
100.388959
 51
259.611039
  0
LINE
  8
別途部材
  6
CONTINUOUS
 10
90.292785
 20
1.660253
 11
90.292792
 21
0.660247
  0
LINE
  8
別途部材
  6
CONTINUOUS
 10
90.292785
 20
-4.339747
 11
90.292785
 21
-5.339753
  0
LINE
  8
別途部材
  6
CONTINUOUS
 10
54.292792
 20
0.660247
 11
90.292792
 21
0.660247
  0
LINE
  8
別途部材
  6
CONTINUOUS
 10
54.292785
 20
1.66026
 11
90.292785
 21
1.660253
  0
LINE
  8
別途部材
  6
CONTINUOUS
 10
54.292785
 20
-4.33974
 11
90.292785
 21
-4.339747
  0
LINE
  8
別途部材
  6
CONTINUOUS
 10
54.292785
 20
-5.339753
 11
90.292785
 21
-5.339753
  0
ENDBLK
  0
BLOCK
  2
*GRP_0080
 70
    65
 10
0.0
 20
0.0
  0
LINE
  8
別途部材
  6
CONTINUOUS
 10
104.292787
 20
-1.839757
 11
104.292787
 21
-1.839757
  0
LINE
  8
別途部材
  6
CONTINUOUS
 10
91.292783
 20
-7.839757
 11
91.292783
 21
-10.339747
  0
LINE
  8
別途部材
  6
CONTINUOUS
 10
104.792783
 20
-1.839757
 11
104.292787
 21
-1.83975
  0
LINE
  8
別途部材
  6
CONTINUOUS
 10
92.292795
 20
-18.339757
 11
92.292787
 21
-10.339755
  0
ARC
  8
別途部材
  6
CONTINUOUS
 10
55.292771
 20
-17.339761
 40
1.0
 50
179.999999
 51
269.999999
  0
LINE
  8
別途部材
  6
CONTINUOUS
 10
54.292785
 20
-11.339753
 11
54.292785
 21
-17.339753
  0
ARC
  8
別途部材
  6
CONTINUOUS
 10
55.292771
 20
-11.339761
 40
1.0
 50
89.999999
 51
179.999999
  0
LINE
  8
別途部材
  6
CONTINUOUS
 10
55.292783
 20
-18.339757
 11
103.792785
 21
-18.339757
  0
ARC
  8
別途部材
  6
CONTINUOUS
 10
103.792771
 20
-17.339762
 40
1.0
 50
269.999999
 51
359.999999
  0
LINE
  8
別途部材
  6
CONTINUOUS
 10
55.292783
 20
-10.339755
 11
103.792792
 21
-10.339755
  0
ARC
  8
別途部材
  6
CONTINUOUS
 10
103.792771
 20
-11.339762
 40
1.0
 50
-0.000001
 51
89.999999
  0
LINE
  8
別途部材
  6
CONTINUOUS
 10
104.792783
 20
-17.339753
 11
104.792783
 21
-1.839757
  0
LINE
  8
別途部材
  6
CONTINUOUS
 10
85.292783
 20
-12.639757
 11
80.292787
 21
-12.639757
  0
LINE
  8
別途部材
  6
CONTINUOUS
 10
65.292787
 20
-12.639757
 11
60.292778
 21
-12.639757
  0
POLYLINE
  8
別途部材
  6
CONTINUOUS
 66
     1
  0
VERTEX
  8
別途部材
 10
86.792783
 20
-10.339755
  0
VERTEX
  8
別途部材
 10
85.292783
 20
-12.639757
  0
VERTEX
  8
別途部材
 10
85.292783
 20
-18.339757
  0
SEQEND
  0
LINE
  8
別途部材
  6
CONTINUOUS
 10
82.792778
 20
-10.339755
 11
82.792778
 21
-18.339757
  0
POLYLINE
  8
別途部材
  6
CONTINUOUS
 66
     1
  0
VERTEX
  8
別途部材
 10
78.792787
 20
-10.339747
  0
VERTEX
  8
別途部材
 10
80.292787
 20
-12.639757
  0
VERTEX
  8
別途部材
 10
80.292795
 20
-18.339757
  0
SEQEND
  0
POLYLINE
  8
別途部材
  6
CONTINUOUS
 66
     1
  0
VERTEX
  8
別途部材
 10
66.792787
 20
-10.339755
  0
VERTEX
  8
別途部材
 10
65.292787
 20
-12.639757
  0
VERTEX
  8
別途部材
 10
65.292795
 20
-18.339757
  0
SEQEND
  0
LINE
  8
別途部材
  6
CONTINUOUS
 10
62.792783
 20
-10.339755
 11
62.792783
 21
-18.33975
  0
POLYLINE
  8
別途部材
  6
CONTINUOUS
 66
     1
  0
VERTEX
  8
別途部材
 10
58.792785
 20
-10.339755
  0
VERTEX
  8
別途部材
 10
60.292778
 20
-12.639757
  0
VERTEX
  8
別途部材
 10
60.292778
 20
-18.339757
  0
SEQEND
  0
ENDBLK
  0
BLOCK
  2
*GRP_0081
 70
    65
 10
0.0
 20
0.0
  0
LINE
  8
型材断面
  6
CONTINUOUS
 62
    47
 10
120.092843
 20
-40.239855
 11
120.092843
 21
-38.239852
  0
LINE
  8
型材断面
  6
CONTINUOUS
 62
    47
 10
120.092843
 20
-38.239852
 11
121.592843
 21
-38.239852
  0
LINE
  8
型材断面
  6
CONTINUOUS
 62
    47
 10
124.091393
 20
-43.239855
 11
124.391393
 21
-42.939855
  0
LINE
  8
型材断面
  6
CONTINUOUS
 62
    47
 10
124.091393
 20
-43.239855
 11
124.391393
 21
-43.539855
  0
LINE
  8
型材断面
  6
CONTINUOUS
 62
    47
 10
120.092843
 20
-40.239855
 11
122.891393
 21
-40.799557
  0
LINE
  8
型材断面
  6
CONTINUOUS
 62
    47
 10
121.592843
 20
-38.239852
 11
121.592843
 21
-39.239858
  0
LINE
  8
型材断面
  6
CONTINUOUS
 62
    47
 10
121.592843
 20
-39.239858
 11
124.391393
 21
-39.239858
  0
LINE
  8
型材断面
  6
CONTINUOUS
 62
    47
 10
124.391393
 20
-42.939855
 11
124.391393
 21
-39.239858
  0
LINE
  8
型材断面
  6
CONTINUOUS
 62
    47
 10
14.492843
 20
-65.644703
 11
13.892843
 21
-65.044703
  0
LINE
  8
型材断面
  6
CONTINUOUS
 62
    47
 10
13.892843
 20
-63.339803
 11
13.892843
 21
-65.044703
  0
LINE
  8
型材断面
  6
CONTINUOUS
 62
    47
 10
14.492843
 20
-65.644703
 11
15.092843
 21
-65.644703
  0
LINE
  8
型材断面
  6
CONTINUOUS
 62
    47
 10
14.492843
 20
-70.744703
 11
15.092843
 21
-70.744703
  0
LINE
  8
型材断面
  6
CONTINUOUS
 62
    47
 10
14.492843
 20
-70.744703
 11
13.892843
 21
-71.344703
  0
LINE
  8
型材断面
  6
CONTINUOUS
 62
    47
 10
15.092843
 20
-65.644703
 11
15.092843
 21
-64.539803
  0
LINE
  8
型材断面
  6
CONTINUOUS
 62
    47
 10
15.092843
 20
-64.539803
 11
17.592848
 21
-64.539803
  0
LINE
  8
型材断面
  6
CONTINUOUS
 62
    47
 10
15.092843
 20
-70.744703
 11
15.092843
 21
-71.844705
  0
LINE
  8
型材断面
  6
CONTINUOUS
 62
    47
 10
15.092843
 20
-71.844705
 11
17.592848
 21
-71.844705
  0
LINE
  8
型材断面
  6
CONTINUOUS
 62
    47
 10
17.592848
 20
-64.539803
 11
17.592848
 21
-71.844705
  0
LINE
  8
型材断面
  6
CONTINUOUS
 62
    47
 10
19.092848
 20
-65.339805
 11
19.092848
 21
-73.344705
  0
LINE
  8
型材断面
  6
CONTINUOUS
 62
    47
 10
19.092848
 20
-73.344705
 11
15.392843
 21
-73.344705
  0
LINE
  8
型材断面
  6
CONTINUOUS
 62
    47
 10
13.892843
 20
-71.344703
 11
13.892843
 21
-75.339803
  0
LINE
  8
型材断面
  6
CONTINUOUS
 62
    47
 10
15.392843
 20
-73.344705
 11
15.392843
 21
-74.718502
  0
LINE
  8
型材断面
  6
CONTINUOUS
 62
    47
 10
13.892843
 20
-75.339803
 11
19.792845
 21
-81.239858
  0
LINE
  8
型材断面
  6
CONTINUOUS
 62
    47
 10
28.091347
 20
-63.339803
 11
30.091343
 21
-63.339803
  0
LINE
  8
型材断面
  6
CONTINUOUS
 62
    47
 10
30.091343
 20
-64.839803
 11
29.321092
 21
-64.839803
  0
LINE
  8
型材断面
  6
CONTINUOUS
 62
    47
 10
30.091343
 20
-63.339803
 11
30.091343
 21
-64.839803
  0
LINE
  8
型材断面
  6
CONTINUOUS
 62
    47
 10
22.691347
 20
-68.139803
 11
27.491347
 21
-68.139803
  0
LINE
  8
型材断面
  6
CONTINUOUS
 62
    47
 10
22.191345
 20
-67.639808
 11
22.691347
 21
-68.139803
  0
LINE
  8
型材断面
  6
CONTINUOUS
 62
    47
 10
27.991343
 20
-67.639808
 11
27.491347
 21
-68.139803
  0
LINE
  8
型材断面
  6
CONTINUOUS
 62
    47
 10
22.191345
 20
-67.639808
 11
21.421643
 21
-67.639808
  0
LINE
  8
型材断面
  6
CONTINUOUS
 62
    47
 10
28.091347
 20
-63.339803
 11
27.531345
 21
-66.139808
  0
LINE
  8
型材断面
  6
CONTINUOUS
 62
    47
 10
27.991343
 20
-67.639808
 11
28.761045
 21
-67.639808
  0
LINE
  8
型材断面
  6
CONTINUOUS
 62
    47
 10
29.321092
 20
-64.839803
 11
28.761045
 21
-67.639808
  0
LINE
  8
型材断面
  6
CONTINUOUS
 62
    47
 10
25.091347
 20
-66.439808
 11
24.791347
 21
-66.139808
  0
LINE
  8
型材断面
  6
CONTINUOUS
 62
    47
 10
25.091347
 20
-66.439808
 11
25.391347
 21
-66.139808
  0
LINE
  8
型材断面
  6
CONTINUOUS
 62
    47
 10
22.651342
 20
-66.139808
 11
24.791347
 21
-66.139808
  0
LINE
  8
型材断面
  6
CONTINUOUS
 62
    47
 10
25.391347
 20
-66.139808
 11
27.531345
 21
-66.139808
  0
LINE
  8
型材断面
  6
CONTINUOUS
 62
    47
 10
19.092848
 20
-65.339805
 11
20.961645
 21
-65.339805
  0
LINE
  8
型材断面
  6
CONTINUOUS
 62
    47
 10
21.421643
 20
-67.639808
 11
20.961645
 21
-65.339805
  0
LINE
  8
型材断面
  6
CONTINUOUS
 62
    47
 10
13.892843
 20
-63.339803
 11
22.091347
 21
-63.339803
  0
LINE
  8
型材断面
  6
CONTINUOUS
 62
    47
 10
22.651342
 20
-66.139808
 11
22.091347
 21
-63.339803
  0
LINE
  8
型材断面
  6
CONTINUOUS
 62
    47
 10
15.392843
 20
-74.718502
 11
16.414192
 21
-75.739852
  0
LINE
  8
型材断面
  6
CONTINUOUS
 62
    47
 10
17.914148
 20
-77.239852
 11
20.414145
 21
-79.739858
  0
LINE
  8
型材断面
  6
CONTINUOUS
 62
    47
 10
16.414192
 20
-75.739852
 11
22.591343
 21
-75.739852
  0
LINE
  8
型材断面
  6
CONTINUOUS
 62
    47
 10
22.591343
 20
-75.739852
 11
22.591343
 21
-77.239852
  0
LINE
  8
型材断面
  6
CONTINUOUS
 62
    47
 10
17.914148
 20
-77.239852
 11
22.591343
 21
-77.239852
  0
LINE
  8
型材断面
  6
CONTINUOUS
 62
    47
 10
121.592843
 20
-47.289555
 11
122.891393
 21
-47.289555
  0
LINE
  8
型材断面
  6
CONTINUOUS
 62
    47
 10
122.891393
 20
-45.680152
 11
120.092843
 21
-46.239855
  0
LINE
  8
型材断面
  6
CONTINUOUS
 62
    47
 10
122.891393
 20
-40.799557
 11
122.891393
 21
-45.680152
  0
LINE
  8
型材断面
  6
CONTINUOUS
 62
    47
 10
131.392845
 20
-80.939858
 11
131.692845
 21
-81.239858
  0
LINE
  8
型材断面
  6
CONTINUOUS
 62
    47
 10
136.892843
 20
-81.239858
 11
131.692845
 21
-81.239858
  0
LINE
  8
型材断面
  6
CONTINUOUS
 62
    47
 10
131.392845
 20
-80.939858
 11
131.092845
 21
-81.239858
  0
LINE
  8
型材断面
  6
CONTINUOUS
 62
    47
 10
19.792845
 20
-81.239858
 11
131.092845
 21
-81.239858
  0
LINE
  8
型材断面
  6
CONTINUOUS
 62
    47
 10
20.414145
 20
-79.739858
 11
135.392843
 21
-79.739858
  0
LINE
  8
型材断面
  6
CONTINUOUS
 62
    47
 10
135.392843
 20
-79.739858
 11
135.392843
 21
-49.739858
  0
LINE
  8
型材断面
  6
CONTINUOUS
 62
    47
 10
124.391393
 20
-48.239858
 11
136.892843
 21
-48.239858
  0
LINE
  8
型材断面
  6
CONTINUOUS
 62
    47
 10
146.992845
 20
-54.239858
 11
146.992845
 21
-56.239852
  0
LINE
  8
型材断面
  6
CONTINUOUS
 62
    47
 10
146.992845
 20
-54.239858
 11
136.892843
 21
-54.239858
  0
LINE
  8
型材断面
  6
CONTINUOUS
 62
    47
 10
136.892843
 20
-48.239858
 11
136.892843
 21
-54.239858
  0
LINE
  8
型材断面
  6
CONTINUOUS
 62
    47
 10
146.992845
 20
-56.239852
 11
136.892843
 21
-56.239852
  0
LINE
  8
型材断面
  6
CONTINUOUS
 62
    47
 10
136.892843
 20
-81.239858
 11
136.892843
 21
-56.239852
  0
LINE
  8
型材断面
  6
CONTINUOUS
 62
    47
 10
120.092843
 20
-46.239855
 11
120.092843
 21
-48.239858
  0
LINE
  8
型材断面
  6
CONTINUOUS
 62
    47
 10
120.092843
 20
-48.239858
 11
121.592843
 21
-48.239858
  0
LINE
  8
型材断面
  6
CONTINUOUS
 62
    47
 10
121.592843
 20
-47.289555
 11
121.592843
 21
-48.239858
  0
LINE
  8
型材断面
  6
CONTINUOUS
 62
    47
 10
126.391395
 20
-53.739855
 11
126.391395
 21
-52.239855
  0
LINE
  8
型材断面
  6
CONTINUOUS
 62
    47
 10
126.391395
 20
-53.739855
 11
122.891393
 21
-53.739855
  0
LINE
  8
型材断面
  6
CONTINUOUS
 62
    47
 10
122.891393
 20
-47.289555
 11
122.891393
 21
-53.739855
  0
LINE
  8
型材断面
  6
CONTINUOUS
 62
    47
 10
135.392843
 20
-49.739858
 11
124.391393
 21
-49.739858
  0
LINE
  8
型材断面
  6
CONTINUOUS
 62
    47
 10
124.391393
 20
-43.539855
 11
124.391393
 21
-48.239858
  0
LINE
  8
型材断面
  6
CONTINUOUS
 62
    47
 10
124.391393
 20
-49.739858
 11
124.391393
 21
-52.239855
  0
LINE
  8
型材断面
  6
CONTINUOUS
 62
    47
 10
126.391395
 20
-52.239855
 11
124.391393
 21
-52.239855
  0
ENDBLK
  0
BLOCK
  2
*GRP_0082
 70
    65
 10
0.0
 20
0.0
  0
LINE
  8
型材断面
  6
DOT
 10
135.392843
 20
-79.739858
 11
135.392843
 21
-81.239858
  0
LINE
  8
型材断面
  6
DOT
 10
127.39284
 20
-79.739858
 11
127.39284
 21
-81.239858
  0
LINE
  8
型材断面
  6
DOT
 10
127.39284
 20
-80.864858
 11
135.392843
 21
-80.864858
  0
LINE
  8
型材断面
  6
DOT
 10
127.39284
 20
-80.489858
 11
135.392843
 21
-80.489858
  0
LINE
  8
型材断面
  6
DOT
 10
127.39284
 20
-80.114858
 11
135.392843
 21
-80.114858
  0
ENDBLK
  0
BLOCK
  2
*GRP_0083
 70
    65
 10
0.0
 20
0.0
  0
ARC
  8
型材断面
  6
CONTINUOUS
 62
    47
 10
114.342842
 20
18.910213
 40
0.75
 50
180.0
 51
270.0
  0
LINE
  8
型材断面
  6
CONTINUOUS
 62
    47
 10
114.342848
 20
18.160253
 11
114.342848
 21
18.160253
  0
ARC
  8
型材断面
  6
CONTINUOUS
 62
    47
 10
114.342842
 20
18.910213
 40
0.75
 50
270.0
 51
360.0
  0
LINE
  8
型材断面
  6
CONTINUOUS
 62
    47
 10
108.5928
 20
24.160253
 11
113.592848
 21
24.160253
  0
LINE
  8
型材断面
  6
CONTINUOUS
 62
    47
 10
113.592848
 20
18.910253
 11
113.592848
 21
24.160253
  0
LINE
  8
型材断面
  6
CONTINUOUS
 62
    47
 10
115.092848
 20
18.910253
 11
115.092848
 21
26.160255
  0
LINE
  8
型材断面
  6
CONTINUOUS
 62
    47
 10
108.5928
 20
26.160255
 11
115.092848
 21
26.160255
  0
LINE
  8
型材断面
  6
CONTINUOUS
 62
    47
 10
108.5928
 20
26.160255
 11
108.5928
 21
59.160255
  0
LINE
  8
型材断面
  6
CONTINUOUS
 62
    47
 10
94.592798
 20
59.160255
 11
108.5928
 21
59.160255
  0
LINE
  8
型材断面
  6
CONTINUOUS
 62
    47
 10
94.592798
 20
59.160255
 11
94.592798
 21
57.1602
  0
ARC
  8
型材断面
  6
CONTINUOUS
 62
    47
 10
114.342842
 20
-29.589787
 40
0.75
 50
90.0
 51
180.0
  0
LINE
  8
型材断面
  6
CONTINUOUS
 62
    47
 10
114.342848
 20
-28.83975
 11
114.342848
 21
-28.83975
  0
ARC
  8
型材断面
  6
CONTINUOUS
 62
    47
 10
114.342842
 20
-29.589787
 40
0.75
 50
0.0
 51
90.0
  0
LINE
  8
型材断面
  6
CONTINUOUS
 62
    47
 10
113.592848
 20
-48.239797
 11
115.092848
 21
-48.239797
  0
LINE
  8
型材断面
  6
CONTINUOUS
 62
    47
 10
112.59285
 20
-45.7398
 11
113.592848
 21
-46.739797
  0
LINE
  8
型材断面
  6
CONTINUOUS
 62
    47
 10
113.592848
 20
-48.239797
 11
113.592848
 21
-46.739797
  0
LINE
  8
型材断面
  6
CONTINUOUS
 62
    47
 10
115.092848
 20
-29.58975
 11
115.092848
 21
-42.939795
  0
LINE
  8
型材断面
  6
CONTINUOUS
 62
    47
 10
115.092848
 20
-43.539795
 11
115.092848
 21
-48.239797
  0
LINE
  8
型材断面
  6
CONTINUOUS
 62
    47
 10
114.792848
 20
-43.239795
 11
115.092848
 21
-42.939795
  0
LINE
  8
型材断面
  6
CONTINUOUS
 62
    47
 10
114.792848
 20
-43.239795
 11
115.092848
 21
-43.539795
  0
LINE
  8
型材断面
  6
CONTINUOUS
 62
    47
 10
108.5928
 20
-39.7398
 11
112.59285
 21
-39.7398
  0
LINE
  8
型材断面
  6
CONTINUOUS
 62
    47
 10
112.59285
 20
-45.7398
 11
112.59285
 21
-39.7398
  0
LINE
  8
型材断面
  6
CONTINUOUS
 62
    47
 10
108.5928
 20
24.160253
 11
108.5928
 21
-37.739797
  0
LINE
  8
型材断面
  6
CONTINUOUS
 62
    47
 10
113.592848
 20
-29.58975
 11
113.592848
 21
-37.739797
  0
LINE
  8
型材断面
  6
CONTINUOUS
 62
    47
 10
108.5928
 20
-37.739797
 11
113.592848
 21
-37.739797
  0
LINE
  8
型材断面
  6
CONTINUOUS
 62
    47
 10
13.091295
 20
-56.339745
 11
17.591295
 21
-56.339745
  0
LINE
  8
型材断面
  6
CONTINUOUS
 62
    47
 10
108.5928
 20
-39.7398
 11
108.5928
 21
-56.339745
  0
LINE
  8
型材断面
  6
CONTINUOUS
 62
    47
 10
11.0913
 20
-58.3398
 11
11.0913
 21
-55.887248
  0
LINE
  8
型材断面
  6
CONTINUOUS
 62
    47
 10
11.0913
 20
-43.3398
 11
11.0913
 21
-46.739745
  0
LINE
  8
型材断面
  6
CONTINUOUS
 62
    47
 10
11.6913
 20
-47.339745
 11
11.0913
 21
-46.739745
  0
LINE
  8
型材断面
  6
CONTINUOUS
 62
    47
 10
11.6913
 20
-47.339745
 11
13.091295
 21
-47.339745
  0
LINE
  8
型材断面
  6
CONTINUOUS
 62
    47
 10
13.091295
 20
-44.8398
 11
13.091295
 21
-47.339745
  0
LINE
  8
型材断面
  6
CONTINUOUS
 62
    47
 10
11.6913
 20
-55.3398
 11
13.091295
 21
-55.3398
  0
LINE
  8
型材断面
  6
CONTINUOUS
 62
    47
 10
13.091295
 20
-56.392298
 11
13.091295
 21
-55.3398
  0
LINE
  8
型材断面
  6
CONTINUOUS
 62
    47
 10
11.6913
 20
-55.3398
 11
11.0913
 21
-55.9398
  0
LINE
  8
型材断面
  6
CONTINUOUS
 62
    47
 10
13.091295
 20
-44.8398
 11
17.591295
 21
-44.8398
  0
LINE
  8
型材断面
  6
CONTINUOUS
 62
    47
 10
17.591295
 20
-56.339745
 11
17.591295
 21
-44.8398
  0
LINE
  8
型材断面
  6
CONTINUOUS
 62
    47
 10
106.592798
 20
-19.83975
 11
106.592798
 21
-56.339745
  0
LINE
  8
型材断面
  6
CONTINUOUS
 62
    47
 10
94.592798
 20
57.1602
 11
106.592798
 21
57.1602
  0
LINE
  8
型材断面
  6
CONTINUOUS
 62
    47
 10
106.592798
 20
-18.33975
 11
106.592798
 21
57.1602
  0
LINE
  8
型材断面
  6
CONTINUOUS
 62
    47
 10
32.0928
 20
-56.339745
 11
32.0928
 21
-19.83975
  0
LINE
  8
型材断面
  6
CONTINUOUS
 62
    47
 10
106.592798
 20
-18.33975
 11
27.5928
 21
-18.33975
  0
LINE
  8
型材断面
  6
CONTINUOUS
 62
    47
 10
27.5928
 20
-18.33975
 11
27.5928
 21
-19.83975
  0
LINE
  8
型材断面
  6
CONTINUOUS
 62
    47
 10
30.5928
 20
-56.339745
 11
30.5928
 21
-19.83975
  0
LINE
  8
型材断面
  6
CONTINUOUS
 62
    47
 10
30.5928
 20
-19.83975
 11
27.5928
 21
-19.83975
  0
LINE
  8
型材断面
  6
CONTINUOUS
 62
    47
 10
102.5928
 20
-58.0398
 11
102.2928
 21
-58.3398
  0
LINE
  8
型材断面
  6
CONTINUOUS
 62
    47
 10
102.5928
 20
-58.0398
 11
102.8928
 21
-58.3398
  0
LINE
  8
型材断面
  6
CONTINUOUS
 62
    47
 10
102.8928
 20
-58.3398
 11
115.092848
 21
-58.3398
  0
LINE
  8
型材断面
  6
CONTINUOUS
 62
    47
 10
115.092848
 20
-57.33975
 11
115.092848
 21
-58.3398
  0
LINE
  8
型材断面
  6
CONTINUOUS
 62
    47
 10
108.5928
 20
-56.339745
 11
114.09285
 21
-56.339745
  0
LINE
  8
型材断面
  6
CONTINUOUS
 62
    47
 10
115.092848
 20
-57.33975
 11
114.09285
 21
-56.339745
  0
ARC
  8
型材断面
  6
CONTINUOUS
 62
    47
 10
26.621216
 20
-52.189969
 40
0.5
 50
149.998835
 51
227.160733
  0
LINE
  8
型材断面
  6
CONTINUOUS
 62
    47
 10
26.1882
 20
-51.939945
 11
26.443448
 21
-51.497895
  0
ARC
  8
型材断面
  6
CONTINUOUS
 62
    47
 10
26.876434
 20
-51.747936
 40
0.5
 50
49.52439
 51
149.998682
  0
ARC
  8
型材断面
  6
CONTINUOUS
 62
    47
 10
25.091342
 20
-53.839813
 40
1.75
 50
132.839267
 51
407.160733
  0
ARC
  8
型材断面
  6
CONTINUOUS
 62
    47
 10
23.561468
 20
-52.189969
 40
0.5
 50
-47.160734
 51
30.001165
  0
LINE
  8
型材断面
  6
CONTINUOUS
 62
    47
 10
23.994495
 20
-51.939945
 11
23.739248
 21
-51.497895
  0
ARC
  8
型材断面
  6
CONTINUOUS
 62
    47
 10
23.306251
 20
-51.747936
 40
0.5
 50
30.001318
 51
130.47561
  0
LINE
  8
型材断面
  6
CONTINUOUS
 62
    47
 10
21.919147
 20
-56.339745
 11
19.091295
 21
-56.339745
  0
ARC
  8
型材断面
  6
CONTINUOUS
 62
    47
 10
25.091342
 20
-53.839813
 40
3.25
 50
130.47561
 51
212.23005
  0
ARC
  8
型材断面
  6
CONTINUOUS
 62
    47
 10
21.919166
 20
-55.839763
 40
0.5
 50
-90.0
 51
32.230049
  0
LINE
  8
型材断面
  6
CONTINUOUS
 62
    47
 10
28.263547
 20
-56.339745
 11
30.5928
 21
-56.339745
  0
ARC
  8
型材断面
  6
CONTINUOUS
 62
    47
 10
25.091342
 20
-53.839813
 40
3.25
 50
327.76995
 51
409.52439
  0
ARC
  8
型材断面
  6
CONTINUOUS
 62
    47
 10
28.263518
 20
-55.839763
 40
0.5
 50
147.76995
 51
270.0
  0
ARC
  8
型材断面
  6
CONTINUOUS
 62
    47
 10
95.122666
 20
-52.189969
 40
0.5
 50
149.998835
 51
227.160733
  0
LINE
  8
型材断面
  6
CONTINUOUS
 62
    47
 10
94.689645
 20
-51.939945
 11
94.9449
 21
-51.497895
  0
ARC
  8
型材断面
  6
CONTINUOUS
 62
    47
 10
95.377884
 20
-51.747936
 40
0.5
 50
49.52439
 51
149.998682
  0
ARC
  8
型材断面
  6
CONTINUOUS
 62
    47
 10
93.592792
 20
-53.839813
 40
1.75
 50
132.839267
 51
407.160733
  0
ARC
  8
型材断面
  6
CONTINUOUS
 62
    47
 10
92.062918
 20
-52.189969
 40
0.5
 50
-47.160734
 51
30.001165
  0
LINE
  8
型材断面
  6
CONTINUOUS
 62
    47
 10
92.495947
 20
-51.939945
 11
92.2407
 21
-51.497895
  0
ARC
  8
型材断面
  6
CONTINUOUS
 62
    47
 10
91.807701
 20
-51.747936
 40
0.5
 50
30.001318
 51
130.47561
  0
LINE
  8
型材断面
  6
CONTINUOUS
 62
    47
 10
106.592798
 20
-56.339745
 11
96.765
 21
-56.339745
  0
ARC
  8
型材断面
  6
CONTINUOUS
 62
    47
 10
93.592792
 20
-53.839813
 40
3.25
 50
327.76995
 51
409.52439
  0
ARC
  8
型材断面
  6
CONTINUOUS
 62
    47
 10
96.764968
 20
-55.839763
 40
0.5
 50
147.769951
 51
270.0
  0
LINE
  8
型材断面
  6
CONTINUOUS
 62
    47
 10
90.4206
 20
-56.339745
 11
32.0928
 21
-56.339745
  0
ARC
  8
型材断面
  6
CONTINUOUS
 62
    47
 10
93.592792
 20
-53.839813
 40
3.25
 50
130.47561
 51
212.23005
  0
ARC
  8
型材断面
  6
CONTINUOUS
 62
    47
 10
90.420616
 20
-55.839763
 40
0.5
 50
-90.0
 51
32.23005
  0
LINE
  8
型材断面
  6
CONTINUOUS
 62
    47
 10
106.592798
 20
-19.83975
 11
96.765
 21
-19.83975
  0
ARC
  8
型材断面
  6
CONTINUOUS
 62
    47
 10
47.122666
 20
-23.989557
 40
0.5
 50
132.839267
 51
210.001165
  0
ARC
  8
型材断面
  6
CONTINUOUS
 62
    47
 10
45.592792
 20
-22.339713
 40
1.75
 50
312.839267
 51
587.160733
  0
ARC
  8
型材断面
  6
CONTINUOUS
 62
    47
 10
44.062918
 20
-23.989557
 40
0.5
 50
-30.001165
 51
47.160734
  0
LINE
  8
型材断面
  6
CONTINUOUS
 62
    47
 10
44.495947
 20
-24.23955
 11
44.2407
 21
-24.6816
  0
ARC
  8
型材断面
  6
CONTINUOUS
 62
    47
 10
43.807701
 20
-24.431589
 40
0.5
 50
229.52439
 51
329.998682
  0
LINE
  8
型材断面
  6
CONTINUOUS
 62
    47
 10
42.4206
 20
-19.83975
 11
32.0928
 21
-19.83975
  0
ARC
  8
型材断面
  6
CONTINUOUS
 62
    47
 10
45.592792
 20
-22.339713
 40
3.25
 50
147.76995
 51
229.52439
  0
ARC
  8
型材断面
  6
CONTINUOUS
 62
    47
 10
42.420616
 20
-20.339763
 40
0.5
 50
327.769951
 51
450.0
  0
LINE
  8
型材断面
  6
CONTINUOUS
 62
    47
 10
90.4206
 20
-19.83975
 11
48.765
 21
-19.83975
  0
ARC
  8
型材断面
  6
CONTINUOUS
 62
    47
 10
48.764968
 20
-20.339763
 40
0.5
 50
90.0
 51
212.23005
  0
LINE
  8
型材断面
  6
CONTINUOUS
 62
    47
 10
46.689645
 20
-24.23955
 11
47.036197
 21
-24.839745
  0
LINE
  8
型材断面
  6
CONTINUOUS
 62
    47
 10
47.036197
 20
-24.839745
 11
50.3928
 21
-24.839745
  0
LINE
  8
型材断面
  6
CONTINUOUS
 62
    47
 10
50.3928
 20
-24.839745
 11
50.3928
 21
-23.339745
  0
ARC
  8
型材断面
  6
CONTINUOUS
 62
    47
 10
45.592792
 20
-22.339713
 40
3.25
 50
342.078861
 51
392.230049
  0
LINE
  8
型材断面
  6
CONTINUOUS
 62
    47
 10
48.685095
 20
-23.339745
 11
50.3928
 21
-23.339745
  0
ARC
  8
型材断面
  6
CONTINUOUS
 62
    47
 10
92.062918
 20
-23.989557
 40
0.5
 50
329.998835
 51
407.160733
  0
ARC
  8
型材断面
  6
CONTINUOUS
 62
    47
 10
93.592792
 20
-22.339713
 40
1.75
 50
312.839267
 51
587.160733
  0
ARC
  8
型材断面
  6
CONTINUOUS
 62
    47
 10
95.122666
 20
-23.989557
 40
0.5
 50
132.839266
 51
210.001165
  0
LINE
  8
型材断面
  6
CONTINUOUS
 62
    47
 10
94.689645
 20
-24.23955
 11
94.9449
 21
-24.6816
  0
ARC
  8
型材断面
  6
CONTINUOUS
 62
    47
 10
95.377884
 20
-24.431589
 40
0.5
 50
210.001318
 51
310.47561
  0
ARC
  8
型材断面
  6
CONTINUOUS
 62
    47
 10
93.592792
 20
-22.339713
 40
3.25
 50
310.47561
 51
392.23005
  0
ARC
  8
型材断面
  6
CONTINUOUS
 62
    47
 10
96.764968
 20
-20.339763
 40
0.5
 50
90.0
 51
212.230049
  0
ARC
  8
型材断面
  6
CONTINUOUS
 62
    47
 10
90.420616
 20
-20.339763
 40
0.5
 50
-32.23005
 51
90.0
  0
LINE
  8
型材断面
  6
CONTINUOUS
 62
    47
 10
92.495947
 20
-24.23955
 11
92.149395
 21
-24.839745
  0
LINE
  8
型材断面
  6
CONTINUOUS
 62
    47
 10
92.149395
 20
-24.839745
 11
88.7928
 21
-24.839745
  0
LINE
  8
型材断面
  6
CONTINUOUS
 62
    47
 10
88.7928
 20
-24.839745
 11
88.7928
 21
-23.339745
  0
ARC
  8
型材断面
  6
CONTINUOUS
 62
    47
 10
93.592792
 20
-22.339713
 40
3.25
 50
147.769951
 51
197.921139
  0
LINE
  8
型材断面
  6
CONTINUOUS
 62
    47
 10
90.500497
 20
-23.339745
 11
88.7928
 21
-23.339745
  0
LINE
  8
型材断面
  6
CONTINUOUS
 62
    47
 10
19.091295
 20
-56.339745
 11
19.091295
 21
-43.3398
  0
LINE
  8
型材断面
  6
CONTINUOUS
 62
    47
 10
11.0913
 20
-43.3398
 11
19.091295
 21
-43.3398
  0
LINE
  8
型材断面
  6
CONTINUOUS
 62
    47
 10
34.092795
 20
-58.0398
 11
33.792795
 21
-58.3398
  0
LINE
  8
型材断面
  6
CONTINUOUS
 62
    47
 10
34.092795
 20
-58.0398
 11
34.392795
 21
-58.3398
  0
LINE
  8
型材断面
  6
CONTINUOUS
 62
    47
 10
99.792795
 20
-58.0398
 11
99.492795
 21
-58.3398
  0
LINE
  8
型材断面
  6
CONTINUOUS
 62
    47
 10
99.792795
 20
-58.0398
 11
100.092795
 21
-58.3398
  0
LINE
  8
型材断面
  6
CONTINUOUS
 62
    47
 10
100.092795
 20
-58.3398
 11
102.2928
 21
-58.3398
  0
LINE
  8
型材断面
  6
CONTINUOUS
 62
    47
 10
11.0913
 20
-58.3398
 11
33.792795
 21
-58.3398
  0
LINE
  8
型材断面
  6
CONTINUOUS
 62
    47
 10
34.392795
 20
-58.3398
 11
99.492795
 21
-58.3398
  0
ENDBLK
  0
BLOCK
  2
*GRP_0084
 70
    65
 10
0.0
 20
0.0
  0
SPLINE
  5
1400000
100
AcDbEntity
  8
ガラス
100
AcDbSpline
  6
CONTINUOUS
 70
     0
 71
     3
 74
     3
 44
0.0
 11
137.101875
 21
-84.298327
 11
135.54741
 21
-83.351415
 11
134.972558
 21
-81.772763
  0
SPLINE
  5
1400001
100
AcDbEntity
  8
ガラス
100
AcDbSpline
  6
CONTINUOUS
 70
     0
 71
     3
 74
     3
 44
0.0
 11
134.972558
 21
-81.772763
 11
136.211715
 21
-82.224187
 11
137.33079
 21
-82.401825
  0
ARC
  8
ガラス
  6
CONTINUOUS
 10
137.216327
 20
-83.35008
 40
0.955135
 50
263.117442
 51
443.117442
  0
ENDBLK
  0
BLOCK
  2
*GRP_0085
 70
    65
 10
0.0
 20
0.0
  0
SPLINE
  5
1400002
100
AcDbEntity
  8
ガラス
100
AcDbSpline
  6
CONTINUOUS
 70
     0
 71
     3
 74
     3
 44
0.0
 11
132.697125
 21
-71.367315
 11
132.767025
 21
-69.548498
 11
133.86579
 21
-68.277555
  0
SPLINE
  5
1400003
100
AcDbEntity
  8
ガラス
100
AcDbSpline
  6
CONTINUOUS
 70
     0
 71
     3
 74
     3
 44
0.0
 11
133.86579
 21
-68.277555
 11
134.075055
 21
-69.57966
 11
134.464972
 21
-70.643542
  0
ARC
  8
ガラス
  6
CONTINUOUS
 10
133.581046
 20
-71.005435
 40
0.955135
 50
202.264587
 51
382.264587
  0
ENDBLK
  0
BLOCK
  2
*GRP_0086
 70
    65
 10
0.0
 20
0.0
  0
SPLINE
  5
1400004
100
AcDbEntity
  8
ガラス
100
AcDbSpline
  6
CONTINUOUS
 70
     0
 71
     3
 74
     3
 44
0.0
 11
124.160295
 21
-66.549345
 11
122.605838
 21
-65.602425
 11
122.030985
 21
-64.02378
  0
SPLINE
  5
1400005
100
AcDbEntity
  8
ガラス
100
AcDbSpline
  6
CONTINUOUS
 70
     0
 71
     3
 74
     3
 44
0.0
 11
122.030985
 21
-64.02378
 11
123.270142
 21
-64.475212
 11
124.38921
 21
-64.652843
  0
ARC
  8
ガラス
  6
CONTINUOUS
 10
124.274754
 20
-65.601097
 40
0.955135
 50
263.117442
 51
443.117442
  0
ENDBLK
  0
BLOCK
  2
*GRP_0087
 70
    65
 10
0.0
 20
0.0
  0
SPLINE
  5
1400006
100
AcDbEntity
  8
ガラス
100
AcDbSpline
  6
CONTINUOUS
 70
     0
 71
     3
 74
     3
 44
0.0
 11
104.54001
 21
-24.456682
 11
104.609917
 21
-22.637865
 11
105.708675
 21
-21.366922
  0
SPLINE
  5
1400007
100
AcDbEntity
  8
ガラス
100
AcDbSpline
  6
CONTINUOUS
 70
     0
 71
     3
 74
     3
 44
0.0
 11
105.708675
 21
-21.366922
 11
105.917948
 21
-22.66902
 11
106.307865
 21
-23.73291
  0
ARC
  8
ガラス
  6
CONTINUOUS
 10
105.423935
 20
-24.0948
 40
0.955135
 50
202.264587
 51
382.264587
  0
ENDBLK
  0
BLOCK
  2
*GRP_0088
 70
    65
 10
0.0
 20
0.0
  0
SPLINE
  5
1400008
100
AcDbEntity
  8
ガラス
100
AcDbSpline
  6
CONTINUOUS
 70
     0
 71
     3
 74
     3
 44
0.0
 11
104.540018
 21
-39.297952
 11
104.60991
 21
-37.479135
 11
105.708675
 21
-36.208185
  0
SPLINE
  5
1400009
100
AcDbEntity
  8
ガラス
100
AcDbSpline
  6
CONTINUOUS
 70
     0
 71
     3
 74
     3
 44
0.0
 11
105.708675
 21
-36.208185
 11
105.917948
 21
-37.510297
 11
106.307872
 21
-38.57418
  0
ARC
  8
ガラス
  6
CONTINUOUS
 10
105.423935
 20
-38.93607
 40
0.955135
 50
202.264587
 51
382.264587
  0
ENDBLK
  0
BLOCK
  2
*GRP_0089
 70
    65
 10
0.0
 20
0.0
  0
SPLINE
  5
1400010
100
AcDbEntity
  8
ガラス
100
AcDbSpline
  6
CONTINUOUS
 70
     0
 71
     3
 74
     3
 44
0.0
 11
104.540018
 21
-52.684192
 11
104.609917
 21
-50.865375
 11
105.708675
 21
-49.594433
  0
SPLINE
  5
1400011
100
AcDbEntity
  8
ガラス
100
AcDbSpline
  6
CONTINUOUS
 70
     0
 71
     3
 74
     3
 44
0.0
 11
105.708675
 21
-49.594433
 11
105.917948
 21
-50.896537
 11
106.307865
 21
-51.960427
  0
ARC
  8
ガラス
  6
CONTINUOUS
 10
105.423935
 20
-52.322313
 40
0.955135
 50
202.264587
 51
382.264587
  0
ENDBLK
  0
BLOCK
  2
*GRP_0090
 70
    65
 10
0.0
 20
0.0
  0
SPLINE
  5
1400012
100
AcDbEntity
  8
ガラス
100
AcDbSpline
  6
CONTINUOUS
 70
     0
 71
     3
 74
     3
 44
0.0
 11
108.656265
 21
-62.601368
 11
107.1018
 21
-61.654455
 11
106.526947
 21
-60.07581
  0
SPLINE
  5
1400013
100
AcDbEntity
  8
ガラス
100
AcDbSpline
  6
CONTINUOUS
 70
     0
 71
     3
 74
     3
 44
0.0
 11
106.526947
 21
-60.07581
 11
107.766098
 21
-60.527228
 11
108.88518
 21
-60.704857
  0
ARC
  8
ガラス
  6
CONTINUOUS
 10
108.770718
 20
-61.653117
 40
0.955135
 50
263.117442
 51
443.117442
  0
ENDBLK
  0
BLOCK
  2
*GRP_0091
 70
    65
 10
0.0
 20
0.0
  0
SPLINE
  5
1400014
100
AcDbEntity
  8
ガラス
100
AcDbSpline
  6
CONTINUOUS
 70
     0
 71
     3
 74
     3
 44
0.0
 11
104.707665
 21
11.960602
 11
104.777572
 21
13.77942
 11
105.87633
 21
15.050362
  0
SPLINE
  5
1400015
100
AcDbEntity
  8
ガラス
100
AcDbSpline
  6
CONTINUOUS
 70
     0
 71
     3
 74
     3
 44
0.0
 11
105.87633
 21
15.050362
 11
106.085602
 21
13.74825
 11
106.47552
 21
12.68436
  0
ARC
  8
ガラス
  6
CONTINUOUS
 10
105.59159
 20
12.322476
 40
0.955135
 50
202.264587
 51
382.264587
  0
ENDBLK
  0
BLOCK
  2
*GRP_0092
 70
    65
 10
0.0
 20
0.0
  0
SPLINE
  5
1400016
100
AcDbEntity
  8
ガラス
100
AcDbSpline
  6
CONTINUOUS
 70
     0
 71
     3
 74
     3
 44
0.0
 11
104.707673
 21
-8.758987
 11
104.777572
 21
-6.940163
 11
105.87633
 21
-5.669212
  0
SPLINE
  5
1400017
100
AcDbEntity
  8
ガラス
100
AcDbSpline
  6
CONTINUOUS
 70
     0
 71
     3
 74
     3
 44
0.0
 11
105.87633
 21
-5.669212
 11
106.085602
 21
-6.971332
 11
106.47552
 21
-8.035215
  0
ARC
  8
ガラス
  6
CONTINUOUS
 10
105.59159
 20
-8.397101
 40
0.955135
 50
202.264587
 51
382.264587
  0
ENDBLK
  0
BLOCK
  2
*GRP_0093
 70
    65
 10
0.0
 20
0.0
  0
LINE
  8
ゴム等
  6
DOT
 10
27.491347
 20
-65.8398
 11
27.99135
 21
-63.339803
  0
LINE
  8
ゴム等
  6
DOT
 10
22.191345
 20
-63.339803
 11
22.691347
 21
-65.8398
  0
LINE
  8
ゴム等
  6
DOT
 10
20.091345
 20
-58.3398
 11
20.091345
 21
-63.339803
  0
LINE
  8
ゴム等
  6
DOT
 10
30.09135
 20
-58.3398
 11
30.09135
 21
-63.339803
  0
LINE
  8
ゴム等
  6
DOT
 10
27.491347
 20
-65.8398
 11
22.691347
 21
-65.8398
  0
LINE
  8
ゴム等
  6
DOT
 10
20.091345
 20
-63.339803
 11
22.191345
 21
-63.339803
  0
LINE
  8
ゴム等
  6
DOT
 10
27.99135
 20
-63.339803
 11
30.09135
 21
-63.339803
  0
LINE
  8
ゴム等
  6
DOT
 10
25.091347
 20
-58.839803
 11
24.591345
 21
-58.3398
  0
LINE
  8
ゴム等
  6
DOT
 10
25.091347
 20
-58.839803
 11
25.59135
 21
-58.3398
  0
LINE
  8
ゴム等
  6
DOT
 10
30.09135
 20
-58.3398
 11
25.59135
 21
-58.3398
  0
LINE
  8
ゴム等
  6
DOT
 10
24.591345
 20
-58.3398
 11
20.091345
 21
-58.3398
  0
INSERT
  2
*HAT_0003
  8
ゴム等
 10
0.0
 20
0.0
  0
ENDBLK
  0
BLOCK
  2
*GRP_0094
 70
    65
 10
0.0
 20
0.0
  0
LINE
  8
ゴム等
  6
DOT
 10
122.592848
 20
-45.639855
 11
120.09285
 21
-46.13985
  0
LINE
  8
ゴム等
  6
DOT
 10
120.09285
 20
-40.339852
 11
122.592848
 21
-40.839855
  0
LINE
  8
ゴム等
  6
DOT
 10
115.092848
 20
-38.239852
 11
120.09285
 21
-38.239852
  0
LINE
  8
ゴム等
  6
DOT
 10
115.092848
 20
-48.23985
 11
120.09285
 21
-48.23985
  0
LINE
  8
ゴム等
  6
DOT
 10
122.592848
 20
-45.639855
 11
122.592848
 21
-40.839855
  0
LINE
  8
ゴム等
  6
DOT
 10
120.09285
 20
-38.239852
 11
120.09285
 21
-40.339852
  0
LINE
  8
ゴム等
  6
DOT
 10
120.09285
 20
-46.13985
 11
120.09285
 21
-48.23985
  0
LINE
  8
ゴム等
  6
DOT
 10
115.59285
 20
-43.239855
 11
115.092848
 21
-42.739852
  0
LINE
  8
ゴム等
  6
DOT
 10
115.59285
 20
-43.239855
 11
115.092848
 21
-43.73985
  0
LINE
  8
ゴム等
  6
DOT
 10
115.092848
 20
-48.23985
 11
115.092848
 21
-43.73985
  0
LINE
  8
ゴム等
  6
DOT
 10
115.092848
 20
-42.739852
 11
115.092848
 21
-38.239852
  0
INSERT
  2
*HAT_0004
  8
ゴム等
 10
0.0
 20
0.0
  0
ENDBLK
  0
BLOCK
  2
*GRP_0095
 70
    65
 10
0.0
 20
0.0
  0
LINE
  8
ゴム等
  6
CONTINUOUS
 10
11.091315
 20
-47.33979
 11
11.091315
 21
-43.339793
  0
LINE
  8
ゴム等
  6
CONTINUOUS
 10
17.091315
 20
-47.33979
 11
17.091315
 21
-55.339793
  0
LINE
  8
ゴム等
  6
CONTINUOUS
 10
11.091315
 20
-55.339793
 11
13.29132
 21
-55.339793
  0
LINE
  8
ゴム等
  6
CONTINUOUS
 10
11.091315
 20
-47.33979
 11
13.29132
 21
-47.33979
  0
LINE
  8
ゴム等
  6
CONTINUOUS
 10
11.091315
 20
-55.339793
 11
11.091315
 21
-57.339795
  0
ARC
  8
ゴム等
  6
CONTINUOUS
 10
12.091321
 20
-50.839782
 40
1.0
 50
90.0
 51
180.0
  0
LINE
  8
ゴム等
  6
CONTINUOUS
 10
14.591317
 20
-49.839795
 11
12.09132
 21
-49.839795
  0
ARC
  8
ゴム等
  6
CONTINUOUS
 10
14.591321
 20
-50.839782
 40
1.0
 50
0.0
 51
90.0
  0
LINE
  8
ゴム等
  6
CONTINUOUS
 10
15.591315
 20
-50.839793
 11
15.591315
 21
-51.83979
  0
ARC
  8
ゴム等
  6
CONTINUOUS
 10
14.591321
 20
-51.839782
 40
1.0
 50
-90.0
 51
0.0
  0
LINE
  8
ゴム等
  6
CONTINUOUS
 10
14.591317
 20
-52.839795
 11
12.09132
 21
-52.839795
  0
LINE
  8
ゴム等
  6
CONTINUOUS
 10
11.091315
 20
-50.839793
 11
11.091315
 21
-51.83979
  0
ARC
  8
ゴム等
  6
CONTINUOUS
 10
12.091321
 20
-51.839782
 40
1.0
 50
180.0
 51
270.0
  0
LINE
  8
ゴム等
  6
CONTINUOUS
 10
8.891317
 20
-43.339793
 11
11.091315
 21
-43.339793
  0
ARC
  8
ゴム等
  6
CONTINUOUS
 10
8.891321
 20
-45.339782
 40
2.0
 50
90.0
 51
180.0
  0
LINE
  8
ゴム等
  6
CONTINUOUS
 10
6.891315
 20
-45.339795
 11
6.891315
 21
-58.839795
  0
ARC
  8
ゴム等
  6
CONTINUOUS
 10
7.891321
 20
-58.839782
 40
1.0
 50
180.0
 51
270.0
  0
LINE
  8
ゴム等
  6
CONTINUOUS
 10
17.091315
 20
-47.33979
 11
13.886108
 21
-46.598858
  0
ARC
  8
ゴム等
  6
CONTINUOUS
 10
13.791321
 20
-47.089782
 40
0.5
 50
79.071863
 51
180.0
  0
LINE
  8
ゴム等
  6
CONTINUOUS
 10
13.29132
 20
-47.33979
 11
13.29132
 21
-47.089793
  0
LINE
  8
ゴム等
  6
CONTINUOUS
 10
17.091315
 20
-55.339793
 11
13.886108
 21
-56.080725
  0
ARC
  8
ゴム等
  6
CONTINUOUS
 10
13.791321
 20
-55.589782
 40
0.5
 50
180.0
 51
280.928137
  0
LINE
  8
ゴム等
  6
CONTINUOUS
 10
13.29132
 20
-55.339793
 11
13.29132
 21
-55.58979
  0
LINE
  8
ゴム等
  6
CONTINUOUS
 10
7.89132
 20
-59.839793
 11
8.591317
 21
-59.839793
  0
LINE
  8
ゴム等
  6
CONTINUOUS
 10
8.591317
 20
-59.839793
 11
8.291317
 21
-57.339795
  0
LINE
  8
ゴム等
  6
CONTINUOUS
 10
11.091315
 20
-57.339795
 11
8.291317
 21
-57.339795
  0
INSERT
  2
*HAT_0005
  8
ゴム等
 10
0.0
 20
0.0
  0
ENDBLK
  0
BLOCK
  2
*GRP_0096
 70
    65
 10
0.0
 20
0.0
  0
LINE
  8
ゴム等
  6
CONTINUOUS
 10
17.3928
 20
-70.69467
 11
17.3928
 21
-65.694668
  0
LINE
  8
ゴム等
  6
CONTINUOUS
 10
15.392798
 20
-65.694668
 11
13.892798
 21
-65.694668
  0
LINE
  8
ゴム等
  6
CONTINUOUS
 10
15.392798
 20
-70.69467
 11
13.892798
 21
-70.69467
  0
LINE
  8
ゴム等
  6
CONTINUOUS
 10
13.892798
 20
-74.694668
 11
13.892798
 21
-70.69467
  0
LINE
  8
ゴム等
  6
CONTINUOUS
 10
13.892798
 20
-65.694668
 11
13.892798
 21
-59.694668
  0
LINE
  8
ゴム等
  6
CONTINUOUS
 10
13.892798
 20
-59.694668
 11
10.892798
 21
-59.694668
  0
LINE
  8
ゴム等
  6
CONTINUOUS
 10
10.892798
 20
-57.694665
 11
10.892798
 21
-59.694668
  0
LINE
  8
ゴム等
  6
CONTINUOUS
 10
10.892798
 20
-57.694665
 11
8.3928
 21
-57.694665
  0
ARC
  8
ゴム等
  6
CONTINUOUS
 10
19.6428
 20
-68.694657
 40
12.75
 50
151.927513
 51
208.072487
  0
LINE
  8
ゴム等
  6
CONTINUOUS
 10
8.3928
 20
-57.694665
 11
8.3928
 21
-62.694668
  0
LINE
  8
ゴム等
  6
CONTINUOUS
 10
13.892798
 20
-74.694668
 11
8.3928
 21
-74.694668
  0
LINE
  8
ゴム等
  6
CONTINUOUS
 10
17.3928
 20
-65.694668
 11
16.196505
 21
-64.7946
  0
ARC
  8
ゴム等
  6
CONTINUOUS
 10
15.8928
 20
-65.194657
 40
0.5
 50
52.618449
 51
180.0
  0
LINE
  8
ゴム等
  6
CONTINUOUS
 10
15.392798
 20
-65.694668
 11
15.392798
 21
-65.194665
  0
LINE
  8
ゴム等
  6
CONTINUOUS
 10
17.3928
 20
-70.69467
 11
16.196505
 21
-71.59473
  0
ARC
  8
ゴム等
  6
CONTINUOUS
 10
15.8928
 20
-71.194657
 40
0.5
 50
180.0
 51
307.381551
  0
LINE
  8
ゴム等
  6
CONTINUOUS
 10
15.392798
 20
-70.69467
 11
15.392798
 21
-71.194665
  0
INSERT
  2
*HAT_0006
  8
ゴム等
 10
0.0
 20
0.0
  0
ENDBLK
  0
BLOCK
  2
*GRP_0097
 70
    65
 10
0.0
 20
0.0
  0
LINE
  8
ボルト／ビス
  6
CONTINUOUS
 10
21.591352
 20
-56.339797
 11
21.683055
 21
-55.291635
  0
ARC
  8
ボルト／ビス
  6
CONTINUOUS
 10
23.376591
 20
-55.439799
 40
1.7
 50
90.0
 51
175.000011
  0
LINE
  8
ボルト／ビス
  6
CONTINUOUS
 10
23.376585
 20
-53.739795
 11
25.091347
 21
-53.739795
  0
LINE
  8
ボルト／ビス
  6
CONTINUOUS
 10
28.59135
 20
-56.339797
 11
28.499647
 21
-55.291635
  0
ARC
  8
ボルト／ビス
  6
CONTINUOUS
 10
26.806124
 20
-55.439799
 40
1.7
 50
4.999989
 51
90.0
  0
LINE
  8
ボルト／ビス
  6
CONTINUOUS
 10
26.806118
 20
-53.739795
 11
25.091347
 21
-53.739795
  0
LINE
  8
ボルト／ビス
  6
CONTINUOUS
 10
22.694708
 20
-54.124702
 11
22.694708
 21
-53.882543
  0
LINE
  8
ボルト／ビス
  6
CONTINUOUS
 10
24.39135
 20
-54.774788
 11
25.091347
 21
-54.774788
  0
LINE
  8
ボルト／ビス
  6
CONTINUOUS
 10
23.991352
 20
-54.124702
 11
22.694708
 21
-54.124702
  0
LINE
  8
ボルト／ビス
  6
CONTINUOUS
 10
24.39135
 20
-54.774788
 11
24.39135
 21
-54.5247
  0
ARC
  8
ボルト／ビス
  6
CONTINUOUS
 10
23.991358
 20
-54.524704
 40
0.4
 50
0.0
 51
90.0
  0
LINE
  8
ボルト／ビス
  6
CONTINUOUS
 10
27.487988
 20
-54.124702
 11
27.487988
 21
-53.882543
  0
LINE
  8
ボルト／ビス
  6
CONTINUOUS
 10
25.791352
 20
-54.774788
 11
25.091347
 21
-54.774788
  0
LINE
  8
ボルト／ビス
  6
CONTINUOUS
 10
26.19135
 20
-54.124702
 11
27.487988
 21
-54.124702
  0
LINE
  8
ボルト／ビス
  6
CONTINUOUS
 10
25.791352
 20
-54.774788
 11
25.791352
 21
-54.5247
  0
ARC
  8
ボルト／ビス
  6
CONTINUOUS
 10
26.191358
 20
-54.524704
 40
0.4
 50
90.0
 51
180.0
  0
LINE
  8
ボルト／ビス
  6
CONTINUOUS
 10
21.591352
 20
-56.339797
 11
28.59135
 21
-56.339797
  0
LINE
  8
ボルト／ビス
  6
CONTINUOUS
 10
25.091347
 20
-51.768412
 11
25.091347
 21
-71.983072
  0
LINE
  8
ボルト／ビス
  6
CONTINUOUS
 10
23.091352
 20
-69.839797
 11
23.591347
 21
-70.3398
  0
LINE
  8
ボルト／ビス
  6
CONTINUOUS
 10
27.09135
 20
-69.839797
 11
26.591347
 21
-70.3398
  0
LINE
  8
ボルト／ビス
  6
CONTINUOUS
 10
23.091352
 20
-69.839797
 11
27.09135
 21
-69.839797
  0
LINE
  8
ボルト／ビス
  6
CONTINUOUS
 10
23.591347
 20
-70.3398
 11
26.591347
 21
-70.3398
  0
LINE
  8
ボルト／ビス
  6
CONTINUOUS
 10
27.09135
 20
-56.339797
 11
27.09135
 21
-69.839797
  0
LINE
  8
ボルト／ビス
  6
CONTINUOUS
 10
23.091352
 20
-56.339797
 11
23.091352
 21
-69.839797
  0
LINE
  8
ボルト／ビス
  6
CONTINUOUS
 10
23.591347
 20
-56.339797
 11
23.591347
 21
-70.3398
  0
LINE
  8
ボルト／ビス
  6
CONTINUOUS
 10
26.591347
 20
-56.339797
 11
26.591347
 21
-70.3398
  0
ENDBLK
  0
BLOCK
  2
*GRP_0098
 70
    65
 10
0.0
 20
0.0
  0
LINE
  8
ボルト／ビス
  6
CONTINUOUS
 10
124.391393
 20
-46.73985
 11
125.439555
 21
-46.648147
  0
ARC
  8
ボルト／ビス
  6
CONTINUOUS
 10
125.291396
 20
-44.954628
 40
1.7
 50
274.999989
 51
360.0
  0
LINE
  8
ボルト／ビス
  6
CONTINUOUS
 10
126.991395
 20
-44.954618
 11
126.991395
 21
-43.239855
  0
LINE
  8
ボルト／ビス
  6
CONTINUOUS
 10
124.391393
 20
-39.739852
 11
125.439555
 21
-39.831555
  0
ARC
  8
ボルト／ビス
  6
CONTINUOUS
 10
125.291396
 20
-41.525095
 40
1.7
 50
0.0
 51
85.000011
  0
LINE
  8
ボルト／ビス
  6
CONTINUOUS
 10
126.991395
 20
-41.525085
 11
126.991395
 21
-43.239855
  0
LINE
  8
ボルト／ビス
  6
CONTINUOUS
 10
126.606488
 20
-45.636495
 11
126.848647
 21
-45.636495
  0
LINE
  8
ボルト／ビス
  6
CONTINUOUS
 10
125.956402
 20
-43.939852
 11
125.956402
 21
-43.239855
  0
LINE
  8
ボルト／ビス
  6
CONTINUOUS
 10
126.606488
 20
-44.33985
 11
126.606488
 21
-45.636495
  0
LINE
  8
ボルト／ビス
  6
CONTINUOUS
 10
125.956402
 20
-43.939852
 11
126.20649
 21
-43.939852
  0
ARC
  8
ボルト／ビス
  6
CONTINUOUS
 10
126.206491
 20
-44.339862
 40
0.4
 50
0.0
 51
90.0
  0
LINE
  8
ボルト／ビス
  6
CONTINUOUS
 10
126.606488
 20
-40.843215
 11
126.848647
 21
-40.843215
  0
LINE
  8
ボルト／ビス
  6
CONTINUOUS
 10
125.956402
 20
-42.53985
 11
125.956402
 21
-43.239855
  0
LINE
  8
ボルト／ビス
  6
CONTINUOUS
 10
126.606488
 20
-42.139852
 11
126.606488
 21
-40.843215
  0
LINE
  8
ボルト／ビス
  6
CONTINUOUS
 10
125.956402
 20
-42.53985
 11
126.20649
 21
-42.53985
  0
ARC
  8
ボルト／ビス
  6
CONTINUOUS
 10
126.206491
 20
-42.139862
 40
0.4
 50
270.0
 51
360.0
  0
LINE
  8
ボルト／ビス
  6
CONTINUOUS
 10
124.391393
 20
-46.73985
 11
124.391393
 21
-39.739852
  0
LINE
  8
ボルト／ビス
  6
CONTINUOUS
 10
128.962778
 20
-43.239855
 11
108.748118
 21
-43.239855
  0
LINE
  8
ボルト／ビス
  6
CONTINUOUS
 10
110.891393
 20
-45.23985
 11
110.39139
 21
-44.739855
  0
LINE
  8
ボルト／ビス
  6
CONTINUOUS
 10
110.891393
 20
-41.239852
 11
110.39139
 21
-41.739855
  0
LINE
  8
ボルト／ビス
  6
CONTINUOUS
 10
110.891393
 20
-45.23985
 11
110.891393
 21
-41.239852
  0
LINE
  8
ボルト／ビス
  6
CONTINUOUS
 10
110.39139
 20
-44.739855
 11
110.39139
 21
-41.739855
  0
LINE
  8
ボルト／ビス
  6
CONTINUOUS
 10
124.391393
 20
-41.239852
 11
110.891393
 21
-41.239852
  0
LINE
  8
ボルト／ビス
  6
CONTINUOUS
 10
124.391393
 20
-45.23985
 11
110.891393
 21
-45.23985
  0
LINE
  8
ボルト／ビス
  6
CONTINUOUS
 10
124.391393
 20
-44.739855
 11
110.39139
 21
-44.739855
  0
LINE
  8
ボルト／ビス
  6
CONTINUOUS
 10
124.391393
 20
-41.739855
 11
110.39139
 21
-41.739855
  0
ENDBLK
  0
BLOCK
  2
*GRP_0099
 70
    65
 10
0.0
 20
0.0
  0
INSERT
  2
*GRP_0102
  8
文字
  6
DOT
 10
0.0
 20
0.0
  0
INSERT
  2
*GRP_0103
  8
文字
  6
DOT
 10
0.0
 20
0.0
  0
INSERT
  2
*GRP_0104
  8
その他部品等
  6
CONTINUOUS
 10
0.0
 20
0.0
  0
INSERT
  2
*GRP_0105
  8
その他部品等
  6
CONTINUOUS
 10
0.0
 20
0.0
  0
INSERT
  2
*GRP_0106
  8
その他部品等
  6
CONTINUOUS
 10
0.0
 20
0.0
  0
ENDBLK
  0
BLOCK
  2
*GRP_0100
 70
    65
 10
0.0
 20
0.0
  0
LINE
  8
別途部材
  6
DOT
 10
125.392845
 20
-69.73986
 11
125.392845
 21
-79.739858
  0
LINE
  8
別途部材
  6
DOT
 10
135.392843
 20
-79.739858
 11
125.392845
 21
-79.739858
  0
INSERT
  2
*HAT_0007
  8
別途部材
 10
0.0
 20
0.0
  0
LINE
  8
別途部材
  6
DOT
 10
135.392843
 20
-69.73986
 11
125.392845
 21
-69.73986
  0
LINE
  8
別途部材
  6
DOT
 10
135.392843
 20
-69.73986
 11
135.392843
 21
-79.739858
  0
ENDBLK
  0
BLOCK
  2
*GRP_0101
 70
    65
 10
0.0
 20
0.0
  0
LINE
  8
St
  6
CONTINUOUS
 62
   127
 10
90.092805
 20
-23.03973
 11
90.092798
 21
-19.839735
  0
LINE
  8
St
  6
CONTINUOUS
 62
   127
 10
49.09272
 20
-23.03973
 11
49.092728
 21
-19.839735
  0
LINE
  8
St
  6
CONTINUOUS
 62
   127
 10
90.092805
 20
-23.03973
 11
49.09272
 21
-23.03973
  0
LINE
  8
St
  6
CONTINUOUS
 62
   127
 10
76.864072
 20
-19.839735
 11
80.064068
 21
-23.03973
  0
LINE
  8
St
  6
CONTINUOUS
 62
   127
 10
76.156972
 20
-19.839735
 11
79.356968
 21
-23.03973
  0
LINE
  8
St
  6
CONTINUOUS
 62
   127
 10
50.381287
 20
-19.839735
 11
53.581283
 21
-23.03973
  0
LINE
  8
St
  6
CONTINUOUS
 62
   127
 10
49.674187
 20
-19.839735
 11
52.874182
 21
-23.03973
  0
ENDBLK
  0
BLOCK
  2
*GRP_0102
 70
    65
 10
0.0
 20
0.0
  0
INSERT
  2
*GRP_0107
  8
別途部材
  6
CONTINUOUS
 10
0.0
 20
0.0
  0
INSERT
  2
*GRP_0108
  8
別途部材
  6
CONTINUOUS
 10
0.0
 20
0.0
  0
ENDBLK
  0
BLOCK
  2
*GRP_0103
 70
    65
 10
0.0
 20
0.0
  0
INSERT
  2
*GRP_0109
  8
別途部材
  6
CONTINUOUS
 10
0.0
 20
0.0
  0
INSERT
  2
*GRP_0110
  8
別途部材
  6
CONTINUOUS
 10
0.0
 20
0.0
  0
ENDBLK
  0
BLOCK
  2
*GRP_0104
 70
    65
 10
0.0
 20
0.0
  0
LINE
  8
ボルト／ビス
  6
CONTINUOUS
 10
58.792792
 20
-10.344165
 11
60.292792
 21
-12.644168
  0
LINE
  8
ボルト／ビス
  6
CONTINUOUS
 10
66.792795
 20
-10.344165
 11
65.292795
 21
-12.644168
  0
LINE
  8
ボルト／ビス
  6
CONTINUOUS
 10
58.792792
 20
-10.344165
 11
66.792795
 21
-10.344165
  0
LINE
  8
ボルト／ビス
  6
CONTINUOUS
 10
60.292792
 20
-12.644168
 11
65.292795
 21
-12.644168
  0
LINE
  8
ボルト／ビス
  6
CONTINUOUS
 10
60.292792
 20
-29.844165
 11
60.792795
 21
-30.344168
  0
LINE
  8
ボルト／ビス
  6
CONTINUOUS
 10
65.292795
 20
-29.844165
 11
64.792792
 21
-30.344168
  0
LINE
  8
ボルト／ビス
  6
CONTINUOUS
 10
64.792792
 20
-30.344168
 11
60.792795
 21
-30.344168
  0
LINE
  8
ボルト／ビス
  6
CONTINUOUS
 10
65.292795
 20
-29.844165
 11
60.292792
 21
-29.844165
  0
LINE
  8
ボルト／ビス
  6
CONTINUOUS
 10
60.792795
 20
-12.644168
 11
60.792795
 21
-30.344168
  0
LINE
  8
ボルト／ビス
  6
CONTINUOUS
 10
60.292792
 20
-12.644168
 11
60.292792
 21
-29.844165
  0
LINE
  8
ボルト／ビス
  6
CONTINUOUS
 10
64.792792
 20
-12.644168
 11
64.792792
 21
-30.344168
  0
LINE
  8
ボルト／ビス
  6
CONTINUOUS
 10
65.292795
 20
-12.644168
 11
65.292795
 21
-29.844165
  0
LINE
  8
ボルト／ビス
  6
CONTINUOUS
 10
62.792798
 20
-7.958962
 11
62.792798
 21
-30.344168
  0
ENDBLK
  0
BLOCK
  2
*GRP_0105
 70
    65
 10
0.0
 20
0.0
  0
LINE
  8
ボルト／ビス
  6
CONTINUOUS
 10
68.292795
 20
-10.344165
 11
69.792795
 21
-12.644168
  0
LINE
  8
ボルト／ビス
  6
CONTINUOUS
 10
76.292798
 20
-10.344165
 11
74.792798
 21
-12.644168
  0
LINE
  8
ボルト／ビス
  6
CONTINUOUS
 10
68.292795
 20
-10.344165
 11
76.292798
 21
-10.344165
  0
LINE
  8
ボルト／ビス
  6
CONTINUOUS
 10
69.792795
 20
-12.644168
 11
74.792798
 21
-12.644168
  0
LINE
  8
ボルト／ビス
  6
CONTINUOUS
 10
69.792795
 20
-29.844165
 11
70.292798
 21
-30.344168
  0
LINE
  8
ボルト／ビス
  6
CONTINUOUS
 10
74.792798
 20
-29.844165
 11
74.292795
 21
-30.344168
  0
LINE
  8
ボルト／ビス
  6
CONTINUOUS
 10
74.292795
 20
-30.344168
 11
70.292798
 21
-30.344168
  0
LINE
  8
ボルト／ビス
  6
CONTINUOUS
 10
74.792798
 20
-29.844165
 11
69.792795
 21
-29.844165
  0
LINE
  8
ボルト／ビス
  6
CONTINUOUS
 10
70.292798
 20
-12.644168
 11
70.292798
 21
-30.344168
  0
LINE
  8
ボルト／ビス
  6
CONTINUOUS
 10
69.792795
 20
-12.644168
 11
69.792795
 21
-29.844165
  0
LINE
  8
ボルト／ビス
  6
CONTINUOUS
 10
74.292795
 20
-12.644168
 11
74.292795
 21
-30.344168
  0
LINE
  8
ボルト／ビス
  6
CONTINUOUS
 10
74.792798
 20
-12.644168
 11
74.792798
 21
-29.844165
  0
LINE
  8
ボルト／ビス
  6
CONTINUOUS
 10
72.2928
 20
-7.958962
 11
72.2928
 21
-30.344168
  0
ENDBLK
  0
BLOCK
  2
*GRP_0106
 70
    65
 10
0.0
 20
0.0
  0
LINE
  8
ボルト／ビス
  6
CONTINUOUS
 10
78.792787
 20
-10.344165
 11
80.292787
 21
-12.644168
  0
LINE
  8
ボルト／ビス
  6
CONTINUOUS
 10
86.79279
 20
-10.344165
 11
85.29279
 21
-12.644168
  0
LINE
  8
ボルト／ビス
  6
CONTINUOUS
 10
78.792787
 20
-10.344165
 11
86.79279
 21
-10.344165
  0
LINE
  8
ボルト／ビス
  6
CONTINUOUS
 10
80.292787
 20
-12.644168
 11
85.29279
 21
-12.644168
  0
LINE
  8
ボルト／ビス
  6
CONTINUOUS
 10
80.292787
 20
-29.844165
 11
80.79279
 21
-30.344168
  0
LINE
  8
ボルト／ビス
  6
CONTINUOUS
 10
85.29279
 20
-29.844165
 11
84.792787
 21
-30.344168
  0
LINE
  8
ボルト／ビス
  6
CONTINUOUS
 10
84.792787
 20
-30.344168
 11
80.79279
 21
-30.344168
  0
LINE
  8
ボルト／ビス
  6
CONTINUOUS
 10
85.29279
 20
-29.844165
 11
80.292787
 21
-29.844165
  0
LINE
  8
ボルト／ビス
  6
CONTINUOUS
 10
80.79279
 20
-12.644168
 11
80.79279
 21
-30.344168
  0
LINE
  8
ボルト／ビス
  6
CONTINUOUS
 10
80.292787
 20
-12.644168
 11
80.292787
 21
-29.844165
  0
LINE
  8
ボルト／ビス
  6
CONTINUOUS
 10
84.792787
 20
-12.644168
 11
84.792787
 21
-30.344168
  0
LINE
  8
ボルト／ビス
  6
CONTINUOUS
 10
85.29279
 20
-12.644168
 11
85.29279
 21
-29.844165
  0
LINE
  8
ボルト／ビス
  6
CONTINUOUS
 10
82.792792
 20
-7.958962
 11
82.792792
 21
-30.344168
  0
ENDBLK
  0
BLOCK
  2
*GRP_0107
 70
    65
 10
0.0
 20
0.0
  0
LINE
  8
別途部材
  6
CONTINUOUS
 10
82.292805
 20
-11.839747
 11
82.292805
 21
32.160247
  0
ARC
  8
別途部材
  6
CONTINUOUS
 10
88.292796
 20
-11.839761
 40
6.0
 50
179.999999
 51
269.999999
  0
LINE
  8
別途部材
  6
CONTINUOUS
 10
94.292805
 20
-11.839747
 11
94.292805
 21
32.160247
  0
ARC
  8
別途部材
  6
CONTINUOUS
 10
88.292796
 20
-11.839761
 40
6.0
 50
269.999999
 51
359.999999
  0
CIRCLE
  8
別途部材
  6
CONTINUOUS
 10
88.292805
 20
-11.839747
 40
3.0
  0
LINE
  8
別途部材
  6
CONTINUOUS
 10
85.292805
 20
-11.839747
 11
91.292805
 21
-11.83974
  0
LINE
  8
別途部材
  6
CONTINUOUS
 10
88.292813
 20
-14.839747
 11
88.292805
 21
-8.839747
  0
LINE
  8
別途部材
  6
CONTINUOUS
 10
82.292805
 20
32.160247
 11
84.292815
 21
32.160247
  0
LINE
  8
別途部材
  6
CONTINUOUS
 10
92.29281
 20
32.160255
 11
94.292805
 21
32.160247
  0
LINE
  8
別途部材
  6
CONTINUOUS
 10
84.292815
 20
32.160247
 11
84.292807
 21
-5.839747
  0
LINE
  8
別途部材
  6
CONTINUOUS
 10
84.292807
 20
-5.839747
 11
92.29281
 21
-5.839747
  0
LINE
  8
別途部材
  6
CONTINUOUS
 10
92.29281
 20
32.160255
 11
92.29281
 21
-5.839747
  0
ARC
  8
別途部材
  6
CONTINUOUS
 10
88.292796
 20
-4.381429
 40
2.541667
 50
269.999999
 51
269.999999
  0
ARC
  8
別途部材
  6
CONTINUOUS
 10
88.292797
 20
31.701906
 40
2.541667
 50
190.388959
 51
349.611039
  0
LINE
  8
別途部材
  6
CONTINUOUS
 10
91.792815
 20
32.160247
 11
90.79281
 21
32.160247
  0
LINE
  8
別途部材
  6
CONTINUOUS
 10
84.79281
 20
32.160247
 11
85.792815
 21
32.160247
  0
CIRCLE
  8
別途部材
  6
CONTINUOUS
 10
88.292805
 20
-1.839757
 40
0.999997
  0
LINE
  8
別途部材
  6
CONTINUOUS
 10
89.292817
 20
-1.839757
 11
87.292807
 21
-1.839757
  0
LINE
  8
別途部材
  6
CONTINUOUS
 10
88.292813
 20
-2.839762
 11
88.292805
 21
-0.839753
  0
ARC
  8
別途部材
  6
CONTINUOUS
 10
88.292796
 20
-3.381434
 40
2.541667
 50
10.388959
 51
169.611039
  0
LINE
  8
別途部材
  6
CONTINUOUS
 10
91.792807
 20
-3.839753
 11
90.79281
 21
-3.839745
  0
LINE
  8
別途部材
  6
CONTINUOUS
 10
85.792815
 20
-3.839753
 11
84.79281
 21
-3.839753
  0
LINE
  8
別途部材
  6
CONTINUOUS
 10
90.79281
 20
32.160247
 11
90.79281
 21
-3.839745
  0
LINE
  8
別途部材
  6
CONTINUOUS
 10
91.792815
 20
32.160247
 11
91.792807
 21
-3.839753
  0
LINE
  8
別途部材
  6
CONTINUOUS
 10
85.792815
 20
32.160247
 11
85.792815
 21
-3.839753
  0
LINE
  8
別途部材
  6
CONTINUOUS
 10
84.79281
 20
32.160247
 11
84.79281
 21
-3.839753
  0
ENDBLK
  0
BLOCK
  2
*GRP_0108
 70
    65
 10
0.0
 20
0.0
  0
LINE
  8
別途部材
  6
CONTINUOUS
 10
88.292805
 20
-17.839747
 11
88.292805
 21
-17.839747
  0
LINE
  8
別途部材
  6
CONTINUOUS
 10
69.792795
 20
-12.63975
 11
74.792798
 21
-12.63975
  0
LINE
  8
別途部材
  6
CONTINUOUS
 10
72.292807
 20
-10.33974
 11
72.2928
 21
-18.33975
  0
POLYLINE
  8
別途部材
  6
CONTINUOUS
 66
     1
  0
VERTEX
  8
別途部材
 10
76.292798
 20
-10.339747
  0
VERTEX
  8
別途部材
 10
74.792798
 20
-12.63975
  0
VERTEX
  8
別途部材
 10
74.792798
 20
-18.33975
  0
SEQEND
  0
POLYLINE
  8
別途部材
  6
CONTINUOUS
 66
     1
  0
VERTEX
  8
別途部材
 10
68.292795
 20
-10.339747
  0
VERTEX
  8
別途部材
 10
69.792795
 20
-12.63975
  0
VERTEX
  8
別途部材
 10
69.792795
 20
-18.33975
  0
SEQEND
  0
LINE
  8
別途部材
  6
CONTINUOUS
 10
88.292805
 20
-18.33975
 11
88.292805
 21
-17.839747
  0
ARC
  8
別途部材
  6
CONTINUOUS
 10
63.292787
 20
-11.339762
 40
1.0
 50
89.999999
 51
179.999999
  0
LINE
  8
別途部材
  6
CONTINUOUS
 10
62.292802
 20
-11.339745
 11
62.292802
 21
-17.339745
  0
ARC
  8
別途部材
  6
CONTINUOUS
 10
63.292787
 20
-17.339762
 40
1.0
 50
179.999999
 51
269.999999
  0
ARC
  8
別途部材
  6
CONTINUOUS
 10
79.292787
 20
-11.339763
 40
1.0
 50
-0.000001
 51
89.999999
  0
LINE
  8
別途部材
  6
CONTINUOUS
 10
80.292802
 20
-17.339753
 11
80.292802
 21
-11.339753
  0
ARC
  8
別途部材
  6
CONTINUOUS
 10
79.292787
 20
-17.339763
 40
1.0
 50
269.999999
 51
359.999999
  0
LINE
  8
別途部材
  6
CONTINUOUS
 10
63.2928
 20
-18.33975
 11
88.292805
 21
-18.33975
  0
LINE
  8
別途部材
  6
CONTINUOUS
 10
63.292807
 20
-10.339747
 11
82.292805
 21
-10.339747
  0
ENDBLK
  0
BLOCK
  2
*GRP_0109
 70
    65
 10
0.0
 20
0.0
  0
LINE
  8
別途部材
  6
CONTINUOUS
 10
98.292802
 20
-7.83975
 11
54.2928
 21
-7.83975
  0
ARC
  8
別途部材
  6
CONTINUOUS
 10
98.292789
 20
-1.839751
 40
6.0
 50
269.999999
 51
359.999999
  0
LINE
  8
別途部材
  6
CONTINUOUS
 10
98.292802
 20
4.16025
 11
54.2928
 21
4.16025
  0
ARC
  8
別途部材
  6
CONTINUOUS
 10
98.292789
 20
-1.839751
 40
6.0
 50
-0.000001
 51
89.999999
  0
CIRCLE
  8
別途部材
  6
CONTINUOUS
 10
98.292802
 20
-1.83975
 40
3.0
  0
LINE
  8
別途部材
  6
CONTINUOUS
 10
98.292802
 20
-4.83975
 11
98.292802
 21
1.16025
  0
LINE
  8
別途部材
  6
CONTINUOUS
 10
101.292802
 20
-1.83975
 11
95.292802
 21
-1.83975
  0
LINE
  8
別途部材
  6
CONTINUOUS
 10
54.2928
 20
-7.83975
 11
54.2928
 21
-5.839732
  0
LINE
  8
別途部材
  6
CONTINUOUS
 10
54.2928
 20
2.160255
 11
54.2928
 21
4.16025
  0
LINE
  8
別途部材
  6
CONTINUOUS
 10
54.2928
 20
-5.839732
 11
92.29281
 21
-5.83974
  0
LINE
  8
別途部材
  6
CONTINUOUS
 10
92.29281
 20
-5.83974
 11
92.29281
 21
2.160255
  0
LINE
  8
別途部材
  6
CONTINUOUS
 10
54.2928
 20
2.160255
 11
92.29281
 21
2.160255
  0
ARC
  8
別途部材
  6
CONTINUOUS
 10
54.751122
 20
-1.839751
 40
2.541667
 50
280.388959
 51
439.611039
  0
LINE
  8
別途部材
  6
CONTINUOUS
 10
54.2928
 20
1.660268
 11
54.292807
 21
0.660255
  0
LINE
  8
別途部材
  6
CONTINUOUS
 10
54.2928
 20
-5.339745
 11
54.2928
 21
-4.339732
  0
CIRCLE
  8
別途部材
  6
CONTINUOUS
 10
88.292805
 20
-1.83975
 40
0.999997
  0
LINE
  8
別途部材
  6
CONTINUOUS
 10
88.292805
 20
-0.839745
 11
88.292813
 21
-2.839747
  0
LINE
  8
別途部材
  6
CONTINUOUS
 10
89.292802
 20
-1.83975
 11
87.2928
 21
-1.83975
  0
ARC
  8
別途部材
  6
CONTINUOUS
 10
89.834462
 20
-1.839751
 40
2.541667
 50
100.388959
 51
259.611039
  0
LINE
  8
別途部材
  6
CONTINUOUS
 10
90.2928
 20
1.66026
 11
90.292807
 21
0.660255
  0
LINE
  8
別途部材
  6
CONTINUOUS
 10
90.2928
 20
-4.33974
 11
90.2928
 21
-5.339745
  0
LINE
  8
別途部材
  6
CONTINUOUS
 10
54.292807
 20
0.660255
 11
90.292807
 21
0.660255
  0
LINE
  8
別途部材
  6
CONTINUOUS
 10
54.2928
 20
1.660268
 11
90.2928
 21
1.66026
  0
LINE
  8
別途部材
  6
CONTINUOUS
 10
54.2928
 20
-4.339732
 11
90.2928
 21
-4.33974
  0
LINE
  8
別途部材
  6
CONTINUOUS
 10
54.2928
 20
-5.339745
 11
90.2928
 21
-5.339745
  0
ENDBLK
  0
BLOCK
  2
*GRP_0110
 70
    65
 10
0.0
 20
0.0
  0
LINE
  8
別途部材
  6
CONTINUOUS
 10
104.292802
 20
-1.83975
 11
104.292802
 21
-1.83975
  0
LINE
  8
別途部材
  6
CONTINUOUS
 10
91.292798
 20
-7.83975
 11
91.292798
 21
-10.33974
  0
LINE
  8
別途部材
  6
CONTINUOUS
 10
104.792798
 20
-1.83975
 11
104.292802
 21
-1.839743
  0
LINE
  8
別途部材
  6
CONTINUOUS
 10
92.29281
 20
-18.33975
 11
92.292802
 21
-10.339747
  0
ARC
  8
別途部材
  6
CONTINUOUS
 10
55.292791
 20
-17.339757
 40
1.0
 50
179.999999
 51
269.999999
  0
LINE
  8
別途部材
  6
CONTINUOUS
 10
54.2928
 20
-11.339745
 11
54.2928
 21
-17.339745
  0
ARC
  8
別途部材
  6
CONTINUOUS
 10
55.292791
 20
-11.339757
 40
1.0
 50
89.999999
 51
179.999999
  0
LINE
  8
別途部材
  6
CONTINUOUS
 10
55.292798
 20
-18.33975
 11
103.7928
 21
-18.33975
  0
ARC
  8
別途部材
  6
CONTINUOUS
 10
103.792791
 20
-17.339758
 40
1.0
 50
269.999999
 51
359.999999
  0
LINE
  8
別途部材
  6
CONTINUOUS
 10
55.292798
 20
-10.339747
 11
103.792807
 21
-10.339747
  0
ARC
  8
別途部材
  6
CONTINUOUS
 10
103.792791
 20
-11.339758
 40
1.0
 50
-0.000001
 51
89.999999
  0
LINE
  8
別途部材
  6
CONTINUOUS
 10
104.792798
 20
-17.339745
 11
104.792798
 21
-1.83975
  0
LINE
  8
別途部材
  6
CONTINUOUS
 10
85.292798
 20
-12.63975
 11
80.292802
 21
-12.63975
  0
LINE
  8
別途部材
  6
CONTINUOUS
 10
65.292802
 20
-12.63975
 11
60.292792
 21
-12.63975
  0
POLYLINE
  8
別途部材
  6
CONTINUOUS
 66
     1
  0
VERTEX
  8
別途部材
 10
86.792798
 20
-10.339747
  0
VERTEX
  8
別途部材
 10
85.292798
 20
-12.63975
  0
VERTEX
  8
別途部材
 10
85.292798
 20
-18.33975
  0
SEQEND
  0
LINE
  8
別途部材
  6
CONTINUOUS
 10
82.792792
 20
-10.339747
 11
82.792792
 21
-18.33975
  0
POLYLINE
  8
別途部材
  6
CONTINUOUS
 66
     1
  0
VERTEX
  8
別途部材
 10
78.792802
 20
-10.33974
  0
VERTEX
  8
別途部材
 10
80.292802
 20
-12.63975
  0
VERTEX
  8
別途部材
 10
80.29281
 20
-18.33975
  0
SEQEND
  0
POLYLINE
  8
別途部材
  6
CONTINUOUS
 66
     1
  0
VERTEX
  8
別途部材
 10
66.792802
 20
-10.339747
  0
VERTEX
  8
別途部材
 10
65.292802
 20
-12.63975
  0
VERTEX
  8
別途部材
 10
65.29281
 20
-18.33975
  0
SEQEND
  0
LINE
  8
別途部材
  6
CONTINUOUS
 10
62.792798
 20
-10.339747
 11
62.792798
 21
-18.339743
  0
POLYLINE
  8
別途部材
  6
CONTINUOUS
 66
     1
  0
VERTEX
  8
別途部材
 10
58.7928
 20
-10.339747
  0
VERTEX
  8
別途部材
 10
60.292792
 20
-12.63975
  0
VERTEX
  8
別途部材
 10
60.292792
 20
-18.33975
  0
SEQEND
  0
ENDBLK
  0
BLOCK
  2
*DIM_0111
 70
    65
 10
0.0
 20
0.0
  0
LINE
  8
寸法
  6
CONTINUOUS
 10
-88.210793
 20
-53.339707
 11
-88.210793
 21
-96.529405
  0
LINE
  8
寸法
  6
CONTINUOUS
 10
136.892843
 20
-86.239858
 11
136.892843
 21
-96.529405
  0
LINE
  8
寸法
  6
CONTINUOUS
 10
-88.210793
 20
-96.529405
 11
136.892843
 21
-96.529405
  0
POINT
  8
寸法
 10
-88.210793
 20
-96.529405
  0
POINT
  8
寸法
 10
136.892843
 20
-96.529405
  0
TEXT
  7
TextStyle03
  8
寸法
  6
CONTINUOUS
 10
21.8875
 20
-96.175
  1
225
 40
3.0
 72
     5
 11
26.7625
 21
-96.175
  0
ENDBLK
  0
BLOCK
  2
*DIM_0112
 70
    65
 10
0.0
 20
0.0
  0
LINE
  8
寸法
  6
CONTINUOUS
 10
146.992845
 20
-61.239852
 11
146.992845
 21
-96.529405
  0
LINE
  8
寸法
  6
CONTINUOUS
 10
136.892843
 20
-96.529405
 11
146.992845
 21
-96.529405
  0
POINT
  8
寸法
 10
146.992845
 20
-96.529405
  0
TEXT
  7
TextStyle03
  8
寸法
  6
CONTINUOUS
 10
138.64375
 20
-96.175
  1
10.1
 40
3.0
 72
     5
 11
145.20625
 21
-96.175
  0
ENDBLK
  0
BLOCK
  2
*DIM_0113
 70
    65
 10
0.0
 20
0.0
  0
LINE
  8
寸法
  6
CONTINUOUS
 10
151.992845
 20
-56.239852
 11
161.504405
 21
-56.239852
  0
LINE
  8
寸法
  6
CONTINUOUS
 10
141.892843
 20
-81.239858
 11
161.504405
 21
-81.239858
  0
LINE
  8
寸法
  6
CONTINUOUS
 10
161.504405
 20
-56.239852
 11
161.504405
 21
-81.239858
  0
POINT
  8
寸法
 10
161.504405
 20
-56.239852
  0
POINT
  8
寸法
 10
161.504405
 20
-81.239858
  0
TEXT
  7
TextStyle03
  8
寸法
  6
CONTINUOUS
 10
161.125
 20
-70.34375
  1
25
 40
3.0
 50
90.0
 72
     5
 11
161.125
 21
-67.15625
  0
ENDBLK
  0
BLOCK
  2
*DIM_0114
 70
    65
 10
0.0
 20
0.0
  0
LINE
  8
寸法
  6
CONTINUOUS
 10
115.092848
 20
31.160255
 11
115.092848
 21
92.56893
  0
LINE
  8
寸法
  6
CONTINUOUS
 10
146.992845
 20
-49.239858
 11
146.992845
 21
92.56893
  0
LINE
  8
寸法
  6
CONTINUOUS
 10
115.092848
 20
92.56893
 11
146.992845
 21
92.56893
  0
POINT
  8
寸法
 10
115.092848
 20
92.56893
  0
POINT
  8
寸法
 10
146.992845
 20
92.56893
  0
TEXT
  7
TextStyle03
  8
寸法
  6
CONTINUOUS
 10
127.74375
 20
92.925
  1
31.9
 40
3.0
 72
     5
 11
134.30625
 21
92.925
  0
ENDBLK
  0
BLOCK
  2
*DIM_0115
 70
    65
 10
0.0
 20
0.0
  0
LINE
  8
寸法
  6
CONTINUOUS
 10
19.792845
 20
-86.239858
 11
19.792845
 21
-88.77322
  0
LINE
  8
寸法
  6
CONTINUOUS
 10
136.892843
 20
-86.239858
 11
136.892843
 21
-88.77322
  0
LINE
  8
寸法
  6
CONTINUOUS
 10
19.792845
 20
-88.77322
 11
136.892843
 21
-88.77322
  0
POINT
  8
寸法
 10
19.792845
 20
-88.77322
  0
POINT
  8
寸法
 10
136.892843
 20
-88.77322
  0
TEXT
  7
TextStyle03
  8
寸法
  6
CONTINUOUS
 10
74.2
 20
-88.4
  1
117.1
 40
3.0
 72
     5
 11
82.45
 21
-88.4
  0
ENDBLK
  0
ENDSEC
  0
SECTION
  2
ENTITIES
  0
POLYLINE
  8
通り芯
  6
CONTINUOUS
 66
     1
 70
     1
  0
VERTEX
  8
通り芯
 10
-210.0
 20
-148.5
  0
VERTEX
  8
通り芯
 10
210.0
 20
-148.5
  0
VERTEX
  8
通り芯
 10
210.0
 20
148.5
  0
VERTEX
  8
通り芯
 10
-210.0
 20
148.5
  0
SEQEND
  0
INSERT
  2
*GRP_0001
  8
通り芯
  6
CONTINUOUS
 10
0.0
 20
0.0
  0
LINE
  8
通り芯
  6
CONTINUOUS
 10
-53.561892
 20
-40.61556
 11
-51.782995
 21
-39.157643
  0
LINE
  8
通り芯
  6
CONTINUOUS
 10
-23.090233
 20
-77.79596
 11
-21.31132
 21
-76.33803
  0
LINE
  8
通り芯
  6
CONTINUOUS
 10
-23.090233
 20
-77.79596
 11
-53.561892
 21
-40.61556
  0
LINE
  8
通り芯
  6
CONTINUOUS
 10
-21.31132
 20
-76.33803
 11
-51.782995
 21
-39.157643
  0
LINE
  8
通り芯
  6
CONTINUOUS
 10
-19.40867
 20
-79.739753
 11
-19.40867
 21
-77.739753
  0
LINE
  8
通り芯
  6
CONTINUOUS
 10
2.09133
 20
-77.739753
 11
-19.40867
 21
-77.739753
  0
LINE
  8
通り芯
  6
CONTINUOUS
 10
2.09133
 20
-79.739753
 11
-19.40867
 21
-79.739753
  0
LINE
  8
通り芯
  6
CONTINUOUS
 10
2.09133
 20
-77.739753
 11
2.09133
 21
-79.739753
  0
INSERT
  2
*GRP_0002
  8
通り芯
  6
CONTINUOUS
 10
0.0
 20
0.0
  0
INSERT
  2
*GRP_0003
  8
通り芯
  6
CONTINUOUS
 10
0.0
 20
0.0
  0
INSERT
  2
*GRP_0004
  8
通り芯
  6
CONTINUOUS
 10
0.0
 20
0.0
  0
LINE
  8
通り芯
  6
CONTINUOUS
 10
-42.009973
 20
-51.082315
 11
-42.33095
 21
-54.319142
  0
LINE
  8
通り芯
  6
CONTINUOUS
 10
-41.561755
 20
-51.629212
 11
-41.882733
 21
-54.866043
  0
LINE
  8
通り芯
  6
CONTINUOUS
 10
-25.487068
 20
-71.24294
 11
-25.808047
 21
-74.479782
  0
LINE
  8
通り芯
  6
CONTINUOUS
 10
-25.03885
 20
-71.789837
 11
-25.35983
 21
-75.026682
  0
LINE
  8
通り芯
  6
CONTINUOUS
 10
-2.340697
 20
-77.739753
 11
-0.340695
 21
-79.739753
  0
LINE
  8
通り芯
  6
CONTINUOUS
 10
-1.633593
 20
-77.739753
 11
0.36641
 21
-79.739753
  0
LINE
  8
通り芯
  6
CONTINUOUS
 10
-17.498373
 20
-77.739753
 11
-15.49837
 21
-79.739753
  0
LINE
  8
通り芯
  6
CONTINUOUS
 10
-16.791267
 20
-77.739753
 11
-14.791265
 21
-79.739753
  0
INSERT
  2
*GRP_0005
  8
通り芯
  6
CONTINUOUS
 10
0.0
 20
0.0
  0
INSERT
  2
*GRP_0006
  8
通り芯
  6
CONTINUOUS
 10
0.0
 20
0.0
  0
INSERT
  2
*GRP_0062
  8
通り芯
  6
CONTINUOUS
 10
0.0
 20
0.0
  0
LINE
  8
通り芯
  6
CONTINUOUS
 62
   127
 10
32.592802
 20
-19.839735
 11
90.092798
 21
-19.839735
  0
INSERT
  2
*GRP_0007
  8
型材断面
  6
CONTINUOUS
 10
0.0
 20
0.0
  0
POLYLINE
  8
型材断面
  6
CONTINUOUS
 66
     1
  0
VERTEX
  8
型材断面
 10
-134.165272
 20
91.169775
  0
VERTEX
  8
型材断面
 10
-135.95443
 20
84.606723
  0
VERTEX
  8
型材断面
 10
-134.165272
 20
84.606723
  0
SEQEND
  0
POLYLINE
  8
型材断面
  6
CONTINUOUS
 66
     1
  0
VERTEX
  8
型材断面
 10
-134.165272
 20
88.500527
  0
VERTEX
  8
型材断面
 10
-135.95443
 20
81.937475
  0
VERTEX
  8
型材断面
 10
-134.165272
 20
81.937475
  0
SEQEND
  0
INSERT
  2
*GRP_0008
  8
型材断面
  6
DOT
 10
0.0
 20
0.0
  0
LINE
  8
型材断面
  6
DOT
 10
59.792783
 20
-19.839757
 11
59.792783
 21
-18.339757
  0
LINE
  8
型材断面
  6
DOT
 10
65.792783
 20
-19.83975
 11
65.792783
 21
-18.33975
  0
LINE
  8
型材断面
  6
DOT
 10
65.792783
 20
-18.714757
 11
59.792783
 21
-18.71475
  0
LINE
  8
型材断面
  6
DOT
 10
65.792783
 20
-19.08975
 11
59.792783
 21
-19.089757
  0
LINE
  8
型材断面
  6
DOT
 10
65.792783
 20
-19.464757
 11
59.792783
 21
-19.46475
  0
LINE
  8
型材断面
  6
DOT
 10
69.292785
 20
-19.839757
 11
69.292785
 21
-18.339757
  0
LINE
  8
型材断面
  6
DOT
 10
75.292785
 20
-19.83975
 11
75.292785
 21
-18.33975
  0
LINE
  8
型材断面
  6
DOT
 10
75.292785
 20
-18.714757
 11
69.292785
 21
-18.71475
  0
LINE
  8
型材断面
  6
DOT
 10
75.292785
 20
-19.08975
 11
69.292785
 21
-19.089757
  0
LINE
  8
型材断面
  6
DOT
 10
75.292785
 20
-19.464757
 11
69.292785
 21
-19.46475
  0
LINE
  8
型材断面
  6
DOT
 10
79.792785
 20
-19.83975
 11
79.792778
 21
-18.339757
  0
LINE
  8
型材断面
  6
DOT
 10
85.792778
 20
-19.839757
 11
85.792778
 21
-18.339757
  0
LINE
  8
型材断面
  6
DOT
 10
85.792778
 20
-18.71475
 11
79.792778
 21
-18.714757
  0
LINE
  8
型材断面
  6
DOT
 10
85.792778
 20
-19.089757
 11
79.792778
 21
-19.089757
  0
LINE
  8
型材断面
  6
DOT
 10
85.792778
 20
-19.46475
 11
79.792778
 21
-19.464757
  0
INSERT
  2
*GRP_0081
  8
型材断面
  6
CONTINUOUS
 10
0.0
 20
0.0
  0
INSERT
  2
*GRP_0082
  8
型材断面
  6
DOT
 10
0.0
 20
0.0
  0
INSERT
  2
*GRP_0083
  8
型材断面
  6
CONTINUOUS
 10
0.0
 20
0.0
  0
LINE
  8
型材断面
  6
DOT
 10
98.592802
 20
-19.83975
 11
98.592802
 21
-18.33975
  0
LINE
  8
型材断面
  6
DOT
 10
106.59279
 20
-19.83975
 11
106.592798
 21
-18.33975
  0
LINE
  8
型材断面
  6
DOT
 10
106.592798
 20
-18.714743
 11
98.592802
 21
-18.71475
  0
LINE
  8
型材断面
  6
DOT
 10
106.592798
 20
-19.08975
 11
98.592802
 21
-19.08975
  0
LINE
  8
型材断面
  6
DOT
 10
106.592798
 20
-19.464743
 11
98.592802
 21
-19.46475
  0
LINE
  8
型材断面
  6
DOT
 10
59.792798
 20
-19.83975
 11
59.792798
 21
-18.33975
  0
LINE
  8
型材断面
  6
DOT
 10
65.792798
 20
-19.839743
 11
65.792798
 21
-18.339743
  0
LINE
  8
型材断面
  6
DOT
 10
65.792798
 20
-18.71475
 11
59.792798
 21
-18.714743
  0
LINE
  8
型材断面
  6
DOT
 10
65.792798
 20
-19.089743
 11
59.792798
 21
-19.08975
  0
LINE
  8
型材断面
  6
DOT
 10
65.792798
 20
-19.46475
 11
59.792798
 21
-19.464743
  0
LINE
  8
型材断面
  6
DOT
 10
69.2928
 20
-19.83975
 11
69.2928
 21
-18.33975
  0
LINE
  8
型材断面
  6
DOT
 10
75.2928
 20
-19.839743
 11
75.2928
 21
-18.339743
  0
LINE
  8
型材断面
  6
DOT
 10
75.2928
 20
-18.71475
 11
69.2928
 21
-18.714743
  0
LINE
  8
型材断面
  6
DOT
 10
75.2928
 20
-19.089743
 11
69.2928
 21
-19.08975
  0
LINE
  8
型材断面
  6
DOT
 10
75.2928
 20
-19.46475
 11
69.2928
 21
-19.464743
  0
LINE
  8
型材断面
  6
DOT
 10
79.7928
 20
-19.839743
 11
79.792792
 21
-18.33975
  0
LINE
  8
型材断面
  6
DOT
 10
85.792792
 20
-19.83975
 11
85.792792
 21
-18.33975
  0
LINE
  8
型材断面
  6
DOT
 10
85.792792
 20
-18.714743
 11
79.792792
 21
-18.71475
  0
LINE
  8
型材断面
  6
DOT
 10
85.792792
 20
-19.08975
 11
79.792792
 21
-19.08975
  0
LINE
  8
型材断面
  6
DOT
 10
85.792792
 20
-19.464743
 11
79.792792
 21
-19.46475
  0
LINE
  8
型材断面
  6
DOT
 10
106.592798
 20
-58.339747
 11
106.592798
 21
-56.339745
  0
LINE
  8
型材断面
  6
DOT
 10
98.592795
 20
-58.339747
 11
98.592795
 21
-56.339745
  0
LINE
  8
型材断面
  6
DOT
 10
106.592798
 20
-57.93975
 11
98.592795
 21
-57.93975
  0
LINE
  8
型材断面
  6
DOT
 10
106.592798
 20
-57.539745
 11
98.592795
 21
-57.539745
  0
LINE
  8
型材断面
  6
DOT
 10
106.592798
 20
-57.139747
 11
98.592795
 21
-57.139747
  0
LINE
  8
型材断面
  6
DOT
 10
106.592798
 20
-56.739743
 11
98.592795
 21
-56.739743
  0
LINE
  8
ガラス
  6
CONTINUOUS
 10
-74.207273
 20
50.75119
 11
-74.207273
 21
1.66023
  0
LINE
  8
ガラス
  6
CONTINUOUS
 10
-73.707273
 20
50.75119
 11
-73.707273
 21
1.66023
  0
LINE
  8
ガラス
  6
CONTINUOUS
 10
-67.407273
 20
50.75119
 11
-67.407273
 21
1.66023
  0
LINE
  8
ガラス
  6
CONTINUOUS
 10
-67.907273
 20
50.75119
 11
-67.907273
 21
1.66023
  0
INSERT
  2
*GRP_0084
  8
ガラス
  6
CONTINUOUS
 10
0.0
 20
0.0
  0
INSERT
  2
*GRP_0085
  8
ガラス
  6
CONTINUOUS
 10
0.0
 20
0.0
  0
INSERT
  2
*GRP_0086
  8
ガラス
  6
CONTINUOUS
 10
0.0
 20
0.0
  0
INSERT
  2
*GRP_0087
  8
ガラス
  6
CONTINUOUS
 10
0.0
 20
0.0
  0
INSERT
  2
*GRP_0088
  8
ガラス
  6
CONTINUOUS
 10
0.0
 20
0.0
  0
INSERT
  2
*GRP_0089
  8
ガラス
  6
CONTINUOUS
 10
0.0
 20
0.0
  0
INSERT
  2
*GRP_0090
  8
ガラス
  6
CONTINUOUS
 10
0.0
 20
0.0
  0
INSERT
  2
*GRP_0091
  8
ガラス
  6
CONTINUOUS
 10
0.0
 20
0.0
  0
INSERT
  2
*GRP_0092
  8
ガラス
  6
CONTINUOUS
 10
0.0
 20
0.0
  0
INSERT
  2
*GRP_0009
  8
ゴム等
  6
CONTINUOUS
 10
0.0
 20
0.0
  0
INSERT
  2
*GRP_0010
  8
ゴム等
  6
CONTINUOUS
 10
0.0
 20
0.0
  0
INSERT
  2
*GRP_0011
  8
ゴム等
  6
DOT
 10
0.0
 20
0.0
  0
INSERT
  2
*GRP_0012
  8
ゴム等
  6
CONTINUOUS
 10
0.0
 20
0.0
  0
INSERT
  2
*GRP_0093
  8
ゴム等
  6
DOT
 10
0.0
 20
0.0
  0
INSERT
  2
*GRP_0094
  8
ゴム等
  6
DOT
 10
0.0
 20
0.0
  0
INSERT
  2
*GRP_0095
  8
ゴム等
  6
CONTINUOUS
 10
0.0
 20
0.0
  0
INSERT
  2
*GRP_0096
  8
ゴム等
  6
CONTINUOUS
 10
0.0
 20
0.0
  0
INSERT
  2
*GRP_0013
  8
ボルト／ビス
  6
CONTINUOUS
 10
0.0
 20
0.0
  0
INSERT
  2
*GRP_0014
  8
ボルト／ビス
  6
CONTINUOUS
 10
0.0
 20
0.0
  0
INSERT
  2
*GRP_0015
  8
ボルト／ビス
  6
CONTINUOUS
 10
0.0
 20
0.0
  0
INSERT
  2
*GRP_0016
  8
ボルト／ビス
  6
CONTINUOUS
 10
0.0
 20
0.0
  0
INSERT
  2
*GRP_0043
  8
ボルト／ビス
  6
CONTINUOUS
 62
    64
 10
0.0
 20
0.0
  0
INSERT
  2
*GRP_0044
  8
ボルト／ビス
  6
CONTINUOUS
 62
    64
 10
0.0
 20
0.0
  0
INSERT
  2
*GRP_0097
  8
ボルト／ビス
  6
CONTINUOUS
 10
0.0
 20
0.0
  0
INSERT
  2
*GRP_0098
  8
ボルト／ビス
  6
CONTINUOUS
 10
0.0
 20
0.0
  0
TEXT
  7
TextStyle03
  8
文字
  6
CONTINUOUS
 10
-134.125
 20
21.925
  1
ドーム呼称寸法
 40
4.0
 50
90.0
 72
     5
 11
-134.125
 21
52.925
  0
TEXT
  7
TextStyle03
  8
文字
  6
CONTINUOUS
 10
-95.975
 20
30.25
  1
TK-0009
 40
4.0
 50
90.0
 72
     5
 11
-95.975
 21
45.75
  0
TEXT
  7
TextStyle03
  8
文字
  6
CONTINUOUS
 10
-101.275
 20
-70.575
  1
TKR-1701
 40
4.0
 50
90.0
 72
     5
 11
-101.275
 21
-52.825
  0
TEXT
  7
TextStyle03
  8
文字
  6
CONTINUOUS
 10
-9.4
 20
-41.675
  1
TKR-1201
 40
4.0
 50
90.0
 72
     5
 11
-9.4
 21
-23.925
  0
TEXT
  7
TextStyle03
  8
文字
  6
CONTINUOUS
 10
79.9
 20
25.85
  1
転向滑車
 40
4.0
 50
90.0
 72
     5
 11
79.9
 21
43.35
  0
TEXT
  7
TextStyle03
  8
文字
  6
CONTINUOUS
 10
64.45
 20
14.3
  1
滑車
 40
4.0
 50
90.0
 72
     5
 11
64.45
 21
22.8
  0
TEXT
  7
TextStyle03
  8
文字
  6
CONTINUOUS
 10
-26.05
 20
14.1
  1
滑車
 40
4.0
 50
90.0
 72
     5
 11
-26.05
 21
22.6
  0
TEXT
  7
TextStyle03
  8
文字
  6
CONTINUOUS
 10
88.775
 20
103.4
  1
ＮＳコード：ＮＳＤ
 40
5.0
 72
     5
 11
138.775
 21
103.4
  0
TEXT
  7
TextStyle03
  8
文字
  6
CONTINUOUS
 10
-47.925
 20
-70.375
  1
TKR-1401
 40
4.0
 50
90.0
 72
     5
 11
-47.925
 21
-52.625
  0
TEXT
  7
TextStyle03
  8
文字
  6
CONTINUOUS
 10
7.35
 20
-116.825
  1
TKR-1401
 40
4.0
 50
90.0
 72
     5
 11
7.35
 21
-99.075
  0
TEXT
  7
TextStyle03
  8
文字
  6
CONTINUOUS
 10
-40.35
 20
-87.5
  1
TK-1112S
 40
4.0
 50
90.0
 72
     5
 11
-40.35
 21
-69.75
  0
TEXT
  7
TextStyle03
  8
文字
  6
CONTINUOUS
 10
-55.55
 20
28.275
  1
TKR-1107
 40
4.0
 50
90.0
 72
     5
 11
-55.55
 21
46.025
  0
TEXT
  7
TextStyle03
  8
文字
  6
CONTINUOUS
 10
-50.775
 20
28.275
  1
TK-1166
 40
4.0
 50
90.0
 72
     5
 11
-50.775
 21
43.775
  0
TEXT
  7
TextStyle03
  8
文字
  6
CONTINUOUS
 10
-43.275
 20
12.2
  1
TK-1132S
 40
4.0
 50
90.0
 72
     5
 11
-43.275
 21
29.95
  0
TEXT
  7
TextStyle03
  8
文字
  6
CONTINUOUS
 10
89.25
 20
125.05
  1
シリーズ：ＴＤ１
 40
5.0
 72
     5
 11
133.625
 21
125.05
  0
TEXT
  7
TextStyle03
  8
文字
  6
CONTINUOUS
 10
89.25
 20
119.425
  1
　　　　　（上下可動）
 40
5.0
 72
     5
 11
150.5
 21
119.425
  0
TEXT
  7
TextStyle03
  8
文字
  6
CONTINUOUS
 10
89.25
 20
113.8
  1
図面名　：下枠断面詳細図Ｂ
 40
5.0
 72
     5
 11
161.75
 21
113.8
  0
TEXT
  7
TextStyle03
  8
文字
  6
CONTINUOUS
 10
36.25
 20
-77.075
  1
TKR-1301
 40
4.0
 50
90.0
 72
     5
 11
36.25
 21
-59.325
  0
TEXT
  7
TextStyle03
  8
文字
  6
CONTINUOUS
 10
101.35
 20
-130.925
  1
M4リベット
 40
4.0
 50
90.0
 72
     5
 11
101.35
 21
-108.925
  0
TEXT
  7
TextStyle03
  8
文字
  6
CONTINUOUS
 10
105.85
 20
-130.925
  1
(コーナー)
 40
4.0
 50
90.0
 72
     5
 11
105.85
 21
-108.675
  0
TEXT
  7
TextStyle03
  8
文字
  6
CONTINUOUS
 10
132.075
 20
29.025
  1
アンカー　St-3.2t
 40
4.0
 50
90.0
 72
     5
 11
132.075
 21
67.025
  0
INSERT
  2
*GRP_0066
  8
文字
  6
DOT
 10
0.0
 20
0.0
  0
INSERT
  2
*GRP_0071
  8
文字
  6
DOT
 10
0.0
 20
0.0
  0
INSERT
  2
*GRP_0099
  8
文字
  6
DOT
 10
0.0
 20
0.0
  0
INSERT
  2
*DIM_0017
  8
寸法
  6
CONTINUOUS
 10
0.0
 20
0.0
  0
INSERT
  2
*DIM_0018
  8
寸法
  6
CONTINUOUS
 10
0.0
 20
0.0
  0
INSERT
  2
*GRP_0019
  8
寸法
  6
CONTINUOUS
 10
0.0
 20
0.0
  0
INSERT
  2
*GRP_0020
  8
寸法
  6
CONTINUOUS
 10
0.0
 20
0.0
  0
INSERT
  2
*GRP_0021
  8
寸法
  6
CONTINUOUS
 10
0.0
 20
0.0
  0
INSERT
  2
*GRP_0022
  8
寸法
  6
CONTINUOUS
 10
0.0
 20
0.0
  0
INSERT
  2
*GRP_0023
  8
寸法
  6
CONTINUOUS
 10
0.0
 20
0.0
  0
INSERT
  2
*GRP_0024
  8
寸法
  6
CONTINUOUS
 10
0.0
 20
0.0
  0
INSERT
  2
*GRP_0025
  8
寸法
  6
CONTINUOUS
 10
0.0
 20
0.0
  0
INSERT
  2
*GRP_0026
  8
寸法
  6
CONTINUOUS
 10
0.0
 20
0.0
  0
INSERT
  2
*DIM_0027
  8
寸法
  6
CONTINUOUS
 10
0.0
 20
0.0
  0
INSERT
  2
*DIM_0028
  8
寸法
  6
CONTINUOUS
 10
0.0
 20
0.0
  0
INSERT
  2
*DIM_0029
  8
寸法
  6
CONTINUOUS
 10
0.0
 20
0.0
  0
INSERT
  2
*DIM_0030
  8
寸法
  6
CONTINUOUS
 10
0.0
 20
0.0
  0
INSERT
  2
*GRP_0031
  8
寸法
  6
CONTINUOUS
 10
0.0
 20
0.0
  0
INSERT
  2
*GRP_0032
  8
寸法
  6
CONTINUOUS
 10
0.0
 20
0.0
  0
INSERT
  2
*GRP_0033
  8
寸法
  6
CONTINUOUS
 10
0.0
 20
0.0
  0
INSERT
  2
*GRP_0034
  8
寸法
  6
CONTINUOUS
 10
0.0
 20
0.0
  0
INSERT
  2
*DIM_0046
  8
寸法
  6
CONTINUOUS
 10
0.0
 20
0.0
  0
INSERT
  2
*DIM_0047
  8
寸法
  6
CONTINUOUS
 10
0.0
 20
0.0
  0
INSERT
  2
*DIM_0048
  8
寸法
  6
CONTINUOUS
 10
0.0
 20
0.0
  0
INSERT
  2
*GRP_0049
  8
寸法
  6
CONTINUOUS
 10
0.0
 20
0.0
  0
INSERT
  2
*GRP_0050
  8
寸法
  6
CONTINUOUS
 10
0.0
 20
0.0
  0
INSERT
  2
*DIM_0051
  8
寸法
  6
CONTINUOUS
 10
0.0
 20
0.0
  0
INSERT
  2
*DIM_0052
  8
寸法
  6
CONTINUOUS
 10
0.0
 20
0.0
  0
INSERT
  2
*DIM_0053
  8
寸法
  6
CONTINUOUS
 10
0.0
 20
0.0
  0
INSERT
  2
*DIM_0054
  8
寸法
  6
CONTINUOUS
 10
0.0
 20
0.0
  0
INSERT
  2
*DIM_0055
  8
寸法
  6
CONTINUOUS
 10
0.0
 20
0.0
  0
INSERT
  2
*DIM_0056
  8
寸法
  6
CONTINUOUS
 10
0.0
 20
0.0
  0
INSERT
  2
*DIM_0057
  8
寸法
  6
CONTINUOUS
 10
0.0
 20
0.0
  0
INSERT
  2
*DIM_0058
  8
寸法
  6
CONTINUOUS
 10
0.0
 20
0.0
  0
INSERT
  2
*DIM_0059
  8
寸法
  6
CONTINUOUS
 10
0.0
 20
0.0
  0
INSERT
  2
*DIM_0060
  8
寸法
  6
CONTINUOUS
 10
0.0
 20
0.0
  0
INSERT
  2
*DIM_0061
  8
寸法
  6
CONTINUOUS
 10
0.0
 20
0.0
  0
INSERT
  2
*DIM_0111
  8
寸法
  6
CONTINUOUS
 10
0.0
 20
0.0
  0
INSERT
  2
*DIM_0112
  8
寸法
  6
CONTINUOUS
 10
0.0
 20
0.0
  0
INSERT
  2
*DIM_0113
  8
寸法
  6
CONTINUOUS
 10
0.0
 20
0.0
  0
INSERT
  2
*DIM_0114
  8
寸法
  6
CONTINUOUS
 10
0.0
 20
0.0
  0
INSERT
  2
*DIM_0115
  8
寸法
  6
CONTINUOUS
 10
0.0
 20
0.0
  0
INSERT
  2
*GRP_0100
  8
別途部材
  6
DOT
 10
0.0
 20
0.0
  0
LINE
  8
曲げ物
  6
CONTINUOUS
 10
-74.207228
 20
1.66023
 11
-67.407225
 21
1.66023
  0
INSERT
  2
*GRP_0035
  8
鉄骨等
  6
CONTINUOUS
 10
0.0
 20
0.0
  0
INSERT
  2
*GRP_0036
  8
St
  6
CONTINUOUS
 10
0.0
 20
0.0
  0
INSERT
  2
*GRP_0037
  8
St
  6
CONTINUOUS
 10
0.0
 20
0.0
  0
INSERT
  2
*GRP_0038
  8
St
  6
CONTINUOUS
 10
0.0
 20
0.0
  0
INSERT
  2
*GRP_0045
  8
St
  6
CONTINUOUS
 10
0.0
 20
0.0
  0
INSERT
  2
*GRP_0065
  8
St
  6
CONTINUOUS
 10
0.0
 20
0.0
  0
INSERT
  2
*GRP_0101
  8
St
  6
CONTINUOUS
 10
0.0
 20
0.0
  0
LINE
  8
その他部品等
  6
CONTINUOUS
 62
    47
 10
-134.165272
 20
1.660288
 11
-134.165272
 21
91.169775
  0
ENDSEC
  0
EOF
