  0
SECTION
  2
HEADER
  9
$EXTMIN
 10
-210.0
 20
-148.5
  9
$EXTMAX
 10
210.0
 20
148.5
  9
$PDMODE
 70
    32
  9
$PDSIZE
 40
1.5
  9
$LTSCALE
 40
10.0
  0
ENDSEC
  0
SECTION
  2
TABLES
  0
TABLE
  2
LTYPE
 70
    15
  0
LTYPE
  2
CONTINUOUS
 70
    64
  3
実線
 72
    65
 73
     0
 40
0.0
  0
LTYPE
  2
DASHED
 70
    64
  3
破線A
 72
    65
 73
     2
 40
0.6
 49
0.4
 49
-0.2
  0
LTYPE
  2
DASHEDX2
 70
    64
  3
破線B
 72
    65
 73
     2
 40
1.3
 49
0.9
 49
-0.4
  0
LTYPE
  2
DASHDOT
 70
    64
  3
１点鎖線A
 72
    65
 73
     4
 40
0.5375
 49
0.375
 49
-0.05
 49
0.0625
 49
-0.05
  0
LTYPE
  2
DASHDOTX2
 70
    64
  3
１点鎖線B
 72
    65
 73
     4
 40
1.075
 49
0.75
 49
-0.1
 49
0.125
 49
-0.1
  0
LTYPE
  2
DIVIDE2
 70
    64
  3
２点鎖線A
 72
    65
 73
     6
 40
0.5125
 49
0.3
 49
-0.0375
 49
0.05
 49
-0.0375
 49
0.05
 49
-0.0375
  0
LTYPE
  2
DIVIDE
 70
    64
  3
２点鎖線B
 72
    65
 73
     6
 40
1.05
 49
0.55
 49
-0.1
 49
0.1
 49
-0.1
 49
0.1
 49
-0.1
  0
LTYPE
  2
DOT
 70
    64
  3
点線A
 72
    65
 73
     2
 40
0.1125
 49
0.0625
 49
-0.05
  0
LTYPE
  2
DOTX2
 70
    64
  3
点線B
 72
    65
 73
     2
 40
0.275
 49
0.15
 49
-0.125
  0
LTYPE
  2
CONTINUOUS
 70
    64
  3
実線
 72
    65
 73
     0
 40
0.0
  0
LTYPE
  2
CONTINUOUS
 70
    64
  3
実線
 72
    65
 73
     0
 40
0.0
  0
LTYPE
  2
CONTINUOUS
 70
    64
  3
実線
 72
    65
 73
     0
 40
0.0
  0
LTYPE
  2
CONTINUOUS
 70
    64
  3
実線
 72
    65
 73
     0
 40
0.0
  0
LTYPE
  2
CONTINUOUS
 70
    64
  3
実線
 72
    65
 73
     0
 40
0.0
  0
LTYPE
  2
CONTINUOUS
 70
    64
  3
実線
 72
    65
 73
     0
 40
0.0
  0
ENDTAB
  0
TABLE
  2
LAYER
 70
    34
  0
LAYER
  2
通り芯
 70
     0
 62
    15
  6
CONTINUOUS
  0
LAYER
  2
補助線
 70
     0
 62
    16
  6
DOT
  0
LAYER
  2
躯体
 70
     0
 62
    31
  6
CONTINUOUS
  0
LAYER
  2
型材
 70
     0
 62
    32
  6
CONTINUOUS
  0
LAYER
  2
型材断面
 70
     0
 62
    47
  6
CONTINUOUS
  0
LAYER
  2
ガラス
 70
     0
 62
    48
  6
CONTINUOUS
  0
LAYER
  2
ゴム等
 70
     0
 62
    63
  6
CONTINUOUS
  0
LAYER
  2
ボルト／ビス
 70
     0
 62
    64
  6
CONTINUOUS
  0
LAYER
  2
文字
 70
     0
 62
    79
  6
CONTINUOUS
  0
LAYER
  2
寸法
 70
     0
 62
    80
  6
CONTINUOUS
  0
LAYER
  2
ﾊｯﾁﾝｸﾞ
 70
     0
 62
    95
  6
CONTINUOUS
  0
LAYER
  2
別途部材
 70
     0
 62
    96
  6
CONTINUOUS
  0
LAYER
  2
曲げ物
 70
     0
 62
   111
  6
CONTINUOUS
  0
LAYER
  2
鉄骨等
 70
     0
 62
   112
  6
CONTINUOUS
  0
LAYER
  2
St
 70
     0
 62
   127
  6
CONTINUOUS
  0
LAYER
  2
その他部品等
 70
     0
 62
   128
  6
CONTINUOUS
  0
LAYER
  2
ｶﾞｽｹｯﾄ
 70
     0
 62
   143
  6
CONTINUOUS
  0
LAYER
  2
ｽｹｯﾁ
 70
     0
 62
    14
  6
CONTINUOUS
  0
LAYER
  2
0
 70
     0
 62
    17
  6
CONTINUOUS
  0
LAYER
  2
1
 70
     0
 62
    30
  6
CONTINUOUS
  0
LAYER
  2
4
 70
     0
 62
    33
  6
CONTINUOUS
  0
LAYER
  2
ﾚｲﾔ3
 70
     0
 62
    46
  6
CONTINUOUS
  0
LAYER
  2
外形線
 70
     0
 62
    49
  6
CONTINUOUS
  0
LAYER
  2
部品
 70
     0
 62
    14
  6
CONTINUOUS
  0
LAYER
  2
サッシ芯
 70
     0
 62
    17
  6
DASHDOTX2
  0
LAYER
  2
寸法線
 70
     0
 62
    62
  6
CONTINUOUS
  0
LAYER
  2
姿図外形線
 70
     0
 62
    65
  6
CONTINUOUS
  0
LAYER
  2
姿補助線
 70
     0
 62
    30
  6
CONTINUOUS
  0
LAYER
  2
透視線
 70
     0
 62
    78
  6
DOT
  0
LAYER
  2
用紙
 70
     0
 62
    81
  6
CONTINUOUS
  0
LAYER
  2
実線図枠
 70
     0
 62
    94
  6
CONTINUOUS
  0
LAYER
  2
補助図枠
 70
     0
 62
    97
  6
CONTINUOUS
  0
LAYER
  2
建具記号
 70
     0
 62
   110
  6
CONTINUOUS
  0
LAYER
  2
補助文字
 70
     0
 62
   113
  6
CONTINUOUS
  0
ENDTAB
  0
TABLE
  2
STYLE
 70
    10
  0
STYLE
  2
STANDARD
 70
     0
 40
1.0
 41
1.0
 42
1.0
 50
0.0
 71
     0
  3
TXT
  4
BIGFONT
  0
STYLE
  2
TATE
 70
     4
 40
1.0
 41
1.0
 42
1.0
 50
0.0
 71
     0
  3
TXT
  4
BIGFONT
  0
STYLE
  2
TextStyle03
 70
     0
 40
1.0
 41
1.0
 42
1.0
 50
0.0
 71
     0
  3
MONOTXT
  4
BIGFONT
  0
STYLE
  2
TextStyle04
 70
     0
 40
1.0
 41
1.0
 42
1.0
 50
0.0
 71
     0
  3
MONOTXT
  4
BIGFONT
  0
STYLE
  2
TextStyle05
 70
     0
 40
1.0
 41
1.0
 42
1.0
 50
0.0
 71
     0
  3
MONOTXT
  4
BIGFONT
  0
STYLE
  2
TextStyle06
 70
     0
 40
1.0
 41
1.0
 42
1.0
 50
0.0
 71
     0
  3
MONOTXT
  4
BIGFONT
  0
STYLE
  2
TextStyle07
 70
     0
 40
1.0
 41
1.0
 42
1.0
 50
0.0
 71
     0
  3
MONOTXT
  4
BIGFONT
  0
STYLE
  2
TextStyle08
 70
     0
 40
1.0
 41
1.0
 42
1.0
 50
0.0
 71
     0
  3
MONOTXT
  4
BIGFONT
  0
STYLE
  2
TextStyle09
 70
     0
 40
1.0
 41
1.0
 42
1.0
 50
0.0
 71
     0
  3
MONOTXT
  4
BIGFONT
  0
STYLE
  2
TextStyle10
 70
     0
 40
1.0
 41
1.0
 42
1.0
 50
0.0
 71
     0
  3
MONOTXT
  4
BIGFONT
  0
ENDTAB
  0
ENDSEC
  0
SECTION
  2
BLOCKS
  0
BLOCK
  2
*HAT_0001
 70
    65
 10
0.0
 20
0.0
  0
LINE
  8
ゴム等
 10
-71.625
 20
-24.1
 11
-73.2
 21
-25.675
  0
LINE
  8
ゴム等
 10
-74.175
 20
-26.575
 11
-75.525
 21
-27.925
  0
LINE
  8
ゴム等
 10
-70.275
 20
-24.1
 11
-75.525
 21
-29.35
  0
LINE
  8
ゴム等
 10
-68.85
 20
-24.1
 11
-75.525
 21
-30.775
  0
LINE
  8
ゴム等
 10
-68.025
 20
-24.625
 11
-74.925
 21
-31.6
  0
LINE
  8
ゴム等
 10
-67.725
 20
-25.825
 11
-73.5
 21
-31.6
  0
LINE
  8
ゴム等
 10
-67.125
 20
-26.575
 11
-72.075
 21
-31.6
  0
LINE
  8
ゴム等
 10
-65.7
 20
-26.575
 11
-70.35
 21
-31.225
  0
LINE
  8
ゴム等
 10
-65.475
 20
-27.85
 11
-69.3
 21
-31.6
  0
LINE
  8
ゴム等
 10
-65.475
 20
-29.2
 11
-67.875
 21
-31.6
  0
LINE
  8
ゴム等
 10
-65.475
 20
-30.625
 11
-66.45
 21
-31.6
  0
ENDBLK
  0
BLOCK
  2
*HAT_0002
 70
    65
 10
0.0
 20
0.0
  0
LINE
  8
ゴム等
  6
DOT
 10
-74.475
 20
18.2
 11
-76.725
 21
16.025
  0
LINE
  8
ゴム等
  6
DOT
 10
-74.475
 20
20.75
 11
-79.275
 21
16.025
  0
LINE
  8
ゴム等
  6
DOT
 10
-74.475
 20
23.3
 11
-80.7
 21
17.075
  0
LINE
  8
ゴム等
  6
DOT
 10
-74.475
 20
25.85
 11
-80.7
 21
19.625
  0
LINE
  8
ゴム等
  6
DOT
 10
-76.875
 20
26.0
 11
-80.7
 21
22.175
  0
LINE
  8
ゴム等
  6
DOT
 10
-79.425
 20
26.0
 11
-80.7
 21
24.725
  0
ENDBLK
  0
BLOCK
  2
*HAT_0003
 70
    65
 10
0.0
 20
0.0
  0
LINE
  8
ゴム等
  6
DOT
 10
25.675
 20
-59.8
 11
27.25
 21
-58.225
  0
LINE
  8
ゴム等
  6
DOT
 10
28.225
 20
-57.325
 11
29.575
 21
-55.975
  0
LINE
  8
ゴム等
  6
DOT
 10
24.325
 20
-59.8
 11
29.575
 21
-54.55
  0
LINE
  8
ゴム等
  6
DOT
 10
22.9
 20
-59.8
 11
29.575
 21
-53.125
  0
LINE
  8
ゴム等
  6
DOT
 10
22.075
 20
-59.2
 11
28.975
 21
-52.3
  0
LINE
  8
ゴム等
  6
DOT
 10
21.775
 20
-58.075
 11
27.55
 21
-52.3
  0
LINE
  8
ゴム等
  6
DOT
 10
21.175
 20
-57.325
 11
26.125
 21
-52.3
  0
LINE
  8
ゴム等
  6
DOT
 10
19.75
 20
-57.325
 11
24.4
 21
-52.6
  0
LINE
  8
ゴム等
  6
DOT
 10
19.525
 20
-56.05
 11
23.35
 21
-52.3
  0
LINE
  8
ゴム等
  6
DOT
 10
19.525
 20
-54.625
 11
21.925
 21
-52.3
  0
LINE
  8
ゴム等
  6
DOT
 10
19.525
 20
-53.2
 11
20.5
 21
-52.3
  0
ENDBLK
  0
BLOCK
  2
*HAT_0004
 70
    65
 10
0.0
 20
0.0
  0
LINE
  8
ゴム等
  6
DOT
 10
122.05
 20
-38.425
 11
120.475
 21
-40.0
  0
LINE
  8
ゴム等
  6
DOT
 10
119.5
 20
-40.975
 11
118.15
 21
-42.325
  0
LINE
  8
ゴム等
  6
DOT
 10
122.05
 20
-37.075
 11
116.725
 21
-42.325
  0
LINE
  8
ゴム等
  6
DOT
 10
122.05
 20
-35.65
 11
115.375
 21
-42.325
  0
LINE
  8
ゴム等
  6
DOT
 10
121.45
 20
-34.825
 11
114.55
 21
-41.725
  0
LINE
  8
ゴム等
  6
DOT
 10
120.25
 20
-34.525
 11
114.55
 21
-40.3
  0
LINE
  8
ゴム等
  6
DOT
 10
119.5
 20
-33.925
 11
114.55
 21
-38.875
  0
LINE
  8
ゴム等
  6
DOT
 10
119.5
 20
-32.5
 11
114.85
 21
-37.15
  0
LINE
  8
ゴム等
  6
DOT
 10
118.3
 20
-32.275
 11
114.55
 21
-36.1
  0
LINE
  8
ゴム等
  6
DOT
 10
116.875
 20
-32.275
 11
114.55
 21
-34.675
  0
LINE
  8
ゴム等
  6
DOT
 10
115.45
 20
-32.275
 11
114.55
 21
-33.25
  0
ENDBLK
  0
BLOCK
  2
*HAT_0005
 70
    65
 10
0.0
 20
0.0
  0
LINE
  8
ゴム等
 10
16.525
 20
-42.025
 11
15.55
 21
-41.125
  0
LINE
  8
ゴム等
 10
16.525
 20
-43.9
 11
13.15
 21
-40.525
  0
LINE
  8
ゴム等
 10
10.525
 20
-37.9
 11
9.925
 21
-37.3
  0
LINE
  8
ゴム等
 10
16.525
 20
-45.775
 11
12.025
 21
-41.275
  0
LINE
  8
ゴム等
 10
10.525
 20
-39.775
 11
8.05
 21
-37.3
  0
LINE
  8
ゴム等
 10
16.525
 20
-47.65
 11
14.95
 21
-46.075
  0
LINE
  8
ゴム等
 10
12.7
 20
-43.825
 11
6.85
 21
-37.975
  0
LINE
  8
ゴム等
 10
16.3
 20
-49.375
 11
13.75
 21
-46.825
  0
LINE
  8
ゴム等
 10
10.975
 20
-43.975
 11
6.325
 21
-39.325
  0
LINE
  8
ゴム等
 10
14.8
 20
-49.675
 11
11.875
 21
-46.825
  0
LINE
  8
ゴム等
 10
10.525
 20
-45.475
 11
6.325
 21
-41.275
  0
LINE
  8
ゴム等
 10
13.3
 20
-50.05
 11
12.7
 21
-49.525
  0
LINE
  8
ゴム等
 10
12.55
 20
-49.3
 11
6.325
 21
-43.075
  0
LINE
  8
ゴム等
 10
10.6
 20
-49.3
 11
6.325
 21
-45.025
  0
LINE
  8
ゴム等
 10
10.525
 20
-51.1
 11
6.325
 21
-46.9
  0
LINE
  8
ゴム等
 10
8.8
 20
-51.325
 11
6.325
 21
-48.775
  0
LINE
  8
ゴム等
 10
7.825
 20
-52.15
 11
6.325
 21
-50.65
  0
LINE
  8
ゴム等
 10
7.6
 20
-53.8
 11
6.325
 21
-52.525
  0
ENDBLK
  0
BLOCK
  2
*HAT_0006
 70
    65
 10
0.0
 20
0.0
  0
LINE
  8
ゴム等
 10
13.375
 20
-54.7
 11
12.325
 21
-53.725
  0
LINE
  8
ゴム等
 10
10.375
 20
-51.7
 11
10.3
 21
-51.7
  0
LINE
  8
ゴム等
 10
16.825
 20
-60.1
 11
15.475
 21
-58.75
  0
LINE
  8
ゴム等
 10
13.375
 20
-56.65
 11
10.45
 21
-53.725
  0
LINE
  8
ゴム等
 10
10.375
 20
-53.65
 11
8.425
 21
-51.7
  0
LINE
  8
ゴム等
 10
16.825
 20
-62.05
 11
14.575
 21
-59.725
  0
LINE
  8
ゴム等
 10
13.375
 20
-58.525
 11
7.825
 21
-53.05
  0
LINE
  8
ゴム等
 10
16.825
 20
-63.85
 11
7.825
 21
-54.85
  0
LINE
  8
ゴム等
 10
16.225
 20
-65.2
 11
7.825
 21
-56.8
  0
LINE
  8
ゴム等
 10
13.9
 20
-64.75
 11
7.225
 21
-58.0
  0
LINE
  8
ゴム等
 10
13.375
 20
-66.025
 11
6.775
 21
-59.5
  0
LINE
  8
ゴム等
 10
13.375
 20
-67.9
 11
6.475
 21
-61.0
  0
LINE
  8
ゴム等
 10
12.25
 20
-68.725
 11
6.325
 21
-62.8
  0
LINE
  8
ゴム等
 10
10.375
 20
-68.725
 11
6.55
 21
-64.9
  0
LINE
  8
ゴム等
 10
8.425
 20
-68.725
 11
7.3
 21
-67.525
  0
ENDBLK
  0
BLOCK
  2
*HAT_0007
 70
    65
 10
0.0
 20
0.0
  0
LINE
  8
別途部材
  6
DOT
 10
135.025
 20
-73.75
 11
134.8
 21
-73.975
  0
LINE
  8
別途部材
  6
DOT
 10
135.025
 20
-71.275
 11
132.25
 21
-73.975
  0
LINE
  8
別途部材
  6
DOT
 10
135.025
 20
-68.725
 11
129.7
 21
-73.975
  0
LINE
  8
別途部材
  6
DOT
 10
135.025
 20
-66.175
 11
127.15
 21
-73.975
  0
LINE
  8
別途部材
  6
DOT
 10
134.65
 20
-64.0
 11
124.975
 21
-73.6
  0
LINE
  8
別途部材
  6
DOT
 10
132.1
 20
-64.0
 11
124.975
 21
-71.05
  0
LINE
  8
別途部材
  6
DOT
 10
129.55
 20
-64.0
 11
124.975
 21
-68.575
  0
LINE
  8
別途部材
  6
DOT
 10
127.0
 20
-64.0
 11
124.975
 21
-66.025
  0
ENDBLK
  0
BLOCK
  2
*GRP_0001
 70
    65
 10
0.0
 20
0.0
  0
LINE
  8
型材断面
  6
CONTINUOUS
 10
195.0
 20
135.862938
 11
195.0
 21
-131.137062
  0
LINE
  8
型材断面
  6
CONTINUOUS
 10
195.0
 20
-131.137062
 11
-185.000003
 21
-131.137062
  0
LINE
  8
型材断面
  6
CONTINUOUS
 10
-185.000003
 20
-131.137062
 11
-185.000003
 21
135.862938
  0
LINE
  8
型材断面
  6
CONTINUOUS
 10
195.0
 20
135.862938
 11
-185.000003
 21
135.862938
  0
LINE
  8
型材断面
  6
CONTINUOUS
 10
145.0
 20
-131.137062
 11
145.0
 21
-116.137062
  0
LINE
  8
型材断面
  6
CONTINUOUS
 10
195.0
 20
-116.137062
 11
145.0
 21
-116.137062
  0
ENDBLK
  0
BLOCK
  2
*GRP_0002
 70
    65
 10
0.0
 20
0.0
  0
LINE
  8
通り芯
  6
CONTINUOUS
 10
-62.780353
 20
-12.286833
 11
-52.680313
 21
-12.286833
  0
LINE
  8
通り芯
  6
CONTINUOUS
 10
-62.780353
 20
5.608768
 11
-65.080355
 21
5.608768
  0
LINE
  8
通り芯
  6
CONTINUOUS
 10
-80.280357
 20
0.608765
 11
-78.780357
 21
0.608765
  0
LINE
  8
通り芯
  6
CONTINUOUS
 10
-78.780357
 20
-1.591233
 11
-78.780357
 21
0.608765
  0
LINE
  8
通り芯
  6
CONTINUOUS
 10
-62.780353
 20
5.608768
 11
-62.780353
 21
-1.591233
  0
LINE
  8
通り芯
  6
CONTINUOUS
 10
-80.280357
 20
0.608765
 11
-80.280357
 21
-1.591233
  0
LINE
  8
通り芯
  6
CONTINUOUS
 10
-62.780353
 20
-1.591233
 11
-78.780357
 21
-1.591233
  0
LINE
  8
通り芯
  6
CONTINUOUS
 10
-80.280357
 20
-1.591233
 11
-82.580375
 21
-1.591233
  0
LINE
  8
通り芯
  6
CONTINUOUS
 10
-82.580375
 20
-3.091233
 11
-82.580375
 21
-1.591233
  0
LINE
  8
通り芯
  6
CONTINUOUS
 10
-62.780353
 20
-12.286833
 11
-62.780353
 21
-3.091233
  0
LINE
  8
通り芯
  6
CONTINUOUS
 10
-60.780313
 20
-10.786833
 11
-60.78038
 21
27.408763
  0
LINE
  8
通り芯
  6
CONTINUOUS
 10
-62.780338
 20
7.108768
 11
-62.78039
 21
26.208755
  0
LINE
  8
通り芯
  6
CONTINUOUS
 10
-60.78038
 20
27.408763
 11
-64.780393
 21
27.408748
  0
LINE
  8
通り芯
  6
CONTINUOUS
 10
-64.780393
 20
27.408748
 11
-64.780393
 21
26.208755
  0
LINE
  8
通り芯
  6
CONTINUOUS
 10
-62.78039
 20
26.208755
 11
-64.780393
 21
26.208755
  0
LINE
  8
通り芯
  6
CONTINUOUS
 10
-62.780353
 20
7.108768
 11
-66.580355
 21
7.108768
  0
LINE
  8
通り芯
  6
CONTINUOUS
 10
-66.580355
 20
7.108768
 11
-66.580355
 21
3.10877
  0
LINE
  8
通り芯
  6
CONTINUOUS
 10
-66.580355
 20
3.10877
 11
-65.080355
 21
3.10877
  0
LINE
  8
通り芯
  6
CONTINUOUS
 10
-65.080355
 20
5.608768
 11
-65.080355
 21
3.10877
  0
LINE
  8
通り芯
  6
CONTINUOUS
 10
-55.680313
 20
-11.086833
 11
-55.980313
 21
-10.786833
  0
LINE
  8
通り芯
  6
CONTINUOUS
 10
-55.680313
 20
-11.086833
 11
-55.380313
 21
-10.786833
  0
LINE
  8
通り芯
  6
CONTINUOUS
 10
-57.980315
 20
-10.786833
 11
-57.980315
 21
-9.586833
  0
LINE
  8
通り芯
  6
CONTINUOUS
 10
-53.38031
 20
-9.586833
 11
-52.680313
 21
-9.586833
  0
LINE
  8
通り芯
  6
CONTINUOUS
 10
-55.380313
 20
-10.786833
 11
-53.38031
 21
-10.786833
  0
LINE
  8
通り芯
  6
CONTINUOUS
 10
-53.38031
 20
-9.586833
 11
-53.38031
 21
-10.786833
  0
LINE
  8
通り芯
  6
CONTINUOUS
 10
-57.980315
 20
-10.786833
 11
-55.980313
 21
-10.786833
  0
LINE
  8
通り芯
  6
CONTINUOUS
 10
-57.980315
 20
-9.586833
 11
-58.680313
 21
-9.586833
  0
LINE
  8
通り芯
  6
CONTINUOUS
 10
-58.680313
 20
-9.586833
 11
-58.680313
 21
-10.786833
  0
LINE
  8
通り芯
  6
CONTINUOUS
 10
-60.780313
 20
-10.786833
 11
-58.680313
 21
-10.786833
  0
LINE
  8
通り芯
  6
CONTINUOUS
 10
-52.680313
 20
-12.286833
 11
-52.680313
 21
-9.586833
  0
LINE
  8
通り芯
  6
CONTINUOUS
 10
-75.580378
 20
-6.391233
 11
-75.580378
 21
-3.091233
  0
LINE
  8
通り芯
  6
CONTINUOUS
 10
-62.780353
 20
-3.091233
 11
-75.580378
 21
-3.091233
  0
LINE
  8
通り芯
  6
CONTINUOUS
 10
-77.080378
 20
-4.891233
 11
-77.080378
 21
-3.091233
  0
LINE
  8
通り芯
  6
CONTINUOUS
 10
-82.580375
 20
-3.091233
 11
-77.080378
 21
-3.091233
  0
LINE
  8
通り芯
  6
CONTINUOUS
 10
-75.580378
 20
-6.391233
 11
-80.080378
 21
-6.391233
  0
LINE
  8
通り芯
  6
CONTINUOUS
 10
-80.080378
 20
-6.391233
 11
-80.080378
 21
-4.891233
  0
LINE
  8
通り芯
  6
CONTINUOUS
 10
-77.080378
 20
-4.891233
 11
-80.080378
 21
-4.891233
  0
ENDBLK
  0
BLOCK
  2
*GRP_0003
 70
    65
 10
0.0
 20
0.0
  0
LINE
  8
通り芯
  6
CONTINUOUS
 10
-7.733597
 20
-73.686825
 11
-7.733597
 21
-71.686823
  0
LINE
  8
通り芯
  6
CONTINUOUS
 10
-11.233593
 20
-73.686825
 11
-11.233593
 21
-71.686823
  0
LINE
  8
通り芯
  6
CONTINUOUS
 10
-11.233593
 20
-73.186823
 11
-7.733597
 21
-73.186823
  0
LINE
  8
通り芯
  6
CONTINUOUS
 10
-11.233593
 20
-72.68682
 11
-7.733597
 21
-72.68682
  0
LINE
  8
通り芯
  6
CONTINUOUS
 10
-11.233593
 20
-72.186825
 11
-7.733597
 21
-72.186825
  0
INSERT
  2
*GRP_0041
  8
通り芯
  6
CONTINUOUS
 10
0.0
 20
0.0
  0
LINE
  8
型材断面
  6
CONTINUOUS
 10
-11.233593
 20
-74.68683
 11
-7.73359
 21
-74.68683
  0
LINE
  8
型材断面
  6
CONTINUOUS
 10
-11.233593
 20
-74.186827
 11
-7.73359
 21
-74.186827
  0
LINE
  8
型材断面
  6
CONTINUOUS
 10
-11.233593
 20
-73.686825
 11
-11.233593
 21
-75.186835
  0
LINE
  8
型材断面
  6
CONTINUOUS
 10
-7.73359
 20
-73.686825
 11
-7.73359
 21
-75.186835
  0
LINE
  8
型材断面
  6
CONTINUOUS
 10
-9.483597
 20
-68.257972
 11
-9.483597
 21
-78.67728
  0
ENDBLK
  0
BLOCK
  2
*GRP_0004
 70
    65
 10
0.0
 20
0.0
  0
LINE
  8
通り芯
  6
CONTINUOUS
 10
-29.819098
 20
-63.988018
 11
-28.27223
 21
-62.720262
  0
LINE
  8
通り芯
  6
CONTINUOUS
 10
-32.037668
 20
-61.281005
 11
-30.490798
 21
-60.01325
  0
LINE
  8
通り芯
  6
CONTINUOUS
 10
-31.650947
 20
-60.964065
 11
-29.43238
 21
-63.671077
  0
LINE
  8
通り芯
  6
CONTINUOUS
 10
-31.26423
 20
-60.647125
 11
-29.04566
 21
-63.354137
  0
LINE
  8
通り芯
  6
CONTINUOUS
 10
-30.87752
 20
-60.33019
 11
-28.65895
 21
-63.037202
  0
INSERT
  2
*GRP_0042
  8
通り芯
  6
CONTINUOUS
 10
0.0
 20
0.0
  0
LINE
  8
型材断面
  6
CONTINUOUS
 10
-32.811103
 20
-61.914887
 11
-30.59253
 21
-64.621905
  0
LINE
  8
型材断面
  6
CONTINUOUS
 10
-32.424385
 20
-61.597945
 11
-30.205812
 21
-64.304965
  0
LINE
  8
型材断面
  6
CONTINUOUS
 10
-32.037668
 20
-61.281005
 11
-33.197825
 21
-62.231827
  0
LINE
  8
型材断面
  6
CONTINUOUS
 10
-29.819092
 20
-63.988025
 11
-30.97925
 21
-64.938847
  0
LINE
  8
型材断面
  6
CONTINUOUS
 10
-26.72953
 20
-59.193285
 11
-34.788167
 21
-65.79785
  0
ENDBLK
  0
BLOCK
  2
*GRP_0005
 70
    65
 10
0.0
 20
0.0
  0
LINE
  8
通り芯
  6
CONTINUOUS
 10
-48.472167
 20
-41.22825
 11
-46.9253
 21
-39.960495
  0
LINE
  8
通り芯
  6
CONTINUOUS
 10
-50.690737
 20
-38.521238
 11
-49.143868
 21
-37.253482
  0
LINE
  8
通り芯
  6
CONTINUOUS
 10
-50.304018
 20
-38.204298
 11
-48.08545
 21
-40.91131
  0
LINE
  8
通り芯
  6
CONTINUOUS
 10
-49.9173
 20
-37.887357
 11
-47.69873
 21
-40.59437
  0
LINE
  8
通り芯
  6
CONTINUOUS
 10
-49.530588
 20
-37.570423
 11
-47.312018
 21
-40.277435
  0
INSERT
  2
*GRP_0043
  8
通り芯
  6
CONTINUOUS
 10
0.0
 20
0.0
  0
LINE
  8
型材断面
  6
CONTINUOUS
 10
-51.464173
 20
-39.15512
 11
-49.2456
 21
-41.862137
  0
LINE
  8
型材断面
  6
CONTINUOUS
 10
-51.077455
 20
-38.838177
 11
-48.858882
 21
-41.545197
  0
LINE
  8
型材断面
  6
CONTINUOUS
 10
-50.690737
 20
-38.521238
 11
-51.850895
 21
-39.47206
  0
LINE
  8
型材断面
  6
CONTINUOUS
 10
-48.472163
 20
-41.228258
 11
-49.63232
 21
-42.17908
  0
LINE
  8
型材断面
  6
CONTINUOUS
 10
-45.382597
 20
-36.433518
 11
-53.441237
 21
-43.038083
  0
ENDBLK
  0
BLOCK
  2
*GRP_0006
 70
    65
 10
0.0
 20
0.0
  0
POLYLINE
  8
寸法
  6
BYBLOCK
 62
     0
 66
     1
  0
VERTEX
  8
寸法
 10
-51.180313
 20
-6.988757
  0
VERTEX
  8
寸法
 10
-52.680313
 20
-9.586833
  0
VERTEX
  8
寸法
 10
-50.082237
 20
-8.086833
  0
SEQEND
  0
POLYLINE
  8
寸法
  6
BYBLOCK
 62
     0
 66
     1
  0
VERTEX
  8
寸法
 10
-52.680313
 20
-9.586833
  0
VERTEX
  8
寸法
 10
-45.853342
 20
-2.759862
  0
VERTEX
  8
寸法
 10
-45.853342
 20
17.607485
  0
SEQEND
  0
ENDBLK
  0
BLOCK
  2
*GRP_0007
 70
    65
 10
0.0
 20
0.0
  0
LINE
  8
型材断面
  6
DOT
 10
-80.780353
 20
2.608768
 11
-64.780347
 21
2.608768
  0
LINE
  8
型材断面
  6
DOT
 10
-80.780353
 20
26.208763
 11
-80.780353
 21
2.608768
  0
ARC
  8
型材断面
  6
DOT
 10
-82.480346
 20
27.108783
 40
0.3
 50
90.0
 51
180.0
  0
LINE
  8
型材断面
  6
DOT
 10
-80.780353
 20
26.208763
 11
-80.080347
 21
26.208763
  0
ARC
  8
型材断面
  6
DOT
 10
-80.080346
 20
26.508783
 40
0.3
 50
270.0
 51
360.0
  0
LINE
  8
型材断面
  6
DOT
 10
-79.780347
 20
27.108763
 11
-79.780347
 21
26.508763
  0
LINE
  8
型材断面
  6
DOT
 10
-80.080347
 20
27.408763
 11
-82.480347
 21
27.408763
  0
ARC
  8
型材断面
  6
DOT
 10
-80.080346
 20
27.108783
 40
0.3
 50
0.0
 51
90.0
  0
LINE
  8
型材断面
  6
DOT
 10
-82.780347
 20
27.108763
 11
-82.780347
 21
0.908765
  0
LINE
  8
型材断面
  6
DOT
 10
-82.480347
 20
0.608765
 11
-78.280347
 21
0.608765
  0
ARC
  8
型材断面
  6
DOT
 10
-82.480346
 20
0.908783
 40
0.3
 50
180.0
 51
270.0
  0
LINE
  8
型材断面
  6
DOT
 10
-76.780347
 20
0.608765
 11
-63.080353
 21
0.608765
  0
ARC
  8
型材断面
  6
DOT
 10
-63.080346
 20
0.908783
 40
0.3
 50
270.0
 51
360.0
  0
LINE
  8
型材断面
  6
DOT
 10
-62.780353
 20
5.008768
 11
-62.780353
 21
0.908765
  0
ARC
  8
型材断面
  6
DOT
 10
-63.080346
 20
5.008783
 40
0.3
 50
0.0
 51
90.0
  0
LINE
  8
型材断面
  6
DOT
 10
-64.480347
 20
5.308768
 11
-63.080353
 21
5.308768
  0
LINE
  8
型材断面
  6
DOT
 10
-64.780347
 20
5.008768
 11
-64.780347
 21
2.608768
  0
ARC
  8
型材断面
  6
DOT
 10
-64.480346
 20
5.008783
 40
0.3
 50
90.0
 51
180.0
  0
LINE
  8
型材断面
  6
DOT
 10
-78.280347
 20
-0.891235
 11
-78.280347
 21
0.608765
  0
ARC
  8
型材断面
  6
DOT
 10
-77.980346
 20
-0.891217
 40
0.3
 50
180.0
 51
270.0
  0
LINE
  8
型材断面
  6
DOT
 10
-77.980347
 20
-1.191235
 11
-77.080347
 21
-1.191235
  0
LINE
  8
型材断面
  6
DOT
 10
-76.780347
 20
-0.891235
 11
-76.780347
 21
0.608765
  0
ARC
  8
型材断面
  6
DOT
 10
-77.080346
 20
-0.891217
 40
0.3
 50
270.0
 51
360.0
  0
ENDBLK
  0
BLOCK
  2
*GRP_0008
 70
    65
 10
0.0
 20
0.0
  0
LINE
  8
ゴム等
  6
CONTINUOUS
 10
-72.980443
 20
-24.086762
 11
-73.480445
 21
-26.58676
  0
LINE
  8
ゴム等
  6
CONTINUOUS
 10
-67.680447
 20
-26.58676
 11
-68.180443
 21
-24.086762
  0
LINE
  8
ゴム等
  6
CONTINUOUS
 10
-65.580447
 20
-31.586762
 11
-65.580447
 21
-26.58676
  0
LINE
  8
ゴム等
  6
CONTINUOUS
 10
-75.580445
 20
-31.586762
 11
-75.580445
 21
-26.58676
  0
LINE
  8
ゴム等
  6
CONTINUOUS
 10
-72.980443
 20
-24.086762
 11
-68.180443
 21
-24.086762
  0
LINE
  8
ゴム等
  6
CONTINUOUS
 10
-65.580447
 20
-26.58676
 11
-67.680447
 21
-26.58676
  0
LINE
  8
ゴム等
  6
CONTINUOUS
 10
-73.480445
 20
-26.58676
 11
-75.580445
 21
-26.58676
  0
LINE
  8
ゴム等
  6
CONTINUOUS
 10
-70.580443
 20
-31.08676
 11
-70.080447
 21
-31.586762
  0
LINE
  8
ゴム等
  6
CONTINUOUS
 10
-70.580443
 20
-31.08676
 11
-71.080445
 21
-31.586762
  0
LINE
  8
ゴム等
  6
CONTINUOUS
 10
-75.580445
 20
-31.586762
 11
-71.080445
 21
-31.586762
  0
LINE
  8
ゴム等
  6
CONTINUOUS
 10
-70.080447
 20
-31.586762
 11
-65.580447
 21
-31.586762
  0
INSERT
  2
*HAT_0001
  8
ゴム等
 10
0.0
 20
0.0
  0
ENDBLK
  0
BLOCK
  2
*GRP_0009
 70
    65
 10
0.0
 20
0.0
  0
LINE
  8
ゴム等
  6
CONTINUOUS
 10
-67.780393
 20
26.208755
 11
-62.78039
 21
26.208755
  0
LINE
  8
ゴム等
  6
CONTINUOUS
 10
-67.780393
 20
26.208755
 11
-67.780393
 21
16.208757
  0
LINE
  8
ゴム等
  6
CONTINUOUS
 10
-67.780393
 20
16.208757
 11
-62.78039
 21
16.208757
  0
LINE
  8
ゴム等
  6
CONTINUOUS
 10
-62.78039
 20
26.208755
 11
-62.78039
 21
16.208757
  0
LINE
  8
ゴム等
  6
CONTINUOUS
 10
-64.110515
 20
16.208757
 11
-62.78039
 21
17.538883
  0
LINE
  8
ゴム等
  6
CONTINUOUS
 10
-65.52473
 20
16.208757
 11
-62.78039
 21
18.953097
  0
LINE
  8
ゴム等
  6
CONTINUOUS
 10
-66.938937
 20
16.208757
 11
-62.78039
 21
20.367305
  0
LINE
  8
ゴム等
  6
CONTINUOUS
 10
-67.780393
 20
19.609948
 11
-62.78039
 21
24.60995
  0
LINE
  8
ゴム等
  6
CONTINUOUS
 10
-67.780393
 20
18.195732
 11
-62.78039
 21
23.195735
  0
LINE
  8
ゴム等
  6
CONTINUOUS
 10
-67.780393
 20
16.781525
 11
-62.78039
 21
21.78152
  0
LINE
  8
ゴム等
  6
CONTINUOUS
 10
-67.780393
 20
21.024163
 11
-62.78039
 21
26.024165
  0
LINE
  8
ゴム等
  6
CONTINUOUS
 10
-67.780393
 20
22.438378
 11
-64.010008
 21
26.208755
  0
LINE
  8
ゴム等
  6
CONTINUOUS
 10
-67.780393
 20
23.852585
 11
-65.424222
 21
26.208755
  0
LINE
  8
ゴム等
  6
CONTINUOUS
 10
-67.780393
 20
25.2668
 11
-66.838437
 21
26.208755
  0
ENDBLK
  0
BLOCK
  2
*GRP_0010
 70
    65
 10
0.0
 20
0.0
  0
LINE
  8
ゴム等
  6
CONTINUOUS
 10
-65.58038
 20
-31.591233
 11
-65.58038
 21
-26.59123
  0
LINE
  8
ゴム等
  6
CONTINUOUS
 10
-65.58038
 20
-31.591233
 11
-75.580378
 21
-31.591233
  0
LINE
  8
ゴム等
  6
CONTINUOUS
 10
-75.580378
 20
-31.591233
 11
-75.580378
 21
-26.59123
  0
LINE
  8
ゴム等
  6
CONTINUOUS
 10
-65.58038
 20
-26.59123
 11
-75.580378
 21
-26.59123
  0
LINE
  8
ゴム等
  6
CONTINUOUS
 10
-75.580378
 20
-27.921355
 11
-74.250252
 21
-26.59123
  0
LINE
  8
ゴム等
  6
CONTINUOUS
 10
-75.580378
 20
-29.33557
 11
-72.83604
 21
-26.59123
  0
LINE
  8
ゴム等
  6
CONTINUOUS
 10
-75.580378
 20
-30.749777
 11
-71.42183
 21
-26.59123
  0
LINE
  8
ゴム等
  6
CONTINUOUS
 10
-72.179187
 20
-31.591233
 11
-67.179185
 21
-26.59123
  0
LINE
  8
ゴム等
  6
CONTINUOUS
 10
-73.593402
 20
-31.591233
 11
-68.5934
 21
-26.59123
  0
LINE
  8
ゴム等
  6
CONTINUOUS
 10
-75.007612
 20
-31.591233
 11
-70.007615
 21
-26.59123
  0
LINE
  8
ゴム等
  6
CONTINUOUS
 10
-70.764973
 20
-31.591233
 11
-65.76497
 21
-26.59123
  0
LINE
  8
ゴム等
  6
CONTINUOUS
 10
-69.350757
 20
-31.591233
 11
-65.58038
 21
-27.820848
  0
LINE
  8
ゴム等
  6
CONTINUOUS
 10
-67.93655
 20
-31.591233
 11
-65.58038
 21
-29.235063
  0
LINE
  8
ゴム等
  6
CONTINUOUS
 10
-66.522337
 20
-31.591233
 11
-65.58038
 21
-30.649277
  0
ENDBLK
  0
BLOCK
  2
*GRP_0011
 70
    65
 10
0.0
 20
0.0
  0
LINE
  8
ゴム等
  6
DOT
 10
-80.780353
 20
26.208763
 11
-74.58035
 21
26.208763
  0
LINE
  8
ゴム等
  6
DOT
 10
-74.58035
 20
26.208763
 11
-74.58035
 21
16.208765
  0
LINE
  8
ゴム等
  6
DOT
 10
-74.58035
 20
16.208765
 11
-80.780353
 21
16.208765
  0
LINE
  8
ゴム等
  6
DOT
 10
-80.780353
 20
26.208763
 11
-80.780353
 21
16.208765
  0
INSERT
  2
*HAT_0002
  8
ゴム等
 10
0.0
 20
0.0
  0
ENDBLK
  0
BLOCK
  2
*GRP_0012
 70
    65
 10
0.0
 20
0.0
  0
LINE
  8
ゴム等
  6
CONTINUOUS
 10
-0.88038
 20
-54.886825
 11
-3.380375
 21
-54.38683
  0
LINE
  8
ゴム等
  6
CONTINUOUS
 10
-3.380375
 20
-60.186827
 11
-0.88038
 21
-59.686825
  0
LINE
  8
ゴム等
  6
CONTINUOUS
 10
-8.38038
 20
-62.286827
 11
-3.380375
 21
-62.286827
  0
LINE
  8
ゴム等
  6
CONTINUOUS
 10
-8.38038
 20
-52.28683
 11
-3.380375
 21
-52.28683
  0
LINE
  8
ゴム等
  6
CONTINUOUS
 10
-0.88038
 20
-54.886825
 11
-0.88038
 21
-59.686825
  0
LINE
  8
ゴム等
  6
CONTINUOUS
 10
-3.380375
 20
-62.286827
 11
-3.380375
 21
-60.186827
  0
LINE
  8
ゴム等
  6
CONTINUOUS
 10
-3.380375
 20
-54.38683
 11
-3.380375
 21
-52.28683
  0
LINE
  8
ゴム等
  6
CONTINUOUS
 10
-7.880375
 20
-57.286825
 11
-8.38038
 21
-57.786827
  0
LINE
  8
ゴム等
  6
CONTINUOUS
 10
-7.880375
 20
-57.286825
 11
-8.38038
 21
-56.78683
  0
LINE
  8
ゴム等
  6
CONTINUOUS
 10
-8.38038
 20
-52.28683
 11
-8.38038
 21
-56.78683
  0
LINE
  8
ゴム等
  6
CONTINUOUS
 10
-8.38038
 20
-57.786827
 11
-8.38038
 21
-62.286827
  0
LINE
  8
ゴム等
  6
CONTINUOUS
 10
-0.88038
 20
-57.058907
 11
-5.652455
 21
-52.28683
  0
LINE
  8
ゴム等
  6
CONTINUOUS
 10
-0.88038
 20
-59.180223
 11
-7.77377
 21
-52.28683
  0
LINE
  8
ゴム等
  6
CONTINUOUS
 10
-2.225983
 20
-59.955948
 11
-8.38038
 21
-53.801552
  0
LINE
  8
ゴム等
  6
CONTINUOUS
 10
-3.380375
 20
-60.92287
 11
-8.38038
 21
-55.922868
  0
LINE
  8
ゴム等
  6
CONTINUOUS
 10
-6.259062
 20
-62.286827
 11
-8.38038
 21
-60.165513
  0
LINE
  8
ゴム等
  6
CONTINUOUS
 10
-4.137733
 20
-62.286827
 11
-8.38038
 21
-58.044182
  0
ENDBLK
  0
BLOCK
  2
*GRP_0013
 70
    65
 10
0.0
 20
0.0
  0
LINE
  8
ボルト／ビス
  6
CONTINUOUS
 10
-93.08765
 20
-23.2868
 11
-95.087652
 21
-23.2868
  0
LINE
  8
ボルト／ビス
  6
CONTINUOUS
 10
-95.087652
 20
-23.2868
 11
-95.087652
 21
-1.286795
  0
LINE
  8
ボルト／ビス
  6
CONTINUOUS
 10
-95.087652
 20
-1.286795
 11
-93.08765
 21
-1.286795
  0
LINE
  8
ボルト／ビス
  6
CONTINUOUS
 10
-93.08765
 20
-23.2868
 11
-93.08765
 21
-1.286795
  0
LINE
  8
ボルト／ビス
  6
CONTINUOUS
 10
-96.08765
 20
-21.286798
 11
-95.087652
 21
-21.286798
  0
LINE
  8
ボルト／ビス
  6
CONTINUOUS
 10
-96.08765
 20
-21.286798
 11
-96.08765
 21
-3.286798
  0
LINE
  8
ボルト／ビス
  6
CONTINUOUS
 10
-96.08765
 20
-3.286798
 11
-95.087652
 21
-3.286798
  0
LINE
  8
ボルト／ビス
  6
CONTINUOUS
 62
    64
 10
-102.08765
 20
-17.098048
 11
-101.737422
 21
-18.060297
  0
ARC
  8
ボルト／ビス
  6
CONTINUOUS
 62
    64
 10
-98.938299
 20
-16.616918
 40
3.149352
 50
152.721967
 51
180.0
  0
ARC
  8
ボルト／ビス
  6
CONTINUOUS
 62
    64
 10
-90.015584
 20
-12.286791
 40
12.072067
 50
166.165002
 51
193.834985
  0
LINE
  8
ボルト／ビス
  6
CONTINUOUS
 62
    64
 10
-102.08765
 20
-7.475547
 11
-101.737422
 21
-6.513298
  0
ARC
  8
ボルト／ビス
  6
CONTINUOUS
 62
    64
 10
-98.938299
 20
-7.956663
 40
3.149352
 50
180.0
 51
207.278033
  0
LINE
  8
ボルト／ビス
  6
CONTINUOUS
 62
    64
 10
-102.08765
 20
-17.098048
 11
-102.08765
 21
-7.475547
  0
LINE
  8
ボルト／ビス
  6
CONTINUOUS
 62
    64
 10
-101.737422
 20
-6.513298
 11
-98.087652
 21
-6.513298
  0
LINE
  8
ボルト／ビス
  6
CONTINUOUS
 62
    64
 10
-101.737422
 20
-9.400047
 11
-98.087652
 21
-9.400047
  0
LINE
  8
ボルト／ビス
  6
CONTINUOUS
 62
    64
 10
-101.737422
 20
-18.060297
 11
-98.087652
 21
-18.060297
  0
LINE
  8
ボルト／ビス
  6
CONTINUOUS
 62
    64
 10
-101.737422
 20
-15.173548
 11
-98.087652
 21
-15.173548
  0
LINE
  8
ボルト／ビス
  6
CONTINUOUS
 62
    64
 10
-68.087652
 20
-14.5868
 11
-68.087652
 21
-9.986795
  0
LINE
  8
ボルト／ビス
  6
CONTINUOUS
 62
    64
 10
-69.08765
 20
-9.286798
 11
-68.087652
 21
-9.986795
  0
LINE
  8
ボルト／ビス
  6
CONTINUOUS
 62
    64
 10
-69.08765
 20
-15.286798
 11
-68.087652
 21
-14.5868
  0
LINE
  8
ボルト／ビス
  6
CONTINUOUS
 62
    64
 10
-69.08765
 20
-15.286798
 11
-69.08765
 21
-9.286798
  0
LINE
  8
ボルト／ビス
  6
CONTINUOUS
 62
    64
 10
-68.087652
 20
-14.5868
 11
-68.087652
 21
-9.986795
  0
LINE
  8
ボルト／ビス
  6
CONTINUOUS
 10
-98.087652
 20
-18.060297
 11
-98.087652
 21
-6.513298
  0
LINE
  8
ボルト／ビス
  6
CONTINUOUS
 10
-98.087652
 20
-18.286798
 11
-96.08765
 21
-18.286798
  0
LINE
  8
ボルト／ビス
  6
CONTINUOUS
 10
-98.087652
 20
-18.286798
 11
-98.087652
 21
-6.286798
  0
LINE
  8
ボルト／ビス
  6
CONTINUOUS
 10
-98.087652
 20
-6.286798
 11
-96.08765
 21
-6.286798
  0
LINE
  8
ボルト／ビス
  6
CONTINUOUS
 62
    64
 10
-93.08765
 20
-9.986795
 11
-68.087652
 21
-9.986795
  0
LINE
  8
ボルト／ビス
  6
CONTINUOUS
 62
    64
 10
-93.08765
 20
-14.5868
 11
-68.087652
 21
-14.5868
  0
LINE
  8
ボルト／ビス
  6
CONTINUOUS
 62
    64
 10
-93.08765
 20
-15.286798
 11
-69.08765
 21
-15.286798
  0
LINE
  8
ボルト／ビス
  6
CONTINUOUS
 62
    64
 10
-93.08765
 20
-9.286798
 11
-69.08765
 21
-9.286798
  0
ENDBLK
  0
BLOCK
  2
*GRP_0014
 70
    65
 10
0.0
 20
0.0
  0
LINE
  8
ボルト／ビス
  6
CONTINUOUS
 10
-74.080445
 20
-33.586765
 11
-73.988742
 21
-34.634927
  0
ARC
  8
ボルト／ビス
  6
CONTINUOUS
 10
-72.295214
 20
-34.486761
 40
1.7
 50
184.999989
 51
270.0
  0
LINE
  8
ボルト／ビス
  6
CONTINUOUS
 10
-72.295212
 20
-36.18676
 11
-70.580443
 21
-36.18676
  0
LINE
  8
ボルト／ビス
  6
CONTINUOUS
 10
-67.080447
 20
-33.586765
 11
-67.17215
 21
-34.634927
  0
ARC
  8
ボルト／ビス
  6
CONTINUOUS
 10
-68.86568
 20
-34.486761
 40
1.7
 50
270.0
 51
355.000011
  0
LINE
  8
ボルト／ビス
  6
CONTINUOUS
 10
-68.86568
 20
-36.18676
 11
-70.580443
 21
-36.18676
  0
LINE
  8
ボルト／ビス
  6
CONTINUOUS
 10
-72.977082
 20
-35.80186
 11
-72.977082
 21
-36.04402
  0
LINE
  8
ボルト／ビス
  6
CONTINUOUS
 10
-71.280447
 20
-35.151775
 11
-70.580443
 21
-35.151775
  0
LINE
  8
ボルト／ビス
  6
CONTINUOUS
 10
-71.680445
 20
-35.80186
 11
-72.977082
 21
-35.80186
  0
LINE
  8
ボルト／ビス
  6
CONTINUOUS
 10
-71.280447
 20
-35.151775
 11
-71.280447
 21
-35.401855
  0
ARC
  8
ボルト／ビス
  6
CONTINUOUS
 10
-71.680447
 20
-35.401856
 40
0.4
 50
270.0
 51
360.0
  0
LINE
  8
ボルト／ビス
  6
CONTINUOUS
 10
-68.183802
 20
-35.80186
 11
-68.183802
 21
-36.04402
  0
LINE
  8
ボルト／ビス
  6
CONTINUOUS
 10
-69.880445
 20
-35.151775
 11
-70.580443
 21
-35.151775
  0
LINE
  8
ボルト／ビス
  6
CONTINUOUS
 10
-69.480447
 20
-35.80186
 11
-68.183802
 21
-35.80186
  0
LINE
  8
ボルト／ビス
  6
CONTINUOUS
 10
-69.880445
 20
-35.151775
 11
-69.880445
 21
-35.401855
  0
ARC
  8
ボルト／ビス
  6
CONTINUOUS
 10
-69.480447
 20
-35.401856
 40
0.4
 50
180.0
 51
270.0
  0
LINE
  8
ボルト／ビス
  6
CONTINUOUS
 10
-74.080445
 20
-33.586765
 11
-67.080447
 21
-33.586765
  0
LINE
  8
ボルト／ビス
  6
CONTINUOUS
 10
-70.580443
 20
-38.15815
 11
-70.580443
 21
-11.313887
  0
LINE
  8
ボルト／ビス
  6
CONTINUOUS
 10
-72.580445
 20
-14.086765
 11
-72.080443
 21
-13.586762
  0
LINE
  8
ボルト／ビス
  6
CONTINUOUS
 10
-68.580447
 20
-14.086765
 11
-69.080443
 21
-13.586762
  0
LINE
  8
ボルト／ビス
  6
CONTINUOUS
 10
-72.580445
 20
-14.086765
 11
-68.580447
 21
-14.086765
  0
LINE
  8
ボルト／ビス
  6
CONTINUOUS
 10
-72.080443
 20
-13.586762
 11
-69.080443
 21
-13.586762
  0
LINE
  8
ボルト／ビス
  6
CONTINUOUS
 10
-72.080443
 20
-33.586765
 11
-72.080443
 21
-13.586762
  0
LINE
  8
ボルト／ビス
  6
CONTINUOUS
 10
-69.080443
 20
-33.586765
 11
-69.080443
 21
-13.586762
  0
LINE
  8
ボルト／ビス
  6
CONTINUOUS
 10
-72.580445
 20
-33.586765
 11
-72.580445
 21
-14.086765
  0
LINE
  8
ボルト／ビス
  6
CONTINUOUS
 10
-68.580447
 20
-33.586765
 11
-68.580447
 21
-14.086765
  0
ENDBLK
  0
BLOCK
  2
*GRP_0015
 70
    65
 10
0.0
 20
0.0
  0
LINE
  8
ボルト／ビス
  6
DOT
 62
    64
 10
-52.58045
 20
-21.286765
 11
-54.780455
 21
-18.586765
  0
LINE
  8
ボルト／ビス
  6
DOT
 62
    64
 10
-60.98045
 20
-21.286765
 11
-58.780452
 21
-18.586765
  0
LINE
  8
ボルト／ビス
  6
DOT
 62
    64
 10
-60.98045
 20
-21.286765
 11
-52.58045
 21
-21.286765
  0
LINE
  8
ボルト／ビス
  6
DOT
 62
    64
 10
-58.780452
 20
-18.586765
 11
-54.780455
 21
-18.586765
  0
LINE
  8
ボルト／ビス
  6
DOT
 62
    64
 10
-56.78045
 20
-25.504832
 11
-56.78045
 21
33.711665
  0
LINE
  8
ボルト／ビス
  6
DOT
 62
    64
 10
-58.780452
 20
28.213235
 11
-58.28045
 21
28.713237
  0
LINE
  8
ボルト／ビス
  6
DOT
 62
    64
 10
-54.780455
 20
28.213235
 11
-55.28045
 21
28.713237
  0
LINE
  8
ボルト／ビス
  6
DOT
 62
    64
 10
-55.28045
 20
28.713237
 11
-58.28045
 21
28.713237
  0
LINE
  8
ボルト／ビス
  6
DOT
 62
    64
 10
-54.780455
 20
28.213235
 11
-58.780452
 21
28.213235
  0
LINE
  8
ボルト／ビス
  6
DOT
 62
    64
 10
-58.28045
 20
-18.586765
 11
-58.28045
 21
28.713237
  0
LINE
  8
ボルト／ビス
  6
DOT
 62
    64
 10
-55.28045
 20
-18.586765
 11
-55.28045
 21
28.713237
  0
LINE
  8
ボルト／ビス
  6
DOT
 62
    64
 10
-58.780452
 20
-18.586765
 11
-58.780452
 21
28.213235
  0
LINE
  8
ボルト／ビス
  6
DOT
 62
    64
 10
-54.780455
 20
-18.586765
 11
-54.780455
 21
28.213235
  0
ENDBLK
  0
BLOCK
  2
*GRP_0016
 70
    65
 10
0.0
 20
0.0
  0
LINE
  8
ボルト／ビス
  6
CONTINUOUS
 62
    64
 10
-74.080378
 20
-33.591235
 11
-73.988675
 21
-34.639397
  0
ARC
  8
ボルト／ビス
  6
CONTINUOUS
 62
    64
 10
-72.295138
 20
-34.491224
 40
1.7
 50
184.999989
 51
270.0
  0
LINE
  8
ボルト／ビス
  6
CONTINUOUS
 62
    64
 10
-72.295145
 20
-36.19123
 11
-70.580375
 21
-36.19123
  0
LINE
  8
ボルト／ビス
  6
CONTINUOUS
 62
    64
 10
-67.08038
 20
-33.591235
 11
-67.172083
 21
-34.639397
  0
ARC
  8
ボルト／ビス
  6
CONTINUOUS
 62
    64
 10
-68.865604
 20
-34.491224
 40
1.7
 50
270.0
 51
355.000011
  0
LINE
  8
ボルト／ビス
  6
CONTINUOUS
 62
    64
 10
-68.865613
 20
-36.19123
 11
-70.580375
 21
-36.19123
  0
LINE
  8
ボルト／ビス
  6
CONTINUOUS
 62
    64
 10
-72.977015
 20
-35.80633
 11
-72.977015
 21
-36.04849
  0
LINE
  8
ボルト／ビス
  6
CONTINUOUS
 62
    64
 10
-71.28038
 20
-35.156245
 11
-70.580375
 21
-35.156245
  0
LINE
  8
ボルト／ビス
  6
CONTINUOUS
 62
    64
 10
-71.680378
 20
-35.80633
 11
-72.977015
 21
-35.80633
  0
LINE
  8
ボルト／ビス
  6
CONTINUOUS
 62
    64
 10
-71.28038
 20
-35.156245
 11
-71.28038
 21
-35.406325
  0
ARC
  8
ボルト／ビス
  6
CONTINUOUS
 62
    64
 10
-71.680371
 20
-35.406319
 40
0.4
 50
270.0
 51
360.0
  0
LINE
  8
ボルト／ビス
  6
CONTINUOUS
 62
    64
 10
-68.183735
 20
-35.80633
 11
-68.183735
 21
-36.04849
  0
LINE
  8
ボルト／ビス
  6
CONTINUOUS
 62
    64
 10
-69.880378
 20
-35.156245
 11
-70.580375
 21
-35.156245
  0
LINE
  8
ボルト／ビス
  6
CONTINUOUS
 62
    64
 10
-69.48038
 20
-35.80633
 11
-68.183735
 21
-35.80633
  0
LINE
  8
ボルト／ビス
  6
CONTINUOUS
 62
    64
 10
-69.880378
 20
-35.156245
 11
-69.880378
 21
-35.406325
  0
ARC
  8
ボルト／ビス
  6
CONTINUOUS
 62
    64
 10
-69.480371
 20
-35.406319
 40
0.4
 50
180.0
 51
270.0
  0
LINE
  8
ボルト／ビス
  6
CONTINUOUS
 62
    64
 10
-74.080378
 20
-33.591235
 11
-67.08038
 21
-33.591235
  0
LINE
  8
ボルト／ビス
  6
CONTINUOUS
 62
    64
 10
-72.580378
 20
-22.09123
 11
-72.080375
 21
-21.591235
  0
LINE
  8
ボルト／ビス
  6
CONTINUOUS
 62
    64
 10
-68.58038
 20
-22.09123
 11
-69.080375
 21
-21.591235
  0
LINE
  8
ボルト／ビス
  6
CONTINUOUS
 62
    64
 10
-72.580378
 20
-22.09123
 11
-68.58038
 21
-22.09123
  0
LINE
  8
ボルト／ビス
  6
CONTINUOUS
 62
    64
 10
-72.080375
 20
-21.591235
 11
-69.080375
 21
-21.591235
  0
LINE
  8
ボルト／ビス
  6
CONTINUOUS
 62
    64
 10
-72.080375
 20
-33.591235
 11
-72.080375
 21
-21.591235
  0
LINE
  8
ボルト／ビス
  6
CONTINUOUS
 62
    64
 10
-69.080375
 20
-33.591235
 11
-69.080375
 21
-21.591235
  0
LINE
  8
ボルト／ビス
  6
CONTINUOUS
 62
    64
 10
-68.58038
 20
-33.591235
 11
-68.58038
 21
-22.09123
  0
LINE
  8
ボルト／ビス
  6
CONTINUOUS
 62
    64
 10
-72.580378
 20
-33.591235
 11
-72.580378
 21
-22.09123
  0
LINE
  8
ボルト／ビス
  6
DASHDOT
 62
    64
 10
-70.580375
 20
-39.19123
 11
-70.580375
 21
-18.591235
  0
ENDBLK
  0
BLOCK
  2
*GRP_0017
 70
    65
 10
0.0
 20
0.0
  0
LINE
  8
ボルト／ビス
  6
CONTINUOUS
 62
    64
 10
3.218162
 20
-53.78683
 11
4.266323
 21
-53.878532
  0
ARC
  8
ボルト／ビス
  6
CONTINUOUS
 62
    64
 10
4.118174
 20
-55.572057
 40
1.7
 50
0.0
 51
85.000011
  0
LINE
  8
ボルト／ビス
  6
CONTINUOUS
 62
    64
 10
5.818165
 20
-55.572062
 11
5.818165
 21
-57.286833
  0
LINE
  8
ボルト／ビス
  6
CONTINUOUS
 62
    64
 10
3.218162
 20
-60.786835
 11
4.266323
 21
-60.695133
  0
ARC
  8
ボルト／ビス
  6
CONTINUOUS
 62
    64
 10
4.118174
 20
-59.00159
 40
1.7
 50
274.999989
 51
360.0
  0
LINE
  8
ボルト／ビス
  6
CONTINUOUS
 62
    64
 10
5.818165
 20
-59.001602
 11
5.818165
 21
-57.286833
  0
LINE
  8
ボルト／ビス
  6
CONTINUOUS
 62
    64
 10
5.433258
 20
-54.890193
 11
5.675418
 21
-54.890193
  0
LINE
  8
ボルト／ビス
  6
CONTINUOUS
 62
    64
 10
4.783173
 20
-56.586835
 11
4.783173
 21
-57.286833
  0
LINE
  8
ボルト／ビス
  6
CONTINUOUS
 62
    64
 10
5.433258
 20
-56.18683
 11
5.433258
 21
-54.890193
  0
LINE
  8
ボルト／ビス
  6
CONTINUOUS
 62
    64
 10
4.783173
 20
-56.586835
 11
5.033258
 21
-56.586835
  0
ARC
  8
ボルト／ビス
  6
CONTINUOUS
 62
    64
 10
5.033269
 20
-56.186824
 40
0.4
 50
270.0
 51
360.0
  0
LINE
  8
ボルト／ビス
  6
CONTINUOUS
 62
    64
 10
5.433258
 20
-59.683472
 11
5.675418
 21
-59.683472
  0
LINE
  8
ボルト／ビス
  6
CONTINUOUS
 62
    64
 10
4.783173
 20
-57.98683
 11
4.783173
 21
-57.286833
  0
LINE
  8
ボルト／ビス
  6
CONTINUOUS
 62
    64
 10
5.433258
 20
-58.386835
 11
5.433258
 21
-59.683472
  0
LINE
  8
ボルト／ビス
  6
CONTINUOUS
 62
    64
 10
4.783173
 20
-57.98683
 11
5.033258
 21
-57.98683
  0
ARC
  8
ボルト／ビス
  6
CONTINUOUS
 62
    64
 10
5.033269
 20
-58.386824
 40
0.4
 50
0.0
 51
90.0
  0
LINE
  8
ボルト／ビス
  6
CONTINUOUS
 62
    64
 10
3.218162
 20
-53.78683
 11
3.218162
 21
-60.786835
  0
LINE
  8
ボルト／ビス
  6
CONTINUOUS
 62
    64
 10
-12.28184
 20
-55.28683
 11
-12.781835
 21
-55.786833
  0
LINE
  8
ボルト／ビス
  6
CONTINUOUS
 62
    64
 10
-12.28184
 20
-59.286835
 11
-12.781835
 21
-58.786833
  0
LINE
  8
ボルト／ビス
  6
CONTINUOUS
 62
    64
 10
-12.28184
 20
-55.28683
 11
-12.28184
 21
-59.286835
  0
LINE
  8
ボルト／ビス
  6
CONTINUOUS
 62
    64
 10
-12.781835
 20
-55.786833
 11
-12.781835
 21
-58.786833
  0
LINE
  8
ボルト／ビス
  6
CONTINUOUS
 62
    64
 10
3.218162
 20
-59.286835
 11
-12.28184
 21
-59.286835
  0
LINE
  8
ボルト／ビス
  6
CONTINUOUS
 62
    64
 10
3.218162
 20
-55.28683
 11
-12.28184
 21
-55.28683
  0
LINE
  8
ボルト／ビス
  6
CONTINUOUS
 62
    64
 10
3.218162
 20
-55.786833
 11
-12.781835
 21
-55.786833
  0
LINE
  8
ボルト／ビス
  6
CONTINUOUS
 62
    64
 10
3.218162
 20
-58.786833
 11
-12.781835
 21
-58.786833
  0
LINE
  8
ボルト／ビス
  6
DASHDOT
 62
    64
 10
8.818165
 20
-57.286833
 11
-15.781835
 21
-57.286833
  0
ENDBLK
  0
BLOCK
  2
*GRP_0018
 70
    65
 10
0.0
 20
0.0
  0
LINE
  8
ボルト／ビス
  6
CONTINUOUS
 62
    64
 10
-59.180315
 20
-7.786833
 11
-59.088612
 21
-6.73867
  0
ARC
  8
ボルト／ビス
  6
CONTINUOUS
 62
    64
 10
-57.395077
 20
-6.886836
 40
1.7
 50
90.0
 51
175.000011
  0
LINE
  8
ボルト／ビス
  6
CONTINUOUS
 62
    64
 10
-57.395082
 20
-5.186838
 11
-55.680313
 21
-5.186838
  0
LINE
  8
ボルト／ビス
  6
CONTINUOUS
 62
    64
 10
-52.180318
 20
-7.786833
 11
-52.27202
 21
-6.73867
  0
ARC
  8
ボルト／ビス
  6
CONTINUOUS
 62
    64
 10
-53.965543
 20
-6.886836
 40
1.7
 50
4.999989
 51
90.0
  0
LINE
  8
ボルト／ビス
  6
CONTINUOUS
 62
    64
 10
-53.96555
 20
-5.186838
 11
-55.680313
 21
-5.186838
  0
LINE
  8
ボルト／ビス
  6
CONTINUOUS
 62
    64
 10
-58.076952
 20
-5.571738
 11
-58.076952
 21
-5.329577
  0
LINE
  8
ボルト／ビス
  6
CONTINUOUS
 62
    64
 10
-56.380318
 20
-6.221822
 11
-55.680313
 21
-6.221822
  0
LINE
  8
ボルト／ビス
  6
CONTINUOUS
 62
    64
 10
-56.780315
 20
-5.571738
 11
-58.076952
 21
-5.571738
  0
LINE
  8
ボルト／ビス
  6
CONTINUOUS
 62
    64
 10
-56.380318
 20
-6.221822
 11
-56.380318
 21
-5.971742
  0
ARC
  8
ボルト／ビス
  6
CONTINUOUS
 62
    64
 10
-56.78031
 20
-5.971741
 40
0.4
 50
0.0
 51
90.0
  0
LINE
  8
ボルト／ビス
  6
CONTINUOUS
 62
    64
 10
-53.283673
 20
-5.571738
 11
-53.283673
 21
-5.329577
  0
LINE
  8
ボルト／ビス
  6
CONTINUOUS
 62
    64
 10
-54.980315
 20
-6.221822
 11
-55.680313
 21
-6.221822
  0
LINE
  8
ボルト／ビス
  6
CONTINUOUS
 62
    64
 10
-54.580318
 20
-5.571738
 11
-53.283673
 21
-5.571738
  0
LINE
  8
ボルト／ビス
  6
CONTINUOUS
 62
    64
 10
-54.980315
 20
-6.221822
 11
-54.980315
 21
-5.971742
  0
ARC
  8
ボルト／ビス
  6
CONTINUOUS
 62
    64
 10
-54.58031
 20
-5.971741
 40
0.4
 50
90.0
 51
180.0
  0
LINE
  8
ボルト／ビス
  6
CONTINUOUS
 62
    64
 10
-59.180315
 20
-7.786833
 11
-52.180318
 21
-7.786833
  0
LINE
  8
ボルト／ビス
  6
CONTINUOUS
 62
    64
 10
-57.680315
 20
-19.286838
 11
-57.180313
 21
-19.786833
  0
LINE
  8
ボルト／ビス
  6
CONTINUOUS
 62
    64
 10
-53.680318
 20
-19.286838
 11
-54.180313
 21
-19.786833
  0
LINE
  8
ボルト／ビス
  6
CONTINUOUS
 62
    64
 10
-57.680315
 20
-19.286838
 11
-53.680318
 21
-19.286838
  0
LINE
  8
ボルト／ビス
  6
CONTINUOUS
 62
    64
 10
-57.180313
 20
-19.786833
 11
-54.180313
 21
-19.786833
  0
LINE
  8
ボルト／ビス
  6
CONTINUOUS
 62
    64
 10
-57.180313
 20
-7.786833
 11
-57.180313
 21
-19.786833
  0
LINE
  8
ボルト／ビス
  6
CONTINUOUS
 62
    64
 10
-54.180313
 20
-7.786833
 11
-54.180313
 21
-19.786833
  0
LINE
  8
ボルト／ビス
  6
CONTINUOUS
 62
    64
 10
-53.680318
 20
-7.786833
 11
-53.680318
 21
-19.286838
  0
LINE
  8
ボルト／ビス
  6
CONTINUOUS
 62
    64
 10
-57.680315
 20
-7.786833
 11
-57.680315
 21
-19.286838
  0
LINE
  8
ボルト／ビス
  6
DASHDOT
 62
    64
 10
-55.680313
 20
-2.186838
 11
-55.680313
 21
-22.786833
  0
ENDBLK
  0
BLOCK
  2
*DIM_0019
 70
    65
 10
0.0
 20
0.0
  0
LINE
  8
寸法
  6
BYBLOCK
 62
     0
 10
-129.030695
 20
7.713205
 11
-127.46875
 21
7.713205
  0
LINE
  8
寸法
  6
BYBLOCK
 62
     0
 10
-129.030695
 20
65.213235
 11
-127.46875
 21
65.213235
  0
LINE
  8
寸法
  6
BYBLOCK
 62
     0
 10
-127.46875
 20
7.713205
 11
-127.46875
 21
65.213235
  0
POINT
  8
寸法
 62
     0
 10
-127.46875
 20
7.713205
 50
-90.0
  0
POINT
  8
寸法
 62
     0
 10
-127.46875
 20
65.213235
 50
-90.0
  0
TEXT
  7
TextStyle03
  8
寸法
  6
CONTINUOUS
 62
     0
 10
-127.75
 20
32.5375
  1
57.5
 40
3.5
 50
90.0
 72
     5
 11
-127.75
 21
40.2125
  0
ENDBLK
  0
BLOCK
  2
*GRP_0020
 70
    65
 10
0.0
 20
0.0
  0
POLYLINE
  8
寸法
  6
BYBLOCK
 62
     0
 66
     1
  0
VERTEX
  8
寸法
 10
-87.080375
 20
-21.477715
  0
VERTEX
  8
寸法
 10
-85.580375
 20
-18.879637
  0
VERTEX
  8
寸法
 10
-88.17845
 20
-20.379637
  0
SEQEND
  0
POLYLINE
  8
寸法
  6
BYBLOCK
 62
     0
 66
     1
  0
VERTEX
  8
寸法
 10
-85.580375
 20
-18.879637
  0
VERTEX
  8
寸法
 10
-103.3445
 20
-36.643765
  0
VERTEX
  8
寸法
 10
-103.3445
 20
-46.865915
  0
SEQEND
  0
ENDBLK
  0
BLOCK
  2
*GRP_0021
 70
    65
 10
0.0
 20
0.0
  0
POLYLINE
  8
寸法
  6
BYBLOCK
 62
     0
 66
     1
  0
VERTEX
  8
寸法
 10
-62.993305
 20
-30.73594
  0
VERTEX
  8
寸法
 10
-65.59138
 20
-29.23594
  0
VERTEX
  8
寸法
 10
-64.09138
 20
-31.834015
  0
SEQEND
  0
POLYLINE
  8
寸法
  6
BYBLOCK
 62
     0
 66
     1
  0
VERTEX
  8
寸法
 10
-65.59138
 20
-29.23594
  0
VERTEX
  8
寸法
 10
-50.278383
 20
-44.548938
  0
VERTEX
  8
寸法
 10
-50.278383
 20
-46.550618
  0
SEQEND
  0
ENDBLK
  0
BLOCK
  2
*GRP_0022
 70
    65
 10
0.0
 20
0.0
  0
POLYLINE
  8
寸法
  6
BYBLOCK
 62
     0
 66
     1
  0
VERTEX
  8
寸法
 10
-40.196615
 20
-57.551745
  0
VERTEX
  8
寸法
 10
-38.696615
 20
-54.95367
  0
VERTEX
  8
寸法
 10
-41.294693
 20
-56.45367
  0
SEQEND
  0
POLYLINE
  8
寸法
  6
BYBLOCK
 62
     0
 66
     1
  0
VERTEX
  8
寸法
 10
-38.696615
 20
-54.95367
  0
VERTEX
  8
寸法
 10
-42.963895
 20
-59.22095
  0
VERTEX
  8
寸法
 10
-42.963895
 20
-63.205742
  0
SEQEND
  0
ENDBLK
  0
BLOCK
  2
*GRP_0023
 70
    65
 10
0.0
 20
0.0
  0
POLYLINE
  8
寸法
  6
BYBLOCK
 62
     0
 66
     1
  0
VERTEX
  8
寸法
 10
-85.37851
 20
19.654203
  0
VERTEX
  8
寸法
 10
-82.780435
 20
18.154203
  0
VERTEX
  8
寸法
 10
-84.280435
 20
20.752277
  0
SEQEND
  0
POLYLINE
  8
寸法
  6
BYBLOCK
 62
     0
 66
     1
  0
VERTEX
  8
寸法
 10
-82.780435
 20
18.154203
  0
VERTEX
  8
寸法
 10
-98.63074
 20
34.004505
  0
VERTEX
  8
寸法
 10
-98.63074
 20
35.846973
  0
SEQEND
  0
ENDBLK
  0
BLOCK
  2
*GRP_0024
 70
    65
 10
0.0
 20
0.0
  0
POLYLINE
  8
寸法
  6
BYBLOCK
 62
     0
 66
     1
  0
VERTEX
  8
寸法
 10
-89.980707
 20
-19.236787
  0
VERTEX
  8
寸法
 10
-88.930735
 20
-16.426527
  0
VERTEX
  8
寸法
 10
-91.245168
 20
-18.335297
  0
SEQEND
  0
LINE
  8
寸法
  6
BYBLOCK
 62
     0
 10
-88.930735
 20
-16.426527
 11
-103.3445
 21
-36.643765
  0
ENDBLK
  0
BLOCK
  2
*GRP_0025
 70
    65
 10
0.0
 20
0.0
  0
POLYLINE
  8
寸法
  6
BYBLOCK
 62
     0
 66
     1
  0
VERTEX
  8
寸法
 10
3.532975
 20
-42.733515
  0
VERTEX
  8
寸法
 10
6.51951
 20
-42.44961
  0
VERTEX
  8
寸法
 10
3.79114
 20
-41.202213
  0
SEQEND
  0
POLYLINE
  8
寸法
  6
BYBLOCK
 62
     0
 66
     1
  0
VERTEX
  8
寸法
 10
6.51951
 20
-42.44961
  0
VERTEX
  8
寸法
 10
-11.881318
 20
-39.347362
  0
VERTEX
  8
寸法
 10
-11.881318
 20
-35.782637
  0
SEQEND
  0
ENDBLK
  0
BLOCK
  2
*GRP_0026
 70
    65
 10
0.0
 20
0.0
  0
POLYLINE
  8
寸法
  6
BYBLOCK
 62
     0
 66
     1
  0
VERTEX
  8
寸法
 10
-23.7399
 20
9.213237
  0
VERTEX
  8
寸法
 10
-21.141827
 20
7.713237
  0
VERTEX
  8
寸法
 10
-22.641827
 20
10.311312
  0
SEQEND
  0
POLYLINE
  8
寸法
  6
BYBLOCK
 62
     0
 66
     1
  0
VERTEX
  8
寸法
 10
-21.141827
 20
7.713237
  0
VERTEX
  8
寸法
 10
-28.049348
 20
14.62076
  0
VERTEX
  8
寸法
 10
-28.049348
 20
20.037495
  0
SEQEND
  0
ENDBLK
  0
BLOCK
  2
*DIM_0027
 70
    65
 10
0.0
 20
0.0
  0
LINE
  8
寸法
  6
BYBLOCK
 62
     0
 10
-106.787612
 20
-12.286795
 11
-120.342893
 21
-12.286795
  0
LINE
  8
寸法
  6
BYBLOCK
 62
     0
 10
-120.342893
 20
7.713205
 11
-120.342893
 21
-12.286795
  0
POINT
  8
寸法
 62
     0
 10
-120.342893
 20
7.713205
  0
POINT
  8
寸法
 62
     0
 10
-120.342893
 20
-12.286795
  0
TEXT
  7
TextStyle03
  8
寸法
  6
CONTINUOUS
 62
     0
 10
-120.675
 20
-3.91875
  1
20
 40
3.0
 50
90.0
 72
     5
 11
-120.675
 21
-0.73125
  0
ENDBLK
  0
BLOCK
  2
*DIM_0028
 70
    65
 10
0.0
 20
0.0
  0
LINE
  8
寸法
  6
BYBLOCK
 62
     0
 10
-106.787612
 20
-42.28679
 11
-120.342893
 21
-42.28679
  0
LINE
  8
寸法
  6
BYBLOCK
 62
     0
 10
-120.342893
 20
-12.286795
 11
-120.342893
 21
-42.28679
  0
POINT
  8
寸法
 62
     0
 10
-120.342893
 20
-42.28679
  0
TEXT
  7
TextStyle03
  8
寸法
  6
CONTINUOUS
 62
     0
 10
-120.675
 20
-28.91875
  1
30
 40
3.0
 50
90.0
 72
     5
 11
-120.675
 21
-25.73125
  0
ENDBLK
  0
BLOCK
  2
*DIM_0029
 70
    65
 10
0.0
 20
0.0
  0
LINE
  8
寸法
  6
CONTINUOUS
 10
-27.580375
 20
-75.186835
 11
-142.778615
 21
-75.186835
  0
LINE
  8
寸法
  6
CONTINUOUS
 10
89.566108
 20
65.213235
 11
-142.778615
 21
65.213235
  0
LINE
  8
寸法
  6
CONTINUOUS
 10
-142.778615
 20
-75.186835
 11
-142.778615
 21
65.213235
  0
POINT
  8
寸法
 10
-142.778615
 20
-75.186835
 50
-90.0
  0
POINT
  8
寸法
 10
-142.778615
 20
65.213235
 50
-90.0
  0
TEXT
  7
TextStyle03
  8
寸法
  6
CONTINUOUS
 10
-143.075
 20
-10.525
  1
140.4
 40
4.0
 50
90.0
 72
     5
 11
-143.075
 21
0.475
  0
ENDBLK
  0
BLOCK
  2
*DIM_0030
 70
    65
 10
0.0
 20
0.0
  0
LINE
  8
寸法
  6
CONTINUOUS
 10
-98.087612
 20
7.713205
 11
-134.53844
 21
7.713205
  0
LINE
  8
寸法
  6
CONTINUOUS
 10
-27.580375
 20
-75.186835
 11
-134.53844
 21
-75.186835
  0
LINE
  8
寸法
  6
CONTINUOUS
 10
-134.53844
 20
7.713205
 11
-134.53844
 21
-75.186835
  0
POINT
  8
寸法
 10
-134.53844
 20
7.713205
 50
-90.0
  0
POINT
  8
寸法
 10
-134.53844
 20
-75.186835
 50
-90.0
  0
TEXT
  7
TextStyle03
  8
寸法
  6
CONTINUOUS
 10
-134.825
 20
-38.15
  1
82.9
 40
4.0
 50
90.0
 72
     5
 11
-134.825
 21
-29.4
  0
ENDBLK
  0
BLOCK
  2
*GRP_0031
 70
    65
 10
0.0
 20
0.0
  0
POLYLINE
  8
寸法
  6
BYBLOCK
 62
     0
 66
     1
  0
VERTEX
  8
寸法
 10
-81.458665
 20
25.613658
  0
VERTEX
  8
寸法
 10
-78.86059
 20
24.113658
  0
VERTEX
  8
寸法
 10
-80.36059
 20
26.711732
  0
SEQEND
  0
POLYLINE
  8
寸法
  6
BYBLOCK
 62
     0
 66
     1
  0
VERTEX
  8
寸法
 10
-78.86059
 20
24.113658
  0
VERTEX
  8
寸法
 10
-87.550558
 20
32.803622
  0
VERTEX
  8
寸法
 10
-87.550558
 20
37.03588
  0
SEQEND
  0
ENDBLK
  0
BLOCK
  2
*GRP_0032
 70
    65
 10
0.0
 20
0.0
  0
POLYLINE
  8
寸法
  6
BYBLOCK
 62
     0
 66
     1
  0
VERTEX
  8
寸法
 10
-60.715528
 20
24.733048
  0
VERTEX
  8
寸法
 10
-62.215528
 20
22.134973
  0
VERTEX
  8
寸法
 10
-59.617453
 20
23.634973
  0
SEQEND
  0
POLYLINE
  8
寸法
  6
BYBLOCK
 62
     0
 66
     1
  0
VERTEX
  8
寸法
 10
-62.215528
 20
22.134973
  0
VERTEX
  8
寸法
 10
-53.048507
 20
31.30199
  0
VERTEX
  8
寸法
 10
-53.048507
 20
33.723827
  0
SEQEND
  0
ENDBLK
  0
BLOCK
  2
*GRP_0033
 70
    65
 10
0.0
 20
0.0
  0
POLYLINE
  8
寸法
  6
BYBLOCK
 62
     0
 66
     1
  0
VERTEX
  8
寸法
 10
-65.767912
 20
24.733048
  0
VERTEX
  8
寸法
 10
-67.267912
 20
22.134973
  0
VERTEX
  8
寸法
 10
-64.669838
 20
23.634973
  0
SEQEND
  0
POLYLINE
  8
寸法
  6
BYBLOCK
 62
     0
 66
     1
  0
VERTEX
  8
寸法
 10
-67.267912
 20
22.134973
  0
VERTEX
  8
寸法
 10
-58.100893
 20
31.30199
  0
VERTEX
  8
寸法
 10
-58.100893
 20
33.723827
  0
SEQEND
  0
ENDBLK
  0
BLOCK
  2
*GRP_0034
 70
    65
 10
0.0
 20
0.0
  0
POLYLINE
  8
寸法
  6
BYBLOCK
 62
     0
 66
     1
  0
VERTEX
  8
寸法
 10
-1.793695
 20
-61.411475
  0
VERTEX
  8
寸法
 10
-4.39177
 20
-59.911475
  0
VERTEX
  8
寸法
 10
-2.89177
 20
-62.50955
  0
SEQEND
  0
POLYLINE
  8
寸法
  6
BYBLOCK
 62
     0
 66
     1
  0
VERTEX
  8
寸法
 10
-4.39177
 20
-59.911475
  0
VERTEX
  8
寸法
 10
7.940207
 20
-72.243452
  0
VERTEX
  8
寸法
 10
7.940207
 20
-94.187637
  0
SEQEND
  0
ENDBLK
  0
BLOCK
  2
*GRP_0035
 70
    65
 10
0.0
 20
0.0
  0
LINE
  8
鉄骨等
  6
CONTINUOUS
 10
12.419628
 20
-75.186835
 11
12.419628
 21
-73.686835
  0
LINE
  8
鉄骨等
  6
CONTINUOUS
 10
12.419628
 20
-73.686835
 11
3.218162
 21
-73.686835
  0
LINE
  8
鉄骨等
  6
CONTINUOUS
 10
1.718162
 20
-71.186837
 11
1.718162
 21
-73.686835
  0
LINE
  8
鉄骨等
  6
CONTINUOUS
 10
1.718162
 20
-71.186837
 11
-0.28184
 21
-71.186837
  0
LINE
  8
鉄骨等
  6
CONTINUOUS
 10
1.718162
 20
-70.18684
 11
-0.28184
 21
-70.18684
  0
LINE
  8
鉄骨等
  6
CONTINUOUS
 10
-0.28184
 20
-71.186837
 11
-0.28184
 21
-70.18684
  0
LINE
  8
鉄骨等
  6
CONTINUOUS
 10
-3.380375
 20
-54.286833
 11
-3.380375
 21
-52.28683
  0
LINE
  8
鉄骨等
  6
CONTINUOUS
 10
-3.380375
 20
-60.286833
 11
-3.380375
 21
-62.286835
  0
LINE
  8
鉄骨等
  6
CONTINUOUS
 10
-3.380375
 20
-60.286833
 11
1.718162
 21
-59.267125
  0
LINE
  8
鉄骨等
  6
CONTINUOUS
 10
1.718162
 20
-59.267125
 11
1.718162
 21
-55.30654
  0
LINE
  8
鉄骨等
  6
CONTINUOUS
 10
-3.380375
 20
-54.286833
 11
1.718162
 21
-55.30654
  0
LINE
  8
鉄骨等
  6
CONTINUOUS
 10
-1.880375
 20
-62.286835
 11
-1.880375
 21
-61.28683
  0
LINE
  8
鉄骨等
  6
CONTINUOUS
 10
-3.380375
 20
-62.286835
 11
-1.880375
 21
-62.286835
  0
LINE
  8
鉄骨等
  6
CONTINUOUS
 10
-3.380375
 20
-52.28683
 11
-1.880375
 21
-52.28683
  0
LINE
  8
鉄骨等
  6
CONTINUOUS
 10
-1.880375
 20
-53.286835
 11
-1.880375
 21
-52.28683
  0
LINE
  8
鉄骨等
  6
CONTINUOUS
 10
-1.880375
 20
-53.286835
 11
3.218162
 21
-53.286835
  0
LINE
  8
鉄骨等
  6
CONTINUOUS
 10
-1.880375
 20
-61.28683
 11
1.718162
 21
-61.28683
  0
LINE
  8
鉄骨等
  6
CONTINUOUS
 10
1.718162
 20
-70.18684
 11
1.718162
 21
-61.28683
  0
LINE
  8
鉄骨等
  6
CONTINUOUS
 10
-55.550757
 20
-32.59123
 11
-52.318415
 21
-32.59123
  0
LINE
  8
鉄骨等
  6
CONTINUOUS
 10
-52.318415
 20
-32.59123
 11
-51.05066
 21
-34.138098
  0
LINE
  8
鉄骨等
  6
CONTINUOUS
 10
-51.05066
 20
-34.138098
 11
-50.27723
 21
-33.50422
  0
LINE
  8
鉄骨等
  6
CONTINUOUS
 10
12.419628
 20
-75.186835
 11
-22.580375
 21
-75.186835
  0
LINE
  8
鉄骨等
  6
CONTINUOUS
 10
-55.550757
 20
-32.59123
 11
-22.396295
 21
-73.045053
  0
LINE
  8
鉄骨等
  6
CONTINUOUS
 10
1.718162
 20
-73.686835
 11
-21.04052
 21
-73.686835
  0
LINE
  8
鉄骨等
  6
CONTINUOUS
 10
-22.396295
 20
-73.045053
 11
-21.212863
 21
-70.545055
  0
LINE
  8
鉄骨等
  6
CONTINUOUS
 10
-21.04052
 20
-73.686835
 11
-19.857088
 21
-71.186837
  0
LINE
  8
鉄骨等
  6
CONTINUOUS
 10
-21.212863
 20
-70.545055
 11
-22.480617
 21
-68.998188
  0
LINE
  8
鉄骨等
  6
CONTINUOUS
 10
-22.480617
 20
-68.998188
 11
-21.70718
 21
-68.36431
  0
LINE
  8
鉄骨等
  6
CONTINUOUS
 10
-20.213502
 20
-70.18684
 11
-21.70718
 21
-68.36431
  0
LINE
  8
鉄骨等
  6
CONTINUOUS
 10
-19.857088
 20
-71.186837
 11
-17.857085
 21
-71.186837
  0
LINE
  8
鉄骨等
  6
CONTINUOUS
 10
-17.857085
 20
-71.186837
 11
-17.857085
 21
-70.18684
  0
LINE
  8
鉄骨等
  6
CONTINUOUS
 10
-20.213502
 20
-70.18684
 11
-17.857085
 21
-70.18684
  0
LINE
  8
鉄骨等
  6
CONTINUOUS
 10
2.918162
 20
-57.286833
 11
3.218162
 21
-56.986833
  0
LINE
  8
鉄骨等
  6
CONTINUOUS
 10
2.918162
 20
-57.286833
 11
3.218162
 21
-57.586833
  0
LINE
  8
鉄骨等
  6
CONTINUOUS
 10
3.218162
 20
-56.986833
 11
3.218162
 21
-53.286835
  0
ARC
  8
鉄骨等
  6
CONTINUOUS
 10
7.918176
 20
-62.286824
 40
0.5
 50
270.0
 51
360.0
  0
LINE
  8
鉄骨等
  6
CONTINUOUS
 10
8.418167
 20
-62.286827
 11
8.418167
 21
-61.786833
  0
ARC
  8
鉄骨等
  6
CONTINUOUS
 10
7.918176
 20
-61.786824
 40
0.5
 50
0.0
 51
90.0
  0
LINE
  8
鉄骨等
  6
CONTINUOUS
 10
3.218162
 20
-73.686835
 11
3.218162
 21
-62.78683
  0
LINE
  8
鉄骨等
  6
CONTINUOUS
 10
7.918165
 20
-62.78683
 11
3.218162
 21
-62.78683
  0
LINE
  8
鉄骨等
  6
CONTINUOUS
 10
7.918165
 20
-61.28683
 11
3.218162
 21
-61.28683
  0
LINE
  8
鉄骨等
  6
CONTINUOUS
 10
3.218162
 20
-57.586833
 11
3.218162
 21
-61.28683
  0
LINE
  8
鉄骨等
  6
CONTINUOUS
 10
-82.580375
 20
-31.591233
 11
-51.845045
 21
-31.591233
  0
LINE
  8
鉄骨等
  6
CONTINUOUS
 10
-50.27723
 20
-33.50422
 11
-51.845045
 21
-31.591233
  0
LINE
  8
鉄骨等
  6
CONTINUOUS
 10
-22.580375
 20
-75.186835
 11
-57.080382
 21
-33.091233
  0
LINE
  8
鉄骨等
  6
CONTINUOUS
 10
-82.580375
 20
-31.591233
 11
-82.580375
 21
-33.591235
  0
LINE
  8
鉄骨等
  6
CONTINUOUS
 10
-82.580375
 20
-33.591235
 11
-80.580372
 21
-33.591235
  0
LINE
  8
鉄骨等
  6
CONTINUOUS
 10
-80.580372
 20
-33.591235
 11
-80.580372
 21
-33.091233
  0
LINE
  8
鉄骨等
  6
CONTINUOUS
 10
-70.580375
 20
-33.291235
 11
-70.880375
 21
-33.591235
  0
LINE
  8
鉄骨等
  6
CONTINUOUS
 10
-70.580375
 20
-33.291235
 11
-70.280375
 21
-33.591235
  0
LINE
  8
鉄骨等
  6
CONTINUOUS
 10
-70.280375
 20
-33.591235
 11
-66.580378
 21
-33.591235
  0
LINE
  8
鉄骨等
  6
CONTINUOUS
 10
-70.880375
 20
-33.591235
 11
-74.580372
 21
-33.591235
  0
LINE
  8
鉄骨等
  6
CONTINUOUS
 10
-74.580372
 20
-33.591235
 11
-75.080375
 21
-33.091233
  0
LINE
  8
鉄骨等
  6
CONTINUOUS
 10
-80.580372
 20
-33.091233
 11
-75.080375
 21
-33.091233
  0
LINE
  8
鉄骨等
  6
CONTINUOUS
 10
-66.580378
 20
-33.591235
 11
-66.080375
 21
-33.091233
  0
LINE
  8
鉄骨等
  6
CONTINUOUS
 10
-57.080382
 20
-33.091233
 11
-66.080375
 21
-33.091233
  0
ENDBLK
  0
BLOCK
  2
*GRP_0036
 70
    65
 10
0.0
 20
0.0
  0
ARC
  8
別途部材
  6
CONTINUOUS
 62
    96
 10
-85.07809
 20
-36.864035
 40
5.005952
 50
180.001373
 51
248.200992
  0
LINE
  8
別途部材
  6
CONTINUOUS
 62
    96
 10
-93.087612
 20
-42.28679
 11
-93.087612
 21
7.713205
  0
LINE
  8
別途部材
  6
CONTINUOUS
 62
    96
 10
-90.084027
 20
-36.864035
 11
-90.084027
 21
9.37777
  0
LINE
  8
別途部材
  6
CONTINUOUS
 10
-63.087612
 20
-54.286768
 11
-63.087612
 21
-51.051822
  0
LINE
  8
別途部材
  6
CONTINUOUS
 62
    96
 10
-93.087612
 20
-42.28679
 11
-63.087612
 21
-54.286768
  0
LINE
  8
別途部材
  6
CONTINUOUS
 62
    96
 10
-86.93723
 20
-41.51198
 11
-63.087612
 21
-51.051822
  0
ARC
  8
別途部材
  6
CONTINUOUS
 10
-9.522688
 20
139.80308
 40
156.303653
 50
230.688004
 51
237.681046
  0
ARC
  8
別途部材
  6
CONTINUOUS
 10
-9.522688
 20
139.80308
 40
153.3
 50
229.762604
 51
238.297129
  0
ENDBLK
  0
BLOCK
  2
*GRP_0037
 70
    65
 10
0.0
 20
0.0
  0
LINE
  8
別途部材
  6
CONTINUOUS
 62
   111
 10
-87.084027
 20
-23.78678
 11
-85.580443
 21
-23.78678
  0
LINE
  8
別途部材
  6
CONTINUOUS
 62
   111
 10
-87.084027
 20
7.713213
 11
-87.084027
 21
-23.78678
  0
LINE
  8
別途部材
  6
CONTINUOUS
 62
   111
 10
-85.580443
 20
-23.78678
 11
-85.580443
 21
8.33812
  0
ARC
  8
別途部材
  6
CONTINUOUS
 62
   111
 10
45.800313
 20
139.80308
 40
187.3659
 50
214.53512
 51
224.82821
  0
ARC
  8
別途部材
  6
CONTINUOUS
 62
   111
 10
45.800313
 20
139.80308
 40
185.859998
 50
213.85466
 51
225.018355
  0
ENDBLK
  0
BLOCK
  2
*GRP_0038
 70
    65
 10
0.0
 20
0.0
  0
ARC
  8
St
  6
CONTINUOUS
 10
-84.58048
 20
3.1668
 40
1.0
 50
90.0
 51
180.0
  0
LINE
  8
St
  6
CONTINUOUS
 10
-84.580483
 20
4.1668
 11
-83.580477
 21
4.1668
  0
ARC
  8
St
  6
CONTINUOUS
 10
-83.58048
 20
3.1668
 40
1.0
 50
0.0
 51
90.0
  0
LINE
  8
St
  6
CONTINUOUS
 10
-82.58048
 20
-34.8332
 11
-82.58048
 21
3.166803
  0
ARC
  8
St
  6
CONTINUOUS
 10
-83.58048
 20
-34.833198
 40
1.0
 50
-90.0
 51
0.0
  0
LINE
  8
St
  6
CONTINUOUS
 10
-84.580483
 20
-35.833198
 11
-83.580477
 21
-35.833198
  0
LINE
  8
St
  6
CONTINUOUS
 10
-85.58048
 20
-34.8332
 11
-85.58048
 21
3.166803
  0
ARC
  8
St
  6
CONTINUOUS
 10
-84.58048
 20
-34.833198
 40
1.0
 50
180.0
 51
270.0
  0
LINE
  8
St
  6
CONTINUOUS
 10
-83.683558
 20
4.1668
 11
-82.58048
 21
3.063723
  0
LINE
  8
St
  6
CONTINUOUS
 10
-85.390835
 20
3.752748
 11
-82.58048
 21
0.942392
  0
LINE
  8
St
  6
CONTINUOUS
 10
-85.58048
 20
-2.421568
 11
-82.58048
 21
-5.421568
  0
LINE
  8
St
  6
CONTINUOUS
 10
-85.58048
 20
-0.300238
 11
-82.58048
 21
-3.300238
  0
LINE
  8
St
  6
CONTINUOUS
 10
-85.58048
 20
1.821077
 11
-82.58048
 21
-1.178923
  0
LINE
  8
St
  6
CONTINUOUS
 10
-85.58048
 20
-13.028157
 11
-82.58048
 21
-16.028157
  0
LINE
  8
St
  6
CONTINUOUS
 10
-85.58048
 20
-10.906843
 11
-82.58048
 21
-13.906843
  0
LINE
  8
St
  6
CONTINUOUS
 10
-85.58048
 20
-8.785527
 11
-82.58048
 21
-11.785527
  0
LINE
  8
St
  6
CONTINUOUS
 10
-85.58048
 20
-6.664197
 11
-82.58048
 21
-9.664197
  0
LINE
  8
St
  6
CONTINUOUS
 10
-85.58048
 20
-4.542882
 11
-82.58048
 21
-7.542882
  0
LINE
  8
St
  6
CONTINUOUS
 10
-85.58048
 20
-19.392133
 11
-82.58048
 21
-22.392133
  0
LINE
  8
St
  6
CONTINUOUS
 10
-85.58048
 20
-17.270802
 11
-82.58048
 21
-20.270802
  0
LINE
  8
St
  6
CONTINUOUS
 10
-85.58048
 20
-15.149488
 11
-82.58048
 21
-18.149488
  0
LINE
  8
St
  6
CONTINUOUS
 10
-85.58048
 20
-29.998722
 11
-82.58048
 21
-32.998722
  0
LINE
  8
St
  6
CONTINUOUS
 10
-85.58048
 20
-27.877408
 11
-82.58048
 21
-30.877408
  0
LINE
  8
St
  6
CONTINUOUS
 10
-85.58048
 20
-25.756092
 11
-82.58048
 21
-28.756092
  0
LINE
  8
St
  6
CONTINUOUS
 10
-85.58048
 20
-23.634763
 11
-82.58048
 21
-26.634763
  0
LINE
  8
St
  6
CONTINUOUS
 10
-85.58048
 20
-21.513447
 11
-82.58048
 21
-24.513447
  0
LINE
  8
St
  6
CONTINUOUS
 10
-85.58048
 20
-32.120053
 11
-82.613285
 21
-35.087248
  0
LINE
  8
St
  6
CONTINUOUS
 10
-85.58048
 20
-34.241367
 11
-83.98865
 21
-35.833198
  0
ENDBLK
  0
BLOCK
  2
*GRP_0039
 70
    65
 10
0.0
 20
0.0
  0
ARC
  8
St
  6
CONTINUOUS
 10
-89.084028
 20
3.1668
 40
1.0
 50
90.0
 51
180.0
  0
LINE
  8
St
  6
CONTINUOUS
 10
-89.08403
 20
4.1668
 11
-88.084025
 21
4.1668
  0
ARC
  8
St
  6
CONTINUOUS
 10
-88.084028
 20
3.1668
 40
1.0
 50
0.0
 51
90.0
  0
LINE
  8
St
  6
CONTINUOUS
 10
-87.084027
 20
-34.8332
 11
-87.084027
 21
3.166803
  0
ARC
  8
St
  6
CONTINUOUS
 10
-88.084028
 20
-34.833198
 40
1.0
 50
-90.0
 51
0.0
  0
LINE
  8
St
  6
CONTINUOUS
 10
-89.08403
 20
-35.833198
 11
-88.084025
 21
-35.833198
  0
LINE
  8
St
  6
CONTINUOUS
 10
-90.084027
 20
-34.8332
 11
-90.084027
 21
3.166803
  0
ARC
  8
St
  6
CONTINUOUS
 10
-89.084028
 20
-34.833198
 40
1.0
 50
180.0
 51
270.0
  0
LINE
  8
St
  6
CONTINUOUS
 10
-88.187105
 20
4.1668
 11
-87.084027
 21
3.063723
  0
LINE
  8
St
  6
CONTINUOUS
 10
-89.894383
 20
3.752748
 11
-87.084027
 21
0.942392
  0
LINE
  8
St
  6
CONTINUOUS
 10
-90.084027
 20
-2.421568
 11
-87.084027
 21
-5.421568
  0
LINE
  8
St
  6
CONTINUOUS
 10
-90.084027
 20
-0.300238
 11
-87.084027
 21
-3.300238
  0
LINE
  8
St
  6
CONTINUOUS
 10
-90.084027
 20
1.821077
 11
-87.084027
 21
-1.178923
  0
LINE
  8
St
  6
CONTINUOUS
 10
-90.084027
 20
-13.028157
 11
-87.084027
 21
-16.028157
  0
LINE
  8
St
  6
CONTINUOUS
 10
-90.084027
 20
-10.906843
 11
-87.084027
 21
-13.906843
  0
LINE
  8
St
  6
CONTINUOUS
 10
-90.084027
 20
-8.785527
 11
-87.084027
 21
-11.785527
  0
LINE
  8
St
  6
CONTINUOUS
 10
-90.084027
 20
-6.664197
 11
-87.084027
 21
-9.664197
  0
LINE
  8
St
  6
CONTINUOUS
 10
-90.084027
 20
-4.542882
 11
-87.084027
 21
-7.542882
  0
LINE
  8
St
  6
CONTINUOUS
 10
-90.084027
 20
-19.392133
 11
-87.084027
 21
-22.392133
  0
LINE
  8
St
  6
CONTINUOUS
 10
-90.084027
 20
-17.270802
 11
-87.084027
 21
-20.270802
  0
LINE
  8
St
  6
CONTINUOUS
 10
-90.084027
 20
-15.149488
 11
-87.084027
 21
-18.149488
  0
LINE
  8
St
  6
CONTINUOUS
 10
-90.084027
 20
-29.998722
 11
-87.084027
 21
-32.998722
  0
LINE
  8
St
  6
CONTINUOUS
 10
-90.084027
 20
-27.877408
 11
-87.084027
 21
-30.877408
  0
LINE
  8
St
  6
CONTINUOUS
 10
-90.084027
 20
-25.756092
 11
-87.084027
 21
-28.756092
  0
LINE
  8
St
  6
CONTINUOUS
 10
-90.084027
 20
-23.634763
 11
-87.084027
 21
-26.634763
  0
LINE
  8
St
  6
CONTINUOUS
 10
-90.084027
 20
-21.513447
 11
-87.084027
 21
-24.513447
  0
LINE
  8
St
  6
CONTINUOUS
 10
-90.084027
 20
-32.120053
 11
-87.116832
 21
-35.087248
  0
LINE
  8
St
  6
CONTINUOUS
 10
-90.084027
 20
-34.241367
 11
-88.492198
 21
-35.833198
  0
ENDBLK
  0
BLOCK
  2
*GRP_0040
 70
    65
 10
0.0
 20
0.0
  0
LINE
  8
St
  6
CONTINUOUS
 10
3.21817
 20
-12.286833
 11
3.21817
 21
-23.59123
  0
LINE
  8
St
  6
CONTINUOUS
 10
-65.080378
 20
-26.59123
 11
-65.080378
 21
-26.89123
  0
LINE
  8
St
  6
CONTINUOUS
 10
-65.080378
 20
-26.89123
 11
-65.58038
 21
-26.89123
  0
LINE
  8
St
  6
CONTINUOUS
 10
-65.58038
 20
-26.89123
 11
-65.58038
 21
-26.59123
  0
LINE
  8
St
  6
CONTINUOUS
 10
-79.580375
 20
-15.786865
 11
-80.580372
 21
-16.786863
  0
LINE
  8
St
  6
CONTINUOUS
 10
-60.780282
 20
-24.591227
 11
1.71817
 21
-24.591227
  0
LINE
  8
St
  6
CONTINUOUS
 10
-80.580372
 20
-21.591227
 11
-80.580372
 21
-16.786863
  0
LINE
  8
St
  6
CONTINUOUS
 10
-77.580372
 20
-24.591227
 11
-62.780353
 21
-24.591227
  0
ARC
  8
St
  6
CONTINUOUS
 10
-77.580362
 20
-21.591226
 40
3.0
 50
180.0
 51
270.0
  0
LINE
  8
St
  6
CONTINUOUS
 10
-62.780353
 20
-24.591227
 11
-62.780353
 21
-12.286833
  0
LINE
  8
St
  6
CONTINUOUS
 10
-79.580375
 20
-8.786845
 11
-80.580372
 21
-7.786848
  0
LINE
  8
St
  6
CONTINUOUS
 10
-79.580375
 20
-15.786865
 11
-79.580375
 21
-8.786845
  0
LINE
  8
St
  6
CONTINUOUS
 10
-60.780305
 20
-14.286835
 11
-53.280357
 21
-14.286835
  0
LINE
  8
St
  6
CONTINUOUS
 10
-52.780355
 20
-13.786833
 11
-53.280357
 21
-14.286835
  0
LINE
  8
St
  6
CONTINUOUS
 10
1.71817
 20
-19.286838
 11
-0.281833
 21
-19.286838
  0
LINE
  8
St
  6
CONTINUOUS
 10
-0.281833
 20
-19.286838
 11
-0.281833
 21
-17.786838
  0
LINE
  8
St
  6
CONTINUOUS
 10
1.71817
 20
-17.786838
 11
-0.281833
 21
-17.786838
  0
LINE
  8
St
  6
CONTINUOUS
 10
-60.780297
 20
-19.286875
 11
-58.780295
 21
-19.286875
  0
LINE
  8
St
  6
CONTINUOUS
 10
-58.780295
 20
-19.286875
 11
-58.780295
 21
-17.786875
  0
LINE
  8
St
  6
CONTINUOUS
 10
-60.780297
 20
-17.786875
 11
-58.780295
 21
-17.786875
  0
LINE
  8
St
  6
CONTINUOUS
 10
-60.780282
 20
-24.591227
 11
-60.780297
 21
-19.286875
  0
LINE
  8
St
  6
CONTINUOUS
 10
-60.780305
 20
-14.286835
 11
-60.780297
 21
-17.786875
  0
LINE
  8
St
  6
CONTINUOUS
 10
1.71817
 20
-24.591227
 11
1.71817
 21
-19.286838
  0
LINE
  8
St
  6
CONTINUOUS
 10
-0.281833
 20
-14.286835
 11
1.71817
 21
-14.286835
  0
LINE
  8
St
  6
CONTINUOUS
 10
1.71817
 20
-17.786838
 11
1.71817
 21
-14.286835
  0
LINE
  8
St
  6
CONTINUOUS
 10
-0.281833
 20
-14.286835
 11
-0.281833
 21
-13.786833
  0
LINE
  8
St
  6
CONTINUOUS
 10
-52.780355
 20
-13.786833
 11
-0.281833
 21
-13.786833
  0
LINE
  8
St
  6
CONTINUOUS
 10
-80.580372
 20
-7.786848
 11
-80.580372
 21
-4.591233
  0
LINE
  8
St
  6
CONTINUOUS
 10
1.71817
 20
-44.48683
 11
-34.102783
 21
-44.48683
  0
LINE
  8
St
  6
CONTINUOUS
 10
3.21817
 20
-23.59123
 11
3.21817
 21
-44.48683
  0
LINE
  8
St
  6
CONTINUOUS
 10
3.21817
 20
-12.286833
 11
-51.180313
 21
-12.286833
  0
LINE
  8
St
  6
CONTINUOUS
 10
-9.88038
 20
-45.98683
 11
-35.580372
 21
-45.98683
  0
LINE
  8
St
  6
CONTINUOUS
 10
-35.580372
 20
-45.98683
 11
-35.580372
 21
-26.59123
  0
LINE
  8
St
  6
CONTINUOUS
 10
1.71817
 20
-26.59123
 11
-34.080372
 21
-26.59123
  0
LINE
  8
St
  6
CONTINUOUS
 10
-82.280375
 20
-12.286855
 11
-82.580375
 21
-11.986855
  0
LINE
  8
St
  6
CONTINUOUS
 10
-82.280375
 20
-12.286855
 11
-82.580375
 21
-12.586855
  0
LINE
  8
St
  6
CONTINUOUS
 10
-82.580375
 20
-26.59123
 11
-82.580375
 21
-12.586855
  0
LINE
  8
St
  6
CONTINUOUS
 10
-82.580375
 20
-11.986855
 11
-82.580375
 21
-3.091233
  0
LINE
  8
St
  6
CONTINUOUS
 10
-78.58037
 20
-26.29123
 11
-78.88037
 21
-26.59123
  0
LINE
  8
St
  6
CONTINUOUS
 10
-78.58037
 20
-26.29123
 11
-78.28037
 21
-26.59123
  0
LINE
  8
St
  6
CONTINUOUS
 10
-78.88037
 20
-26.59123
 11
-82.580375
 21
-26.59123
  0
LINE
  8
St
  6
CONTINUOUS
 10
-70.580375
 20
-26.29123
 11
-70.880375
 21
-26.59123
  0
LINE
  8
St
  6
CONTINUOUS
 10
-70.580375
 20
-26.29123
 11
-70.280375
 21
-26.59123
  0
LINE
  8
St
  6
CONTINUOUS
 10
-65.58038
 20
-26.59123
 11
-70.280375
 21
-26.59123
  0
LINE
  8
St
  6
CONTINUOUS
 10
-70.880375
 20
-26.59123
 11
-78.28037
 21
-26.59123
  0
LINE
  8
St
  6
CONTINUOUS
 10
-8.68038
 20
-57.286825
 11
-8.38038
 21
-57.586825
  0
LINE
  8
St
  6
CONTINUOUS
 10
-8.38038
 20
-56.986825
 11
-8.68038
 21
-57.286825
  0
LINE
  8
St
  6
CONTINUOUS
 10
-8.38038
 20
-56.986825
 11
-8.38038
 21
-45.98683
  0
ARC
  8
St
  6
CONTINUOUS
 10
-29.89003
 20
-34.144885
 40
0.75
 50
227.457576
 51
407.457232
  0
ARC
  8
St
  6
CONTINUOUS
 10
-29.89003
 20
-37.828771
 40
0.75
 50
312.542364
 51
492.542397
  0
ARC
  8
St
  6
CONTINUOUS
 10
-31.580369
 20
-35.986828
 40
1.75
 50
47.457615
 51
312.542407
  0
ARC
  8
St
  6
CONTINUOUS
 10
-31.580369
 20
-35.986828
 40
3.25
 50
237.769086
 51
312.542389
  0
ARC
  8
St
  6
CONTINUOUS
 10
-33.580366
 20
-39.158974
 40
0.5
 50
57.769086
 51
180.0
  0
ARC
  8
St
  6
CONTINUOUS
 10
-31.580369
 20
-35.986828
 40
3.25
 50
47.457518
 51
122.230914
  0
ARC
  8
St
  6
CONTINUOUS
 10
-33.580366
 20
-32.814682
 40
0.5
 50
180.0
 51
302.230914
  0
ARC
  8
St
  6
CONTINUOUS
 10
-1.972158
 20
-34.144885
 40
0.75
 50
132.542768
 51
312.542424
  0
ARC
  8
St
  6
CONTINUOUS
 10
-1.972158
 20
-37.828771
 40
0.75
 50
47.457603
 51
227.457636
  0
ARC
  8
St
  6
CONTINUOUS
 10
-0.281819
 20
-35.986828
 40
1.75
 50
227.457593
 51
492.542385
  0
ARC
  8
St
  6
CONTINUOUS
 10
-0.281819
 20
-35.986828
 40
3.25
 50
66.421841
 51
132.542482
  0
ARC
  8
St
  6
CONTINUOUS
 10
1.21818
 20
-32.549896
 40
0.5
 50
246.421841
 51
360.0
  0
ARC
  8
St
  6
CONTINUOUS
 10
-0.281819
 20
-35.986828
 40
3.25
 50
227.457611
 51
293.578159
  0
ARC
  8
St
  6
CONTINUOUS
 10
1.21818
 20
-39.42376
 40
0.5
 50
0.0
 51
113.578159
  0
LINE
  8
St
  6
CONTINUOUS
 10
-34.080372
 20
-26.59123
 11
-34.080372
 21
-32.814685
  0
LINE
  8
St
  6
CONTINUOUS
 10
-34.080372
 20
-44.48683
 11
-34.080372
 21
-39.15898
  0
LINE
  8
St
  6
CONTINUOUS
 10
1.71817
 20
-44.48683
 11
1.71817
 21
-39.423768
  0
LINE
  8
St
  6
CONTINUOUS
 10
1.71817
 20
-26.59123
 11
1.71817
 21
-32.549905
  0
LINE
  8
St
  6
CONTINUOUS
 10
-10.380372
 20
-54.786827
 11
-9.88038
 21
-54.286825
  0
LINE
  8
St
  6
CONTINUOUS
 10
-9.88038
 20
-45.98683
 11
-9.88038
 21
-54.286825
  0
LINE
  8
St
  6
CONTINUOUS
 10
-10.380372
 20
-59.78683
 11
-9.88038
 21
-60.286825
  0
LINE
  8
St
  6
CONTINUOUS
 10
-10.380372
 20
-59.78683
 11
-10.380372
 21
-54.786827
  0
LINE
  8
St
  6
CONTINUOUS
 10
-8.38038
 20
-57.586825
 11
-8.38038
 21
-62.286827
  0
LINE
  8
St
  6
CONTINUOUS
 10
-9.88038
 20
-60.286825
 11
-9.88038
 21
-62.286827
  0
LINE
  8
St
  6
CONTINUOUS
 10
-8.38038
 20
-62.286827
 11
-9.88038
 21
-62.286827
  0
LINE
  8
St
  6
CONTINUOUS
 10
3.21817
 20
-44.48683
 11
6.018138
 21
-44.48683
  0
ARC
  8
St
  6
CONTINUOUS
 10
6.018143
 20
-45.486825
 40
0.5
 50
270.0
 51
360.0
  0
LINE
  8
St
  6
CONTINUOUS
 10
6.51813
 20
-45.486827
 11
6.51813
 21
-44.986833
  0
ARC
  8
St
  6
CONTINUOUS
 10
6.018143
 20
-44.986825
 40
0.5
 50
0.0
 51
90.0
  0
LINE
  8
St
  6
CONTINUOUS
 10
-62.780353
 20
-12.286833
 11
-52.680313
 21
-12.286833
  0
LINE
  8
St
  6
CONTINUOUS
 10
-60.480313
 20
-7.786833
 11
-60.480313
 21
-9.286833
  0
LINE
  8
St
  6
CONTINUOUS
 10
-60.480313
 20
-9.286833
 11
-52.680313
 21
-9.286833
  0
LINE
  8
St
  6
CONTINUOUS
 10
-55.680313
 20
-8.086833
 11
-55.980313
 21
-7.786833
  0
LINE
  8
St
  6
CONTINUOUS
 10
-55.680313
 20
-8.086833
 11
-55.380313
 21
-7.786833
  0
LINE
  8
St
  6
CONTINUOUS
 10
-60.480313
 20
-7.786833
 11
-55.980313
 21
-7.786833
  0
LINE
  8
St
  6
CONTINUOUS
 10
-55.380313
 20
-7.786833
 11
-51.180313
 21
-7.786833
  0
LINE
  8
St
  6
CONTINUOUS
 10
-52.680313
 20
-12.286833
 11
-52.680313
 21
-9.286833
  0
LINE
  8
St
  6
CONTINUOUS
 10
-51.180313
 20
-12.286833
 11
-51.180313
 21
-7.786833
  0
LINE
  8
St
  6
CONTINUOUS
 10
-77.580372
 20
-3.091233
 11
-77.580372
 21
-4.591233
  0
LINE
  8
St
  6
CONTINUOUS
 10
-80.580372
 20
-4.591233
 11
-77.580372
 21
-4.591233
  0
LINE
  8
St
  6
CONTINUOUS
 10
-82.580375
 20
-3.091233
 11
-77.580372
 21
-3.091233
  0
LINE
  8
St
  6
CONTINUOUS
 10
-2.78187
 20
-45.68683
 11
-2.48187
 21
-45.98683
  0
LINE
  8
St
  6
CONTINUOUS
 10
6.018138
 20
-45.98683
 11
-2.48187
 21
-45.98683
  0
LINE
  8
St
  6
CONTINUOUS
 10
-2.78187
 20
-45.68683
 11
-3.08187
 21
-45.98683
  0
LINE
  8
St
  6
CONTINUOUS
 10
-8.38038
 20
-45.98683
 11
-3.08187
 21
-45.98683
  0
LINE
  8
St
  6
CONTINUOUS
 10
-40.78037
 20
-26.29123
 11
-41.08037
 21
-26.59123
  0
LINE
  8
St
  6
CONTINUOUS
 10
-40.78037
 20
-26.29123
 11
-40.48037
 21
-26.59123
  0
LINE
  8
St
  6
CONTINUOUS
 10
-35.580372
 20
-26.59123
 11
-40.48037
 21
-26.59123
  0
LINE
  8
St
  6
CONTINUOUS
 10
-65.080378
 20
-26.59123
 11
-41.08037
 21
-26.59123
  0
ENDBLK
  0
BLOCK
  2
*GRP_0041
 70
    65
 10
0.0
 20
0.0
  0
LINE
  8
ボルト／ビス
  6
CONTINUOUS
 10
-12.483597
 20
-70.686833
 11
-6.483597
 21
-70.686833
  0
LINE
  8
ボルト／ビス
  6
CONTINUOUS
 10
-12.483597
 20
-70.686833
 11
-12.483597
 21
-71.686837
  0
LINE
  8
ボルト／ビス
  6
CONTINUOUS
 10
-6.483597
 20
-70.686833
 11
-6.483597
 21
-71.68683
  0
LINE
  8
ボルト／ビス
  6
CONTINUOUS
 10
-12.483597
 20
-71.686837
 11
-6.483597
 21
-71.68683
  0
LINE
  8
ボルト／ビス
  6
CONTINUOUS
 10
-11.48359
 20
-70.686833
 11
-11.48359
 21
-70.686833
  0
ARC
  8
ボルト／ビス
  6
CONTINUOUS
 10
-10.983594
 20
-70.686829
 40
0.5
 50
90.000036
 51
180.0
  0
LINE
  8
ボルト／ビス
  6
CONTINUOUS
 10
-10.983597
 20
-70.186837
 11
-7.983597
 21
-70.18683
  0
LINE
  8
ボルト／ビス
  6
CONTINUOUS
 10
-7.483593
 20
-70.686833
 11
-7.483593
 21
-70.686833
  0
ARC
  8
ボルト／ビス
  6
CONTINUOUS
 10
-7.983594
 20
-70.686827
 40
0.5
 50
0.0
 51
90.000041
  0
LINE
  8
ボルト／ビス
  6
CONTINUOUS
 10
-12.483597
 20
-75.186835
 11
-6.483597
 21
-75.186835
  0
LINE
  8
ボルト／ビス
  6
CONTINUOUS
 10
-12.483597
 20
-75.186835
 11
-11.983593
 21
-75.686837
  0
LINE
  8
ボルト／ビス
  6
CONTINUOUS
 10
-6.483597
 20
-75.186835
 11
-6.98359
 21
-75.68683
  0
LINE
  8
ボルト／ビス
  6
CONTINUOUS
 10
-11.983593
 20
-75.686837
 11
-6.98359
 21
-75.68683
  0
LINE
  8
ボルト／ビス
  6
CONTINUOUS
 10
-11.48359
 20
-71.686837
 11
-11.48359
 21
-75.186835
  0
LINE
  8
ボルト／ビス
  6
CONTINUOUS
 10
-7.483593
 20
-71.68683
 11
-7.483593
 21
-75.186835
  0
ENDBLK
  0
BLOCK
  2
*GRP_0042
 70
    65
 10
0.0
 20
0.0
  0
LINE
  8
ボルト／ビス
  6
CONTINUOUS
 10
-30.50972
 20
-58.412585
 11
-26.706455
 21
-63.053185
  0
LINE
  8
ボルト／ビス
  6
CONTINUOUS
 10
-30.50972
 20
-58.412585
 11
-31.283158
 21
-59.046465
  0
LINE
  8
ボルト／ビス
  6
CONTINUOUS
 10
-26.706455
 20
-63.053185
 11
-27.47989
 21
-63.68706
  0
LINE
  8
ボルト／ビス
  6
CONTINUOUS
 10
-31.283158
 20
-59.046465
 11
-27.47989
 21
-63.68706
  0
LINE
  8
ボルト／ビス
  6
CONTINUOUS
 10
-29.875842
 20
-59.18602
 11
-29.875842
 21
-59.18602
  0
ARC
  8
ボルト／ビス
  6
CONTINUOUS
 10
-29.558902
 20
-59.572732
 40
0.5
 50
39.336826
 51
129.33679
  0
LINE
  8
ボルト／ビス
  6
CONTINUOUS
 10
-29.172192
 20
-59.255797
 11
-27.270553
 21
-61.576092
  0
LINE
  8
ボルト／ビス
  6
CONTINUOUS
 10
-27.34033
 20
-62.279752
 11
-27.34033
 21
-62.279752
  0
ARC
  8
ボルト／ビス
  6
CONTINUOUS
 10
-27.657268
 20
-61.893031
 40
0.5
 50
-50.66321
 51
39.336831
  0
LINE
  8
ボルト／ビス
  6
CONTINUOUS
 10
-33.990172
 20
-61.265035
 11
-30.18691
 21
-65.905635
  0
LINE
  8
ボルト／ビス
  6
CONTINUOUS
 10
-33.990172
 20
-61.265035
 11
-34.05995
 21
-61.968695
  0
LINE
  8
ボルト／ビス
  6
CONTINUOUS
 10
-30.18691
 20
-65.905635
 11
-30.890555
 21
-65.835858
  0
LINE
  8
ボルト／ビス
  6
CONTINUOUS
 10
-34.05995
 20
-61.968695
 11
-30.890555
 21
-65.835858
  0
LINE
  8
ボルト／ビス
  6
CONTINUOUS
 10
-30.64928
 20
-59.819902
 11
-33.356293
 21
-62.038472
  0
LINE
  8
ボルト／ビス
  6
CONTINUOUS
 10
-28.113763
 20
-62.91363
 11
-30.820783
 21
-65.132203
  0
ENDBLK
  0
BLOCK
  2
*GRP_0043
 70
    65
 10
0.0
 20
0.0
  0
LINE
  8
ボルト／ビス
  6
CONTINUOUS
 10
-49.16279
 20
-35.652818
 11
-45.359525
 21
-40.293418
  0
LINE
  8
ボルト／ビス
  6
CONTINUOUS
 10
-49.16279
 20
-35.652818
 11
-49.936228
 21
-36.286697
  0
LINE
  8
ボルト／ビス
  6
CONTINUOUS
 10
-45.359525
 20
-40.293418
 11
-46.132957
 21
-40.927293
  0
LINE
  8
ボルト／ビス
  6
CONTINUOUS
 10
-49.936228
 20
-36.286697
 11
-46.132957
 21
-40.927293
  0
LINE
  8
ボルト／ビス
  6
CONTINUOUS
 10
-48.52891
 20
-36.426253
 11
-48.52891
 21
-36.426253
  0
ARC
  8
ボルト／ビス
  6
CONTINUOUS
 10
-48.211972
 20
-36.812965
 40
0.5
 50
39.336826
 51
129.33679
  0
LINE
  8
ボルト／ビス
  6
CONTINUOUS
 10
-47.825263
 20
-36.49603
 11
-45.923622
 21
-38.816325
  0
LINE
  8
ボルト／ビス
  6
CONTINUOUS
 10
-45.9934
 20
-39.519985
 11
-45.9934
 21
-39.519985
  0
ARC
  8
ボルト／ビス
  6
CONTINUOUS
 10
-46.310338
 20
-39.133264
 40
0.5
 50
-50.66321
 51
39.336831
  0
LINE
  8
ボルト／ビス
  6
CONTINUOUS
 10
-52.643242
 20
-38.505267
 11
-48.839977
 21
-43.145867
  0
LINE
  8
ボルト／ビス
  6
CONTINUOUS
 10
-52.643242
 20
-38.505267
 11
-52.71302
 21
-39.208928
  0
LINE
  8
ボルト／ビス
  6
CONTINUOUS
 10
-48.839977
 20
-43.145867
 11
-49.543625
 21
-43.07609
  0
LINE
  8
ボルト／ビス
  6
CONTINUOUS
 10
-52.71302
 20
-39.208928
 11
-49.543625
 21
-43.07609
  0
LINE
  8
ボルト／ビス
  6
CONTINUOUS
 10
-49.302347
 20
-37.060135
 11
-52.009363
 21
-39.278705
  0
LINE
  8
ボルト／ビス
  6
CONTINUOUS
 10
-46.766832
 20
-40.153863
 11
-49.473852
 21
-42.372435
  0
ENDBLK
  0
BLOCK
  2
*GRP_0044
 70
    65
 10
0.0
 20
0.0
  0
LINE
  8
ボルト／ビス
  6
CONTINUOUS
 62
    64
 10
3.218162
 20
-53.786752
 11
4.266325
 21
-53.878455
  0
ARC
  8
ボルト／ビス
  6
CONTINUOUS
 62
    64
 10
4.118175
 20
-55.571979
 40
1.7
 50
0.0
 51
85.000011
  0
LINE
  8
ボルト／ビス
  6
CONTINUOUS
 62
    64
 10
5.818165
 20
-55.571985
 11
5.818165
 21
-57.286755
  0
LINE
  8
ボルト／ビス
  6
CONTINUOUS
 62
    64
 10
3.218162
 20
-60.786758
 11
4.266325
 21
-60.695055
  0
ARC
  8
ボルト／ビス
  6
CONTINUOUS
 62
    64
 10
4.118175
 20
-59.001512
 40
1.7
 50
274.999989
 51
360.0
  0
LINE
  8
ボルト／ビス
  6
CONTINUOUS
 62
    64
 10
5.818165
 20
-59.001525
 11
5.818165
 21
-57.286755
  0
LINE
  8
ボルト／ビス
  6
CONTINUOUS
 62
    64
 10
5.433258
 20
-54.890115
 11
5.675418
 21
-54.890115
  0
LINE
  8
ボルト／ビス
  6
CONTINUOUS
 62
    64
 10
4.783173
 20
-56.586758
 11
4.783173
 21
-57.286755
  0
LINE
  8
ボルト／ビス
  6
CONTINUOUS
 62
    64
 10
5.433258
 20
-56.186752
 11
5.433258
 21
-54.890115
  0
LINE
  8
ボルト／ビス
  6
CONTINUOUS
 62
    64
 10
4.783173
 20
-56.586758
 11
5.03326
 21
-56.586758
  0
ARC
  8
ボルト／ビス
  6
CONTINUOUS
 62
    64
 10
5.03327
 20
-56.186745
 40
0.4
 50
270.0
 51
360.0
  0
LINE
  8
ボルト／ビス
  6
CONTINUOUS
 62
    64
 10
5.433258
 20
-59.683395
 11
5.675418
 21
-59.683395
  0
LINE
  8
ボルト／ビス
  6
CONTINUOUS
 62
    64
 10
4.783173
 20
-57.986752
 11
4.783173
 21
-57.286755
  0
LINE
  8
ボルト／ビス
  6
CONTINUOUS
 62
    64
 10
5.433258
 20
-58.386758
 11
5.433258
 21
-59.683395
  0
LINE
  8
ボルト／ビス
  6
CONTINUOUS
 62
    64
 10
4.783173
 20
-57.986752
 11
5.03326
 21
-57.986752
  0
ARC
  8
ボルト／ビス
  6
CONTINUOUS
 62
    64
 10
5.03327
 20
-58.386745
 40
0.4
 50
0.0
 51
90.0
  0
LINE
  8
ボルト／ビス
  6
CONTINUOUS
 62
    64
 10
3.218162
 20
-53.786752
 11
3.218162
 21
-60.786758
  0
LINE
  8
ボルト／ビス
  6
CONTINUOUS
 62
    64
 10
-12.28184
 20
-55.286752
 11
-12.781835
 21
-55.786755
  0
LINE
  8
ボルト／ビス
  6
CONTINUOUS
 62
    64
 10
-12.28184
 20
-59.286758
 11
-12.781835
 21
-58.786755
  0
LINE
  8
ボルト／ビス
  6
CONTINUOUS
 62
    64
 10
-12.28184
 20
-55.286752
 11
-12.28184
 21
-59.286758
  0
LINE
  8
ボルト／ビス
  6
CONTINUOUS
 62
    64
 10
-12.781835
 20
-55.786755
 11
-12.781835
 21
-58.786755
  0
LINE
  8
ボルト／ビス
  6
CONTINUOUS
 62
    64
 10
3.218162
 20
-59.286758
 11
-12.28184
 21
-59.286758
  0
LINE
  8
ボルト／ビス
  6
CONTINUOUS
 62
    64
 10
3.218162
 20
-55.286752
 11
-12.28184
 21
-55.286752
  0
LINE
  8
ボルト／ビス
  6
CONTINUOUS
 62
    64
 10
3.218162
 20
-55.786755
 11
-12.781835
 21
-55.786755
  0
LINE
  8
ボルト／ビス
  6
CONTINUOUS
 62
    64
 10
3.218162
 20
-58.786755
 11
-12.781835
 21
-58.786755
  0
LINE
  8
ボルト／ビス
  6
DASHDOT
 62
    64
 10
8.818165
 20
-57.286755
 11
-15.781835
 21
-57.286755
  0
ENDBLK
  0
BLOCK
  2
*GRP_0045
 70
    65
 10
0.0
 20
0.0
  0
LINE
  8
ボルト／ビス
  6
CONTINUOUS
 62
    64
 10
117.92101
 20
-22.2699
 11
118.969173
 21
-22.361603
  0
ARC
  8
ボルト／ビス
  6
CONTINUOUS
 62
    64
 10
118.821008
 20
-24.055143
 40
1.7
 50
359.999999
 51
445.00001
  0
LINE
  8
ボルト／ビス
  6
CONTINUOUS
 62
    64
 10
120.521012
 20
-24.055133
 11
120.521012
 21
-25.769902
  0
LINE
  8
ボルト／ビス
  6
CONTINUOUS
 62
    64
 10
117.921003
 20
-29.269898
 11
118.969165
 21
-29.178195
  0
ARC
  8
ボルト／ビス
  6
CONTINUOUS
 62
    64
 10
118.821008
 20
-27.484676
 40
1.7
 50
274.999988
 51
359.999999
  0
LINE
  8
ボルト／ビス
  6
CONTINUOUS
 62
    64
 10
120.521005
 20
-27.484665
 11
120.521012
 21
-25.769902
  0
LINE
  8
ボルト／ビス
  6
CONTINUOUS
 62
    64
 10
120.136105
 20
-23.373262
 11
120.378257
 21
-23.37327
  0
LINE
  8
ボルト／ビス
  6
CONTINUOUS
 62
    64
 10
119.48602
 20
-25.069905
 11
119.48602
 21
-25.769902
  0
LINE
  8
ボルト／ビス
  6
CONTINUOUS
 62
    64
 10
120.136105
 20
-24.6699
 11
120.136105
 21
-23.373262
  0
LINE
  8
ボルト／ビス
  6
CONTINUOUS
 62
    64
 10
119.48602
 20
-25.069905
 11
119.736108
 21
-25.069898
  0
ARC
  8
ボルト／ビス
  6
CONTINUOUS
 62
    64
 10
119.736103
 20
-24.66991
 40
0.4
 50
269.999999
 51
359.999999
  0
LINE
  8
ボルト／ビス
  6
CONTINUOUS
 62
    64
 10
120.136105
 20
-28.166543
 11
120.378257
 21
-28.16655
  0
LINE
  8
ボルト／ビス
  6
CONTINUOUS
 62
    64
 10
119.486027
 20
-26.4699
 11
119.48602
 21
-25.769902
  0
LINE
  8
ボルト／ビス
  6
CONTINUOUS
 62
    64
 10
120.136105
 20
-26.869898
 11
120.136105
 21
-28.166543
  0
LINE
  8
ボルト／ビス
  6
CONTINUOUS
 62
    64
 10
119.486027
 20
-26.4699
 11
119.7361
 21
-26.4699
  0
ARC
  8
ボルト／ビス
  6
CONTINUOUS
 62
    64
 10
119.736103
 20
-26.86991
 40
0.4
 50
359.999999
 51
449.999999
  0
LINE
  8
ボルト／ビス
  6
CONTINUOUS
 62
    64
 10
117.92101
 20
-22.2699
 11
117.921003
 21
-29.269898
  0
LINE
  8
ボルト／ビス
  6
CONTINUOUS
 62
    64
 10
110.42101
 20
-23.769908
 11
109.921008
 21
-24.26991
  0
LINE
  8
ボルト／ビス
  6
CONTINUOUS
 62
    64
 10
110.42101
 20
-27.769898
 11
109.921
 21
-27.269902
  0
LINE
  8
ボルト／ビス
  6
CONTINUOUS
 62
    64
 10
117.921003
 20
-24.26991
 11
109.921008
 21
-24.26991
  0
LINE
  8
ボルト／ビス
  6
CONTINUOUS
 62
    64
 10
117.92101
 20
-23.7699
 11
110.42101
 21
-23.769908
  0
LINE
  8
ボルト／ビス
  6
CONTINUOUS
 62
    64
 10
117.921003
 20
-27.26991
 11
109.921
 21
-27.269902
  0
LINE
  8
ボルト／ビス
  6
CONTINUOUS
 62
    64
 10
117.92101
 20
-27.769898
 11
110.42101
 21
-27.769898
  0
LINE
  8
ボルト／ビス
  6
CONTINUOUS
 62
    64
 10
110.42101
 20
-23.769908
 11
110.42101
 21
-27.769898
  0
LINE
  8
ボルト／ビス
  6
CONTINUOUS
 62
    64
 10
109.921008
 20
-24.26991
 11
109.921
 21
-27.269902
  0
LINE
  8
ボルト／ビス
  6
CONTINUOUS
 62
    64
 10
122.492395
 20
-25.769902
 11
107.670513
 21
-25.769902
  0
ENDBLK
  0
BLOCK
  2
*GRP_0046
 70
    65
 10
0.0
 20
0.0
  0
LINE
  8
ボルト／ビス
  6
CONTINUOUS
 62
    64
 10
117.921018
 20
30.713227
 11
118.969165
 21
30.621525
  0
ARC
  8
ボルト／ビス
  6
CONTINUOUS
 62
    64
 10
118.821004
 20
28.927984
 40
1.7
 50
359.999999
 51
445.00001
  0
LINE
  8
ボルト／ビス
  6
CONTINUOUS
 62
    64
 10
120.521012
 20
28.927988
 11
120.521012
 21
27.213225
  0
LINE
  8
ボルト／ビス
  6
CONTINUOUS
 62
    64
 10
117.92101
 20
23.71323
 11
118.969173
 21
23.804932
  0
ARC
  8
ボルト／ビス
  6
CONTINUOUS
 62
    64
 10
118.821004
 20
25.498451
 40
1.7
 50
274.999988
 51
359.999999
  0
LINE
  8
ボルト／ビス
  6
CONTINUOUS
 62
    64
 10
120.521012
 20
25.498462
 11
120.521012
 21
27.213225
  0
LINE
  8
ボルト／ビス
  6
CONTINUOUS
 62
    64
 10
120.136105
 20
29.609865
 11
120.378265
 21
29.609857
  0
LINE
  8
ボルト／ビス
  6
CONTINUOUS
 62
    64
 10
119.48602
 20
27.91323
 11
119.48602
 21
27.213218
  0
LINE
  8
ボルト／ビス
  6
CONTINUOUS
 62
    64
 10
120.136105
 20
28.313227
 11
120.136105
 21
29.609865
  0
LINE
  8
ボルト／ビス
  6
CONTINUOUS
 62
    64
 10
119.48602
 20
27.91323
 11
119.736108
 21
27.91323
  0
ARC
  8
ボルト／ビス
  6
CONTINUOUS
 62
    64
 10
119.736099
 20
28.313218
 40
0.4
 50
269.999999
 51
359.999999
  0
LINE
  8
ボルト／ビス
  6
CONTINUOUS
 62
    64
 10
120.136105
 20
24.816585
 11
120.378257
 21
24.816577
  0
LINE
  8
ボルト／ビス
  6
CONTINUOUS
 62
    64
 10
119.486012
 20
26.51322
 11
119.48602
 21
27.213218
  0
LINE
  8
ボルト／ビス
  6
CONTINUOUS
 62
    64
 10
120.136097
 20
26.11323
 11
120.136105
 21
24.816585
  0
LINE
  8
ボルト／ビス
  6
CONTINUOUS
 62
    64
 10
119.486012
 20
26.51322
 11
119.736108
 21
26.513227
  0
ARC
  8
ボルト／ビス
  6
CONTINUOUS
 62
    64
 10
119.736099
 20
26.113218
 40
0.4
 50
359.999999
 51
449.999999
  0
LINE
  8
ボルト／ビス
  6
CONTINUOUS
 62
    64
 10
117.921018
 20
30.713227
 11
117.92101
 21
23.71323
  0
LINE
  8
ボルト／ビス
  6
CONTINUOUS
 62
    64
 10
110.42101
 20
29.21322
 11
109.921008
 21
28.713225
  0
LINE
  8
ボルト／ビス
  6
CONTINUOUS
 62
    64
 10
110.42101
 20
25.21323
 11
109.921008
 21
25.713225
  0
LINE
  8
ボルト／ビス
  6
CONTINUOUS
 62
    64
 10
117.92101
 20
28.713225
 11
109.921008
 21
28.713225
  0
LINE
  8
ボルト／ビス
  6
CONTINUOUS
 62
    64
 10
117.92101
 20
29.213227
 11
110.42101
 21
29.21322
  0
LINE
  8
ボルト／ビス
  6
CONTINUOUS
 62
    64
 10
117.92101
 20
25.713225
 11
109.921008
 21
25.713225
  0
LINE
  8
ボルト／ビス
  6
CONTINUOUS
 62
    64
 10
117.92101
 20
25.21323
 11
110.42101
 21
25.21323
  0
LINE
  8
ボルト／ビス
  6
CONTINUOUS
 62
    64
 10
110.42101
 20
29.21322
 11
110.42101
 21
25.21323
  0
LINE
  8
ボルト／ビス
  6
CONTINUOUS
 62
    64
 10
109.921008
 20
28.713225
 11
109.921008
 21
25.713225
  0
LINE
  8
ボルト／ビス
  6
CONTINUOUS
 62
    64
 10
122.492395
 20
27.213225
 11
107.670513
 21
27.213225
  0
ENDBLK
  0
BLOCK
  2
*GRP_0047
 70
    65
 10
0.0
 20
0.0
  0
POLYLINE
  8
寸法
  6
BYBLOCK
 62
     0
 66
     1
  0
VERTEX
  8
寸法
 10
13.969772
 20
-60.31805
  0
VERTEX
  8
寸法
 10
11.80441
 20
-62.394392
  0
VERTEX
  8
寸法
 10
14.71784
 20
-61.67891
  0
SEQEND
  0
POLYLINE
  8
寸法
  6
BYBLOCK
 62
     0
 66
     1
  0
VERTEX
  8
寸法
 10
11.80441
 20
-62.394392
  0
VERTEX
  8
寸法
 10
33.840835
 20
-50.280915
  0
VERTEX
  8
寸法
 10
33.840835
 20
-52.649335
  0
SEQEND
  0
ENDBLK
  0
BLOCK
  2
*GRP_0048
 70
    65
 10
0.0
 20
0.0
  0
POLYLINE
  8
寸法
  6
BYBLOCK
 62
     0
 66
     1
  0
VERTEX
  8
寸法
 10
66.778125
 20
9.421287
  0
VERTEX
  8
寸法
 10
69.3762
 20
7.921287
  0
VERTEX
  8
寸法
 10
67.8762
 20
10.519362
  0
SEQEND
  0
POLYLINE
  8
寸法
  6
BYBLOCK
 62
     0
 66
     1
  0
VERTEX
  8
寸法
 10
69.3762
 20
7.921287
  0
VERTEX
  8
寸法
 10
62.468678
 20
14.82881
  0
VERTEX
  8
寸法
 10
62.468678
 20
20.245545
  0
SEQEND
  0
ENDBLK
  0
BLOCK
  2
*GRP_0049
 70
    65
 10
0.0
 20
0.0
  0
POLYLINE
  8
寸法
  6
BYBLOCK
 62
     0
 66
     1
  0
VERTEX
  8
寸法
 10
84.122938
 20
17.504253
  0
VERTEX
  8
寸法
 10
86.721012
 20
16.004253
  0
VERTEX
  8
寸法
 10
85.221012
 20
18.602327
  0
SEQEND
  0
POLYLINE
  8
寸法
  6
BYBLOCK
 62
     0
 66
     1
  0
VERTEX
  8
寸法
 10
86.721012
 20
16.004253
  0
VERTEX
  8
寸法
 10
78.150435
 20
24.57483
  0
VERTEX
  8
寸法
 10
78.150435
 20
30.564842
  0
SEQEND
  0
ENDBLK
  0
BLOCK
  2
*DIM_0050
 70
    65
 10
0.0
 20
0.0
  0
LINE
  8
寸法
  6
CONTINUOUS
 10
108.219617
 20
70.213235
 11
108.219617
 21
98.621925
  0
LINE
  8
寸法
  6
CONTINUOUS
 10
114.71968
 20
98.621925
 11
108.219617
 21
98.621925
  0
POINT
  8
寸法
 10
108.219617
 20
98.621925
  0
TEXT
  7
TextStyle03
  8
寸法
  6
CONTINUOUS
 10
109.0375
 20
98.975
  1
6.5
 40
3.0
 72
     5
 11
113.9125
 21
98.975
  0
ENDBLK
  0
BLOCK
  2
*DIM_0051
 70
    65
 10
0.0
 20
0.0
  0
LINE
  8
寸法
  6
CONTINUOUS
 10
94.219622
 20
70.213235
 11
94.219622
 21
98.621925
  0
LINE
  8
寸法
  6
CONTINUOUS
 10
108.219617
 20
98.621925
 11
94.219622
 21
98.621925
  0
POINT
  8
寸法
 10
94.219622
 20
98.621925
  0
TEXT
  7
TextStyle03
  8
寸法
  6
CONTINUOUS
 10
99.63125
 20
98.975
  1
14
 40
3.0
 72
     5
 11
102.81875
 21
98.975
  0
ENDBLK
  0
BLOCK
  2
*DIM_0052
 70
    65
 10
0.0
 20
0.0
  0
LINE
  8
寸法
  6
CONTINUOUS
 10
94.219622
 20
70.213235
 11
94.219622
 21
98.621925
  0
LINE
  8
寸法
  6
CONTINUOUS
 10
-82.780347
 20
31.673013
 11
-82.780347
 21
98.621925
  0
LINE
  8
寸法
  6
CONTINUOUS
 10
94.219622
 20
98.621925
 11
-82.780347
 21
98.621925
  0
POINT
  8
寸法
 10
94.219622
 20
98.621925
  0
POINT
  8
寸法
 10
-82.780347
 20
98.621925
  0
TEXT
  7
TextStyle03
  8
寸法
  6
CONTINUOUS
 10
3.2875
 20
98.975
  1
177
 40
3.0
 72
     5
 11
8.1625
 21
98.975
  0
ENDBLK
  0
BLOCK
  2
*GRP_0053
 70
    65
 10
0.0
 20
0.0
  0
POLYLINE
  8
寸法
  6
BYBLOCK
 62
     0
 66
     1
  0
VERTEX
  8
寸法
 10
108.416102
 20
-78.784872
  0
VERTEX
  8
寸法
 10
109.916102
 20
-76.186798
  0
VERTEX
  8
寸法
 10
107.318028
 20
-77.686798
  0
SEQEND
  0
POLYLINE
  8
寸法
  6
BYBLOCK
 62
     0
 66
     1
  0
VERTEX
  8
寸法
 10
109.916102
 20
-76.186798
  0
VERTEX
  8
寸法
 10
102.075147
 20
-84.027753
  0
VERTEX
  8
寸法
 10
102.075147
 20
-103.454242
  0
SEQEND
  0
ENDBLK
  0
BLOCK
  2
*GRP_0054
 70
    65
 10
0.0
 20
0.0
  0
POLYLINE
  8
寸法
  6
BYBLOCK
 62
     0
 66
     1
  0
VERTEX
  8
寸法
 10
118.765007
 20
17.35027
  0
VERTEX
  8
寸法
 10
117.265007
 20
14.752195
  0
VERTEX
  8
寸法
 10
119.863083
 20
16.252195
  0
SEQEND
  0
POLYLINE
  8
寸法
  6
BYBLOCK
 62
     0
 66
     1
  0
VERTEX
  8
寸法
 10
117.265007
 20
14.752195
  0
VERTEX
  8
寸法
 10
129.627835
 20
27.115022
  0
VERTEX
  8
寸法
 10
129.627835
 20
34.112515
  0
SEQEND
  0
ENDBLK
  0
BLOCK
  2
*DIM_0055
 70
    65
 10
0.0
 20
0.0
  0
LINE
  8
寸法
  6
CONTINUOUS
 10
3.21817
 20
-7.286755
 11
3.21817
 21
88.068858
  0
LINE
  8
寸法
  6
CONTINUOUS
 10
10.718132
 20
-32.28676
 11
10.718132
 21
88.068858
  0
LINE
  8
寸法
  6
CONTINUOUS
 10
3.21817
 20
88.068858
 11
10.718132
 21
88.068858
  0
POINT
  8
寸法
 10
3.21817
 20
88.068858
  0
POINT
  8
寸法
 10
10.718132
 20
88.068858
  0
TEXT
  7
TextStyle03
  8
寸法
  6
CONTINUOUS
 10
4.5375
 20
88.425
  1
7.5
 40
3.0
 72
     5
 11
9.4125
 21
88.425
  0
ENDBLK
  0
BLOCK
  2
*DIM_0056
 70
    65
 10
0.0
 20
0.0
  0
LINE
  8
寸法
  6
CONTINUOUS
 10
30.219617
 20
-7.286755
 11
30.219617
 21
88.068858
  0
LINE
  8
寸法
  6
CONTINUOUS
 10
19.718125
 20
88.068858
 11
30.219617
 21
88.068858
  0
POINT
  8
寸法
 10
30.219617
 20
88.068858
  0
TEXT
  7
TextStyle03
  8
寸法
  6
CONTINUOUS
 10
21.69375
 20
88.425
  1
10.5
 40
3.0
 72
     5
 11
28.25625
 21
88.425
  0
ENDBLK
  0
BLOCK
  2
*DIM_0057
 70
    65
 10
0.0
 20
0.0
  0
LINE
  8
寸法
  6
CONTINUOUS
 10
94.219622
 20
70.213235
 11
94.219622
 21
88.068858
  0
LINE
  8
寸法
  6
CONTINUOUS
 10
30.219617
 20
88.068858
 11
94.219622
 21
88.068858
  0
POINT
  8
寸法
 10
94.219622
 20
88.068858
  0
TEXT
  7
TextStyle03
  8
寸法
  6
CONTINUOUS
 10
60.63125
 20
88.425
  1
64
 40
3.0
 72
     5
 11
63.81875
 21
88.425
  0
ENDBLK
  0
BLOCK
  2
*DIM_0058
 70
    65
 10
0.0
 20
0.0
  0
LINE
  8
寸法
  6
CONTINUOUS
 10
10.718132
 20
-32.28676
 11
10.718132
 21
88.068858
  0
LINE
  8
寸法
  6
CONTINUOUS
 10
19.718125
 20
-32.286768
 11
19.718125
 21
88.068858
  0
LINE
  8
寸法
  6
CONTINUOUS
 10
10.718132
 20
88.068858
 11
19.718125
 21
88.068858
  0
POINT
  8
寸法
 10
10.718132
 20
88.068858
  0
POINT
  8
寸法
 10
19.718125
 20
88.068858
  0
TEXT
  7
TextStyle03
  8
寸法
  6
CONTINUOUS
 10
14.475
 20
88.425
  1
9
 40
3.0
 72
     5
 11
15.975
 21
88.425
  0
ENDBLK
  0
BLOCK
  2
*DIM_0059
 70
    65
 10
0.0
 20
0.0
  0
LINE
  8
寸法
  6
CONTINUOUS
 10
12.419628
 20
-80.186758
 11
12.419628
 21
-82.720225
  0
LINE
  8
寸法
  6
CONTINUOUS
 10
19.419678
 20
-80.18678
 11
19.419678
 21
-82.720225
  0
LINE
  8
寸法
  6
CONTINUOUS
 10
12.419628
 20
-82.720225
 11
19.419678
 21
-82.720225
  0
POINT
  8
寸法
 10
12.419628
 20
-82.720225
  0
POINT
  8
寸法
 10
19.419678
 20
-82.720225
  0
TEXT
  7
TextStyle03
  8
寸法
  6
CONTINUOUS
 10
15.175
 20
-82.35
  1
7
 40
3.0
 72
     5
 11
16.675
 21
-82.35
  0
ENDBLK
  0
BLOCK
  2
*GRP_0060
 70
    65
 10
0.0
 20
0.0
  0
LINE
  8
St
  6
CONTINUOUS
 10
128.012717
 20
-16.58679
 11
131.212728
 21
-19.786792
  0
LINE
  8
St
  6
CONTINUOUS
 10
127.305602
 20
-16.58679
 11
130.505612
 21
-19.786792
  0
ARC
  8
St
  6
CONTINUOUS
 62
   127
 10
117.919686
 20
-16.586792
 40
3.2
 50
180.0
 51
270.0
  0
LINE
  8
St
  6
CONTINUOUS
 10
114.71968
 20
20.647695
 11
117.919683
 21
17.4477
  0
LINE
  8
St
  6
CONTINUOUS
 10
114.71968
 20
19.940588
 11
117.919683
 21
16.740592
  0
LINE
  8
St
  6
CONTINUOUS
 10
114.71968
 20
-7.993778
 11
117.919683
 21
-11.193772
  0
LINE
  8
St
  6
CONTINUOUS
 10
114.71968
 20
-8.700885
 11
117.919683
 21
-11.90088
  0
LINE
  8
St
  6
CONTINUOUS
 10
114.71968
 20
-23.98677
 11
117.919683
 21
-23.98677
  0
LINE
  8
St
  6
CONTINUOUS
 10
114.71968
 20
-27.486765
 11
117.919683
 21
-27.486765
  0
LINE
  8
St
  6
CONTINUOUS
 10
114.71968
 20
25.463227
 11
117.919683
 21
25.463227
  0
LINE
  8
St
  6
CONTINUOUS
 10
114.71968
 20
28.963222
 11
117.919683
 21
28.963222
  0
LINE
  8
St
  6
CONTINUOUS
 10
119.746773
 20
-25.736768
 11
113.089712
 21
-25.736768
  0
LINE
  8
St
  6
CONTINUOUS
 10
119.746773
 20
27.213225
 11
113.089712
 21
27.213225
  0
LINE
  8
St
  6
CONTINUOUS
 10
115.519683
 20
28.963222
 11
115.519683
 21
25.463227
  0
LINE
  8
St
  6
CONTINUOUS
 10
116.319678
 20
28.963222
 11
116.319678
 21
25.463227
  0
LINE
  8
St
  6
CONTINUOUS
 10
117.11968
 20
28.963222
 11
117.11968
 21
25.463227
  0
LINE
  8
St
  6
CONTINUOUS
 10
115.519683
 20
-23.98677
 11
115.519683
 21
-27.486765
  0
LINE
  8
St
  6
CONTINUOUS
 10
116.319678
 20
-23.98677
 11
116.319678
 21
-27.486765
  0
LINE
  8
St
  6
CONTINUOUS
 10
117.11968
 20
-23.98677
 11
117.11968
 21
-27.486765
  0
LINE
  8
St
  6
CONTINUOUS
 10
114.71968
 20
-29.593215
 11
117.919683
 21
-29.593215
  0
LINE
  8
St
  6
CONTINUOUS
 62
   127
 10
114.71968
 20
-29.593215
 11
114.71968
 21
32.213235
  0
LINE
  8
St
  6
CONTINUOUS
 62
   127
 10
117.919683
 20
-29.593215
 11
117.919683
 21
32.213235
  0
LINE
  8
St
  6
CONTINUOUS
 10
114.71968
 20
32.213235
 11
117.919683
 21
32.213235
  0
LINE
  8
St
  6
CONTINUOUS
 10
164.719667
 20
-16.58679
 11
164.719667
 21
-19.786792
  0
LINE
  8
St
  6
CONTINUOUS
 10
154.719663
 20
-16.58679
 11
154.719663
 21
-19.786792
  0
LINE
  8
St
  6
CONTINUOUS
 62
   127
 10
154.719663
 20
-17.386792
 11
164.719667
 21
-17.386792
  0
LINE
  8
St
  6
CONTINUOUS
 62
   127
 10
154.719663
 20
-18.186787
 11
164.719667
 21
-18.186787
  0
LINE
  8
St
  6
CONTINUOUS
 62
   127
 10
154.719663
 20
-18.98679
 11
164.719667
 21
-18.98679
  0
LINE
  8
St
  6
CONTINUOUS
 10
159.719665
 20
-13.458547
 11
159.719665
 21
-23.20638
  0
LINE
  8
St
  6
CONTINUOUS
 10
175.01968
 20
-16.58679
 11
175.01968
 21
-19.786792
  0
LINE
  8
St
  6
CONTINUOUS
 62
   127
 10
117.919683
 20
-16.58679
 11
175.01968
 21
-16.58679
  0
LINE
  8
St
  6
CONTINUOUS
 62
   127
 10
117.919683
 20
-19.786792
 11
175.01968
 21
-19.786792
  0
ENDBLK
  0
BLOCK
  2
*DIM_0061
 70
    65
 10
0.0
 20
0.0
  0
LINE
  8
寸法
  6
CONTINUOUS
 10
-51.180313
 20
-2.786833
 11
-51.180313
 21
88.06878
  0
LINE
  8
寸法
  6
CONTINUOUS
 10
3.21956
 20
88.06878
 11
-51.180313
 21
88.06878
  0
POINT
  8
寸法
 10
3.21956
 20
88.06878
  0
POINT
  8
寸法
 10
-51.180313
 20
88.06878
  0
TEXT
  7
TextStyle03
  8
寸法
  6
CONTINUOUS
 10
-27.28125
 20
88.425
  1
54.4
 40
3.0
 72
     5
 11
-20.71875
 21
88.425
  0
ENDBLK
  0
BLOCK
  2
*DIM_0062
 70
    65
 10
0.0
 20
0.0
  0
LINE
  8
寸法
  6
CONTINUOUS
 10
-60.78038
 20
32.408763
 11
-60.78038
 21
88.06878
  0
LINE
  8
寸法
  6
CONTINUOUS
 10
-51.180313
 20
88.06878
 11
-60.78038
 21
88.06878
  0
POINT
  8
寸法
 10
-60.78038
 20
88.06878
  0
TEXT
  7
TextStyle03
  8
寸法
  6
CONTINUOUS
 10
-58.4375
 20
88.425
  1
9.6
 40
3.0
 72
     5
 11
-53.5625
 21
88.425
  0
ENDBLK
  0
BLOCK
  2
*DIM_0063
 70
    65
 10
0.0
 20
0.0
  0
LINE
  8
寸法
  6
CONTINUOUS
 10
-60.780443
 20
41.413235
 11
-60.780443
 21
88.06878
  0
LINE
  8
寸法
  6
CONTINUOUS
 10
-82.780435
 20
88.06878
 11
-60.780443
 21
88.06878
  0
POINT
  8
寸法
 10
-82.780435
 20
88.06878
  0
POINT
  8
寸法
 10
-60.780443
 20
88.06878
  0
TEXT
  7
TextStyle03
  8
寸法
  6
CONTINUOUS
 10
-73.39375
 20
88.425
  1
22
 40
3.0
 72
     5
 11
-70.20625
 21
88.425
  0
ENDBLK
  0
BLOCK
  2
*DIM_0064
 70
    65
 10
0.0
 20
0.0
  0
LINE
  8
寸法
  6
CONTINUOUS
 10
-22.580375
 20
-80.186835
 11
-22.580375
 21
-82.720302
  0
LINE
  8
寸法
  6
CONTINUOUS
 10
12.419628
 20
-82.720302
 11
-22.580375
 21
-82.720302
  0
POINT
  8
寸法
 10
-22.580375
 20
-82.720302
  0
TEXT
  7
TextStyle03
  8
寸法
  6
CONTINUOUS
 10
-6.69375
 20
-82.35
  1
35
 40
3.0
 72
     5
 11
-3.50625
 21
-82.35
  0
ENDBLK
  0
BLOCK
  2
*DIM_0065
 70
    65
 10
0.0
 20
0.0
  0
LINE
  8
寸法
  6
CONTINUOUS
 10
-63.087575
 20
-59.286735
 11
-63.087575
 21
-82.720302
  0
LINE
  8
寸法
  6
CONTINUOUS
 10
-22.580375
 20
-82.720302
 11
-63.087575
 21
-82.720302
  0
POINT
  8
寸法
 10
-63.087575
 20
-82.720302
  0
TEXT
  7
TextStyle03
  8
寸法
  6
CONTINUOUS
 10
-44.68125
 20
-87.325
  1
40.5
 40
3.0
 72
     5
 11
-38.11875
 21
-87.325
  0
ENDBLK
  0
BLOCK
  2
*DIM_0066
 70
    65
 10
0.0
 20
0.0
  0
LINE
  8
寸法
  6
CONTINUOUS
 10
-93.087612
 20
-47.28679
 11
-93.087612
 21
-82.720302
  0
LINE
  8
寸法
  6
CONTINUOUS
 10
-63.087575
 20
-82.720302
 11
-93.087612
 21
-82.720302
  0
POINT
  8
寸法
 10
-93.087612
 20
-82.720302
  0
TEXT
  7
TextStyle03
  8
寸法
  6
CONTINUOUS
 10
-79.69375
 20
-82.35
  1
30
 40
3.0
 72
     5
 11
-76.50625
 21
-82.35
  0
ENDBLK
  0
BLOCK
  2
*DIM_0067
 70
    65
 10
0.0
 20
0.0
  0
LINE
  8
寸法
  6
CONTINUOUS
 10
-98.087612
 20
7.713205
 11
-127.46875
 21
7.713205
  0
LINE
  8
寸法
  6
CONTINUOUS
 10
-98.087612
 20
-42.28679
 11
-127.46875
 21
-42.28679
  0
LINE
  8
寸法
  6
CONTINUOUS
 10
-127.46875
 20
7.713205
 11
-127.46875
 21
-42.28679
  0
POINT
  8
寸法
 10
-127.46875
 20
7.713205
  0
POINT
  8
寸法
 10
-127.46875
 20
-42.28679
  0
TEXT
  7
TextStyle03
  8
寸法
  6
CONTINUOUS
 10
-127.85
 20
-18.89375
  1
50
 40
3.0
 50
90.0
 72
     5
 11
-127.85
 21
-15.70625
  0
ENDBLK
  0
BLOCK
  2
*GRP_0068
 70
    65
 10
0.0
 20
0.0
  0
LINE
  8
通り芯
  6
CONTINUOUS
 10
20.616115
 20
-73.686787
 11
20.616115
 21
-71.686785
  0
LINE
  8
通り芯
  6
CONTINUOUS
 10
20.616115
 20
-71.686785
 11
132.916105
 21
-71.686785
  0
LINE
  8
通り芯
  6
CONTINUOUS
 10
20.616115
 20
-73.686787
 11
132.916105
 21
-73.686787
  0
ARC
  8
通り芯
  6
CONTINUOUS
 10
132.916108
 20
-71.686786
 40
2.0
 50
-90.0
 51
0.0
  0
INSERT
  2
*GRP_0069
  8
通り芯
  6
DOT
 10
0.0
 20
0.0
  0
INSERT
  2
*GRP_0070
  8
通り芯
  6
DOT
 10
0.0
 20
0.0
  0
LINE
  8
通り芯
  6
CONTINUOUS
 10
134.916108
 20
-71.686785
 11
134.916108
 21
-44.186795
  0
LINE
  8
通り芯
  6
CONTINUOUS
 10
132.916105
 20
-71.686785
 11
132.916105
 21
-44.186795
  0
LINE
  8
通り芯
  6
CONTINUOUS
 10
134.916108
 20
-44.186795
 11
132.916105
 21
-44.186795
  0
ENDBLK
  0
BLOCK
  2
*GRP_0069
 70
    65
 10
0.0
 20
0.0
  0
LINE
  8
通り芯
  6
CONTINUOUS
 10
45.61612
 20
-69.870428
 11
45.61612
 21
-74.495295
  0
LINE
  8
通り芯
  6
CONTINUOUS
 10
43.96612
 20
-73.686795
 11
43.96612
 21
-71.686792
  0
LINE
  8
通り芯
  6
CONTINUOUS
 10
47.26612
 20
-73.686795
 11
47.26612
 21
-71.686792
  0
LINE
  8
通り芯
  6
CONTINUOUS
 10
43.96612
 20
-72.186795
 11
47.26612
 21
-72.186795
  0
LINE
  8
通り芯
  6
CONTINUOUS
 10
43.96612
 20
-72.686798
 11
47.26612
 21
-72.686798
  0
LINE
  8
通り芯
  6
CONTINUOUS
 10
43.96612
 20
-73.186792
 11
47.26612
 21
-73.186792
  0
LINE
  8
型材断面
  6
CONTINUOUS
 10
45.61612
 20
-72.186802
 11
45.61612
 21
-77.063115
  0
LINE
  8
型材断面
  6
CONTINUOUS
 10
47.26612
 20
-75.186795
 11
47.26612
 21
-73.1868
  0
LINE
  8
型材断面
  6
CONTINUOUS
 10
43.96612
 20
-75.186795
 11
43.96612
 21
-73.1868
  0
LINE
  8
型材断面
  6
CONTINUOUS
 10
43.96612
 20
-74.686792
 11
47.26612
 21
-74.686792
  0
LINE
  8
型材断面
  6
CONTINUOUS
 10
43.96612
 20
-74.186798
 11
47.26612
 21
-74.186798
  0
LINE
  8
型材断面
  6
CONTINUOUS
 10
43.96612
 20
-73.686795
 11
47.26612
 21
-73.686795
  0
LINE
  8
ボルト／ビス
  6
CONTINUOUS
 10
42.61612
 20
-75.186795
 11
48.61612
 21
-75.186795
  0
LINE
  8
ボルト／ビス
  6
CONTINUOUS
 10
42.61612
 20
-75.186795
 11
43.116122
 21
-75.686798
  0
LINE
  8
ボルト／ビス
  6
CONTINUOUS
 10
48.61612
 20
-75.186795
 11
48.116125
 21
-75.68679
  0
LINE
  8
ボルト／ビス
  6
CONTINUOUS
 10
43.116122
 20
-75.686798
 11
48.116125
 21
-75.68679
  0
LINE
  8
ボルト／ビス
  6
CONTINUOUS
 10
42.61612
 20
-70.686787
 11
48.61612
 21
-70.686787
  0
LINE
  8
ボルト／ビス
  6
CONTINUOUS
 10
42.61612
 20
-70.686787
 11
42.61612
 21
-71.686792
  0
LINE
  8
ボルト／ビス
  6
CONTINUOUS
 10
48.61612
 20
-70.686787
 11
48.61612
 21
-71.686785
  0
LINE
  8
ボルト／ビス
  6
CONTINUOUS
 10
42.61612
 20
-71.686792
 11
48.61612
 21
-71.686785
  0
LINE
  8
ボルト／ビス
  6
CONTINUOUS
 10
43.616125
 20
-70.686787
 11
43.616125
 21
-70.686787
  0
ARC
  8
ボルト／ビス
  6
CONTINUOUS
 10
44.116115
 20
-70.686792
 40
0.5
 50
90.000036
 51
180.0
  0
LINE
  8
ボルト／ビス
  6
CONTINUOUS
 10
44.11612
 20
-70.186792
 11
47.11612
 21
-70.186785
  0
LINE
  8
ボルト／ビス
  6
CONTINUOUS
 10
47.616122
 20
-70.686787
 11
47.616122
 21
-70.686787
  0
ARC
  8
ボルト／ビス
  6
CONTINUOUS
 10
47.116115
 20
-70.68679
 40
0.5
 50
0.0
 51
90.000041
  0
LINE
  8
ボルト／ビス
  6
CONTINUOUS
 10
43.616125
 20
-75.186795
 11
43.616125
 21
-71.686792
  0
LINE
  8
ボルト／ビス
  6
CONTINUOUS
 10
47.616122
 20
-75.186795
 11
47.616122
 21
-71.686792
  0
ENDBLK
  0
BLOCK
  2
*GRP_0070
 70
    65
 10
0.0
 20
0.0
  0
LINE
  8
通り芯
  6
CONTINUOUS
 10
109.916102
 20
-69.870428
 11
109.916102
 21
-74.495295
  0
LINE
  8
通り芯
  6
CONTINUOUS
 10
108.266102
 20
-73.686795
 11
108.266102
 21
-71.686792
  0
LINE
  8
通り芯
  6
CONTINUOUS
 10
111.566102
 20
-73.686795
 11
111.566102
 21
-71.686792
  0
LINE
  8
通り芯
  6
CONTINUOUS
 10
108.266102
 20
-72.186795
 11
111.566102
 21
-72.186795
  0
LINE
  8
通り芯
  6
CONTINUOUS
 10
108.266102
 20
-72.686798
 11
111.566102
 21
-72.686798
  0
LINE
  8
通り芯
  6
CONTINUOUS
 10
108.266102
 20
-73.186792
 11
111.566102
 21
-73.186792
  0
LINE
  8
型材断面
  6
CONTINUOUS
 10
109.916102
 20
-72.186802
 11
109.916102
 21
-77.063115
  0
LINE
  8
型材断面
  6
CONTINUOUS
 10
111.566102
 20
-75.186795
 11
111.566102
 21
-73.1868
  0
LINE
  8
型材断面
  6
CONTINUOUS
 10
108.266102
 20
-75.186795
 11
108.266102
 21
-73.1868
  0
LINE
  8
型材断面
  6
CONTINUOUS
 10
108.266102
 20
-74.686792
 11
111.566102
 21
-74.686792
  0
LINE
  8
型材断面
  6
CONTINUOUS
 10
108.266102
 20
-74.186798
 11
111.566102
 21
-74.186798
  0
LINE
  8
型材断面
  6
CONTINUOUS
 10
108.266102
 20
-73.686795
 11
111.566102
 21
-73.686795
  0
LINE
  8
ボルト／ビス
  6
CONTINUOUS
 10
106.916102
 20
-75.186795
 11
112.916102
 21
-75.186795
  0
LINE
  8
ボルト／ビス
  6
CONTINUOUS
 10
106.916102
 20
-75.186795
 11
107.416105
 21
-75.686798
  0
LINE
  8
ボルト／ビス
  6
CONTINUOUS
 10
112.916102
 20
-75.186795
 11
112.416108
 21
-75.68679
  0
LINE
  8
ボルト／ビス
  6
CONTINUOUS
 10
107.416105
 20
-75.686798
 11
112.416108
 21
-75.68679
  0
LINE
  8
ボルト／ビス
  6
CONTINUOUS
 10
106.916102
 20
-70.686787
 11
112.916102
 21
-70.686787
  0
LINE
  8
ボルト／ビス
  6
CONTINUOUS
 10
106.916102
 20
-70.686787
 11
106.916102
 21
-71.686792
  0
LINE
  8
ボルト／ビス
  6
CONTINUOUS
 10
112.916102
 20
-70.686787
 11
112.916102
 21
-71.686785
  0
LINE
  8
ボルト／ビス
  6
CONTINUOUS
 10
106.916102
 20
-71.686792
 11
112.916102
 21
-71.686785
  0
LINE
  8
ボルト／ビス
  6
CONTINUOUS
 10
107.916108
 20
-70.686787
 11
107.916108
 21
-70.686787
  0
ARC
  8
ボルト／ビス
  6
CONTINUOUS
 10
108.416097
 20
-70.686792
 40
0.5
 50
90.000036
 51
180.0
  0
LINE
  8
ボルト／ビス
  6
CONTINUOUS
 10
108.416102
 20
-70.186792
 11
111.416102
 21
-70.186785
  0
LINE
  8
ボルト／ビス
  6
CONTINUOUS
 10
111.916105
 20
-70.686787
 11
111.916105
 21
-70.686787
  0
ARC
  8
ボルト／ビス
  6
CONTINUOUS
 10
111.416097
 20
-70.68679
 40
0.5
 50
0.0
 51
90.000041
  0
LINE
  8
ボルト／ビス
  6
CONTINUOUS
 10
107.916108
 20
-75.186795
 11
107.916108
 21
-71.686792
  0
LINE
  8
ボルト／ビス
  6
CONTINUOUS
 10
111.916105
 20
-75.186795
 11
111.916105
 21
-71.686792
  0
ENDBLK
  0
BLOCK
  2
*GRP_0071
 70
    65
 10
0.0
 20
0.0
  0
LINE
  8
St
  6
CONTINUOUS
 10
1.718132
 20
-17.486838
 11
1.718132
 21
-14.286835
  0
LINE
  8
St
  6
CONTINUOUS
 10
-6.54395
 20
-14.286835
 11
-3.343955
 21
-17.486838
  0
LINE
  8
St
  6
CONTINUOUS
 10
-5.83685
 20
-14.286835
 11
-2.636855
 21
-17.486838
  0
LINE
  8
St
  6
CONTINUOUS
 10
-59.780307
 20
-14.286842
 11
-59.780307
 21
-17.486845
  0
LINE
  8
St
  6
CONTINUOUS
 10
-55.712187
 20
-14.286842
 11
-52.512193
 21
-17.486845
  0
LINE
  8
St
  6
CONTINUOUS
 10
-55.005087
 20
-14.286842
 11
-51.805092
 21
-17.486845
  0
LINE
  8
St
  6
CONTINUOUS
 10
1.718132
 20
-17.486838
 11
-59.780307
 21
-17.486838
  0
LINE
  8
St
  6
CONTINUOUS
 10
1.718132
 20
-14.286835
 11
-59.780307
 21
-14.286835
  0
ENDBLK
  0
BLOCK
  2
*GRP_0072
 70
    65
 10
0.0
 20
0.0
  0
INSERT
  2
*GRP_0073
  8
別途部材
  6
CONTINUOUS
 10
0.0
 20
0.0
  0
INSERT
  2
*GRP_0074
  8
別途部材
  6
CONTINUOUS
 10
0.0
 20
0.0
  0
INSERT
  2
*GRP_0075
  8
その他部品等
  6
CONTINUOUS
 10
0.0
 20
0.0
  0
INSERT
  2
*GRP_0076
  8
その他部品等
  6
CONTINUOUS
 10
0.0
 20
0.0
  0
ENDBLK
  0
BLOCK
  2
*GRP_0073
 70
    65
 10
0.0
 20
0.0
  0
LINE
  8
別途部材
  6
CONTINUOUS
 10
-40.781833
 20
-1.78039
 11
3.21817
 21
-1.78039
  0
ARC
  8
別途部材
  6
CONTINUOUS
 10
-40.781827
 20
4.219621
 40
6.0
 50
180.0
 51
270.0
  0
LINE
  8
別途部材
  6
CONTINUOUS
 10
-40.781833
 20
10.21961
 11
3.21817
 21
10.21961
  0
ARC
  8
別途部材
  6
CONTINUOUS
 10
-40.781827
 20
4.219621
 40
6.0
 50
90.0
 51
180.0
  0
CIRCLE
  8
別途部材
  6
CONTINUOUS
 10
-40.781833
 20
4.21961
 40
3.0
  0
LINE
  8
別途部材
  6
CONTINUOUS
 10
-40.781833
 20
1.21961
 11
-40.781833
 21
7.21961
  0
LINE
  8
別途部材
  6
CONTINUOUS
 10
-43.781833
 20
4.21961
 11
-37.781833
 21
4.21961
  0
LINE
  8
別途部材
  6
CONTINUOUS
 10
3.21817
 20
-1.78039
 11
3.21817
 21
0.21962
  0
LINE
  8
別途部材
  6
CONTINUOUS
 10
3.21817
 20
8.219615
 11
3.21817
 21
10.21961
  0
LINE
  8
別途部材
  6
CONTINUOUS
 10
3.21817
 20
0.21962
 11
-34.781833
 21
0.21962
  0
LINE
  8
別途部材
  6
CONTINUOUS
 10
-34.781833
 20
0.21962
 11
-34.781833
 21
8.219615
  0
LINE
  8
別途部材
  6
CONTINUOUS
 10
3.21817
 20
8.219615
 11
-34.781833
 21
8.219615
  0
ARC
  8
別途部材
  6
CONTINUOUS
 10
2.759841
 20
4.219621
 40
2.541667
 50
100.38896
 51
259.61104
  0
LINE
  8
別途部材
  6
CONTINUOUS
 10
3.21817
 20
7.71962
 11
3.21817
 21
6.719615
  0
LINE
  8
別途部材
  6
CONTINUOUS
 10
3.21817
 20
0.719615
 11
3.21817
 21
1.71962
  0
CIRCLE
  8
別途部材
  6
CONTINUOUS
 10
-30.781835
 20
4.21961
 40
0.999997
  0
LINE
  8
別途部材
  6
CONTINUOUS
 10
-30.781835
 20
5.219615
 11
-30.781835
 21
3.21962
  0
LINE
  8
別途部材
  6
CONTINUOUS
 10
-31.781833
 20
4.21961
 11
-29.78183
 21
4.21961
  0
ARC
  8
別途部材
  6
CONTINUOUS
 10
-32.323499
 20
4.219621
 40
2.541667
 50
280.38896
 51
439.61104
  0
LINE
  8
別途部材
  6
CONTINUOUS
 10
-32.78183
 20
7.71962
 11
-32.78183
 21
6.719615
  0
LINE
  8
別途部材
  6
CONTINUOUS
 10
-32.78183
 20
1.71962
 11
-32.78183
 21
0.719615
  0
LINE
  8
別途部材
  6
CONTINUOUS
 10
3.21817
 20
6.719615
 11
-32.78183
 21
6.719615
  0
LINE
  8
別途部材
  6
CONTINUOUS
 10
3.21817
 20
7.71962
 11
-32.78183
 21
7.71962
  0
LINE
  8
別途部材
  6
CONTINUOUS
 10
3.21817
 20
1.71962
 11
-32.78183
 21
1.71962
  0
LINE
  8
別途部材
  6
CONTINUOUS
 10
3.21817
 20
0.719615
 11
-32.78183
 21
0.719615
  0
ENDBLK
  0
BLOCK
  2
*GRP_0074
 70
    65
 10
0.0
 20
0.0
  0
LINE
  8
別途部材
  6
CONTINUOUS
 10
-46.781833
 20
4.21961
 11
-46.781833
 21
4.21961
  0
LINE
  8
別途部材
  6
CONTINUOUS
 10
-33.781827
 20
-1.78039
 11
-33.781827
 21
-4.280387
  0
LINE
  8
別途部材
  6
CONTINUOUS
 10
-47.281827
 20
4.21961
 11
-46.781825
 21
4.219617
  0
LINE
  8
別途部材
  6
CONTINUOUS
 10
-34.781833
 20
-12.28039
 11
-34.781833
 21
-4.280387
  0
ARC
  8
別途部材
  6
CONTINUOUS
 10
2.218171
 20
-11.280386
 40
1.0
 50
270.0
 51
360.0
  0
LINE
  8
別途部材
  6
CONTINUOUS
 10
3.21817
 20
-5.280385
 11
3.21817
 21
-11.280385
  0
ARC
  8
別途部材
  6
CONTINUOUS
 10
2.218171
 20
-5.280386
 40
1.0
 50
0.0
 51
90.0
  0
LINE
  8
別途部材
  6
CONTINUOUS
 10
2.218173
 20
-12.28039
 11
-46.28183
 21
-12.28039
  0
ARC
  8
別途部材
  6
CONTINUOUS
 10
-46.281829
 20
-11.280386
 40
1.0
 50
180.0
 51
270.0
  0
LINE
  8
別途部材
  6
CONTINUOUS
 10
2.218173
 20
-4.280387
 11
-46.28183
 21
-4.280387
  0
ARC
  8
別途部材
  6
CONTINUOUS
 10
-46.281829
 20
-5.280386
 40
1.0
 50
90.0
 51
180.0
  0
LINE
  8
別途部材
  6
CONTINUOUS
 10
-47.281827
 20
-11.280385
 11
-47.281827
 21
4.21961
  0
LINE
  8
別途部材
  6
CONTINUOUS
 10
-27.781827
 20
-6.58039
 11
-22.781833
 21
-6.58039
  0
LINE
  8
別途部材
  6
CONTINUOUS
 10
-7.781833
 20
-6.58039
 11
-2.781822
 21
-6.58039
  0
POLYLINE
  8
別途部材
  6
CONTINUOUS
 66
     1
  0
VERTEX
  8
別途部材
 10
-29.281827
 20
-4.280387
  0
VERTEX
  8
別途部材
 10
-27.781827
 20
-6.58039
  0
VERTEX
  8
別途部材
 10
-27.781827
 20
-12.28039
  0
SEQEND
  0
LINE
  8
別途部材
  6
CONTINUOUS
 10
-25.281822
 20
-4.280387
 11
-25.281822
 21
-12.28039
  0
POLYLINE
  8
別途部材
  6
CONTINUOUS
 66
     1
  0
VERTEX
  8
別途部材
 10
-21.281833
 20
-4.280387
  0
VERTEX
  8
別途部材
 10
-22.781833
 20
-6.58039
  0
VERTEX
  8
別途部材
 10
-22.781833
 20
-12.28039
  0
SEQEND
  0
POLYLINE
  8
別途部材
  6
CONTINUOUS
 66
     1
  0
VERTEX
  8
別途部材
 10
-9.281833
 20
-4.280387
  0
VERTEX
  8
別途部材
 10
-7.781833
 20
-6.58039
  0
VERTEX
  8
別途部材
 10
-7.781833
 20
-12.28039
  0
SEQEND
  0
LINE
  8
別途部材
  6
CONTINUOUS
 10
-5.281827
 20
-4.280387
 11
-5.281827
 21
-12.28039
  0
POLYLINE
  8
別途部材
  6
CONTINUOUS
 66
     1
  0
VERTEX
  8
別途部材
 10
-1.281822
 20
-4.280387
  0
VERTEX
  8
別途部材
 10
-2.781822
 20
-6.58039
  0
VERTEX
  8
別途部材
 10
-2.781822
 20
-12.28039
  0
SEQEND
  0
ENDBLK
  0
BLOCK
  2
*GRP_0075
 70
    65
 10
0.0
 20
0.0
  0
LINE
  8
ボルト／ビス
  6
CONTINUOUS
 10
-9.281833
 20
-4.280387
 11
-7.781833
 21
-6.58039
  0
LINE
  8
ボルト／ビス
  6
CONTINUOUS
 10
-1.28183
 20
-4.280387
 11
-2.78183
 21
-6.58039
  0
LINE
  8
ボルト／ビス
  6
CONTINUOUS
 10
-9.281833
 20
-4.280387
 11
-1.28183
 21
-4.280387
  0
LINE
  8
ボルト／ビス
  6
CONTINUOUS
 10
-7.781833
 20
-6.58039
 11
-2.78183
 21
-6.58039
  0
LINE
  8
ボルト／ビス
  6
CONTINUOUS
 10
-7.781833
 20
-23.780382
 11
-7.28183
 21
-24.280385
  0
LINE
  8
ボルト／ビス
  6
CONTINUOUS
 10
-2.78183
 20
-23.780382
 11
-3.281833
 21
-24.280385
  0
LINE
  8
ボルト／ビス
  6
CONTINUOUS
 10
-3.281833
 20
-24.280385
 11
-7.28183
 21
-24.280385
  0
LINE
  8
ボルト／ビス
  6
CONTINUOUS
 10
-2.78183
 20
-23.780382
 11
-7.781833
 21
-23.780382
  0
LINE
  8
ボルト／ビス
  6
CONTINUOUS
 10
-7.28183
 20
-6.58039
 11
-7.28183
 21
-24.280385
  0
LINE
  8
ボルト／ビス
  6
CONTINUOUS
 10
-7.781833
 20
-6.58039
 11
-7.781833
 21
-23.780382
  0
LINE
  8
ボルト／ビス
  6
CONTINUOUS
 10
-3.281833
 20
-6.58039
 11
-3.281833
 21
-24.280385
  0
LINE
  8
ボルト／ビス
  6
CONTINUOUS
 10
-2.78183
 20
-6.58039
 11
-2.78183
 21
-23.780382
  0
LINE
  8
ボルト／ビス
  6
CONTINUOUS
 10
-5.281827
 20
-1.895185
 11
-5.281827
 21
-24.280385
  0
ENDBLK
  0
BLOCK
  2
*GRP_0076
 70
    65
 10
0.0
 20
0.0
  0
LINE
  8
ボルト／ビス
  6
CONTINUOUS
 10
-29.281827
 20
-4.280387
 11
-27.781827
 21
-6.58039
  0
LINE
  8
ボルト／ビス
  6
CONTINUOUS
 10
-21.281825
 20
-4.280387
 11
-22.781825
 21
-6.58039
  0
LINE
  8
ボルト／ビス
  6
CONTINUOUS
 10
-29.281827
 20
-4.280387
 11
-21.281825
 21
-4.280387
  0
LINE
  8
ボルト／ビス
  6
CONTINUOUS
 10
-27.781827
 20
-6.58039
 11
-22.781825
 21
-6.58039
  0
LINE
  8
ボルト／ビス
  6
CONTINUOUS
 10
-27.781827
 20
-23.780382
 11
-27.281825
 21
-24.280385
  0
LINE
  8
ボルト／ビス
  6
CONTINUOUS
 10
-22.781825
 20
-23.780382
 11
-23.281827
 21
-24.280385
  0
LINE
  8
ボルト／ビス
  6
CONTINUOUS
 10
-23.281827
 20
-24.280385
 11
-27.281825
 21
-24.280385
  0
LINE
  8
ボルト／ビス
  6
CONTINUOUS
 10
-22.781825
 20
-23.780382
 11
-27.781827
 21
-23.780382
  0
LINE
  8
ボルト／ビス
  6
CONTINUOUS
 10
-27.281825
 20
-6.58039
 11
-27.281825
 21
-24.280385
  0
LINE
  8
ボルト／ビス
  6
CONTINUOUS
 10
-27.781827
 20
-6.58039
 11
-27.781827
 21
-23.780382
  0
LINE
  8
ボルト／ビス
  6
CONTINUOUS
 10
-23.281827
 20
-6.58039
 11
-23.281827
 21
-24.280385
  0
LINE
  8
ボルト／ビス
  6
CONTINUOUS
 10
-22.781825
 20
-6.58039
 11
-22.781825
 21
-23.780382
  0
LINE
  8
ボルト／ビス
  6
CONTINUOUS
 10
-25.281822
 20
-1.895185
 11
-25.281822
 21
-24.280385
  0
ENDBLK
  0
BLOCK
  2
*GRP_0077
 70
    65
 10
0.0
 20
0.0
  0
LINE
  8
型材断面
  6
CONTINUOUS
 62
    47
 10
119.719675
 20
-34.186938
 11
119.719675
 21
-32.186935
  0
LINE
  8
型材断面
  6
CONTINUOUS
 62
    47
 10
119.719675
 20
-32.186935
 11
121.219675
 21
-32.186935
  0
LINE
  8
型材断面
  6
CONTINUOUS
 62
    47
 10
123.718225
 20
-37.186938
 11
124.018225
 21
-36.886938
  0
LINE
  8
型材断面
  6
CONTINUOUS
 62
    47
 10
123.718225
 20
-37.186938
 11
124.018225
 21
-37.486938
  0
LINE
  8
型材断面
  6
CONTINUOUS
 62
    47
 10
119.719675
 20
-34.186938
 11
122.518225
 21
-34.74664
  0
LINE
  8
型材断面
  6
CONTINUOUS
 62
    47
 10
121.219675
 20
-32.186935
 11
121.219675
 21
-33.18694
  0
LINE
  8
型材断面
  6
CONTINUOUS
 62
    47
 10
121.219675
 20
-33.18694
 11
124.018225
 21
-33.18694
  0
LINE
  8
型材断面
  6
CONTINUOUS
 62
    47
 10
124.018225
 20
-36.886938
 11
124.018225
 21
-33.18694
  0
LINE
  8
型材断面
  6
CONTINUOUS
 62
    47
 10
14.119675
 20
-59.591785
 11
13.519675
 21
-58.991785
  0
LINE
  8
型材断面
  6
CONTINUOUS
 62
    47
 10
13.519675
 20
-57.286885
 11
13.519675
 21
-58.991785
  0
LINE
  8
型材断面
  6
CONTINUOUS
 62
    47
 10
14.119675
 20
-59.591785
 11
14.719675
 21
-59.591785
  0
LINE
  8
型材断面
  6
CONTINUOUS
 62
    47
 10
14.119675
 20
-64.691785
 11
14.719675
 21
-64.691785
  0
LINE
  8
型材断面
  6
CONTINUOUS
 62
    47
 10
14.119675
 20
-64.691785
 11
13.519675
 21
-65.291785
  0
LINE
  8
型材断面
  6
CONTINUOUS
 62
    47
 10
14.719675
 20
-59.591785
 11
14.719675
 21
-58.486885
  0
LINE
  8
型材断面
  6
CONTINUOUS
 62
    47
 10
14.719675
 20
-58.486885
 11
17.21968
 21
-58.486885
  0
LINE
  8
型材断面
  6
CONTINUOUS
 62
    47
 10
14.719675
 20
-64.691785
 11
14.719675
 21
-65.791788
  0
LINE
  8
型材断面
  6
CONTINUOUS
 62
    47
 10
14.719675
 20
-65.791788
 11
17.21968
 21
-65.791788
  0
LINE
  8
型材断面
  6
CONTINUOUS
 62
    47
 10
17.21968
 20
-58.486885
 11
17.21968
 21
-65.791788
  0
LINE
  8
型材断面
  6
CONTINUOUS
 62
    47
 10
18.71968
 20
-59.286888
 11
18.71968
 21
-67.291788
  0
LINE
  8
型材断面
  6
CONTINUOUS
 62
    47
 10
18.71968
 20
-67.291788
 11
15.019675
 21
-67.291788
  0
LINE
  8
型材断面
  6
CONTINUOUS
 62
    47
 10
13.519675
 20
-65.291785
 11
13.519675
 21
-69.286885
  0
LINE
  8
型材断面
  6
CONTINUOUS
 62
    47
 10
15.019675
 20
-67.291788
 11
15.019675
 21
-68.665585
  0
LINE
  8
型材断面
  6
CONTINUOUS
 62
    47
 10
13.519675
 20
-69.286885
 11
19.419678
 21
-75.18694
  0
LINE
  8
型材断面
  6
CONTINUOUS
 62
    47
 10
27.71818
 20
-57.286885
 11
29.718175
 21
-57.286885
  0
LINE
  8
型材断面
  6
CONTINUOUS
 62
    47
 10
29.718175
 20
-58.786885
 11
28.947925
 21
-58.786885
  0
LINE
  8
型材断面
  6
CONTINUOUS
 62
    47
 10
29.718175
 20
-57.286885
 11
29.718175
 21
-58.786885
  0
LINE
  8
型材断面
  6
CONTINUOUS
 62
    47
 10
22.31818
 20
-62.086885
 11
27.11818
 21
-62.086885
  0
LINE
  8
型材断面
  6
CONTINUOUS
 62
    47
 10
21.818177
 20
-61.58689
 11
22.31818
 21
-62.086885
  0
LINE
  8
型材断面
  6
CONTINUOUS
 62
    47
 10
27.618175
 20
-61.58689
 11
27.11818
 21
-62.086885
  0
LINE
  8
型材断面
  6
CONTINUOUS
 62
    47
 10
21.818177
 20
-61.58689
 11
21.048475
 21
-61.58689
  0
LINE
  8
型材断面
  6
CONTINUOUS
 62
    47
 10
27.71818
 20
-57.286885
 11
27.158178
 21
-60.08689
  0
LINE
  8
型材断面
  6
CONTINUOUS
 62
    47
 10
27.618175
 20
-61.58689
 11
28.387877
 21
-61.58689
  0
LINE
  8
型材断面
  6
CONTINUOUS
 62
    47
 10
28.947925
 20
-58.786885
 11
28.387877
 21
-61.58689
  0
LINE
  8
型材断面
  6
CONTINUOUS
 62
    47
 10
24.71818
 20
-60.38689
 11
24.41818
 21
-60.08689
  0
LINE
  8
型材断面
  6
CONTINUOUS
 62
    47
 10
24.71818
 20
-60.38689
 11
25.01818
 21
-60.08689
  0
LINE
  8
型材断面
  6
CONTINUOUS
 62
    47
 10
22.278175
 20
-60.08689
 11
24.41818
 21
-60.08689
  0
LINE
  8
型材断面
  6
CONTINUOUS
 62
    47
 10
25.01818
 20
-60.08689
 11
27.158178
 21
-60.08689
  0
LINE
  8
型材断面
  6
CONTINUOUS
 62
    47
 10
18.71968
 20
-59.286888
 11
20.588478
 21
-59.286888
  0
LINE
  8
型材断面
  6
CONTINUOUS
 62
    47
 10
21.048475
 20
-61.58689
 11
20.588478
 21
-59.286888
  0
LINE
  8
型材断面
  6
CONTINUOUS
 62
    47
 10
13.519675
 20
-57.286885
 11
21.71818
 21
-57.286885
  0
LINE
  8
型材断面
  6
CONTINUOUS
 62
    47
 10
22.278175
 20
-60.08689
 11
21.71818
 21
-57.286885
  0
LINE
  8
型材断面
  6
CONTINUOUS
 62
    47
 10
15.019675
 20
-68.665585
 11
16.041025
 21
-69.686935
  0
LINE
  8
型材断面
  6
CONTINUOUS
 62
    47
 10
17.54098
 20
-71.186935
 11
20.040978
 21
-73.68694
  0
LINE
  8
型材断面
  6
CONTINUOUS
 62
    47
 10
16.041025
 20
-69.686935
 11
22.218175
 21
-69.686935
  0
LINE
  8
型材断面
  6
CONTINUOUS
 62
    47
 10
22.218175
 20
-69.686935
 11
22.218175
 21
-71.186935
  0
LINE
  8
型材断面
  6
CONTINUOUS
 62
    47
 10
17.54098
 20
-71.186935
 11
22.218175
 21
-71.186935
  0
LINE
  8
型材断面
  6
CONTINUOUS
 62
    47
 10
121.219675
 20
-41.236637
 11
122.518225
 21
-41.236637
  0
LINE
  8
型材断面
  6
CONTINUOUS
 62
    47
 10
122.518225
 20
-39.627235
 11
119.719675
 21
-40.186938
  0
LINE
  8
型材断面
  6
CONTINUOUS
 62
    47
 10
122.518225
 20
-34.74664
 11
122.518225
 21
-39.627235
  0
LINE
  8
型材断面
  6
CONTINUOUS
 62
    47
 10
131.019678
 20
-74.88694
 11
131.319678
 21
-75.18694
  0
LINE
  8
型材断面
  6
CONTINUOUS
 62
    47
 10
136.519675
 20
-75.18694
 11
131.319678
 21
-75.18694
  0
LINE
  8
型材断面
  6
CONTINUOUS
 62
    47
 10
131.019678
 20
-74.88694
 11
130.719678
 21
-75.18694
  0
LINE
  8
型材断面
  6
CONTINUOUS
 62
    47
 10
19.419678
 20
-75.18694
 11
130.719678
 21
-75.18694
  0
LINE
  8
型材断面
  6
CONTINUOUS
 62
    47
 10
20.040978
 20
-73.68694
 11
135.019675
 21
-73.68694
  0
LINE
  8
型材断面
  6
CONTINUOUS
 62
    47
 10
135.019675
 20
-73.68694
 11
135.019675
 21
-43.68694
  0
LINE
  8
型材断面
  6
CONTINUOUS
 62
    47
 10
124.018225
 20
-42.18694
 11
136.519675
 21
-42.18694
  0
LINE
  8
型材断面
  6
CONTINUOUS
 62
    47
 10
146.619678
 20
-48.18694
 11
146.619678
 21
-50.186935
  0
LINE
  8
型材断面
  6
CONTINUOUS
 62
    47
 10
146.619678
 20
-48.18694
 11
136.519675
 21
-48.18694
  0
LINE
  8
型材断面
  6
CONTINUOUS
 62
    47
 10
136.519675
 20
-42.18694
 11
136.519675
 21
-48.18694
  0
LINE
  8
型材断面
  6
CONTINUOUS
 62
    47
 10
146.619678
 20
-50.186935
 11
136.519675
 21
-50.186935
  0
LINE
  8
型材断面
  6
CONTINUOUS
 62
    47
 10
136.519675
 20
-75.18694
 11
136.519675
 21
-50.186935
  0
LINE
  8
型材断面
  6
CONTINUOUS
 62
    47
 10
119.719675
 20
-40.186938
 11
119.719675
 21
-42.18694
  0
LINE
  8
型材断面
  6
CONTINUOUS
 62
    47
 10
119.719675
 20
-42.18694
 11
121.219675
 21
-42.18694
  0
LINE
  8
型材断面
  6
CONTINUOUS
 62
    47
 10
121.219675
 20
-41.236637
 11
121.219675
 21
-42.18694
  0
LINE
  8
型材断面
  6
CONTINUOUS
 62
    47
 10
126.018227
 20
-47.686938
 11
126.018227
 21
-46.186938
  0
LINE
  8
型材断面
  6
CONTINUOUS
 62
    47
 10
126.018227
 20
-47.686938
 11
122.518225
 21
-47.686938
  0
LINE
  8
型材断面
  6
CONTINUOUS
 62
    47
 10
122.518225
 20
-41.236637
 11
122.518225
 21
-47.686938
  0
LINE
  8
型材断面
  6
CONTINUOUS
 62
    47
 10
135.019675
 20
-43.68694
 11
124.018225
 21
-43.68694
  0
LINE
  8
型材断面
  6
CONTINUOUS
 62
    47
 10
124.018225
 20
-37.486938
 11
124.018225
 21
-42.18694
  0
LINE
  8
型材断面
  6
CONTINUOUS
 62
    47
 10
124.018225
 20
-43.68694
 11
124.018225
 21
-46.186938
  0
LINE
  8
型材断面
  6
CONTINUOUS
 62
    47
 10
126.018227
 20
-46.186938
 11
124.018225
 21
-46.186938
  0
ENDBLK
  0
BLOCK
  2
*GRP_0078
 70
    65
 10
0.0
 20
0.0
  0
LINE
  8
型材断面
  6
DOT
 10
135.019675
 20
-73.68694
 11
135.019675
 21
-75.18694
  0
LINE
  8
型材断面
  6
DOT
 10
127.019672
 20
-73.68694
 11
127.019672
 21
-75.18694
  0
LINE
  8
型材断面
  6
DOT
 10
127.019672
 20
-74.81194
 11
135.019675
 21
-74.81194
  0
LINE
  8
型材断面
  6
DOT
 10
127.019672
 20
-74.43694
 11
135.019675
 21
-74.43694
  0
LINE
  8
型材断面
  6
DOT
 10
127.019672
 20
-74.06194
 11
135.019675
 21
-74.06194
  0
ENDBLK
  0
BLOCK
  2
*GRP_0079
 70
    65
 10
0.0
 20
0.0
  0
ARC
  8
型材断面
  6
CONTINUOUS
 62
    47
 10
113.969675
 20
24.963131
 40
0.75
 50
180.0
 51
270.0
  0
LINE
  8
型材断面
  6
CONTINUOUS
 62
    47
 10
113.96968
 20
24.21317
 11
113.96968
 21
24.21317
  0
ARC
  8
型材断面
  6
CONTINUOUS
 62
    47
 10
113.969675
 20
24.963131
 40
0.75
 50
270.0
 51
360.0
  0
LINE
  8
型材断面
  6
CONTINUOUS
 62
    47
 10
108.219633
 20
30.21317
 11
113.21968
 21
30.21317
  0
LINE
  8
型材断面
  6
CONTINUOUS
 62
    47
 10
113.21968
 20
24.96317
 11
113.21968
 21
30.21317
  0
LINE
  8
型材断面
  6
CONTINUOUS
 62
    47
 10
114.71968
 20
24.96317
 11
114.71968
 21
32.213172
  0
LINE
  8
型材断面
  6
CONTINUOUS
 62
    47
 10
108.219633
 20
32.213172
 11
114.71968
 21
32.213172
  0
LINE
  8
型材断面
  6
CONTINUOUS
 62
    47
 10
108.219633
 20
32.213172
 11
108.219633
 21
65.213172
  0
LINE
  8
型材断面
  6
CONTINUOUS
 62
    47
 10
94.21963
 20
65.213172
 11
108.219633
 21
65.213172
  0
LINE
  8
型材断面
  6
CONTINUOUS
 62
    47
 10
94.21963
 20
65.213172
 11
94.21963
 21
63.213118
  0
ARC
  8
型材断面
  6
CONTINUOUS
 62
    47
 10
113.969675
 20
-23.536869
 40
0.75
 50
90.0
 51
180.0
  0
LINE
  8
型材断面
  6
CONTINUOUS
 62
    47
 10
113.96968
 20
-22.786833
 11
113.96968
 21
-22.786833
  0
ARC
  8
型材断面
  6
CONTINUOUS
 62
    47
 10
113.969675
 20
-23.536869
 40
0.75
 50
0.0
 51
90.0
  0
LINE
  8
型材断面
  6
CONTINUOUS
 62
    47
 10
113.21968
 20
-42.18688
 11
114.71968
 21
-42.18688
  0
LINE
  8
型材断面
  6
CONTINUOUS
 62
    47
 10
112.219683
 20
-39.686882
 11
113.21968
 21
-40.68688
  0
LINE
  8
型材断面
  6
CONTINUOUS
 62
    47
 10
113.21968
 20
-42.18688
 11
113.21968
 21
-40.68688
  0
LINE
  8
型材断面
  6
CONTINUOUS
 62
    47
 10
114.71968
 20
-23.536833
 11
114.71968
 21
-36.886877
  0
LINE
  8
型材断面
  6
CONTINUOUS
 62
    47
 10
114.71968
 20
-37.486877
 11
114.71968
 21
-42.18688
  0
LINE
  8
型材断面
  6
CONTINUOUS
 62
    47
 10
114.41968
 20
-37.186877
 11
114.71968
 21
-36.886877
  0
LINE
  8
型材断面
  6
CONTINUOUS
 62
    47
 10
114.41968
 20
-37.186877
 11
114.71968
 21
-37.486877
  0
LINE
  8
型材断面
  6
CONTINUOUS
 62
    47
 10
108.219633
 20
-33.686882
 11
112.219683
 21
-33.686882
  0
LINE
  8
型材断面
  6
CONTINUOUS
 62
    47
 10
112.219683
 20
-39.686882
 11
112.219683
 21
-33.686882
  0
LINE
  8
型材断面
  6
CONTINUOUS
 62
    47
 10
108.219633
 20
30.21317
 11
108.219633
 21
-31.68688
  0
LINE
  8
型材断面
  6
CONTINUOUS
 62
    47
 10
113.21968
 20
-23.536833
 11
113.21968
 21
-31.68688
  0
LINE
  8
型材断面
  6
CONTINUOUS
 62
    47
 10
108.219633
 20
-31.68688
 11
113.21968
 21
-31.68688
  0
LINE
  8
型材断面
  6
CONTINUOUS
 62
    47
 10
12.718128
 20
-50.286827
 11
17.218128
 21
-50.286827
  0
LINE
  8
型材断面
  6
CONTINUOUS
 62
    47
 10
108.219633
 20
-33.686882
 11
108.219633
 21
-50.286827
  0
LINE
  8
型材断面
  6
CONTINUOUS
 62
    47
 10
10.718132
 20
-52.286882
 11
10.718132
 21
-49.83433
  0
LINE
  8
型材断面
  6
CONTINUOUS
 62
    47
 10
10.718132
 20
-37.286882
 11
10.718132
 21
-40.686827
  0
LINE
  8
型材断面
  6
CONTINUOUS
 62
    47
 10
11.318132
 20
-41.286827
 11
10.718132
 21
-40.686827
  0
LINE
  8
型材断面
  6
CONTINUOUS
 62
    47
 10
11.318132
 20
-41.286827
 11
12.718128
 21
-41.286827
  0
LINE
  8
型材断面
  6
CONTINUOUS
 62
    47
 10
12.718128
 20
-38.786882
 11
12.718128
 21
-41.286827
  0
LINE
  8
型材断面
  6
CONTINUOUS
 62
    47
 10
11.318132
 20
-49.286882
 11
12.718128
 21
-49.286882
  0
LINE
  8
型材断面
  6
CONTINUOUS
 62
    47
 10
12.718128
 20
-50.33938
 11
12.718128
 21
-49.286882
  0
LINE
  8
型材断面
  6
CONTINUOUS
 62
    47
 10
11.318132
 20
-49.286882
 11
10.718132
 21
-49.886882
  0
LINE
  8
型材断面
  6
CONTINUOUS
 62
    47
 10
12.718128
 20
-38.786882
 11
17.218128
 21
-38.786882
  0
LINE
  8
型材断面
  6
CONTINUOUS
 62
    47
 10
17.218128
 20
-50.286827
 11
17.218128
 21
-38.786882
  0
LINE
  8
型材断面
  6
CONTINUOUS
 62
    47
 10
106.21963
 20
-13.786833
 11
106.21963
 21
-50.286827
  0
LINE
  8
型材断面
  6
CONTINUOUS
 62
    47
 10
94.21963
 20
63.213118
 11
106.21963
 21
63.213118
  0
LINE
  8
型材断面
  6
CONTINUOUS
 62
    47
 10
106.21963
 20
-12.286833
 11
106.21963
 21
63.213118
  0
LINE
  8
型材断面
  6
CONTINUOUS
 62
    47
 10
31.719633
 20
-50.286827
 11
31.719633
 21
-13.786833
  0
LINE
  8
型材断面
  6
CONTINUOUS
 62
    47
 10
106.21963
 20
-12.286833
 11
27.219633
 21
-12.286833
  0
LINE
  8
型材断面
  6
CONTINUOUS
 62
    47
 10
27.219633
 20
-12.286833
 11
27.219633
 21
-13.786833
  0
LINE
  8
型材断面
  6
CONTINUOUS
 62
    47
 10
30.219633
 20
-50.286827
 11
30.219633
 21
-13.786833
  0
LINE
  8
型材断面
  6
CONTINUOUS
 62
    47
 10
30.219633
 20
-13.786833
 11
27.219633
 21
-13.786833
  0
LINE
  8
型材断面
  6
CONTINUOUS
 62
    47
 10
102.219633
 20
-51.986882
 11
101.919633
 21
-52.286882
  0
LINE
  8
型材断面
  6
CONTINUOUS
 62
    47
 10
102.219633
 20
-51.986882
 11
102.519633
 21
-52.286882
  0
LINE
  8
型材断面
  6
CONTINUOUS
 62
    47
 10
102.519633
 20
-52.286882
 11
114.71968
 21
-52.286882
  0
LINE
  8
型材断面
  6
CONTINUOUS
 62
    47
 10
114.71968
 20
-51.286833
 11
114.71968
 21
-52.286882
  0
LINE
  8
型材断面
  6
CONTINUOUS
 62
    47
 10
108.219633
 20
-50.286827
 11
113.719683
 21
-50.286827
  0
LINE
  8
型材断面
  6
CONTINUOUS
 62
    47
 10
114.71968
 20
-51.286833
 11
113.719683
 21
-50.286827
  0
ARC
  8
型材断面
  6
CONTINUOUS
 62
    47
 10
26.248049
 20
-46.137051
 40
0.5
 50
149.998835
 51
227.160733
  0
LINE
  8
型材断面
  6
CONTINUOUS
 62
    47
 10
25.815033
 20
-45.887028
 11
26.07028
 21
-45.444978
  0
ARC
  8
型材断面
  6
CONTINUOUS
 62
    47
 10
26.503267
 20
-45.695019
 40
0.5
 50
49.52439
 51
149.998682
  0
ARC
  8
型材断面
  6
CONTINUOUS
 62
    47
 10
24.718175
 20
-47.786895
 40
1.75
 50
132.839267
 51
407.160733
  0
ARC
  8
型材断面
  6
CONTINUOUS
 62
    47
 10
23.188301
 20
-46.137051
 40
0.5
 50
-47.160734
 51
30.001165
  0
LINE
  8
型材断面
  6
CONTINUOUS
 62
    47
 10
23.621328
 20
-45.887028
 11
23.36608
 21
-45.444978
  0
ARC
  8
型材断面
  6
CONTINUOUS
 62
    47
 10
22.933083
 20
-45.695019
 40
0.5
 50
30.001318
 51
130.47561
  0
LINE
  8
型材断面
  6
CONTINUOUS
 62
    47
 10
21.54598
 20
-50.286827
 11
18.718128
 21
-50.286827
  0
ARC
  8
型材断面
  6
CONTINUOUS
 62
    47
 10
24.718175
 20
-47.786895
 40
3.25
 50
130.47561
 51
212.23005
  0
ARC
  8
型材断面
  6
CONTINUOUS
 62
    47
 10
21.545999
 20
-49.786845
 40
0.5
 50
-90.0
 51
32.230049
  0
LINE
  8
型材断面
  6
CONTINUOUS
 62
    47
 10
27.89038
 20
-50.286827
 11
30.219633
 21
-50.286827
  0
ARC
  8
型材断面
  6
CONTINUOUS
 62
    47
 10
24.718175
 20
-47.786895
 40
3.25
 50
327.76995
 51
409.52439
  0
ARC
  8
型材断面
  6
CONTINUOUS
 62
    47
 10
27.890351
 20
-49.786845
 40
0.5
 50
147.76995
 51
270.0
  0
ARC
  8
型材断面
  6
CONTINUOUS
 62
    47
 10
94.749499
 20
-46.137051
 40
0.5
 50
149.998835
 51
227.160733
  0
LINE
  8
型材断面
  6
CONTINUOUS
 62
    47
 10
94.316477
 20
-45.887028
 11
94.571732
 21
-45.444978
  0
ARC
  8
型材断面
  6
CONTINUOUS
 62
    47
 10
95.004717
 20
-45.695019
 40
0.5
 50
49.52439
 51
149.998682
  0
ARC
  8
型材断面
  6
CONTINUOUS
 62
    47
 10
93.219625
 20
-47.786895
 40
1.75
 50
132.839267
 51
407.160733
  0
ARC
  8
型材断面
  6
CONTINUOUS
 62
    47
 10
91.689751
 20
-46.137051
 40
0.5
 50
-47.160734
 51
30.001165
  0
LINE
  8
型材断面
  6
CONTINUOUS
 62
    47
 10
92.12278
 20
-45.887028
 11
91.867533
 21
-45.444978
  0
ARC
  8
型材断面
  6
CONTINUOUS
 62
    47
 10
91.434533
 20
-45.695019
 40
0.5
 50
30.001318
 51
130.47561
  0
LINE
  8
型材断面
  6
CONTINUOUS
 62
    47
 10
106.21963
 20
-50.286827
 11
96.391833
 21
-50.286827
  0
ARC
  8
型材断面
  6
CONTINUOUS
 62
    47
 10
93.219625
 20
-47.786895
 40
3.25
 50
327.76995
 51
409.52439
  0
ARC
  8
型材断面
  6
CONTINUOUS
 62
    47
 10
96.391801
 20
-49.786845
 40
0.5
 50
147.769951
 51
270.0
  0
LINE
  8
型材断面
  6
CONTINUOUS
 62
    47
 10
90.047432
 20
-50.286827
 11
31.719633
 21
-50.286827
  0
ARC
  8
型材断面
  6
CONTINUOUS
 62
    47
 10
93.219625
 20
-47.786895
 40
3.25
 50
130.47561
 51
212.23005
  0
ARC
  8
型材断面
  6
CONTINUOUS
 62
    47
 10
90.047449
 20
-49.786845
 40
0.5
 50
-90.0
 51
32.23005
  0
LINE
  8
型材断面
  6
CONTINUOUS
 62
    47
 10
106.21963
 20
-13.786833
 11
96.391833
 21
-13.786833
  0
ARC
  8
型材断面
  6
CONTINUOUS
 62
    47
 10
46.749499
 20
-17.936639
 40
0.5
 50
132.839267
 51
210.001165
  0
ARC
  8
型材断面
  6
CONTINUOUS
 62
    47
 10
45.219625
 20
-16.286795
 40
1.75
 50
312.839267
 51
587.160733
  0
ARC
  8
型材断面
  6
CONTINUOUS
 62
    47
 10
43.689751
 20
-17.936639
 40
0.5
 50
-30.001165
 51
47.160734
  0
LINE
  8
型材断面
  6
CONTINUOUS
 62
    47
 10
44.12278
 20
-18.186632
 11
43.867533
 21
-18.628683
  0
ARC
  8
型材断面
  6
CONTINUOUS
 62
    47
 10
43.434533
 20
-18.378672
 40
0.5
 50
229.52439
 51
329.998682
  0
LINE
  8
型材断面
  6
CONTINUOUS
 62
    47
 10
42.047432
 20
-13.786833
 11
31.719633
 21
-13.786833
  0
ARC
  8
型材断面
  6
CONTINUOUS
 62
    47
 10
45.219625
 20
-16.286795
 40
3.25
 50
147.76995
 51
229.52439
  0
ARC
  8
型材断面
  6
CONTINUOUS
 62
    47
 10
42.047449
 20
-14.286845
 40
0.5
 50
327.769951
 51
450.0
  0
LINE
  8
型材断面
  6
CONTINUOUS
 62
    47
 10
90.047432
 20
-13.786833
 11
48.391833
 21
-13.786833
  0
ARC
  8
型材断面
  6
CONTINUOUS
 62
    47
 10
48.391801
 20
-14.286845
 40
0.5
 50
90.0
 51
212.23005
  0
LINE
  8
型材断面
  6
CONTINUOUS
 62
    47
 10
46.316477
 20
-18.186632
 11
46.66303
 21
-18.786827
  0
LINE
  8
型材断面
  6
CONTINUOUS
 62
    47
 10
46.66303
 20
-18.786827
 11
50.019633
 21
-18.786827
  0
LINE
  8
型材断面
  6
CONTINUOUS
 62
    47
 10
50.019633
 20
-18.786827
 11
50.019633
 21
-17.286827
  0
ARC
  8
型材断面
  6
CONTINUOUS
 62
    47
 10
45.219625
 20
-16.286795
 40
3.25
 50
342.078861
 51
392.230049
  0
LINE
  8
型材断面
  6
CONTINUOUS
 62
    47
 10
48.311927
 20
-17.286827
 11
50.019633
 21
-17.286827
  0
ARC
  8
型材断面
  6
CONTINUOUS
 62
    47
 10
91.689751
 20
-17.936639
 40
0.5
 50
329.998835
 51
407.160733
  0
ARC
  8
型材断面
  6
CONTINUOUS
 62
    47
 10
93.219625
 20
-16.286795
 40
1.75
 50
312.839267
 51
587.160733
  0
ARC
  8
型材断面
  6
CONTINUOUS
 62
    47
 10
94.749499
 20
-17.936639
 40
0.5
 50
132.839266
 51
210.001165
  0
LINE
  8
型材断面
  6
CONTINUOUS
 62
    47
 10
94.316477
 20
-18.186632
 11
94.571732
 21
-18.628683
  0
ARC
  8
型材断面
  6
CONTINUOUS
 62
    47
 10
95.004717
 20
-18.378672
 40
0.5
 50
210.001318
 51
310.47561
  0
ARC
  8
型材断面
  6
CONTINUOUS
 62
    47
 10
93.219625
 20
-16.286795
 40
3.25
 50
310.47561
 51
392.23005
  0
ARC
  8
型材断面
  6
CONTINUOUS
 62
    47
 10
96.391801
 20
-14.286845
 40
0.5
 50
90.0
 51
212.230049
  0
ARC
  8
型材断面
  6
CONTINUOUS
 62
    47
 10
90.047449
 20
-14.286845
 40
0.5
 50
-32.23005
 51
90.0
  0
LINE
  8
型材断面
  6
CONTINUOUS
 62
    47
 10
92.12278
 20
-18.186632
 11
91.776227
 21
-18.786827
  0
LINE
  8
型材断面
  6
CONTINUOUS
 62
    47
 10
91.776227
 20
-18.786827
 11
88.419633
 21
-18.786827
  0
LINE
  8
型材断面
  6
CONTINUOUS
 62
    47
 10
88.419633
 20
-18.786827
 11
88.419633
 21
-17.286827
  0
ARC
  8
型材断面
  6
CONTINUOUS
 62
    47
 10
93.219625
 20
-16.286795
 40
3.25
 50
147.769951
 51
197.921139
  0
LINE
  8
型材断面
  6
CONTINUOUS
 62
    47
 10
90.12733
 20
-17.286827
 11
88.419633
 21
-17.286827
  0
LINE
  8
型材断面
  6
CONTINUOUS
 62
    47
 10
18.718128
 20
-50.286827
 11
18.718128
 21
-37.286882
  0
LINE
  8
型材断面
  6
CONTINUOUS
 62
    47
 10
10.718132
 20
-37.286882
 11
18.718128
 21
-37.286882
  0
LINE
  8
型材断面
  6
CONTINUOUS
 62
    47
 10
33.719628
 20
-51.986882
 11
33.419628
 21
-52.286882
  0
LINE
  8
型材断面
  6
CONTINUOUS
 62
    47
 10
33.719628
 20
-51.986882
 11
34.019628
 21
-52.286882
  0
LINE
  8
型材断面
  6
CONTINUOUS
 62
    47
 10
99.419628
 20
-51.986882
 11
99.119628
 21
-52.286882
  0
LINE
  8
型材断面
  6
CONTINUOUS
 62
    47
 10
99.419628
 20
-51.986882
 11
99.719628
 21
-52.286882
  0
LINE
  8
型材断面
  6
CONTINUOUS
 62
    47
 10
99.719628
 20
-52.286882
 11
101.919633
 21
-52.286882
  0
LINE
  8
型材断面
  6
CONTINUOUS
 62
    47
 10
10.718132
 20
-52.286882
 11
33.419628
 21
-52.286882
  0
LINE
  8
型材断面
  6
CONTINUOUS
 62
    47
 10
34.019628
 20
-52.286882
 11
99.119628
 21
-52.286882
  0
ENDBLK
  0
BLOCK
  2
*GRP_0080
 70
    65
 10
0.0
 20
0.0
  0
SPLINE
  5
1400000
100
AcDbEntity
  8
ガラス
100
AcDbSpline
  6
CONTINUOUS
 70
     0
 71
     3
 74
     3
 44
0.0
 11
136.728708
 21
-78.24541
 11
135.174243
 21
-77.298498
 11
134.59939
 21
-75.719845
  0
SPLINE
  5
1400001
100
AcDbEntity
  8
ガラス
100
AcDbSpline
  6
CONTINUOUS
 70
     0
 71
     3
 74
     3
 44
0.0
 11
134.59939
 21
-75.719845
 11
135.838547
 21
-76.17127
 11
136.957623
 21
-76.348908
  0
ARC
  8
ガラス
  6
CONTINUOUS
 10
136.843159
 20
-77.297163
 40
0.955135
 50
263.117442
 51
443.117442
  0
ENDBLK
  0
BLOCK
  2
*GRP_0081
 70
    65
 10
0.0
 20
0.0
  0
SPLINE
  5
1400002
100
AcDbEntity
  8
ガラス
100
AcDbSpline
  6
CONTINUOUS
 70
     0
 71
     3
 74
     3
 44
0.0
 11
132.323957
 21
-65.314397
 11
132.393858
 21
-63.49558
 11
133.492622
 21
-62.224637
  0
SPLINE
  5
1400003
100
AcDbEntity
  8
ガラス
100
AcDbSpline
  6
CONTINUOUS
 70
     0
 71
     3
 74
     3
 44
0.0
 11
133.492622
 21
-62.224637
 11
133.701887
 21
-63.526742
 11
134.091805
 21
-64.590625
  0
ARC
  8
ガラス
  6
CONTINUOUS
 10
133.207879
 20
-64.952517
 40
0.955135
 50
202.264587
 51
382.264587
  0
ENDBLK
  0
BLOCK
  2
*GRP_0082
 70
    65
 10
0.0
 20
0.0
  0
SPLINE
  5
1400004
100
AcDbEntity
  8
ガラス
100
AcDbSpline
  6
CONTINUOUS
 70
     0
 71
     3
 74
     3
 44
0.0
 11
123.787127
 21
-60.496428
 11
122.23267
 21
-59.549507
 11
121.657818
 21
-57.970863
  0
SPLINE
  5
1400005
100
AcDbEntity
  8
ガラス
100
AcDbSpline
  6
CONTINUOUS
 70
     0
 71
     3
 74
     3
 44
0.0
 11
121.657818
 21
-57.970863
 11
122.896975
 21
-58.422295
 11
124.016043
 21
-58.599925
  0
ARC
  8
ガラス
  6
CONTINUOUS
 10
123.901586
 20
-59.54818
 40
0.955135
 50
263.117442
 51
443.117442
  0
ENDBLK
  0
BLOCK
  2
*GRP_0083
 70
    65
 10
0.0
 20
0.0
  0
SPLINE
  5
1400006
100
AcDbEntity
  8
ガラス
100
AcDbSpline
  6
CONTINUOUS
 70
     0
 71
     3
 74
     3
 44
0.0
 11
104.166842
 21
-18.403765
 11
104.23675
 21
-16.584947
 11
105.335507
 21
-15.314005
  0
SPLINE
  5
1400007
100
AcDbEntity
  8
ガラス
100
AcDbSpline
  6
CONTINUOUS
 70
     0
 71
     3
 74
     3
 44
0.0
 11
105.335507
 21
-15.314005
 11
105.54478
 21
-16.616103
 11
105.934698
 21
-17.679993
  0
ARC
  8
ガラス
  6
CONTINUOUS
 10
105.050768
 20
-18.041882
 40
0.955135
 50
202.264587
 51
382.264587
  0
ENDBLK
  0
BLOCK
  2
*GRP_0084
 70
    65
 10
0.0
 20
0.0
  0
SPLINE
  5
1400008
100
AcDbEntity
  8
ガラス
100
AcDbSpline
  6
CONTINUOUS
 70
     0
 71
     3
 74
     3
 44
0.0
 11
104.16685
 21
-33.245035
 11
104.236743
 21
-31.426217
 11
105.335507
 21
-30.155267
  0
SPLINE
  5
1400009
100
AcDbEntity
  8
ガラス
100
AcDbSpline
  6
CONTINUOUS
 70
     0
 71
     3
 74
     3
 44
0.0
 11
105.335507
 21
-30.155267
 11
105.54478
 21
-31.45738
 11
105.934705
 21
-32.521263
  0
ARC
  8
ガラス
  6
CONTINUOUS
 10
105.050767
 20
-32.883152
 40
0.955135
 50
202.264587
 51
382.264587
  0
ENDBLK
  0
BLOCK
  2
*GRP_0085
 70
    65
 10
0.0
 20
0.0
  0
SPLINE
  5
1400010
100
AcDbEntity
  8
ガラス
100
AcDbSpline
  6
CONTINUOUS
 70
     0
 71
     3
 74
     3
 44
0.0
 11
104.16685
 21
-46.631275
 11
104.23675
 21
-44.812457
 11
105.335507
 21
-43.541515
  0
SPLINE
  5
1400011
100
AcDbEntity
  8
ガラス
100
AcDbSpline
  6
CONTINUOUS
 70
     0
 71
     3
 74
     3
 44
0.0
 11
105.335507
 21
-43.541515
 11
105.54478
 21
-44.84362
 11
105.934698
 21
-45.90751
  0
ARC
  8
ガラス
  6
CONTINUOUS
 10
105.050767
 20
-46.269396
 40
0.955135
 50
202.264587
 51
382.264587
  0
ENDBLK
  0
BLOCK
  2
*GRP_0086
 70
    65
 10
0.0
 20
0.0
  0
SPLINE
  5
1400012
100
AcDbEntity
  8
ガラス
100
AcDbSpline
  6
CONTINUOUS
 70
     0
 71
     3
 74
     3
 44
0.0
 11
108.283098
 21
-56.54845
 11
106.728632
 21
-55.601537
 11
106.15378
 21
-54.022893
  0
SPLINE
  5
1400013
100
AcDbEntity
  8
ガラス
100
AcDbSpline
  6
CONTINUOUS
 70
     0
 71
     3
 74
     3
 44
0.0
 11
106.15378
 21
-54.022893
 11
107.39293
 21
-54.47431
 11
108.512012
 21
-54.65194
  0
ARC
  8
ガラス
  6
CONTINUOUS
 10
108.397551
 20
-55.600199
 40
0.955135
 50
263.117442
 51
443.117442
  0
ENDBLK
  0
BLOCK
  2
*GRP_0087
 70
    65
 10
0.0
 20
0.0
  0
SPLINE
  5
1400014
100
AcDbEntity
  8
ガラス
100
AcDbSpline
  6
CONTINUOUS
 70
     0
 71
     3
 74
     3
 44
0.0
 11
104.334498
 21
18.01352
 11
104.404405
 21
19.832337
 11
105.503162
 21
21.10328
  0
SPLINE
  5
1400015
100
AcDbEntity
  8
ガラス
100
AcDbSpline
  6
CONTINUOUS
 70
     0
 71
     3
 74
     3
 44
0.0
 11
105.503162
 21
21.10328
 11
105.712435
 21
19.801167
 11
106.102353
 21
18.737277
  0
ARC
  8
ガラス
  6
CONTINUOUS
 10
105.218423
 20
18.375393
 40
0.955135
 50
202.264587
 51
382.264587
  0
ENDBLK
  0
BLOCK
  2
*GRP_0088
 70
    65
 10
0.0
 20
0.0
  0
SPLINE
  5
1400016
100
AcDbEntity
  8
ガラス
100
AcDbSpline
  6
CONTINUOUS
 70
     0
 71
     3
 74
     3
 44
0.0
 11
104.334505
 21
-2.70607
 11
104.404405
 21
-0.887245
 11
105.503162
 21
0.383705
  0
SPLINE
  5
1400017
100
AcDbEntity
  8
ガラス
100
AcDbSpline
  6
CONTINUOUS
 70
     0
 71
     3
 74
     3
 44
0.0
 11
105.503162
 21
0.383705
 11
105.712435
 21
-0.918415
 11
106.102353
 21
-1.982298
  0
ARC
  8
ガラス
  6
CONTINUOUS
 10
105.218423
 20
-2.344184
 40
0.955135
 50
202.264587
 51
382.264587
  0
ENDBLK
  0
BLOCK
  2
*GRP_0089
 70
    65
 10
0.0
 20
0.0
  0
LINE
  8
ゴム等
  6
DOT
 10
27.11818
 20
-59.786882
 11
27.618182
 21
-57.286885
  0
LINE
  8
ゴム等
  6
DOT
 10
21.818177
 20
-57.286885
 11
22.31818
 21
-59.786882
  0
LINE
  8
ゴム等
  6
DOT
 10
19.718177
 20
-52.286882
 11
19.718177
 21
-57.286885
  0
LINE
  8
ゴム等
  6
DOT
 10
29.718182
 20
-52.286882
 11
29.718182
 21
-57.286885
  0
LINE
  8
ゴム等
  6
DOT
 10
27.11818
 20
-59.786882
 11
22.31818
 21
-59.786882
  0
LINE
  8
ゴム等
  6
DOT
 10
19.718177
 20
-57.286885
 11
21.818177
 21
-57.286885
  0
LINE
  8
ゴム等
  6
DOT
 10
27.618182
 20
-57.286885
 11
29.718182
 21
-57.286885
  0
LINE
  8
ゴム等
  6
DOT
 10
24.71818
 20
-52.786885
 11
24.218177
 21
-52.286882
  0
LINE
  8
ゴム等
  6
DOT
 10
24.71818
 20
-52.786885
 11
25.218182
 21
-52.286882
  0
LINE
  8
ゴム等
  6
DOT
 10
29.718182
 20
-52.286882
 11
25.218182
 21
-52.286882
  0
LINE
  8
ゴム等
  6
DOT
 10
24.218177
 20
-52.286882
 11
19.718177
 21
-52.286882
  0
INSERT
  2
*HAT_0003
  8
ゴム等
 10
0.0
 20
0.0
  0
ENDBLK
  0
BLOCK
  2
*GRP_0090
 70
    65
 10
0.0
 20
0.0
  0
LINE
  8
ゴム等
  6
DOT
 10
122.21968
 20
-39.586938
 11
119.719683
 21
-40.086932
  0
LINE
  8
ゴム等
  6
DOT
 10
119.719683
 20
-34.286935
 11
122.21968
 21
-34.786938
  0
LINE
  8
ゴム等
  6
DOT
 10
114.71968
 20
-32.186935
 11
119.719683
 21
-32.186935
  0
LINE
  8
ゴム等
  6
DOT
 10
114.71968
 20
-42.186932
 11
119.719683
 21
-42.186932
  0
LINE
  8
ゴム等
  6
DOT
 10
122.21968
 20
-39.586938
 11
122.21968
 21
-34.786938
  0
LINE
  8
ゴム等
  6
DOT
 10
119.719683
 20
-32.186935
 11
119.719683
 21
-34.286935
  0
LINE
  8
ゴム等
  6
DOT
 10
119.719683
 20
-40.086932
 11
119.719683
 21
-42.186932
  0
LINE
  8
ゴム等
  6
DOT
 10
115.219683
 20
-37.186938
 11
114.71968
 21
-36.686935
  0
LINE
  8
ゴム等
  6
DOT
 10
115.219683
 20
-37.186938
 11
114.71968
 21
-37.686932
  0
LINE
  8
ゴム等
  6
DOT
 10
114.71968
 20
-42.186932
 11
114.71968
 21
-37.686932
  0
LINE
  8
ゴム等
  6
DOT
 10
114.71968
 20
-36.686935
 11
114.71968
 21
-32.186935
  0
INSERT
  2
*HAT_0004
  8
ゴム等
 10
0.0
 20
0.0
  0
ENDBLK
  0
BLOCK
  2
*GRP_0091
 70
    65
 10
0.0
 20
0.0
  0
LINE
  8
ゴム等
  6
CONTINUOUS
 10
10.718147
 20
-41.286873
 11
10.718147
 21
-37.286875
  0
LINE
  8
ゴム等
  6
CONTINUOUS
 10
16.718147
 20
-41.286873
 11
16.718147
 21
-49.286875
  0
LINE
  8
ゴム等
  6
CONTINUOUS
 10
10.718147
 20
-49.286875
 11
12.918152
 21
-49.286875
  0
LINE
  8
ゴム等
  6
CONTINUOUS
 10
10.718147
 20
-41.286873
 11
12.918152
 21
-41.286873
  0
LINE
  8
ゴム等
  6
CONTINUOUS
 10
10.718147
 20
-49.286875
 11
10.718147
 21
-51.286877
  0
ARC
  8
ゴム等
  6
CONTINUOUS
 10
11.718153
 20
-44.786865
 40
1.0
 50
90.0
 51
180.0
  0
LINE
  8
ゴム等
  6
CONTINUOUS
 10
14.21815
 20
-43.786877
 11
11.718152
 21
-43.786877
  0
ARC
  8
ゴム等
  6
CONTINUOUS
 10
14.218153
 20
-44.786865
 40
1.0
 50
0.0
 51
90.0
  0
LINE
  8
ゴム等
  6
CONTINUOUS
 10
15.218147
 20
-44.786875
 11
15.218147
 21
-45.786873
  0
ARC
  8
ゴム等
  6
CONTINUOUS
 10
14.218153
 20
-45.786865
 40
1.0
 50
-90.0
 51
0.0
  0
LINE
  8
ゴム等
  6
CONTINUOUS
 10
14.21815
 20
-46.786877
 11
11.718152
 21
-46.786877
  0
LINE
  8
ゴム等
  6
CONTINUOUS
 10
10.718147
 20
-44.786875
 11
10.718147
 21
-45.786873
  0
ARC
  8
ゴム等
  6
CONTINUOUS
 10
11.718153
 20
-45.786865
 40
1.0
 50
180.0
 51
270.0
  0
LINE
  8
ゴム等
  6
CONTINUOUS
 10
8.51815
 20
-37.286875
 11
10.718147
 21
-37.286875
  0
ARC
  8
ゴム等
  6
CONTINUOUS
 10
8.518153
 20
-39.286865
 40
2.0
 50
90.0
 51
180.0
  0
LINE
  8
ゴム等
  6
CONTINUOUS
 10
6.518147
 20
-39.286877
 11
6.518147
 21
-52.786877
  0
ARC
  8
ゴム等
  6
CONTINUOUS
 10
7.518153
 20
-52.786865
 40
1.0
 50
180.0
 51
270.0
  0
LINE
  8
ゴム等
  6
CONTINUOUS
 10
16.718147
 20
-41.286873
 11
13.51294
 21
-40.54594
  0
ARC
  8
ゴム等
  6
CONTINUOUS
 10
13.418153
 20
-41.036865
 40
0.5
 50
79.071863
 51
180.0
  0
LINE
  8
ゴム等
  6
CONTINUOUS
 10
12.918152
 20
-41.286873
 11
12.918152
 21
-41.036875
  0
LINE
  8
ゴム等
  6
CONTINUOUS
 10
16.718147
 20
-49.286875
 11
13.51294
 21
-50.027808
  0
ARC
  8
ゴム等
  6
CONTINUOUS
 10
13.418153
 20
-49.536865
 40
0.5
 50
180.0
 51
280.928137
  0
LINE
  8
ゴム等
  6
CONTINUOUS
 10
12.918152
 20
-49.286875
 11
12.918152
 21
-49.536873
  0
LINE
  8
ゴム等
  6
CONTINUOUS
 10
7.518152
 20
-53.786875
 11
8.21815
 21
-53.786875
  0
LINE
  8
ゴム等
  6
CONTINUOUS
 10
8.21815
 20
-53.786875
 11
7.91815
 21
-51.286877
  0
LINE
  8
ゴム等
  6
CONTINUOUS
 10
10.718147
 20
-51.286877
 11
7.91815
 21
-51.286877
  0
INSERT
  2
*HAT_0005
  8
ゴム等
 10
0.0
 20
0.0
  0
ENDBLK
  0
BLOCK
  2
*GRP_0092
 70
    65
 10
0.0
 20
0.0
  0
LINE
  8
ゴム等
  6
CONTINUOUS
 10
17.019633
 20
-64.641752
 11
17.019633
 21
-59.64175
  0
LINE
  8
ゴム等
  6
CONTINUOUS
 10
15.01963
 20
-59.64175
 11
13.51963
 21
-59.64175
  0
LINE
  8
ゴム等
  6
CONTINUOUS
 10
15.01963
 20
-64.641752
 11
13.51963
 21
-64.641752
  0
LINE
  8
ゴム等
  6
CONTINUOUS
 10
13.51963
 20
-68.64175
 11
13.51963
 21
-64.641752
  0
LINE
  8
ゴム等
  6
CONTINUOUS
 10
13.51963
 20
-59.64175
 11
13.51963
 21
-53.64175
  0
LINE
  8
ゴム等
  6
CONTINUOUS
 10
13.51963
 20
-53.64175
 11
10.51963
 21
-53.64175
  0
LINE
  8
ゴム等
  6
CONTINUOUS
 10
10.51963
 20
-51.641748
 11
10.51963
 21
-53.64175
  0
LINE
  8
ゴム等
  6
CONTINUOUS
 10
10.51963
 20
-51.641748
 11
8.019633
 21
-51.641748
  0
ARC
  8
ゴム等
  6
CONTINUOUS
 10
19.269633
 20
-62.64174
 40
12.75
 50
151.927513
 51
208.072487
  0
LINE
  8
ゴム等
  6
CONTINUOUS
 10
8.019633
 20
-51.641748
 11
8.019633
 21
-56.64175
  0
LINE
  8
ゴム等
  6
CONTINUOUS
 10
13.51963
 20
-68.64175
 11
8.019633
 21
-68.64175
  0
LINE
  8
ゴム等
  6
CONTINUOUS
 10
17.019633
 20
-59.64175
 11
15.823337
 21
-58.741683
  0
ARC
  8
ゴム等
  6
CONTINUOUS
 10
15.519633
 20
-59.14174
 40
0.5
 50
52.618449
 51
180.0
  0
LINE
  8
ゴム等
  6
CONTINUOUS
 10
15.01963
 20
-59.64175
 11
15.01963
 21
-59.141748
  0
LINE
  8
ゴム等
  6
CONTINUOUS
 10
17.019633
 20
-64.641752
 11
15.823337
 21
-65.541813
  0
ARC
  8
ゴム等
  6
CONTINUOUS
 10
15.519633
 20
-65.14174
 40
0.5
 50
180.0
 51
307.381551
  0
LINE
  8
ゴム等
  6
CONTINUOUS
 10
15.01963
 20
-64.641752
 11
15.01963
 21
-65.141748
  0
INSERT
  2
*HAT_0006
  8
ゴム等
 10
0.0
 20
0.0
  0
ENDBLK
  0
BLOCK
  2
*GRP_0093
 70
    65
 10
0.0
 20
0.0
  0
LINE
  8
ボルト／ビス
  6
CONTINUOUS
 10
21.218185
 20
-50.28688
 11
21.309887
 21
-49.238717
  0
ARC
  8
ボルト／ビス
  6
CONTINUOUS
 10
23.003423
 20
-49.386881
 40
1.7
 50
90.0
 51
175.000011
  0
LINE
  8
ボルト／ビス
  6
CONTINUOUS
 10
23.003418
 20
-47.686877
 11
24.71818
 21
-47.686877
  0
LINE
  8
ボルト／ビス
  6
CONTINUOUS
 10
28.218182
 20
-50.28688
 11
28.12648
 21
-49.238717
  0
ARC
  8
ボルト／ビス
  6
CONTINUOUS
 10
26.432957
 20
-49.386881
 40
1.7
 50
4.999989
 51
90.0
  0
LINE
  8
ボルト／ビス
  6
CONTINUOUS
 10
26.43295
 20
-47.686877
 11
24.71818
 21
-47.686877
  0
LINE
  8
ボルト／ビス
  6
CONTINUOUS
 10
22.32154
 20
-48.071785
 11
22.32154
 21
-47.829625
  0
LINE
  8
ボルト／ビス
  6
CONTINUOUS
 10
24.018182
 20
-48.72187
 11
24.71818
 21
-48.72187
  0
LINE
  8
ボルト／ビス
  6
CONTINUOUS
 10
23.618185
 20
-48.071785
 11
22.32154
 21
-48.071785
  0
LINE
  8
ボルト／ビス
  6
CONTINUOUS
 10
24.018182
 20
-48.72187
 11
24.018182
 21
-48.471782
  0
ARC
  8
ボルト／ビス
  6
CONTINUOUS
 10
23.61819
 20
-48.471786
 40
0.4
 50
0.0
 51
90.0
  0
LINE
  8
ボルト／ビス
  6
CONTINUOUS
 10
27.11482
 20
-48.071785
 11
27.11482
 21
-47.829625
  0
LINE
  8
ボルト／ビス
  6
CONTINUOUS
 10
25.418185
 20
-48.72187
 11
24.71818
 21
-48.72187
  0
LINE
  8
ボルト／ビス
  6
CONTINUOUS
 10
25.818182
 20
-48.071785
 11
27.11482
 21
-48.071785
  0
LINE
  8
ボルト／ビス
  6
CONTINUOUS
 10
25.418185
 20
-48.72187
 11
25.418185
 21
-48.471782
  0
ARC
  8
ボルト／ビス
  6
CONTINUOUS
 10
25.81819
 20
-48.471786
 40
0.4
 50
90.0
 51
180.0
  0
LINE
  8
ボルト／ビス
  6
CONTINUOUS
 10
21.218185
 20
-50.28688
 11
28.218182
 21
-50.28688
  0
LINE
  8
ボルト／ビス
  6
CONTINUOUS
 10
24.71818
 20
-45.715495
 11
24.71818
 21
-65.930155
  0
LINE
  8
ボルト／ビス
  6
CONTINUOUS
 10
22.718185
 20
-63.78688
 11
23.21818
 21
-64.286882
  0
LINE
  8
ボルト／ビス
  6
CONTINUOUS
 10
26.718182
 20
-63.78688
 11
26.21818
 21
-64.286882
  0
LINE
  8
ボルト／ビス
  6
CONTINUOUS
 10
22.718185
 20
-63.78688
 11
26.718182
 21
-63.78688
  0
LINE
  8
ボルト／ビス
  6
CONTINUOUS
 10
23.21818
 20
-64.286882
 11
26.21818
 21
-64.286882
  0
LINE
  8
ボルト／ビス
  6
CONTINUOUS
 10
26.718182
 20
-50.28688
 11
26.718182
 21
-63.78688
  0
LINE
  8
ボルト／ビス
  6
CONTINUOUS
 10
22.718185
 20
-50.28688
 11
22.718185
 21
-63.78688
  0
LINE
  8
ボルト／ビス
  6
CONTINUOUS
 10
23.21818
 20
-50.28688
 11
23.21818
 21
-64.286882
  0
LINE
  8
ボルト／ビス
  6
CONTINUOUS
 10
26.21818
 20
-50.28688
 11
26.21818
 21
-64.286882
  0
ENDBLK
  0
BLOCK
  2
*GRP_0094
 70
    65
 10
0.0
 20
0.0
  0
LINE
  8
ボルト／ビス
  6
CONTINUOUS
 10
124.018225
 20
-40.686932
 11
125.066388
 21
-40.59523
  0
ARC
  8
ボルト／ビス
  6
CONTINUOUS
 10
124.918229
 20
-38.901711
 40
1.7
 50
274.999989
 51
360.0
  0
LINE
  8
ボルト／ビス
  6
CONTINUOUS
 10
126.618227
 20
-38.9017
 11
126.618227
 21
-37.186938
  0
LINE
  8
ボルト／ビス
  6
CONTINUOUS
 10
124.018225
 20
-33.686935
 11
125.066388
 21
-33.778637
  0
ARC
  8
ボルト／ビス
  6
CONTINUOUS
 10
124.918229
 20
-35.472177
 40
1.7
 50
0.0
 51
85.000011
  0
LINE
  8
ボルト／ビス
  6
CONTINUOUS
 10
126.618227
 20
-35.472167
 11
126.618227
 21
-37.186938
  0
LINE
  8
ボルト／ビス
  6
CONTINUOUS
 10
126.23332
 20
-39.583577
 11
126.47548
 21
-39.583577
  0
LINE
  8
ボルト／ビス
  6
CONTINUOUS
 10
125.583235
 20
-37.886935
 11
125.583235
 21
-37.186938
  0
LINE
  8
ボルト／ビス
  6
CONTINUOUS
 10
126.23332
 20
-38.286932
 11
126.23332
 21
-39.583577
  0
LINE
  8
ボルト／ビス
  6
CONTINUOUS
 10
125.583235
 20
-37.886935
 11
125.833323
 21
-37.886935
  0
ARC
  8
ボルト／ビス
  6
CONTINUOUS
 10
125.833324
 20
-38.286944
 40
0.4
 50
0.0
 51
90.0
  0
LINE
  8
ボルト／ビス
  6
CONTINUOUS
 10
126.23332
 20
-34.790297
 11
126.47548
 21
-34.790297
  0
LINE
  8
ボルト／ビス
  6
CONTINUOUS
 10
125.583235
 20
-36.486932
 11
125.583235
 21
-37.186938
  0
LINE
  8
ボルト／ビス
  6
CONTINUOUS
 10
126.23332
 20
-36.086935
 11
126.23332
 21
-34.790297
  0
LINE
  8
ボルト／ビス
  6
CONTINUOUS
 10
125.583235
 20
-36.486932
 11
125.833323
 21
-36.486932
  0
ARC
  8
ボルト／ビス
  6
CONTINUOUS
 10
125.833324
 20
-36.086944
 40
0.4
 50
270.0
 51
360.0
  0
LINE
  8
ボルト／ビス
  6
CONTINUOUS
 10
124.018225
 20
-40.686932
 11
124.018225
 21
-33.686935
  0
LINE
  8
ボルト／ビス
  6
CONTINUOUS
 10
128.58961
 20
-37.186938
 11
108.37495
 21
-37.186938
  0
LINE
  8
ボルト／ビス
  6
CONTINUOUS
 10
110.518225
 20
-39.186932
 11
110.018223
 21
-38.686938
  0
LINE
  8
ボルト／ビス
  6
CONTINUOUS
 10
110.518225
 20
-35.186935
 11
110.018223
 21
-35.686938
  0
LINE
  8
ボルト／ビス
  6
CONTINUOUS
 10
110.518225
 20
-39.186932
 11
110.518225
 21
-35.186935
  0
LINE
  8
ボルト／ビス
  6
CONTINUOUS
 10
110.018223
 20
-38.686938
 11
110.018223
 21
-35.686938
  0
LINE
  8
ボルト／ビス
  6
CONTINUOUS
 10
124.018225
 20
-35.186935
 11
110.518225
 21
-35.186935
  0
LINE
  8
ボルト／ビス
  6
CONTINUOUS
 10
124.018225
 20
-39.186932
 11
110.518225
 21
-39.186932
  0
LINE
  8
ボルト／ビス
  6
CONTINUOUS
 10
124.018225
 20
-38.686938
 11
110.018223
 21
-38.686938
  0
LINE
  8
ボルト／ビス
  6
CONTINUOUS
 10
124.018225
 20
-35.686938
 11
110.018223
 21
-35.686938
  0
ENDBLK
  0
BLOCK
  2
*GRP_0095
 70
    65
 10
0.0
 20
0.0
  0
INSERT
  2
*GRP_0098
  8
文字
  6
DOT
 10
0.0
 20
0.0
  0
INSERT
  2
*GRP_0099
  8
文字
  6
DOT
 10
0.0
 20
0.0
  0
INSERT
  2
*GRP_0100
  8
その他部品等
  6
CONTINUOUS
 10
0.0
 20
0.0
  0
INSERT
  2
*GRP_0101
  8
その他部品等
  6
CONTINUOUS
 10
0.0
 20
0.0
  0
INSERT
  2
*GRP_0102
  8
その他部品等
  6
CONTINUOUS
 10
0.0
 20
0.0
  0
ENDBLK
  0
BLOCK
  2
*GRP_0096
 70
    65
 10
0.0
 20
0.0
  0
LINE
  8
別途部材
  6
DOT
 10
125.019678
 20
-63.686942
 11
125.019678
 21
-73.68694
  0
LINE
  8
別途部材
  6
DOT
 10
135.019675
 20
-73.68694
 11
125.019678
 21
-73.68694
  0
INSERT
  2
*HAT_0007
  8
別途部材
 10
0.0
 20
0.0
  0
LINE
  8
別途部材
  6
DOT
 10
135.019675
 20
-63.686942
 11
125.019678
 21
-63.686942
  0
LINE
  8
別途部材
  6
DOT
 10
135.019675
 20
-63.686942
 11
135.019675
 21
-73.68694
  0
ENDBLK
  0
BLOCK
  2
*GRP_0097
 70
    65
 10
0.0
 20
0.0
  0
LINE
  8
St
  6
CONTINUOUS
 62
   127
 10
89.719637
 20
-16.986812
 11
89.71963
 21
-13.786817
  0
LINE
  8
St
  6
CONTINUOUS
 62
   127
 10
48.719552
 20
-16.986812
 11
48.71956
 21
-13.786817
  0
LINE
  8
St
  6
CONTINUOUS
 62
   127
 10
89.719637
 20
-16.986812
 11
48.719552
 21
-16.986812
  0
LINE
  8
St
  6
CONTINUOUS
 62
   127
 10
76.490905
 20
-13.786817
 11
79.6909
 21
-16.986812
  0
LINE
  8
St
  6
CONTINUOUS
 62
   127
 10
75.783805
 20
-13.786817
 11
78.9838
 21
-16.986812
  0
LINE
  8
St
  6
CONTINUOUS
 62
   127
 10
50.00812
 20
-13.786817
 11
53.208115
 21
-16.986812
  0
LINE
  8
St
  6
CONTINUOUS
 62
   127
 10
49.30102
 20
-13.786817
 11
52.501015
 21
-16.986812
  0
ENDBLK
  0
BLOCK
  2
*GRP_0098
 70
    65
 10
0.0
 20
0.0
  0
INSERT
  2
*GRP_0103
  8
別途部材
  6
CONTINUOUS
 10
0.0
 20
0.0
  0
INSERT
  2
*GRP_0104
  8
別途部材
  6
CONTINUOUS
 10
0.0
 20
0.0
  0
ENDBLK
  0
BLOCK
  2
*GRP_0099
 70
    65
 10
0.0
 20
0.0
  0
INSERT
  2
*GRP_0105
  8
別途部材
  6
CONTINUOUS
 10
0.0
 20
0.0
  0
INSERT
  2
*GRP_0106
  8
別途部材
  6
CONTINUOUS
 10
0.0
 20
0.0
  0
ENDBLK
  0
BLOCK
  2
*GRP_0100
 70
    65
 10
0.0
 20
0.0
  0
LINE
  8
ボルト／ビス
  6
CONTINUOUS
 10
58.419625
 20
-4.291248
 11
59.919625
 21
-6.59125
  0
LINE
  8
ボルト／ビス
  6
CONTINUOUS
 10
66.419628
 20
-4.291248
 11
64.919628
 21
-6.59125
  0
LINE
  8
ボルト／ビス
  6
CONTINUOUS
 10
58.419625
 20
-4.291248
 11
66.419628
 21
-4.291248
  0
LINE
  8
ボルト／ビス
  6
CONTINUOUS
 10
59.919625
 20
-6.59125
 11
64.919628
 21
-6.59125
  0
LINE
  8
ボルト／ビス
  6
CONTINUOUS
 10
59.919625
 20
-23.791248
 11
60.419628
 21
-24.29125
  0
LINE
  8
ボルト／ビス
  6
CONTINUOUS
 10
64.919628
 20
-23.791248
 11
64.419625
 21
-24.29125
  0
LINE
  8
ボルト／ビス
  6
CONTINUOUS
 10
64.419625
 20
-24.29125
 11
60.419628
 21
-24.29125
  0
LINE
  8
ボルト／ビス
  6
CONTINUOUS
 10
64.919628
 20
-23.791248
 11
59.919625
 21
-23.791248
  0
LINE
  8
ボルト／ビス
  6
CONTINUOUS
 10
60.419628
 20
-6.59125
 11
60.419628
 21
-24.29125
  0
LINE
  8
ボルト／ビス
  6
CONTINUOUS
 10
59.919625
 20
-6.59125
 11
59.919625
 21
-23.791248
  0
LINE
  8
ボルト／ビス
  6
CONTINUOUS
 10
64.419625
 20
-6.59125
 11
64.419625
 21
-24.29125
  0
LINE
  8
ボルト／ビス
  6
CONTINUOUS
 10
64.919628
 20
-6.59125
 11
64.919628
 21
-23.791248
  0
LINE
  8
ボルト／ビス
  6
CONTINUOUS
 10
62.41963
 20
-1.906045
 11
62.41963
 21
-24.29125
  0
ENDBLK
  0
BLOCK
  2
*GRP_0101
 70
    65
 10
0.0
 20
0.0
  0
LINE
  8
ボルト／ビス
  6
CONTINUOUS
 10
67.919628
 20
-4.291248
 11
69.419628
 21
-6.59125
  0
LINE
  8
ボルト／ビス
  6
CONTINUOUS
 10
75.91963
 20
-4.291248
 11
74.41963
 21
-6.59125
  0
LINE
  8
ボルト／ビス
  6
CONTINUOUS
 10
67.919628
 20
-4.291248
 11
75.91963
 21
-4.291248
  0
LINE
  8
ボルト／ビス
  6
CONTINUOUS
 10
69.419628
 20
-6.59125
 11
74.41963
 21
-6.59125
  0
LINE
  8
ボルト／ビス
  6
CONTINUOUS
 10
69.419628
 20
-23.791248
 11
69.91963
 21
-24.29125
  0
LINE
  8
ボルト／ビス
  6
CONTINUOUS
 10
74.41963
 20
-23.791248
 11
73.919628
 21
-24.29125
  0
LINE
  8
ボルト／ビス
  6
CONTINUOUS
 10
73.919628
 20
-24.29125
 11
69.91963
 21
-24.29125
  0
LINE
  8
ボルト／ビス
  6
CONTINUOUS
 10
74.41963
 20
-23.791248
 11
69.419628
 21
-23.791248
  0
LINE
  8
ボルト／ビス
  6
CONTINUOUS
 10
69.91963
 20
-6.59125
 11
69.91963
 21
-24.29125
  0
LINE
  8
ボルト／ビス
  6
CONTINUOUS
 10
69.419628
 20
-6.59125
 11
69.419628
 21
-23.791248
  0
LINE
  8
ボルト／ビス
  6
CONTINUOUS
 10
73.919628
 20
-6.59125
 11
73.919628
 21
-24.29125
  0
LINE
  8
ボルト／ビス
  6
CONTINUOUS
 10
74.41963
 20
-6.59125
 11
74.41963
 21
-23.791248
  0
LINE
  8
ボルト／ビス
  6
CONTINUOUS
 10
71.919633
 20
-1.906045
 11
71.919633
 21
-24.29125
  0
ENDBLK
  0
BLOCK
  2
*GRP_0102
 70
    65
 10
0.0
 20
0.0
  0
LINE
  8
ボルト／ビス
  6
CONTINUOUS
 10
78.41962
 20
-4.291248
 11
79.91962
 21
-6.59125
  0
LINE
  8
ボルト／ビス
  6
CONTINUOUS
 10
86.419622
 20
-4.291248
 11
84.919622
 21
-6.59125
  0
LINE
  8
ボルト／ビス
  6
CONTINUOUS
 10
78.41962
 20
-4.291248
 11
86.419622
 21
-4.291248
  0
LINE
  8
ボルト／ビス
  6
CONTINUOUS
 10
79.91962
 20
-6.59125
 11
84.919622
 21
-6.59125
  0
LINE
  8
ボルト／ビス
  6
CONTINUOUS
 10
79.91962
 20
-23.791248
 11
80.419622
 21
-24.29125
  0
LINE
  8
ボルト／ビス
  6
CONTINUOUS
 10
84.919622
 20
-23.791248
 11
84.41962
 21
-24.29125
  0
LINE
  8
ボルト／ビス
  6
CONTINUOUS
 10
84.41962
 20
-24.29125
 11
80.419622
 21
-24.29125
  0
LINE
  8
ボルト／ビス
  6
CONTINUOUS
 10
84.919622
 20
-23.791248
 11
79.91962
 21
-23.791248
  0
LINE
  8
ボルト／ビス
  6
CONTINUOUS
 10
80.419622
 20
-6.59125
 11
80.419622
 21
-24.29125
  0
LINE
  8
ボルト／ビス
  6
CONTINUOUS
 10
79.91962
 20
-6.59125
 11
79.91962
 21
-23.791248
  0
LINE
  8
ボルト／ビス
  6
CONTINUOUS
 10
84.41962
 20
-6.59125
 11
84.41962
 21
-24.29125
  0
LINE
  8
ボルト／ビス
  6
CONTINUOUS
 10
84.919622
 20
-6.59125
 11
84.919622
 21
-23.791248
  0
LINE
  8
ボルト／ビス
  6
CONTINUOUS
 10
82.419625
 20
-1.906045
 11
82.419625
 21
-24.29125
  0
ENDBLK
  0
BLOCK
  2
*GRP_0103
 70
    65
 10
0.0
 20
0.0
  0
LINE
  8
別途部材
  6
CONTINUOUS
 10
81.919637
 20
-5.78683
 11
81.919637
 21
38.213165
  0
ARC
  8
別途部材
  6
CONTINUOUS
 10
87.919629
 20
-5.786844
 40
6.0
 50
179.999999
 51
269.999999
  0
LINE
  8
別途部材
  6
CONTINUOUS
 10
93.919637
 20
-5.78683
 11
93.919637
 21
38.213165
  0
ARC
  8
別途部材
  6
CONTINUOUS
 10
87.919629
 20
-5.786844
 40
6.0
 50
269.999999
 51
359.999999
  0
CIRCLE
  8
別途部材
  6
CONTINUOUS
 10
87.919637
 20
-5.78683
 40
3.0
  0
LINE
  8
別途部材
  6
CONTINUOUS
 10
84.919637
 20
-5.78683
 11
90.919637
 21
-5.786823
  0
LINE
  8
別途部材
  6
CONTINUOUS
 10
87.919645
 20
-8.78683
 11
87.919637
 21
-2.78683
  0
LINE
  8
別途部材
  6
CONTINUOUS
 10
81.919637
 20
38.213165
 11
83.919648
 21
38.213165
  0
LINE
  8
別途部材
  6
CONTINUOUS
 10
91.919643
 20
38.213172
 11
93.919637
 21
38.213165
  0
LINE
  8
別途部材
  6
CONTINUOUS
 10
83.919648
 20
38.213165
 11
83.91964
 21
0.21317
  0
LINE
  8
別途部材
  6
CONTINUOUS
 10
83.91964
 20
0.21317
 11
91.919643
 21
0.21317
  0
LINE
  8
別途部材
  6
CONTINUOUS
 10
91.919643
 20
38.213172
 11
91.919643
 21
0.21317
  0
ARC
  8
別途部材
  6
CONTINUOUS
 10
87.919629
 20
1.671489
 40
2.541667
 50
269.999999
 51
269.999999
  0
ARC
  8
別途部材
  6
CONTINUOUS
 10
87.919629
 20
37.754824
 40
2.541667
 50
190.388959
 51
349.611039
  0
LINE
  8
別途部材
  6
CONTINUOUS
 10
91.419648
 20
38.213165
 11
90.419643
 21
38.213165
  0
LINE
  8
別途部材
  6
CONTINUOUS
 10
84.419643
 20
38.213165
 11
85.419648
 21
38.213165
  0
CIRCLE
  8
別途部材
  6
CONTINUOUS
 10
87.919637
 20
4.21316
 40
0.999997
  0
LINE
  8
別途部材
  6
CONTINUOUS
 10
88.91965
 20
4.21316
 11
86.91964
 21
4.21316
  0
LINE
  8
別途部材
  6
CONTINUOUS
 10
87.919645
 20
3.213155
 11
87.919637
 21
5.213165
  0
ARC
  8
別途部材
  6
CONTINUOUS
 10
87.919629
 20
2.671484
 40
2.541667
 50
10.388959
 51
169.611039
  0
LINE
  8
別途部材
  6
CONTINUOUS
 10
91.41964
 20
2.213165
 11
90.419643
 21
2.213172
  0
LINE
  8
別途部材
  6
CONTINUOUS
 10
85.419648
 20
2.213165
 11
84.419643
 21
2.213165
  0
LINE
  8
別途部材
  6
CONTINUOUS
 10
90.419643
 20
38.213165
 11
90.419643
 21
2.213172
  0
LINE
  8
別途部材
  6
CONTINUOUS
 10
91.419648
 20
38.213165
 11
91.41964
 21
2.213165
  0
LINE
  8
別途部材
  6
CONTINUOUS
 10
85.419648
 20
38.213165
 11
85.419648
 21
2.213165
  0
LINE
  8
別途部材
  6
CONTINUOUS
 10
84.419643
 20
38.213165
 11
84.419643
 21
2.213165
  0
ENDBLK
  0
BLOCK
  2
*GRP_0104
 70
    65
 10
0.0
 20
0.0
  0
LINE
  8
別途部材
  6
CONTINUOUS
 10
87.919637
 20
-11.78683
 11
87.919637
 21
-11.78683
  0
LINE
  8
別途部材
  6
CONTINUOUS
 10
69.419628
 20
-6.586833
 11
74.41963
 21
-6.586833
  0
LINE
  8
別途部材
  6
CONTINUOUS
 10
71.91964
 20
-4.286823
 11
71.919633
 21
-12.286833
  0
POLYLINE
  8
別途部材
  6
CONTINUOUS
 66
     1
  0
VERTEX
  8
別途部材
 10
75.91963
 20
-4.28683
  0
VERTEX
  8
別途部材
 10
74.41963
 20
-6.586833
  0
VERTEX
  8
別途部材
 10
74.41963
 20
-12.286833
  0
SEQEND
  0
POLYLINE
  8
別途部材
  6
CONTINUOUS
 66
     1
  0
VERTEX
  8
別途部材
 10
67.919628
 20
-4.28683
  0
VERTEX
  8
別途部材
 10
69.419628
 20
-6.586833
  0
VERTEX
  8
別途部材
 10
69.419628
 20
-12.286833
  0
SEQEND
  0
LINE
  8
別途部材
  6
CONTINUOUS
 10
87.919637
 20
-12.286833
 11
87.919637
 21
-11.78683
  0
ARC
  8
別途部材
  6
CONTINUOUS
 10
62.91962
 20
-5.286845
 40
1.0
 50
89.999999
 51
179.999999
  0
LINE
  8
別途部材
  6
CONTINUOUS
 10
61.919635
 20
-5.286827
 11
61.919635
 21
-11.286827
  0
ARC
  8
別途部材
  6
CONTINUOUS
 10
62.91962
 20
-11.286845
 40
1.0
 50
179.999999
 51
269.999999
  0
ARC
  8
別途部材
  6
CONTINUOUS
 10
78.91962
 20
-5.286845
 40
1.0
 50
-0.000001
 51
89.999999
  0
LINE
  8
別途部材
  6
CONTINUOUS
 10
79.919635
 20
-11.286835
 11
79.919635
 21
-5.286835
  0
ARC
  8
別途部材
  6
CONTINUOUS
 10
78.91962
 20
-11.286845
 40
1.0
 50
269.999999
 51
359.999999
  0
LINE
  8
別途部材
  6
CONTINUOUS
 10
62.919633
 20
-12.286833
 11
87.919637
 21
-12.286833
  0
LINE
  8
別途部材
  6
CONTINUOUS
 10
62.91964
 20
-4.28683
 11
81.919637
 21
-4.28683
  0
ENDBLK
  0
BLOCK
  2
*GRP_0105
 70
    65
 10
0.0
 20
0.0
  0
LINE
  8
別途部材
  6
CONTINUOUS
 10
97.919635
 20
-1.786833
 11
53.919633
 21
-1.786833
  0
ARC
  8
別途部材
  6
CONTINUOUS
 10
97.919622
 20
4.213166
 40
6.0
 50
269.999999
 51
359.999999
  0
LINE
  8
別途部材
  6
CONTINUOUS
 10
97.919635
 20
10.213168
 11
53.919633
 21
10.213168
  0
ARC
  8
別途部材
  6
CONTINUOUS
 10
97.919622
 20
4.213166
 40
6.0
 50
-0.000001
 51
89.999999
  0
CIRCLE
  8
別途部材
  6
CONTINUOUS
 10
97.919635
 20
4.213168
 40
3.0
  0
LINE
  8
別途部材
  6
CONTINUOUS
 10
97.919635
 20
1.213168
 11
97.919635
 21
7.213168
  0
LINE
  8
別途部材
  6
CONTINUOUS
 10
100.919635
 20
4.213168
 11
94.919635
 21
4.213168
  0
LINE
  8
別途部材
  6
CONTINUOUS
 10
53.919633
 20
-1.786833
 11
53.919633
 21
0.213185
  0
LINE
  8
別途部材
  6
CONTINUOUS
 10
53.919633
 20
8.213172
 11
53.919633
 21
10.213168
  0
LINE
  8
別途部材
  6
CONTINUOUS
 10
53.919633
 20
0.213185
 11
91.919643
 21
0.213177
  0
LINE
  8
別途部材
  6
CONTINUOUS
 10
91.919643
 20
0.213177
 11
91.919643
 21
8.213172
  0
LINE
  8
別途部材
  6
CONTINUOUS
 10
53.919633
 20
8.213172
 11
91.919643
 21
8.213172
  0
ARC
  8
別途部材
  6
CONTINUOUS
 10
54.377954
 20
4.213167
 40
2.541667
 50
280.388959
 51
439.611039
  0
LINE
  8
別途部材
  6
CONTINUOUS
 10
53.919633
 20
7.713185
 11
53.91964
 21
6.713172
  0
LINE
  8
別途部材
  6
CONTINUOUS
 10
53.919633
 20
0.713172
 11
53.919633
 21
1.713185
  0
CIRCLE
  8
別途部材
  6
CONTINUOUS
 10
87.919637
 20
4.213168
 40
0.999997
  0
LINE
  8
別途部材
  6
CONTINUOUS
 10
87.919637
 20
5.213172
 11
87.919645
 21
3.21317
  0
LINE
  8
別途部材
  6
CONTINUOUS
 10
88.919635
 20
4.213168
 11
86.919633
 21
4.213168
  0
ARC
  8
別途部材
  6
CONTINUOUS
 10
89.461294
 20
4.213166
 40
2.541667
 50
100.388959
 51
259.611039
  0
LINE
  8
別途部材
  6
CONTINUOUS
 10
89.919633
 20
7.713177
 11
89.91964
 21
6.713172
  0
LINE
  8
別途部材
  6
CONTINUOUS
 10
89.919633
 20
1.713177
 11
89.919633
 21
0.713172
  0
LINE
  8
別途部材
  6
CONTINUOUS
 10
53.91964
 20
6.713172
 11
89.91964
 21
6.713172
  0
LINE
  8
別途部材
  6
CONTINUOUS
 10
53.919633
 20
7.713185
 11
89.919633
 21
7.713177
  0
LINE
  8
別途部材
  6
CONTINUOUS
 10
53.919633
 20
1.713185
 11
89.919633
 21
1.713177
  0
LINE
  8
別途部材
  6
CONTINUOUS
 10
53.919633
 20
0.713172
 11
89.919633
 21
0.713172
  0
ENDBLK
  0
BLOCK
  2
*GRP_0106
 70
    65
 10
0.0
 20
0.0
  0
LINE
  8
別途部材
  6
CONTINUOUS
 10
103.919635
 20
4.213168
 11
103.919635
 21
4.213168
  0
LINE
  8
別途部材
  6
CONTINUOUS
 10
90.91963
 20
-1.786833
 11
90.91963
 21
-4.286823
  0
LINE
  8
別途部材
  6
CONTINUOUS
 10
104.41963
 20
4.213168
 11
103.919635
 21
4.213175
  0
LINE
  8
別途部材
  6
CONTINUOUS
 10
91.919643
 20
-12.286833
 11
91.919635
 21
-4.28683
  0
ARC
  8
別途部材
  6
CONTINUOUS
 10
54.919623
 20
-11.28684
 40
1.0
 50
179.999999
 51
269.999999
  0
LINE
  8
別途部材
  6
CONTINUOUS
 10
53.919633
 20
-5.286827
 11
53.919633
 21
-11.286827
  0
ARC
  8
別途部材
  6
CONTINUOUS
 10
54.919623
 20
-5.28684
 40
1.0
 50
89.999999
 51
179.999999
  0
LINE
  8
別途部材
  6
CONTINUOUS
 10
54.91963
 20
-12.286833
 11
103.419633
 21
-12.286833
  0
ARC
  8
別途部材
  6
CONTINUOUS
 10
103.419623
 20
-11.28684
 40
1.0
 50
269.999999
 51
359.999999
  0
LINE
  8
別途部材
  6
CONTINUOUS
 10
54.91963
 20
-4.28683
 11
103.41964
 21
-4.28683
  0
ARC
  8
別途部材
  6
CONTINUOUS
 10
103.419623
 20
-5.28684
 40
1.0
 50
-0.000001
 51
89.999999
  0
LINE
  8
別途部材
  6
CONTINUOUS
 10
104.41963
 20
-11.286827
 11
104.41963
 21
4.213168
  0
LINE
  8
別途部材
  6
CONTINUOUS
 10
84.91963
 20
-6.586833
 11
79.919635
 21
-6.586833
  0
LINE
  8
別途部材
  6
CONTINUOUS
 10
64.919635
 20
-6.586833
 11
59.919625
 21
-6.586833
  0
POLYLINE
  8
別途部材
  6
CONTINUOUS
 66
     1
  0
VERTEX
  8
別途部材
 10
86.41963
 20
-4.28683
  0
VERTEX
  8
別途部材
 10
84.91963
 20
-6.586833
  0
VERTEX
  8
別途部材
 10
84.91963
 20
-12.286833
  0
SEQEND
  0
LINE
  8
別途部材
  6
CONTINUOUS
 10
82.419625
 20
-4.28683
 11
82.419625
 21
-12.286833
  0
POLYLINE
  8
別途部材
  6
CONTINUOUS
 66
     1
  0
VERTEX
  8
別途部材
 10
78.419635
 20
-4.286823
  0
VERTEX
  8
別途部材
 10
79.919635
 20
-6.586833
  0
VERTEX
  8
別途部材
 10
79.919643
 20
-12.286833
  0
SEQEND
  0
POLYLINE
  8
別途部材
  6
CONTINUOUS
 66
     1
  0
VERTEX
  8
別途部材
 10
66.419635
 20
-4.28683
  0
VERTEX
  8
別途部材
 10
64.919635
 20
-6.586833
  0
VERTEX
  8
別途部材
 10
64.919643
 20
-12.286833
  0
SEQEND
  0
LINE
  8
別途部材
  6
CONTINUOUS
 10
62.41963
 20
-4.28683
 11
62.41963
 21
-12.286825
  0
POLYLINE
  8
別途部材
  6
CONTINUOUS
 66
     1
  0
VERTEX
  8
別途部材
 10
58.419633
 20
-4.28683
  0
VERTEX
  8
別途部材
 10
59.919625
 20
-6.586833
  0
VERTEX
  8
別途部材
 10
59.919625
 20
-12.286833
  0
SEQEND
  0
ENDBLK
  0
BLOCK
  2
*DIM_0107
 70
    65
 10
0.0
 20
0.0
  0
LINE
  8
寸法
  6
CONTINUOUS
 10
-93.087612
 20
-47.28679
 11
-93.087612
 21
-90.824255
  0
LINE
  8
寸法
  6
CONTINUOUS
 10
136.519675
 20
-80.18694
 11
136.519675
 21
-90.824255
  0
LINE
  8
寸法
  6
CONTINUOUS
 10
-93.087612
 20
-90.824255
 11
136.519675
 21
-90.824255
  0
POINT
  8
寸法
 10
-93.087612
 20
-90.824255
  0
POINT
  8
寸法
 10
136.519675
 20
-90.824255
  0
TEXT
  7
TextStyle03
  8
寸法
  6
CONTINUOUS
 10
17.575
 20
-90.45
  1
229.5
 40
3.0
 72
     5
 11
25.825
 21
-90.45
  0
ENDBLK
  0
BLOCK
  2
*DIM_0108
 70
    65
 10
0.0
 20
0.0
  0
LINE
  8
寸法
  6
CONTINUOUS
 10
146.619678
 20
-53.18694
 11
146.619678
 21
-90.824255
  0
LINE
  8
寸法
  6
CONTINUOUS
 10
136.519675
 20
-90.824255
 11
146.619678
 21
-90.824255
  0
POINT
  8
寸法
 10
146.619678
 20
-90.824255
  0
TEXT
  7
TextStyle03
  8
寸法
  6
CONTINUOUS
 10
138.26875
 20
-90.45
  1
10.1
 40
3.0
 72
     5
 11
144.83125
 21
-90.45
  0
ENDBLK
  0
BLOCK
  2
*DIM_0109
 70
    65
 10
0.0
 20
0.0
  0
LINE
  8
寸法
  6
CONTINUOUS
 10
151.619678
 20
-50.186935
 11
168.35094
 21
-50.186935
  0
LINE
  8
寸法
  6
CONTINUOUS
 10
141.519675
 20
-75.18694
 11
168.35094
 21
-75.18694
  0
LINE
  8
寸法
  6
CONTINUOUS
 10
168.35094
 20
-50.186935
 11
168.35094
 21
-75.18694
  0
POINT
  8
寸法
 10
168.35094
 20
-50.186935
  0
POINT
  8
寸法
 10
168.35094
 20
-75.18694
  0
TEXT
  7
TextStyle03
  8
寸法
  6
CONTINUOUS
 10
167.975
 20
-64.29375
  1
25
 40
3.0
 50
90.0
 72
     5
 11
167.975
 21
-61.10625
  0
ENDBLK
  0
BLOCK
  2
*DIM_0110
 70
    65
 10
0.0
 20
0.0
  0
LINE
  8
寸法
  6
CONTINUOUS
 10
114.71968
 20
37.213172
 11
114.71968
 21
98.621925
  0
LINE
  8
寸法
  6
CONTINUOUS
 10
146.619678
 20
-43.18694
 11
146.619678
 21
98.621925
  0
LINE
  8
寸法
  6
CONTINUOUS
 10
114.71968
 20
98.621925
 11
146.619678
 21
98.621925
  0
POINT
  8
寸法
 10
114.71968
 20
98.621925
  0
POINT
  8
寸法
 10
146.619678
 20
98.621925
  0
TEXT
  7
TextStyle03
  8
寸法
  6
CONTINUOUS
 10
127.36875
 20
98.975
  1
31.9
 40
3.0
 72
     5
 11
133.93125
 21
98.975
  0
ENDBLK
  0
BLOCK
  2
*DIM_0111
 70
    65
 10
0.0
 20
0.0
  0
LINE
  8
寸法
  6
CONTINUOUS
 10
19.419678
 20
-80.18694
 11
19.419678
 21
-82.720302
  0
LINE
  8
寸法
  6
CONTINUOUS
 10
136.519675
 20
-80.18694
 11
136.519675
 21
-82.720302
  0
LINE
  8
寸法
  6
CONTINUOUS
 10
19.419678
 20
-82.720302
 11
136.519675
 21
-82.720302
  0
POINT
  8
寸法
 10
19.419678
 20
-82.720302
  0
POINT
  8
寸法
 10
136.519675
 20
-82.720302
  0
TEXT
  7
TextStyle03
  8
寸法
  6
CONTINUOUS
 10
73.825
 20
-82.35
  1
117.1
 40
3.0
 72
     5
 11
82.075
 21
-82.35
  0
ENDBLK
  0
ENDSEC
  0
SECTION
  2
ENTITIES
  0
POLYLINE
  8
通り芯
  6
CONTINUOUS
 66
     1
 70
     1
  0
VERTEX
  8
通り芯
 10
-210.0
 20
-148.5
  0
VERTEX
  8
通り芯
 10
210.0
 20
-148.5
  0
VERTEX
  8
通り芯
 10
210.0
 20
148.5
  0
VERTEX
  8
通り芯
 10
-210.0
 20
148.5
  0
SEQEND
  0
INSERT
  2
*GRP_0002
  8
通り芯
  6
CONTINUOUS
 10
0.0
 20
0.0
  0
LINE
  8
通り芯
  6
CONTINUOUS
 10
-53.93506
 20
-34.562643
 11
-52.156163
 21
-33.104725
  0
LINE
  8
通り芯
  6
CONTINUOUS
 10
-23.4634
 20
-71.743042
 11
-21.68449
 21
-70.285113
  0
LINE
  8
通り芯
  6
CONTINUOUS
 10
-23.4634
 20
-71.743042
 11
-53.93506
 21
-34.562643
  0
LINE
  8
通り芯
  6
CONTINUOUS
 10
-21.68449
 20
-70.285113
 11
-52.156163
 21
-33.104725
  0
LINE
  8
通り芯
  6
CONTINUOUS
 10
-19.781837
 20
-73.686835
 11
-19.781837
 21
-71.686835
  0
LINE
  8
通り芯
  6
CONTINUOUS
 10
1.718162
 20
-71.686835
 11
-19.781837
 21
-71.686835
  0
LINE
  8
通り芯
  6
CONTINUOUS
 10
1.718162
 20
-73.686835
 11
-19.781837
 21
-73.686835
  0
LINE
  8
通り芯
  6
CONTINUOUS
 10
1.718162
 20
-71.686835
 11
1.718162
 21
-73.686835
  0
INSERT
  2
*GRP_0003
  8
通り芯
  6
CONTINUOUS
 10
0.0
 20
0.0
  0
INSERT
  2
*GRP_0004
  8
通り芯
  6
CONTINUOUS
 10
0.0
 20
0.0
  0
INSERT
  2
*GRP_0005
  8
通り芯
  6
CONTINUOUS
 10
0.0
 20
0.0
  0
LINE
  8
通り芯
  6
CONTINUOUS
 10
-42.38314
 20
-45.029397
 11
-42.704118
 21
-48.266225
  0
LINE
  8
通り芯
  6
CONTINUOUS
 10
-41.934922
 20
-45.576295
 11
-42.2559
 21
-48.813125
  0
LINE
  8
通り芯
  6
CONTINUOUS
 10
-25.860235
 20
-65.190023
 11
-26.181215
 21
-68.426865
  0
LINE
  8
通り芯
  6
CONTINUOUS
 10
-25.412018
 20
-65.73692
 11
-25.733
 21
-68.973765
  0
LINE
  8
通り芯
  6
CONTINUOUS
 10
-2.713865
 20
-71.686835
 11
-0.713862
 21
-73.686835
  0
LINE
  8
通り芯
  6
CONTINUOUS
 10
-2.006762
 20
-71.686835
 11
-0.006758
 21
-73.686835
  0
LINE
  8
通り芯
  6
CONTINUOUS
 10
-17.87154
 20
-71.686835
 11
-15.871537
 21
-73.686835
  0
LINE
  8
通り芯
  6
CONTINUOUS
 10
-17.164437
 20
-71.686835
 11
-15.164433
 21
-73.686835
  0
INSERT
  2
*GRP_0006
  8
通り芯
  6
CONTINUOUS
 10
0.0
 20
0.0
  0
INSERT
  2
*GRP_0068
  8
通り芯
  6
CONTINUOUS
 10
0.0
 20
0.0
  0
LINE
  8
通り芯
  6
CONTINUOUS
 62
   127
 10
32.219635
 20
-13.786817
 11
89.71963
 21
-13.786817
  0
INSERT
  2
*GRP_0001
  8
型材断面
  6
CONTINUOUS
 10
0.0
 20
0.0
  0
POLYLINE
  8
型材断面
  6
CONTINUOUS
 66
     1
  0
VERTEX
  8
型材断面
 10
-134.53844
 20
97.222693
  0
VERTEX
  8
型材断面
 10
-136.327597
 20
90.65964
  0
VERTEX
  8
型材断面
 10
-134.53844
 20
90.65964
  0
SEQEND
  0
POLYLINE
  8
型材断面
  6
CONTINUOUS
 66
     1
  0
VERTEX
  8
型材断面
 10
-134.53844
 20
94.553445
  0
VERTEX
  8
型材断面
 10
-136.327597
 20
87.990393
  0
VERTEX
  8
型材断面
 10
-134.53844
 20
87.990393
  0
SEQEND
  0
INSERT
  2
*GRP_0007
  8
型材断面
  6
DOT
 10
0.0
 20
0.0
  0
LINE
  8
型材断面
  6
DOT
 10
59.419615
 20
-13.786762
 11
59.419615
 21
-12.286762
  0
LINE
  8
型材断面
  6
DOT
 10
65.419615
 20
-13.786755
 11
65.419615
 21
-12.286755
  0
LINE
  8
型材断面
  6
DOT
 10
65.419615
 20
-12.661762
 11
59.419615
 21
-12.661755
  0
LINE
  8
型材断面
  6
DOT
 10
65.419615
 20
-13.036755
 11
59.419615
 21
-13.036762
  0
LINE
  8
型材断面
  6
DOT
 10
65.419615
 20
-13.411762
 11
59.419615
 21
-13.411755
  0
LINE
  8
型材断面
  6
DOT
 10
68.919617
 20
-13.786762
 11
68.919617
 21
-12.286762
  0
LINE
  8
型材断面
  6
DOT
 10
74.919617
 20
-13.786755
 11
74.919617
 21
-12.286755
  0
LINE
  8
型材断面
  6
DOT
 10
74.919617
 20
-12.661762
 11
68.919617
 21
-12.661755
  0
LINE
  8
型材断面
  6
DOT
 10
74.919617
 20
-13.036755
 11
68.919617
 21
-13.036762
  0
LINE
  8
型材断面
  6
DOT
 10
74.919617
 20
-13.411762
 11
68.919617
 21
-13.411755
  0
LINE
  8
型材断面
  6
DOT
 10
79.419617
 20
-13.786755
 11
79.41961
 21
-12.286762
  0
LINE
  8
型材断面
  6
DOT
 10
85.41961
 20
-13.786762
 11
85.41961
 21
-12.286762
  0
LINE
  8
型材断面
  6
DOT
 10
85.41961
 20
-12.661755
 11
79.41961
 21
-12.661762
  0
LINE
  8
型材断面
  6
DOT
 10
85.41961
 20
-13.036762
 11
79.41961
 21
-13.036762
  0
LINE
  8
型材断面
  6
DOT
 10
85.41961
 20
-13.411755
 11
79.41961
 21
-13.411762
  0
INSERT
  2
*GRP_0077
  8
型材断面
  6
CONTINUOUS
 10
0.0
 20
0.0
  0
INSERT
  2
*GRP_0078
  8
型材断面
  6
DOT
 10
0.0
 20
0.0
  0
INSERT
  2
*GRP_0079
  8
型材断面
  6
CONTINUOUS
 10
0.0
 20
0.0
  0
LINE
  8
型材断面
  6
DOT
 10
98.219635
 20
-13.786833
 11
98.219635
 21
-12.286833
  0
LINE
  8
型材断面
  6
DOT
 10
106.219622
 20
-13.786833
 11
106.21963
 21
-12.286833
  0
LINE
  8
型材断面
  6
DOT
 10
106.21963
 20
-12.661825
 11
98.219635
 21
-12.661833
  0
LINE
  8
型材断面
  6
DOT
 10
106.21963
 20
-13.036833
 11
98.219635
 21
-13.036833
  0
LINE
  8
型材断面
  6
DOT
 10
106.21963
 20
-13.411825
 11
98.219635
 21
-13.411833
  0
LINE
  8
型材断面
  6
DOT
 10
59.41963
 20
-13.786833
 11
59.41963
 21
-12.286833
  0
LINE
  8
型材断面
  6
DOT
 10
65.41963
 20
-13.786825
 11
65.41963
 21
-12.286825
  0
LINE
  8
型材断面
  6
DOT
 10
65.41963
 20
-12.661833
 11
59.41963
 21
-12.661825
  0
LINE
  8
型材断面
  6
DOT
 10
65.41963
 20
-13.036825
 11
59.41963
 21
-13.036833
  0
LINE
  8
型材断面
  6
DOT
 10
65.41963
 20
-13.411833
 11
59.41963
 21
-13.411825
  0
LINE
  8
型材断面
  6
DOT
 10
68.919633
 20
-13.786833
 11
68.919633
 21
-12.286833
  0
LINE
  8
型材断面
  6
DOT
 10
74.919633
 20
-13.786825
 11
74.919633
 21
-12.286825
  0
LINE
  8
型材断面
  6
DOT
 10
74.919633
 20
-12.661833
 11
68.919633
 21
-12.661825
  0
LINE
  8
型材断面
  6
DOT
 10
74.919633
 20
-13.036825
 11
68.919633
 21
-13.036833
  0
LINE
  8
型材断面
  6
DOT
 10
74.919633
 20
-13.411833
 11
68.919633
 21
-13.411825
  0
LINE
  8
型材断面
  6
DOT
 10
79.419633
 20
-13.786825
 11
79.419625
 21
-12.286833
  0
LINE
  8
型材断面
  6
DOT
 10
85.419625
 20
-13.786833
 11
85.419625
 21
-12.286833
  0
LINE
  8
型材断面
  6
DOT
 10
85.419625
 20
-12.661825
 11
79.419625
 21
-12.661833
  0
LINE
  8
型材断面
  6
DOT
 10
85.419625
 20
-13.036833
 11
79.419625
 21
-13.036833
  0
LINE
  8
型材断面
  6
DOT
 10
85.419625
 20
-13.411825
 11
79.419625
 21
-13.411833
  0
LINE
  8
型材断面
  6
DOT
 10
106.21963
 20
-52.28683
 11
106.21963
 21
-50.286827
  0
LINE
  8
型材断面
  6
DOT
 10
98.219628
 20
-52.28683
 11
98.219628
 21
-50.286827
  0
LINE
  8
型材断面
  6
DOT
 10
106.21963
 20
-51.886833
 11
98.219628
 21
-51.886833
  0
LINE
  8
型材断面
  6
DOT
 10
106.21963
 20
-51.486827
 11
98.219628
 21
-51.486827
  0
LINE
  8
型材断面
  6
DOT
 10
106.21963
 20
-51.08683
 11
98.219628
 21
-51.08683
  0
LINE
  8
型材断面
  6
DOT
 10
106.21963
 20
-50.686825
 11
98.219628
 21
-50.686825
  0
LINE
  8
ガラス
  6
CONTINUOUS
 10
-68.28044
 20
56.804107
 11
-68.28044
 21
7.713148
  0
LINE
  8
ガラス
  6
CONTINUOUS
 10
-67.78044
 20
56.804107
 11
-67.78044
 21
7.713148
  0
LINE
  8
ガラス
  6
CONTINUOUS
 10
-74.58044
 20
56.804107
 11
-74.58044
 21
7.713148
  0
LINE
  8
ガラス
  6
CONTINUOUS
 10
-74.08044
 20
56.804107
 11
-74.08044
 21
7.713148
  0
INSERT
  2
*GRP_0080
  8
ガラス
  6
CONTINUOUS
 10
0.0
 20
0.0
  0
INSERT
  2
*GRP_0081
  8
ガラス
  6
CONTINUOUS
 10
0.0
 20
0.0
  0
INSERT
  2
*GRP_0082
  8
ガラス
  6
CONTINUOUS
 10
0.0
 20
0.0
  0
INSERT
  2
*GRP_0083
  8
ガラス
  6
CONTINUOUS
 10
0.0
 20
0.0
  0
INSERT
  2
*GRP_0084
  8
ガラス
  6
CONTINUOUS
 10
0.0
 20
0.0
  0
INSERT
  2
*GRP_0085
  8
ガラス
  6
CONTINUOUS
 10
0.0
 20
0.0
  0
INSERT
  2
*GRP_0086
  8
ガラス
  6
CONTINUOUS
 10
0.0
 20
0.0
  0
INSERT
  2
*GRP_0087
  8
ガラス
  6
CONTINUOUS
 10
0.0
 20
0.0
  0
INSERT
  2
*GRP_0088
  8
ガラス
  6
CONTINUOUS
 10
0.0
 20
0.0
  0
INSERT
  2
*GRP_0008
  8
ゴム等
  6
CONTINUOUS
 10
0.0
 20
0.0
  0
INSERT
  2
*GRP_0009
  8
ゴム等
  6
CONTINUOUS
 10
0.0
 20
0.0
  0
INSERT
  2
*GRP_0010
  8
ゴム等
  6
CONTINUOUS
 10
0.0
 20
0.0
  0
INSERT
  2
*GRP_0011
  8
ゴム等
  6
DOT
 10
0.0
 20
0.0
  0
INSERT
  2
*GRP_0012
  8
ゴム等
  6
CONTINUOUS
 10
0.0
 20
0.0
  0
INSERT
  2
*GRP_0089
  8
ゴム等
  6
DOT
 10
0.0
 20
0.0
  0
INSERT
  2
*GRP_0090
  8
ゴム等
  6
DOT
 10
0.0
 20
0.0
  0
INSERT
  2
*GRP_0091
  8
ゴム等
  6
CONTINUOUS
 10
0.0
 20
0.0
  0
INSERT
  2
*GRP_0092
  8
ゴム等
  6
CONTINUOUS
 10
0.0
 20
0.0
  0
INSERT
  2
*GRP_0013
  8
ボルト／ビス
  6
CONTINUOUS
 10
0.0
 20
0.0
  0
INSERT
  2
*GRP_0014
  8
ボルト／ビス
  6
CONTINUOUS
 10
0.0
 20
0.0
  0
INSERT
  2
*GRP_0015
  8
ボルト／ビス
  6
DOT
 62
    64
 10
0.0
 20
0.0
  0
INSERT
  2
*GRP_0016
  8
ボルト／ビス
  6
CONTINUOUS
 10
0.0
 20
0.0
  0
INSERT
  2
*GRP_0017
  8
ボルト／ビス
  6
CONTINUOUS
 10
0.0
 20
0.0
  0
INSERT
  2
*GRP_0018
  8
ボルト／ビス
  6
CONTINUOUS
 10
0.0
 20
0.0
  0
INSERT
  2
*GRP_0044
  8
ボルト／ビス
  6
CONTINUOUS
 10
0.0
 20
0.0
  0
INSERT
  2
*GRP_0045
  8
ボルト／ビス
  6
CONTINUOUS
 62
    64
 10
0.0
 20
0.0
  0
INSERT
  2
*GRP_0046
  8
ボルト／ビス
  6
CONTINUOUS
 62
    64
 10
0.0
 20
0.0
  0
INSERT
  2
*GRP_0093
  8
ボルト／ビス
  6
CONTINUOUS
 10
0.0
 20
0.0
  0
INSERT
  2
*GRP_0094
  8
ボルト／ビス
  6
CONTINUOUS
 10
0.0
 20
0.0
  0
TEXT
  7
TextStyle03
  8
文字
  6
CONTINUOUS
 10
61.275
 20
105.3
  1
ＮＳコード：ＮＳＤ
 40
5.0
 72
     5
 11
111.275
 21
105.3
  0
TEXT
  7
TextStyle03
  8
文字
  6
CONTINUOUS
 10
61.2
 20
124.975
  1
シリーズ：ＴＤ１
 40
5.0
 72
     5
 11
105.575
 21
124.975
  0
TEXT
  7
TextStyle03
  8
文字
  6
CONTINUOUS
 10
61.2
 20
119.35
  1
　　　　　（上下可動）
 40
5.0
 72
     5
 11
122.45
 21
119.35
  0
TEXT
  7
TextStyle03
  8
文字
  6
CONTINUOUS
 10
61.2
 20
113.725
  1
図面名　：下枠断面詳細図Ｂ
 40
5.0
 72
     5
 11
133.7
 21
113.725
  0
TEXT
  7
TextStyle03
  8
文字
  6
CONTINUOUS
 10
-134.45
 20
27.95
  1
ドーム呼称寸法
 40
4.0
 50
90.0
 72
     5
 11
-134.45
 21
58.95
  0
TEXT
  7
TextStyle03
  8
文字
  6
CONTINUOUS
 10
-96.3
 20
36.275
  1
TK-0009
 40
4.0
 50
90.0
 72
     5
 11
-96.3
 21
51.775
  0
TEXT
  7
TextStyle03
  8
文字
  6
CONTINUOUS
 10
-101.6
 20
-64.55
  1
TKR-1701
 40
4.0
 50
90.0
 72
     5
 11
-101.6
 21
-46.8
  0
TEXT
  7
TextStyle03
  8
文字
  6
CONTINUOUS
 10
-48.275
 20
-64.3
  1
TKR-1401
 40
4.0
 50
90.0
 72
     5
 11
-48.275
 21
-46.55
  0
TEXT
  7
TextStyle03
  8
文字
  6
CONTINUOUS
 10
-9.725
 20
-35.65
  1
TKR-1201
 40
4.0
 50
90.0
 72
     5
 11
-9.725
 21
-17.9
  0
TEXT
  7
TextStyle03
  8
文字
  6
CONTINUOUS
 10
-25.55
 20
21.35
  1
滑車
 40
4.0
 50
90.0
 72
     5
 11
-25.55
 21
29.85
  0
TEXT
  7
TextStyle03
  8
文字
  6
CONTINUOUS
 10
-85.55
 20
37.6
  1
TKR-1303
 40
4.0
 50
90.0
 72
     5
 11
-85.55
 21
55.35
  0
TEXT
  7
TextStyle03
  8
文字
  6
CONTINUOUS
 10
-40.7
 20
-81.425
  1
TK-1112S
 40
4.0
 50
90.0
 72
     5
 11
-40.7
 21
-63.675
  0
TEXT
  7
TextStyle03
  8
文字
  6
CONTINUOUS
 10
-55.9
 20
34.35
  1
TKR-1107
 40
4.0
 50
90.0
 72
     5
 11
-55.9
 21
52.1
  0
TEXT
  7
TextStyle03
  8
文字
  6
CONTINUOUS
 10
-51.125
 20
34.35
  1
TK-1166
 40
4.0
 50
90.0
 72
     5
 11
-51.125
 21
49.85
  0
TEXT
  7
TextStyle03
  8
文字
  6
CONTINUOUS
 10
-43.625
 20
18.275
  1
TK-1132S
 40
4.0
 50
90.0
 72
     5
 11
-43.625
 21
36.025
  0
TEXT
  7
TextStyle03
  8
文字
  6
CONTINUOUS
 10
79.55
 20
31.9
  1
転向滑車
 40
4.0
 50
90.0
 72
     5
 11
79.55
 21
49.4
  0
TEXT
  7
TextStyle03
  8
文字
  6
CONTINUOUS
 10
64.1
 20
20.35
  1
滑車
 40
4.0
 50
90.0
 72
     5
 11
64.1
 21
28.85
  0
TEXT
  7
TextStyle03
  8
文字
  6
CONTINUOUS
 10
35.9
 20
-71.025
  1
TKR-1301
 40
4.0
 50
90.0
 72
     5
 11
35.9
 21
-53.275
  0
TEXT
  7
TextStyle03
  8
文字
  6
CONTINUOUS
 10
101.0
 20
-124.875
  1
M4リベット
 40
4.0
 50
90.0
 72
     5
 11
101.0
 21
-102.875
  0
TEXT
  7
TextStyle03
  8
文字
  6
CONTINUOUS
 10
105.5
 20
-124.875
  1
(コーナー)
 40
4.0
 50
90.0
 72
     5
 11
105.5
 21
-102.625
  0
TEXT
  7
TextStyle03
  8
文字
  6
CONTINUOUS
 10
131.725
 20
35.075
  1
アンカー　St-3.2t
 40
4.0
 50
90.0
 72
     5
 11
131.725
 21
73.075
  0
TEXT
  7
TextStyle03
  8
文字
  6
CONTINUOUS
 10
9.95
 20
-112.75
  1
TKR-1401
 40
4.0
 50
90.0
 72
     5
 11
9.95
 21
-95.0
  0
INSERT
  2
*GRP_0072
  8
文字
  6
DOT
 10
0.0
 20
0.0
  0
INSERT
  2
*GRP_0095
  8
文字
  6
DOT
 10
0.0
 20
0.0
  0
TEXT
  7
TextStyle03
  8
文字
  6
CONTINUOUS
 10
-178.825
 20
124.975
  1
※Wドームは□1300までとなります
 40
4.0
 72
     5
 11
-109.575
 21
124.975
  0
INSERT
  2
*DIM_0019
  8
寸法
  6
CONTINUOUS
 10
0.0
 20
0.0
  0
INSERT
  2
*GRP_0020
  8
寸法
  6
CONTINUOUS
 10
0.0
 20
0.0
  0
INSERT
  2
*GRP_0021
  8
寸法
  6
CONTINUOUS
 10
0.0
 20
0.0
  0
INSERT
  2
*GRP_0022
  8
寸法
  6
CONTINUOUS
 10
0.0
 20
0.0
  0
INSERT
  2
*GRP_0023
  8
寸法
  6
CONTINUOUS
 10
0.0
 20
0.0
  0
INSERT
  2
*GRP_0024
  8
寸法
  6
CONTINUOUS
 10
0.0
 20
0.0
  0
INSERT
  2
*GRP_0025
  8
寸法
  6
CONTINUOUS
 10
0.0
 20
0.0
  0
INSERT
  2
*GRP_0026
  8
寸法
  6
CONTINUOUS
 10
0.0
 20
0.0
  0
INSERT
  2
*DIM_0027
  8
寸法
  6
CONTINUOUS
 10
0.0
 20
0.0
  0
INSERT
  2
*DIM_0028
  8
寸法
  6
CONTINUOUS
 10
0.0
 20
0.0
  0
INSERT
  2
*DIM_0029
  8
寸法
  6
CONTINUOUS
 10
0.0
 20
0.0
  0
INSERT
  2
*DIM_0030
  8
寸法
  6
CONTINUOUS
 10
0.0
 20
0.0
  0
INSERT
  2
*GRP_0031
  8
寸法
  6
CONTINUOUS
 10
0.0
 20
0.0
  0
INSERT
  2
*GRP_0032
  8
寸法
  6
CONTINUOUS
 10
0.0
 20
0.0
  0
INSERT
  2
*GRP_0033
  8
寸法
  6
CONTINUOUS
 10
0.0
 20
0.0
  0
INSERT
  2
*GRP_0034
  8
寸法
  6
CONTINUOUS
 10
0.0
 20
0.0
  0
INSERT
  2
*GRP_0047
  8
寸法
  6
CONTINUOUS
 10
0.0
 20
0.0
  0
INSERT
  2
*GRP_0048
  8
寸法
  6
CONTINUOUS
 10
0.0
 20
0.0
  0
INSERT
  2
*GRP_0049
  8
寸法
  6
CONTINUOUS
 10
0.0
 20
0.0
  0
INSERT
  2
*DIM_0050
  8
寸法
  6
CONTINUOUS
 10
0.0
 20
0.0
  0
INSERT
  2
*DIM_0051
  8
寸法
  6
CONTINUOUS
 10
0.0
 20
0.0
  0
INSERT
  2
*DIM_0052
  8
寸法
  6
CONTINUOUS
 10
0.0
 20
0.0
  0
INSERT
  2
*GRP_0053
  8
寸法
  6
CONTINUOUS
 10
0.0
 20
0.0
  0
INSERT
  2
*GRP_0054
  8
寸法
  6
CONTINUOUS
 10
0.0
 20
0.0
  0
INSERT
  2
*DIM_0055
  8
寸法
  6
CONTINUOUS
 10
0.0
 20
0.0
  0
INSERT
  2
*DIM_0056
  8
寸法
  6
CONTINUOUS
 10
0.0
 20
0.0
  0
INSERT
  2
*DIM_0057
  8
寸法
  6
CONTINUOUS
 10
0.0
 20
0.0
  0
INSERT
  2
*DIM_0058
  8
寸法
  6
CONTINUOUS
 10
0.0
 20
0.0
  0
INSERT
  2
*DIM_0059
  8
寸法
  6
CONTINUOUS
 10
0.0
 20
0.0
  0
INSERT
  2
*DIM_0061
  8
寸法
  6
CONTINUOUS
 10
0.0
 20
0.0
  0
INSERT
  2
*DIM_0062
  8
寸法
  6
CONTINUOUS
 10
0.0
 20
0.0
  0
INSERT
  2
*DIM_0063
  8
寸法
  6
CONTINUOUS
 10
0.0
 20
0.0
  0
INSERT
  2
*DIM_0064
  8
寸法
  6
CONTINUOUS
 10
0.0
 20
0.0
  0
INSERT
  2
*DIM_0065
  8
寸法
  6
CONTINUOUS
 10
0.0
 20
0.0
  0
INSERT
  2
*DIM_0066
  8
寸法
  6
CONTINUOUS
 10
0.0
 20
0.0
  0
INSERT
  2
*DIM_0067
  8
寸法
  6
CONTINUOUS
 10
0.0
 20
0.0
  0
INSERT
  2
*DIM_0107
  8
寸法
  6
CONTINUOUS
 10
0.0
 20
0.0
  0
INSERT
  2
*DIM_0108
  8
寸法
  6
CONTINUOUS
 10
0.0
 20
0.0
  0
INSERT
  2
*DIM_0109
  8
寸法
  6
CONTINUOUS
 10
0.0
 20
0.0
  0
INSERT
  2
*DIM_0110
  8
寸法
  6
CONTINUOUS
 10
0.0
 20
0.0
  0
INSERT
  2
*DIM_0111
  8
寸法
  6
CONTINUOUS
 10
0.0
 20
0.0
  0
LINE
  8
別途部材
  6
CONTINUOUS
 10
-63.087575
 20
-54.286735
 11
-63.087575
 21
-51.05179
  0
INSERT
  2
*GRP_0096
  8
別途部材
  6
DOT
 10
0.0
 20
0.0
  0
LINE
  8
曲げ物
  6
CONTINUOUS
 10
-74.580395
 20
7.713148
 11
-67.780393
 21
7.713148
  0
INSERT
  2
*GRP_0035
  8
鉄骨等
  6
CONTINUOUS
 10
0.0
 20
0.0
  0
INSERT
  2
*GRP_0036
  8
St
  6
CONTINUOUS
 10
0.0
 20
0.0
  0
INSERT
  2
*GRP_0037
  8
St
  6
CONTINUOUS
 10
0.0
 20
0.0
  0
INSERT
  2
*GRP_0038
  8
St
  6
CONTINUOUS
 10
0.0
 20
0.0
  0
INSERT
  2
*GRP_0039
  8
St
  6
CONTINUOUS
 10
0.0
 20
0.0
  0
INSERT
  2
*GRP_0040
  8
St
  6
CONTINUOUS
 10
0.0
 20
0.0
  0
INSERT
  2
*GRP_0060
  8
St
  6
CONTINUOUS
 10
0.0
 20
0.0
  0
INSERT
  2
*GRP_0071
  8
St
  6
CONTINUOUS
 10
0.0
 20
0.0
  0
INSERT
  2
*GRP_0097
  8
St
  6
CONTINUOUS
 10
0.0
 20
0.0
  0
LINE
  8
その他部品等
  6
CONTINUOUS
 62
    47
 10
-134.53844
 20
7.713205
 11
-134.53844
 21
97.222693
  0
ENDSEC
  0
EOF
