  0
SECTION
  2
HEADER
  9
$EXTMIN
 10
-210.0
 20
-148.5
  9
$EXTMAX
 10
210.0
 20
148.5
  9
$PDMODE
 70
    32
  9
$PDSIZE
 40
1.5
  9
$LTSCALE
 40
10.0
  0
ENDSEC
  0
SECTION
  2
TABLES
  0
TABLE
  2
LTYPE
 70
    15
  0
LTYPE
  2
CONTINUOUS
 70
    64
  3
実線
 72
    65
 73
     0
 40
0.0
  0
LTYPE
  2
DASHED
 70
    64
  3
破線A
 72
    65
 73
     2
 40
0.6
 49
0.4
 49
-0.2
  0
LTYPE
  2
DASHEDX2
 70
    64
  3
破線B
 72
    65
 73
     2
 40
1.3
 49
0.9
 49
-0.4
  0
LTYPE
  2
DASHDOT
 70
    64
  3
１点鎖線A
 72
    65
 73
     4
 40
0.5375
 49
0.375
 49
-0.05
 49
0.0625
 49
-0.05
  0
LTYPE
  2
DASHDOTX2
 70
    64
  3
１点鎖線B
 72
    65
 73
     4
 40
1.075
 49
0.75
 49
-0.1
 49
0.125
 49
-0.1
  0
LTYPE
  2
DIVIDE2
 70
    64
  3
２点鎖線A
 72
    65
 73
     6
 40
0.5125
 49
0.3
 49
-0.0375
 49
0.05
 49
-0.0375
 49
0.05
 49
-0.0375
  0
LTYPE
  2
DIVIDE
 70
    64
  3
２点鎖線B
 72
    65
 73
     6
 40
1.05
 49
0.55
 49
-0.1
 49
0.1
 49
-0.1
 49
0.1
 49
-0.1
  0
LTYPE
  2
DOT
 70
    64
  3
点線A
 72
    65
 73
     2
 40
0.1125
 49
0.0625
 49
-0.05
  0
LTYPE
  2
DOTX2
 70
    64
  3
点線B
 72
    65
 73
     2
 40
0.275
 49
0.15
 49
-0.125
  0
LTYPE
  2
CONTINUOUS
 70
    64
  3
実線
 72
    65
 73
     0
 40
0.0
  0
LTYPE
  2
CONTINUOUS
 70
    64
  3
実線
 72
    65
 73
     0
 40
0.0
  0
LTYPE
  2
CONTINUOUS
 70
    64
  3
実線
 72
    65
 73
     0
 40
0.0
  0
LTYPE
  2
CONTINUOUS
 70
    64
  3
実線
 72
    65
 73
     0
 40
0.0
  0
LTYPE
  2
CONTINUOUS
 70
    64
  3
実線
 72
    65
 73
     0
 40
0.0
  0
LTYPE
  2
CONTINUOUS
 70
    64
  3
実線
 72
    65
 73
     0
 40
0.0
  0
ENDTAB
  0
TABLE
  2
LAYER
 70
    34
  0
LAYER
  2
通り芯
 70
     0
 62
    15
  6
CONTINUOUS
  0
LAYER
  2
補助線
 70
     0
 62
    16
  6
DOT
  0
LAYER
  2
躯体
 70
     0
 62
    31
  6
CONTINUOUS
  0
LAYER
  2
型材
 70
     0
 62
    32
  6
CONTINUOUS
  0
LAYER
  2
型材断面
 70
     0
 62
    47
  6
CONTINUOUS
  0
LAYER
  2
ガラス
 70
     0
 62
    48
  6
CONTINUOUS
  0
LAYER
  2
ゴム等
 70
     0
 62
    63
  6
CONTINUOUS
  0
LAYER
  2
ボルト／ビス
 70
     0
 62
    64
  6
CONTINUOUS
  0
LAYER
  2
文字
 70
     0
 62
    79
  6
CONTINUOUS
  0
LAYER
  2
寸法
 70
     0
 62
    80
  6
CONTINUOUS
  0
LAYER
  2
ﾊｯﾁﾝｸﾞ
 70
     0
 62
    95
  6
CONTINUOUS
  0
LAYER
  2
別途部材
 70
     0
 62
    96
  6
CONTINUOUS
  0
LAYER
  2
曲げ物
 70
     0
 62
   111
  6
CONTINUOUS
  0
LAYER
  2
鉄骨等
 70
     0
 62
   112
  6
CONTINUOUS
  0
LAYER
  2
St
 70
     0
 62
   127
  6
CONTINUOUS
  0
LAYER
  2
その他部品等
 70
     0
 62
   128
  6
CONTINUOUS
  0
LAYER
  2
ｶﾞｽｹｯﾄ
 70
     0
 62
   143
  6
CONTINUOUS
  0
LAYER
  2
ｽｹｯﾁ
 70
     0
 62
    14
  6
CONTINUOUS
  0
LAYER
  2
0
 70
     0
 62
    17
  6
CONTINUOUS
  0
LAYER
  2
1
 70
     0
 62
    30
  6
CONTINUOUS
  0
LAYER
  2
4
 70
     0
 62
    33
  6
CONTINUOUS
  0
LAYER
  2
ﾚｲﾔ3
 70
     0
 62
    46
  6
CONTINUOUS
  0
LAYER
  2
外形線
 70
     0
 62
    49
  6
CONTINUOUS
  0
LAYER
  2
部品
 70
     0
 62
    14
  6
CONTINUOUS
  0
LAYER
  2
サッシ芯
 70
     0
 62
    17
  6
DASHDOTX2
  0
LAYER
  2
寸法線
 70
     0
 62
    62
  6
CONTINUOUS
  0
LAYER
  2
姿図外形線
 70
     0
 62
    65
  6
CONTINUOUS
  0
LAYER
  2
姿補助線
 70
     0
 62
    30
  6
CONTINUOUS
  0
LAYER
  2
透視線
 70
     0
 62
    78
  6
DOT
  0
LAYER
  2
用紙
 70
     0
 62
    81
  6
CONTINUOUS
  0
LAYER
  2
実線図枠
 70
     0
 62
    94
  6
CONTINUOUS
  0
LAYER
  2
補助図枠
 70
     0
 62
    97
  6
CONTINUOUS
  0
LAYER
  2
建具記号
 70
     0
 62
   110
  6
CONTINUOUS
  0
LAYER
  2
補助文字
 70
     0
 62
   113
  6
CONTINUOUS
  0
ENDTAB
  0
TABLE
  2
STYLE
 70
    10
  0
STYLE
  2
STANDARD
 70
     0
 40
1.0
 41
1.0
 42
1.0
 50
0.0
 71
     0
  3
TXT
  4
BIGFONT
  0
STYLE
  2
TATE
 70
     4
 40
1.0
 41
1.0
 42
1.0
 50
0.0
 71
     0
  3
TXT
  4
BIGFONT
  0
STYLE
  2
TextStyle03
 70
     0
 40
1.0
 41
1.0
 42
1.0
 50
0.0
 71
     0
  3
MONOTXT
  4
BIGFONT
  0
STYLE
  2
TextStyle04
 70
     0
 40
1.0
 41
1.0
 42
1.0
 50
0.0
 71
     0
  3
MONOTXT
  4
BIGFONT
  0
STYLE
  2
TextStyle05
 70
     0
 40
1.0
 41
1.0
 42
1.0
 50
0.0
 71
     0
  3
MONOTXT
  4
BIGFONT
  0
STYLE
  2
TextStyle06
 70
     0
 40
1.0
 41
1.0
 42
1.0
 50
0.0
 71
     0
  3
MONOTXT
  4
BIGFONT
  0
STYLE
  2
TextStyle07
 70
     0
 40
1.0
 41
1.0
 42
1.0
 50
0.0
 71
     0
  3
MONOTXT
  4
BIGFONT
  0
STYLE
  2
TextStyle08
 70
     0
 40
1.0
 41
1.0
 42
1.0
 50
0.0
 71
     0
  3
MONOTXT
  4
BIGFONT
  0
STYLE
  2
TextStyle09
 70
     0
 40
1.0
 41
1.0
 42
1.0
 50
0.0
 71
     0
  3
MONOTXT
  4
BIGFONT
  0
STYLE
  2
TextStyle10
 70
     0
 40
1.0
 41
1.0
 42
1.0
 50
0.0
 71
     0
  3
MONOTXT
  4
BIGFONT
  0
ENDTAB
  0
ENDSEC
  0
SECTION
  2
BLOCKS
  0
BLOCK
  2
*HAT_0001
 70
    65
 10
0.0
 20
0.0
  0
LINE
  8
ゴム等
 10
-63.45
 20
-30.25
 11
-65.025
 21
-31.825
  0
LINE
  8
ゴム等
 10
-65.95
 20
-32.75
 11
-67.3
 21
-34.1
  0
LINE
  8
ゴム等
 10
-62.05
 20
-30.25
 11
-67.3
 21
-35.525
  0
LINE
  8
ゴム等
 10
-60.625
 20
-30.25
 11
-67.3
 21
-36.925
  0
LINE
  8
ゴム等
 10
-59.8
 20
-30.825
 11
-66.725
 21
-37.75
  0
LINE
  8
ゴム等
 10
-59.55
 20
-32.0
 11
-65.3
 21
-37.75
  0
LINE
  8
ゴム等
 10
-58.9
 20
-32.75
 11
-63.9
 21
-37.75
  0
LINE
  8
ゴム等
 10
-57.475
 20
-32.75
 11
-62.15
 21
-37.425
  0
LINE
  8
ゴム等
 10
-57.3
 20
-34.0
 11
-61.075
 21
-37.75
  0
LINE
  8
ゴム等
 10
-57.3
 20
-35.4
 11
-59.65
 21
-37.75
  0
LINE
  8
ゴム等
 10
-57.3
 20
-36.825
 11
-58.25
 21
-37.75
  0
ENDBLK
  0
BLOCK
  2
*HAT_0002
 70
    65
 10
0.0
 20
0.0
  0
LINE
  8
ゴム等
  6
DOT
 10
-66.375
 20
12.025
 11
-68.625
 21
9.85
  0
LINE
  8
ゴム等
  6
DOT
 10
-66.375
 20
14.575
 11
-71.175
 21
9.85
  0
LINE
  8
ゴム等
  6
DOT
 10
-66.375
 20
17.125
 11
-72.6
 21
10.9
  0
LINE
  8
ゴム等
  6
DOT
 10
-66.375
 20
19.675
 11
-72.6
 21
13.45
  0
LINE
  8
ゴム等
  6
DOT
 10
-68.775
 20
19.825
 11
-72.6
 21
16.0
  0
LINE
  8
ゴム等
  6
DOT
 10
-71.325
 20
19.825
 11
-72.6
 21
18.55
  0
ENDBLK
  0
BLOCK
  2
*HAT_0003
 70
    65
 10
0.0
 20
0.0
  0
LINE
  8
ゴム等
  6
DOT
 10
-66.375
 20
12.025
 11
-68.625
 21
9.85
  0
LINE
  8
ゴム等
  6
DOT
 10
-66.375
 20
14.575
 11
-71.175
 21
9.85
  0
LINE
  8
ゴム等
  6
DOT
 10
-66.375
 20
17.125
 11
-72.6
 21
10.9
  0
LINE
  8
ゴム等
  6
DOT
 10
-66.375
 20
19.675
 11
-72.6
 21
13.45
  0
LINE
  8
ゴム等
  6
DOT
 10
-68.775
 20
19.825
 11
-72.6
 21
16.0
  0
LINE
  8
ゴム等
  6
DOT
 10
-71.325
 20
19.825
 11
-72.6
 21
18.55
  0
ENDBLK
  0
BLOCK
  2
*HAT_0004
 70
    65
 10
0.0
 20
0.0
  0
LINE
  8
ゴム等
  6
DOT
 10
33.925
 20
-65.825
 11
35.5
 21
-64.25
  0
LINE
  8
ゴム等
  6
DOT
 10
36.475
 20
-63.35
 11
37.825
 21
-62.0
  0
LINE
  8
ゴム等
  6
DOT
 10
32.575
 20
-65.825
 11
37.825
 21
-60.575
  0
LINE
  8
ゴム等
  6
DOT
 10
31.15
 20
-65.825
 11
37.825
 21
-59.15
  0
LINE
  8
ゴム等
  6
DOT
 10
30.325
 20
-65.225
 11
37.225
 21
-58.325
  0
LINE
  8
ゴム等
  6
DOT
 10
30.025
 20
-64.1
 11
35.8
 21
-58.325
  0
LINE
  8
ゴム等
  6
DOT
 10
29.425
 20
-63.35
 11
34.375
 21
-58.325
  0
LINE
  8
ゴム等
  6
DOT
 10
28.0
 20
-63.35
 11
32.65
 21
-58.625
  0
LINE
  8
ゴム等
  6
DOT
 10
27.775
 20
-62.075
 11
31.6
 21
-58.325
  0
LINE
  8
ゴム等
  6
DOT
 10
27.775
 20
-60.65
 11
30.175
 21
-58.325
  0
LINE
  8
ゴム等
  6
DOT
 10
27.775
 20
-59.225
 11
28.75
 21
-58.325
  0
ENDBLK
  0
BLOCK
  2
*HAT_0005
 70
    65
 10
0.0
 20
0.0
  0
LINE
  8
ゴム等
  6
DOT
 10
130.3
 20
-44.45
 11
128.725
 21
-46.025
  0
LINE
  8
ゴム等
  6
DOT
 10
127.75
 20
-47.0
 11
126.4
 21
-48.35
  0
LINE
  8
ゴム等
  6
DOT
 10
130.3
 20
-43.1
 11
124.975
 21
-48.35
  0
LINE
  8
ゴム等
  6
DOT
 10
130.3
 20
-41.675
 11
123.625
 21
-48.35
  0
LINE
  8
ゴム等
  6
DOT
 10
129.7
 20
-40.85
 11
122.8
 21
-47.75
  0
LINE
  8
ゴム等
  6
DOT
 10
128.5
 20
-40.55
 11
122.8
 21
-46.325
  0
LINE
  8
ゴム等
  6
DOT
 10
127.75
 20
-39.95
 11
122.8
 21
-44.9
  0
LINE
  8
ゴム等
  6
DOT
 10
127.75
 20
-38.525
 11
123.1
 21
-43.175
  0
LINE
  8
ゴム等
  6
DOT
 10
126.55
 20
-38.3
 11
122.8
 21
-42.125
  0
LINE
  8
ゴム等
  6
DOT
 10
125.125
 20
-38.3
 11
122.8
 21
-40.7
  0
LINE
  8
ゴム等
  6
DOT
 10
123.7
 20
-38.3
 11
122.8
 21
-39.275
  0
ENDBLK
  0
BLOCK
  2
*HAT_0006
 70
    65
 10
0.0
 20
0.0
  0
LINE
  8
ゴム等
 10
24.775
 20
-48.05
 11
23.8
 21
-47.15
  0
LINE
  8
ゴム等
 10
24.775
 20
-49.925
 11
21.4
 21
-46.55
  0
LINE
  8
ゴム等
 10
18.775
 20
-43.925
 11
18.175
 21
-43.325
  0
LINE
  8
ゴム等
 10
24.775
 20
-51.8
 11
20.275
 21
-47.3
  0
LINE
  8
ゴム等
 10
18.775
 20
-45.8
 11
16.3
 21
-43.325
  0
LINE
  8
ゴム等
 10
24.775
 20
-53.675
 11
23.2
 21
-52.1
  0
LINE
  8
ゴム等
 10
20.95
 20
-49.85
 11
15.1
 21
-44.0
  0
LINE
  8
ゴム等
 10
24.55
 20
-55.4
 11
22.0
 21
-52.85
  0
LINE
  8
ゴム等
 10
19.225
 20
-50.0
 11
14.575
 21
-45.35
  0
LINE
  8
ゴム等
 10
23.05
 20
-55.7
 11
20.125
 21
-52.85
  0
LINE
  8
ゴム等
 10
18.775
 20
-51.5
 11
14.575
 21
-47.3
  0
LINE
  8
ゴム等
 10
21.55
 20
-56.075
 11
20.95
 21
-55.55
  0
LINE
  8
ゴム等
 10
20.8
 20
-55.325
 11
14.575
 21
-49.1
  0
LINE
  8
ゴム等
 10
18.85
 20
-55.325
 11
14.575
 21
-51.05
  0
LINE
  8
ゴム等
 10
18.775
 20
-57.125
 11
14.575
 21
-52.925
  0
LINE
  8
ゴム等
 10
17.05
 20
-57.35
 11
14.575
 21
-54.8
  0
LINE
  8
ゴム等
 10
16.075
 20
-58.175
 11
14.575
 21
-56.675
  0
LINE
  8
ゴム等
 10
15.85
 20
-59.825
 11
14.575
 21
-58.55
  0
ENDBLK
  0
BLOCK
  2
*HAT_0007
 70
    65
 10
0.0
 20
0.0
  0
LINE
  8
ゴム等
 10
21.625
 20
-60.725
 11
20.575
 21
-59.75
  0
LINE
  8
ゴム等
 10
18.625
 20
-57.725
 11
18.55
 21
-57.725
  0
LINE
  8
ゴム等
 10
25.075
 20
-66.125
 11
23.725
 21
-64.775
  0
LINE
  8
ゴム等
 10
21.625
 20
-62.675
 11
18.7
 21
-59.75
  0
LINE
  8
ゴム等
 10
18.625
 20
-59.675
 11
16.675
 21
-57.725
  0
LINE
  8
ゴム等
 10
25.075
 20
-68.075
 11
22.825
 21
-65.75
  0
LINE
  8
ゴム等
 10
21.625
 20
-64.55
 11
16.075
 21
-59.075
  0
LINE
  8
ゴム等
 10
25.075
 20
-69.875
 11
16.075
 21
-60.875
  0
LINE
  8
ゴム等
 10
24.475
 20
-71.225
 11
16.075
 21
-62.825
  0
LINE
  8
ゴム等
 10
22.15
 20
-70.775
 11
15.475
 21
-64.025
  0
LINE
  8
ゴム等
 10
21.625
 20
-72.05
 11
15.025
 21
-65.525
  0
LINE
  8
ゴム等
 10
21.625
 20
-73.925
 11
14.725
 21
-67.025
  0
LINE
  8
ゴム等
 10
20.5
 20
-74.75
 11
14.575
 21
-68.825
  0
LINE
  8
ゴム等
 10
18.625
 20
-74.75
 11
14.8
 21
-70.925
  0
LINE
  8
ゴム等
 10
16.675
 20
-74.75
 11
15.55
 21
-73.55
  0
ENDBLK
  0
BLOCK
  2
*HAT_0008
 70
    65
 10
0.0
 20
0.0
  0
LINE
  8
別途部材
  6
DOT
 10
143.275
 20
-79.775
 11
143.05
 21
-80.0
  0
LINE
  8
別途部材
  6
DOT
 10
143.275
 20
-77.3
 11
140.5
 21
-80.0
  0
LINE
  8
別途部材
  6
DOT
 10
143.275
 20
-74.75
 11
137.95
 21
-80.0
  0
LINE
  8
別途部材
  6
DOT
 10
143.275
 20
-72.2
 11
135.4
 21
-80.0
  0
LINE
  8
別途部材
  6
DOT
 10
142.9
 20
-70.025
 11
133.225
 21
-79.625
  0
LINE
  8
別途部材
  6
DOT
 10
140.35
 20
-70.025
 11
133.225
 21
-77.075
  0
LINE
  8
別途部材
  6
DOT
 10
137.8
 20
-70.025
 11
133.225
 21
-74.6
  0
LINE
  8
別途部材
  6
DOT
 10
135.25
 20
-70.025
 11
133.225
 21
-72.05
  0
ENDBLK
  0
BLOCK
  2
*GRP_0001
 70
    65
 10
0.0
 20
0.0
  0
LINE
  8
通り芯
  6
CONTINUOUS
 10
-54.564272
 20
-18.419095
 11
-44.464232
 21
-18.419095
  0
LINE
  8
通り芯
  6
CONTINUOUS
 10
-54.564272
 20
-0.523495
 11
-56.864275
 21
-0.523495
  0
LINE
  8
通り芯
  6
CONTINUOUS
 10
-72.064278
 20
-5.523498
 11
-70.564278
 21
-5.523498
  0
LINE
  8
通り芯
  6
CONTINUOUS
 10
-70.564278
 20
-7.723495
 11
-70.564278
 21
-5.523498
  0
LINE
  8
通り芯
  6
CONTINUOUS
 10
-54.564272
 20
-0.523495
 11
-54.564272
 21
-7.723495
  0
LINE
  8
通り芯
  6
CONTINUOUS
 10
-72.064278
 20
-5.523498
 11
-72.064278
 21
-7.723495
  0
LINE
  8
通り芯
  6
CONTINUOUS
 10
-54.564272
 20
-7.723495
 11
-70.564278
 21
-7.723495
  0
LINE
  8
通り芯
  6
CONTINUOUS
 10
-72.064278
 20
-7.723495
 11
-74.364295
 21
-7.723495
  0
LINE
  8
通り芯
  6
CONTINUOUS
 10
-74.364295
 20
-9.223495
 11
-74.364295
 21
-7.723495
  0
LINE
  8
通り芯
  6
CONTINUOUS
 10
-54.564272
 20
-18.419095
 11
-54.564272
 21
-9.223495
  0
LINE
  8
通り芯
  6
CONTINUOUS
 10
-52.564232
 20
-16.919095
 11
-52.5643
 21
21.2765
  0
LINE
  8
通り芯
  6
CONTINUOUS
 10
-54.564257
 20
0.976505
 11
-54.56431
 21
20.076492
  0
LINE
  8
通り芯
  6
CONTINUOUS
 10
-52.5643
 20
21.2765
 11
-56.564312
 21
21.276485
  0
LINE
  8
通り芯
  6
CONTINUOUS
 10
-56.564312
 20
21.276485
 11
-56.564312
 21
20.076492
  0
LINE
  8
通り芯
  6
CONTINUOUS
 10
-54.56431
 20
20.076492
 11
-56.564312
 21
20.076492
  0
LINE
  8
通り芯
  6
CONTINUOUS
 10
-54.564272
 20
0.976505
 11
-58.364275
 21
0.976505
  0
LINE
  8
通り芯
  6
CONTINUOUS
 10
-58.364275
 20
0.976505
 11
-58.364275
 21
-3.023492
  0
LINE
  8
通り芯
  6
CONTINUOUS
 10
-58.364275
 20
-3.023492
 11
-56.864275
 21
-3.023492
  0
LINE
  8
通り芯
  6
CONTINUOUS
 10
-56.864275
 20
-0.523495
 11
-56.864275
 21
-3.023492
  0
LINE
  8
通り芯
  6
CONTINUOUS
 10
-47.464232
 20
-17.219095
 11
-47.764232
 21
-16.919095
  0
LINE
  8
通り芯
  6
CONTINUOUS
 10
-47.464232
 20
-17.219095
 11
-47.164232
 21
-16.919095
  0
LINE
  8
通り芯
  6
CONTINUOUS
 10
-49.764235
 20
-16.919095
 11
-49.764235
 21
-15.719095
  0
LINE
  8
通り芯
  6
CONTINUOUS
 10
-45.16423
 20
-15.719095
 11
-44.464232
 21
-15.719095
  0
LINE
  8
通り芯
  6
CONTINUOUS
 10
-47.164232
 20
-16.919095
 11
-45.16423
 21
-16.919095
  0
LINE
  8
通り芯
  6
CONTINUOUS
 10
-45.16423
 20
-15.719095
 11
-45.16423
 21
-16.919095
  0
LINE
  8
通り芯
  6
CONTINUOUS
 10
-49.764235
 20
-16.919095
 11
-47.764232
 21
-16.919095
  0
LINE
  8
通り芯
  6
CONTINUOUS
 10
-49.764235
 20
-15.719095
 11
-50.464232
 21
-15.719095
  0
LINE
  8
通り芯
  6
CONTINUOUS
 10
-50.464232
 20
-15.719095
 11
-50.464232
 21
-16.919095
  0
LINE
  8
通り芯
  6
CONTINUOUS
 10
-52.564232
 20
-16.919095
 11
-50.464232
 21
-16.919095
  0
LINE
  8
通り芯
  6
CONTINUOUS
 10
-44.464232
 20
-18.419095
 11
-44.464232
 21
-15.719095
  0
LINE
  8
通り芯
  6
CONTINUOUS
 10
-67.364297
 20
-12.523495
 11
-67.364297
 21
-9.223495
  0
LINE
  8
通り芯
  6
CONTINUOUS
 10
-54.564272
 20
-9.223495
 11
-67.364297
 21
-9.223495
  0
LINE
  8
通り芯
  6
CONTINUOUS
 10
-68.864297
 20
-11.023495
 11
-68.864297
 21
-9.223495
  0
LINE
  8
通り芯
  6
CONTINUOUS
 10
-74.364295
 20
-9.223495
 11
-68.864297
 21
-9.223495
  0
LINE
  8
通り芯
  6
CONTINUOUS
 10
-67.364297
 20
-12.523495
 11
-71.864297
 21
-12.523495
  0
LINE
  8
通り芯
  6
CONTINUOUS
 10
-71.864297
 20
-12.523495
 11
-71.864297
 21
-11.023495
  0
LINE
  8
通り芯
  6
CONTINUOUS
 10
-68.864297
 20
-11.023495
 11
-71.864297
 21
-11.023495
  0
ENDBLK
  0
BLOCK
  2
*GRP_0002
 70
    65
 10
0.0
 20
0.0
  0
LINE
  8
通り芯
  6
CONTINUOUS
 10
-21.603017
 20
-70.12028
 11
-20.05615
 21
-68.852525
  0
LINE
  8
通り芯
  6
CONTINUOUS
 10
-23.821587
 20
-67.413267
 11
-22.274718
 21
-66.145513
  0
LINE
  8
通り芯
  6
CONTINUOUS
 10
-23.434868
 20
-67.096328
 11
-21.2163
 21
-69.80334
  0
LINE
  8
通り芯
  6
CONTINUOUS
 10
-23.04815
 20
-66.779388
 11
-20.82958
 21
-69.4864
  0
LINE
  8
通り芯
  6
CONTINUOUS
 10
-22.661438
 20
-66.462453
 11
-20.442868
 21
-69.169465
  0
INSERT
  2
*GRP_0040
  8
通り芯
  6
CONTINUOUS
 10
0.0
 20
0.0
  0
LINE
  8
型材断面
  6
CONTINUOUS
 10
-24.595022
 20
-68.04715
 11
-22.37645
 21
-70.754168
  0
LINE
  8
型材断面
  6
CONTINUOUS
 10
-24.208305
 20
-67.730207
 11
-21.989732
 21
-70.437227
  0
LINE
  8
型材断面
  6
CONTINUOUS
 10
-23.821587
 20
-67.413267
 11
-24.981745
 21
-68.36409
  0
LINE
  8
型材断面
  6
CONTINUOUS
 10
-21.603013
 20
-70.120287
 11
-22.76317
 21
-71.07111
  0
LINE
  8
型材断面
  6
CONTINUOUS
 10
-18.513447
 20
-65.325547
 11
-26.572087
 21
-71.930112
  0
ENDBLK
  0
BLOCK
  2
*GRP_0003
 70
    65
 10
0.0
 20
0.0
  0
LINE
  8
通り芯
  6
CONTINUOUS
 10
-40.256088
 20
-47.360513
 11
-38.70922
 21
-46.092757
  0
LINE
  8
通り芯
  6
CONTINUOUS
 10
-42.474658
 20
-44.6535
 11
-40.927787
 21
-43.385745
  0
LINE
  8
通り芯
  6
CONTINUOUS
 10
-42.087938
 20
-44.33656
 11
-39.86937
 21
-47.043573
  0
LINE
  8
通り芯
  6
CONTINUOUS
 10
-41.70122
 20
-44.01962
 11
-39.48265
 21
-46.726632
  0
LINE
  8
通り芯
  6
CONTINUOUS
 10
-41.314508
 20
-43.702685
 11
-39.095938
 21
-46.409698
  0
INSERT
  2
*GRP_0041
  8
通り芯
  6
CONTINUOUS
 10
0.0
 20
0.0
  0
LINE
  8
型材断面
  6
CONTINUOUS
 10
-43.248092
 20
-45.287382
 11
-41.02952
 21
-47.9944
  0
LINE
  8
型材断面
  6
CONTINUOUS
 10
-42.861375
 20
-44.97044
 11
-40.642803
 21
-47.67746
  0
LINE
  8
型材断面
  6
CONTINUOUS
 10
-42.474658
 20
-44.6535
 11
-43.634815
 21
-45.604323
  0
LINE
  8
型材断面
  6
CONTINUOUS
 10
-40.256082
 20
-47.36052
 11
-41.41624
 21
-48.311342
  0
LINE
  8
型材断面
  6
CONTINUOUS
 10
-37.166518
 20
-42.56578
 11
-45.225158
 21
-49.170345
  0
ENDBLK
  0
BLOCK
  2
*GRP_0004
 70
    65
 10
0.0
 20
0.0
  0
LINE
  8
通り芯
  6
CONTINUOUS
 10
0.482482
 20
-79.819088
 11
0.482482
 21
-77.819085
  0
LINE
  8
通り芯
  6
CONTINUOUS
 10
-3.017512
 20
-79.819088
 11
-3.017512
 21
-77.819085
  0
LINE
  8
通り芯
  6
CONTINUOUS
 10
-3.017512
 20
-79.319085
 11
0.482482
 21
-79.319085
  0
LINE
  8
通り芯
  6
CONTINUOUS
 10
-3.017512
 20
-78.819082
 11
0.482482
 21
-78.819082
  0
LINE
  8
通り芯
  6
CONTINUOUS
 10
-3.017512
 20
-78.319088
 11
0.482482
 21
-78.319088
  0
INSERT
  2
*GRP_0042
  8
通り芯
  6
CONTINUOUS
 10
0.0
 20
0.0
  0
LINE
  8
型材断面
  6
CONTINUOUS
 10
-3.017512
 20
-80.819092
 11
0.48249
 21
-80.819092
  0
LINE
  8
型材断面
  6
CONTINUOUS
 10
-3.017512
 20
-80.31909
 11
0.48249
 21
-80.31909
  0
LINE
  8
型材断面
  6
CONTINUOUS
 10
-3.017512
 20
-79.819088
 11
-3.017512
 21
-81.319098
  0
LINE
  8
型材断面
  6
CONTINUOUS
 10
0.48249
 20
-79.819088
 11
0.48249
 21
-81.319098
  0
LINE
  8
型材断面
  6
CONTINUOUS
 10
-1.267515
 20
-74.390235
 11
-1.267515
 21
-84.809543
  0
ENDBLK
  0
BLOCK
  2
*GRP_0005
 70
    65
 10
0.0
 20
0.0
  0
LINE
  8
型材断面
  6
CONTINUOUS
 10
195.0
 20
133.5
 11
195.0
 21
-133.5
  0
LINE
  8
型材断面
  6
CONTINUOUS
 10
195.0
 20
-133.5
 11
-185.0
 21
-133.5
  0
LINE
  8
型材断面
  6
CONTINUOUS
 10
-185.0
 20
-133.5
 11
-185.0
 21
133.5
  0
LINE
  8
型材断面
  6
CONTINUOUS
 10
195.0
 20
133.5
 11
-185.0
 21
133.5
  0
LINE
  8
型材断面
  6
CONTINUOUS
 10
145.0
 20
-133.5
 11
145.0
 21
-118.5
  0
LINE
  8
型材断面
  6
CONTINUOUS
 10
195.0
 20
-118.5
 11
145.0
 21
-118.5
  0
ENDBLK
  0
BLOCK
  2
*GRP_0006
 70
    65
 10
0.0
 20
0.0
  0
LINE
  8
型材断面
  6
DOT
 10
-72.564272
 20
-3.523495
 11
-56.564268
 21
-3.523495
  0
LINE
  8
型材断面
  6
DOT
 10
-72.564272
 20
20.0765
 11
-72.564272
 21
-3.523495
  0
ARC
  8
型材断面
  6
DOT
 10
-74.264272
 20
20.976514
 40
0.3
 50
90.0
 51
180.0
  0
LINE
  8
型材断面
  6
DOT
 10
-72.564272
 20
20.0765
 11
-71.864268
 21
20.0765
  0
ARC
  8
型材断面
  6
DOT
 10
-71.864272
 20
20.376514
 40
0.3
 50
270.0
 51
360.0
  0
LINE
  8
型材断面
  6
DOT
 10
-71.564268
 20
20.9765
 11
-71.564268
 21
20.3765
  0
LINE
  8
型材断面
  6
DOT
 10
-71.864268
 20
21.2765
 11
-74.264268
 21
21.2765
  0
ARC
  8
型材断面
  6
DOT
 10
-71.864272
 20
20.976514
 40
0.3
 50
0.0
 51
90.0
  0
LINE
  8
型材断面
  6
DOT
 10
-74.564268
 20
20.9765
 11
-74.564268
 21
-5.223498
  0
LINE
  8
型材断面
  6
DOT
 10
-74.264268
 20
-5.523498
 11
-70.064268
 21
-5.523498
  0
ARC
  8
型材断面
  6
DOT
 10
-74.264272
 20
-5.223486
 40
0.3
 50
180.0
 51
270.0
  0
LINE
  8
型材断面
  6
DOT
 10
-68.564268
 20
-5.523498
 11
-54.864272
 21
-5.523498
  0
ARC
  8
型材断面
  6
DOT
 10
-54.864272
 20
-5.223486
 40
0.3
 50
270.0
 51
360.0
  0
LINE
  8
型材断面
  6
DOT
 10
-54.564272
 20
-1.123495
 11
-54.564272
 21
-5.223498
  0
ARC
  8
型材断面
  6
DOT
 10
-54.864272
 20
-1.123486
 40
0.3
 50
0.0
 51
90.0
  0
LINE
  8
型材断面
  6
DOT
 10
-56.264268
 20
-0.823495
 11
-54.864272
 21
-0.823495
  0
LINE
  8
型材断面
  6
DOT
 10
-56.564268
 20
-1.123495
 11
-56.564268
 21
-3.523495
  0
ARC
  8
型材断面
  6
DOT
 10
-56.264272
 20
-1.123486
 40
0.3
 50
90.0
 51
180.0
  0
LINE
  8
型材断面
  6
DOT
 10
-70.064268
 20
-7.023498
 11
-70.064268
 21
-5.523498
  0
ARC
  8
型材断面
  6
DOT
 10
-69.764272
 20
-7.023486
 40
0.3
 50
180.0
 51
270.0
  0
LINE
  8
型材断面
  6
DOT
 10
-69.764268
 20
-7.323498
 11
-68.864268
 21
-7.323498
  0
LINE
  8
型材断面
  6
DOT
 10
-68.564268
 20
-7.023498
 11
-68.564268
 21
-5.523498
  0
ARC
  8
型材断面
  6
DOT
 10
-68.864272
 20
-7.023486
 40
0.3
 50
270.0
 51
360.0
  0
ENDBLK
  0
BLOCK
  2
*GRP_0007
 70
    65
 10
0.0
 20
0.0
  0
LINE
  8
型材断面
  6
DOT
 10
-72.564272
 20
-3.523495
 11
-56.564268
 21
-3.523495
  0
LINE
  8
型材断面
  6
DOT
 10
-72.564272
 20
20.0765
 11
-72.564272
 21
-3.523495
  0
ARC
  8
型材断面
  6
DOT
 10
-74.264272
 20
20.976514
 40
0.3
 50
90.0
 51
180.0
  0
LINE
  8
型材断面
  6
DOT
 10
-72.564272
 20
20.0765
 11
-71.864268
 21
20.0765
  0
ARC
  8
型材断面
  6
DOT
 10
-71.864272
 20
20.376514
 40
0.3
 50
270.0
 51
360.0
  0
LINE
  8
型材断面
  6
DOT
 10
-71.564268
 20
20.9765
 11
-71.564268
 21
20.3765
  0
LINE
  8
型材断面
  6
DOT
 10
-71.864268
 20
21.2765
 11
-74.264268
 21
21.2765
  0
ARC
  8
型材断面
  6
DOT
 10
-71.864272
 20
20.976514
 40
0.3
 50
0.0
 51
90.0
  0
LINE
  8
型材断面
  6
DOT
 10
-74.564268
 20
20.9765
 11
-74.564268
 21
-5.223498
  0
LINE
  8
型材断面
  6
DOT
 10
-74.264268
 20
-5.523498
 11
-70.064268
 21
-5.523498
  0
ARC
  8
型材断面
  6
DOT
 10
-74.264272
 20
-5.223486
 40
0.3
 50
180.0
 51
270.0
  0
LINE
  8
型材断面
  6
DOT
 10
-68.564268
 20
-5.523498
 11
-54.864272
 21
-5.523498
  0
ARC
  8
型材断面
  6
DOT
 10
-54.864272
 20
-5.223486
 40
0.3
 50
270.0
 51
360.0
  0
LINE
  8
型材断面
  6
DOT
 10
-54.564272
 20
-1.123495
 11
-54.564272
 21
-5.223498
  0
ARC
  8
型材断面
  6
DOT
 10
-54.864272
 20
-1.123486
 40
0.3
 50
0.0
 51
90.0
  0
LINE
  8
型材断面
  6
DOT
 10
-56.264268
 20
-0.823495
 11
-54.864272
 21
-0.823495
  0
LINE
  8
型材断面
  6
DOT
 10
-56.564268
 20
-1.123495
 11
-56.564268
 21
-3.523495
  0
ARC
  8
型材断面
  6
DOT
 10
-56.264272
 20
-1.123486
 40
0.3
 50
90.0
 51
180.0
  0
LINE
  8
型材断面
  6
DOT
 10
-70.064268
 20
-7.023498
 11
-70.064268
 21
-5.523498
  0
ARC
  8
型材断面
  6
DOT
 10
-69.764272
 20
-7.023486
 40
0.3
 50
180.0
 51
270.0
  0
LINE
  8
型材断面
  6
DOT
 10
-69.764268
 20
-7.323498
 11
-68.864268
 21
-7.323498
  0
LINE
  8
型材断面
  6
DOT
 10
-68.564268
 20
-7.023498
 11
-68.564268
 21
-5.523498
  0
ARC
  8
型材断面
  6
DOT
 10
-68.864272
 20
-7.023486
 40
0.3
 50
270.0
 51
360.0
  0
ENDBLK
  0
BLOCK
  2
*GRP_0008
 70
    65
 10
0.0
 20
0.0
  0
LINE
  8
ゴム等
  6
CONTINUOUS
 10
-64.764362
 20
-30.219092
 11
-65.264362
 21
-32.719092
  0
LINE
  8
ゴム等
  6
CONTINUOUS
 10
-59.464362
 20
-32.719092
 11
-59.964362
 21
-30.219092
  0
LINE
  8
ゴム等
  6
CONTINUOUS
 10
-57.364362
 20
-37.719092
 11
-57.364362
 21
-32.719092
  0
LINE
  8
ゴム等
  6
CONTINUOUS
 10
-67.364362
 20
-37.719092
 11
-67.364362
 21
-32.719092
  0
LINE
  8
ゴム等
  6
CONTINUOUS
 10
-64.764362
 20
-30.219092
 11
-59.964362
 21
-30.219092
  0
LINE
  8
ゴム等
  6
CONTINUOUS
 10
-57.364362
 20
-32.719092
 11
-59.464362
 21
-32.719092
  0
LINE
  8
ゴム等
  6
CONTINUOUS
 10
-65.264362
 20
-32.719092
 11
-67.364362
 21
-32.719092
  0
LINE
  8
ゴム等
  6
CONTINUOUS
 10
-62.364362
 20
-37.219092
 11
-61.864362
 21
-37.719092
  0
LINE
  8
ゴム等
  6
CONTINUOUS
 10
-62.364362
 20
-37.219092
 11
-62.864362
 21
-37.719092
  0
LINE
  8
ゴム等
  6
CONTINUOUS
 10
-67.364362
 20
-37.719092
 11
-62.864362
 21
-37.719092
  0
LINE
  8
ゴム等
  6
CONTINUOUS
 10
-61.864362
 20
-37.719092
 11
-57.364362
 21
-37.719092
  0
INSERT
  2
*HAT_0001
  8
ゴム等
 10
0.0
 20
0.0
  0
ENDBLK
  0
BLOCK
  2
*GRP_0009
 70
    65
 10
0.0
 20
0.0
  0
LINE
  8
ゴム等
  6
CONTINUOUS
 10
-57.3643
 20
-37.723495
 11
-57.3643
 21
-32.723492
  0
LINE
  8
ゴム等
  6
CONTINUOUS
 10
-57.3643
 20
-37.723495
 11
-67.364297
 21
-37.723495
  0
LINE
  8
ゴム等
  6
CONTINUOUS
 10
-67.364297
 20
-37.723495
 11
-67.364297
 21
-32.723492
  0
LINE
  8
ゴム等
  6
CONTINUOUS
 10
-57.3643
 20
-32.723492
 11
-67.364297
 21
-32.723492
  0
LINE
  8
ゴム等
  6
CONTINUOUS
 10
-67.364297
 20
-34.053618
 11
-66.034173
 21
-32.723492
  0
LINE
  8
ゴム等
  6
CONTINUOUS
 10
-67.364297
 20
-35.467832
 11
-64.619957
 21
-32.723492
  0
LINE
  8
ゴム等
  6
CONTINUOUS
 10
-67.364297
 20
-36.88204
 11
-63.20575
 21
-32.723492
  0
LINE
  8
ゴム等
  6
CONTINUOUS
 10
-63.963108
 20
-37.723495
 11
-58.963105
 21
-32.723492
  0
LINE
  8
ゴム等
  6
CONTINUOUS
 10
-65.377322
 20
-37.723495
 11
-60.37732
 21
-32.723492
  0
LINE
  8
ゴム等
  6
CONTINUOUS
 10
-66.79153
 20
-37.723495
 11
-61.791535
 21
-32.723492
  0
LINE
  8
ゴム等
  6
CONTINUOUS
 10
-62.548892
 20
-37.723495
 11
-57.54889
 21
-32.723492
  0
LINE
  8
ゴム等
  6
CONTINUOUS
 10
-61.134677
 20
-37.723495
 11
-57.3643
 21
-33.95311
  0
LINE
  8
ゴム等
  6
CONTINUOUS
 10
-59.72047
 20
-37.723495
 11
-57.3643
 21
-35.367325
  0
LINE
  8
ゴム等
  6
CONTINUOUS
 10
-58.306255
 20
-37.723495
 11
-57.3643
 21
-36.78154
  0
ENDBLK
  0
BLOCK
  2
*GRP_0010
 70
    65
 10
0.0
 20
0.0
  0
LINE
  8
ゴム等
  6
CONTINUOUS
 10
7.335702
 20
-61.019088
 11
4.835705
 21
-60.519092
  0
LINE
  8
ゴム等
  6
CONTINUOUS
 10
4.835705
 20
-66.31909
 11
7.335702
 21
-65.819088
  0
LINE
  8
ゴム等
  6
CONTINUOUS
 10
-0.164297
 20
-68.41909
 11
4.835705
 21
-68.41909
  0
LINE
  8
ゴム等
  6
CONTINUOUS
 10
-0.164297
 20
-58.419092
 11
4.835705
 21
-58.419092
  0
LINE
  8
ゴム等
  6
CONTINUOUS
 10
7.335702
 20
-61.019088
 11
7.335702
 21
-65.819088
  0
LINE
  8
ゴム等
  6
CONTINUOUS
 10
4.835705
 20
-68.41909
 11
4.835705
 21
-66.31909
  0
LINE
  8
ゴム等
  6
CONTINUOUS
 10
4.835705
 20
-60.519092
 11
4.835705
 21
-58.419092
  0
LINE
  8
ゴム等
  6
CONTINUOUS
 10
0.335705
 20
-63.419088
 11
-0.164297
 21
-63.91909
  0
LINE
  8
ゴム等
  6
CONTINUOUS
 10
0.335705
 20
-63.419088
 11
-0.164297
 21
-62.919092
  0
LINE
  8
ゴム等
  6
CONTINUOUS
 10
-0.164297
 20
-58.419092
 11
-0.164297
 21
-62.919092
  0
LINE
  8
ゴム等
  6
CONTINUOUS
 10
-0.164297
 20
-63.91909
 11
-0.164297
 21
-68.41909
  0
LINE
  8
ゴム等
  6
CONTINUOUS
 10
7.335702
 20
-63.19117
 11
2.563625
 21
-58.419092
  0
LINE
  8
ゴム等
  6
CONTINUOUS
 10
7.335702
 20
-65.312485
 11
0.44231
 21
-58.419092
  0
LINE
  8
ゴム等
  6
CONTINUOUS
 10
5.990098
 20
-66.08821
 11
-0.164297
 21
-59.933815
  0
LINE
  8
ゴム等
  6
CONTINUOUS
 10
4.835705
 20
-67.055133
 11
-0.164297
 21
-62.05513
  0
LINE
  8
ゴム等
  6
CONTINUOUS
 10
1.957018
 20
-68.41909
 11
-0.164297
 21
-66.297775
  0
LINE
  8
ゴム等
  6
CONTINUOUS
 10
4.078348
 20
-68.41909
 11
-0.164297
 21
-64.176445
  0
ENDBLK
  0
BLOCK
  2
*GRP_0011
 70
    65
 10
0.0
 20
0.0
  0
LINE
  8
ゴム等
  6
CONTINUOUS
 10
-59.564312
 20
20.076492
 11
-54.56431
 21
20.076492
  0
LINE
  8
ゴム等
  6
CONTINUOUS
 10
-59.564312
 20
20.076492
 11
-59.564312
 21
10.076495
  0
LINE
  8
ゴム等
  6
CONTINUOUS
 10
-59.564312
 20
10.076495
 11
-54.56431
 21
10.076495
  0
LINE
  8
ゴム等
  6
CONTINUOUS
 10
-54.56431
 20
20.076492
 11
-54.56431
 21
10.076495
  0
LINE
  8
ゴム等
  6
CONTINUOUS
 10
-55.894435
 20
10.076495
 11
-54.56431
 21
11.40662
  0
LINE
  8
ゴム等
  6
CONTINUOUS
 10
-57.30865
 20
10.076495
 11
-54.56431
 21
12.820835
  0
LINE
  8
ゴム等
  6
CONTINUOUS
 10
-58.722858
 20
10.076495
 11
-54.56431
 21
14.235043
  0
LINE
  8
ゴム等
  6
CONTINUOUS
 10
-59.564312
 20
13.477685
 11
-54.56431
 21
18.477687
  0
LINE
  8
ゴム等
  6
CONTINUOUS
 10
-59.564312
 20
12.06347
 11
-54.56431
 21
17.063472
  0
LINE
  8
ゴム等
  6
CONTINUOUS
 10
-59.564312
 20
10.649263
 11
-54.56431
 21
15.649258
  0
LINE
  8
ゴム等
  6
CONTINUOUS
 10
-59.564312
 20
14.8919
 11
-54.56431
 21
19.891902
  0
LINE
  8
ゴム等
  6
CONTINUOUS
 10
-59.564312
 20
16.306115
 11
-55.793927
 21
20.076492
  0
LINE
  8
ゴム等
  6
CONTINUOUS
 10
-59.564312
 20
17.720322
 11
-57.208143
 21
20.076492
  0
LINE
  8
ゴム等
  6
CONTINUOUS
 10
-59.564312
 20
19.134538
 11
-58.622358
 21
20.076492
  0
ENDBLK
  0
BLOCK
  2
*GRP_0012
 70
    65
 10
0.0
 20
0.0
  0
LINE
  8
ゴム等
  6
DOT
 10
-72.564272
 20
20.0765
 11
-66.36427
 21
20.0765
  0
LINE
  8
ゴム等
  6
DOT
 10
-66.36427
 20
20.0765
 11
-66.36427
 21
10.076503
  0
LINE
  8
ゴム等
  6
DOT
 10
-66.36427
 20
10.076503
 11
-72.564272
 21
10.076503
  0
LINE
  8
ゴム等
  6
DOT
 10
-72.564272
 20
20.0765
 11
-72.564272
 21
10.076503
  0
INSERT
  2
*HAT_0002
  8
ゴム等
 10
0.0
 20
0.0
  0
ENDBLK
  0
BLOCK
  2
*GRP_0013
 70
    65
 10
0.0
 20
0.0
  0
LINE
  8
ゴム等
  6
CONTINUOUS
 10
-59.564312
 20
20.076492
 11
-54.56431
 21
20.076492
  0
LINE
  8
ゴム等
  6
CONTINUOUS
 10
-59.564312
 20
20.076492
 11
-59.564312
 21
10.076495
  0
LINE
  8
ゴム等
  6
CONTINUOUS
 10
-59.564312
 20
10.076495
 11
-54.56431
 21
10.076495
  0
LINE
  8
ゴム等
  6
CONTINUOUS
 10
-54.56431
 20
20.076492
 11
-54.56431
 21
10.076495
  0
LINE
  8
ゴム等
  6
CONTINUOUS
 10
-55.894435
 20
10.076495
 11
-54.56431
 21
11.40662
  0
LINE
  8
ゴム等
  6
CONTINUOUS
 10
-57.30865
 20
10.076495
 11
-54.56431
 21
12.820835
  0
LINE
  8
ゴム等
  6
CONTINUOUS
 10
-58.722858
 20
10.076495
 11
-54.56431
 21
14.235043
  0
LINE
  8
ゴム等
  6
CONTINUOUS
 10
-59.564312
 20
13.477685
 11
-54.56431
 21
18.477687
  0
LINE
  8
ゴム等
  6
CONTINUOUS
 10
-59.564312
 20
12.06347
 11
-54.56431
 21
17.063472
  0
LINE
  8
ゴム等
  6
CONTINUOUS
 10
-59.564312
 20
10.649263
 11
-54.56431
 21
15.649258
  0
LINE
  8
ゴム等
  6
CONTINUOUS
 10
-59.564312
 20
14.8919
 11
-54.56431
 21
19.891902
  0
LINE
  8
ゴム等
  6
CONTINUOUS
 10
-59.564312
 20
16.306115
 11
-55.793927
 21
20.076492
  0
LINE
  8
ゴム等
  6
CONTINUOUS
 10
-59.564312
 20
17.720322
 11
-57.208143
 21
20.076492
  0
LINE
  8
ゴム等
  6
CONTINUOUS
 10
-59.564312
 20
19.134538
 11
-58.622358
 21
20.076492
  0
ENDBLK
  0
BLOCK
  2
*GRP_0014
 70
    65
 10
0.0
 20
0.0
  0
LINE
  8
ゴム等
  6
DOT
 10
-72.564272
 20
20.0765
 11
-66.36427
 21
20.0765
  0
LINE
  8
ゴム等
  6
DOT
 10
-66.36427
 20
20.0765
 11
-66.36427
 21
10.076503
  0
LINE
  8
ゴム等
  6
DOT
 10
-66.36427
 20
10.076503
 11
-72.564272
 21
10.076503
  0
LINE
  8
ゴム等
  6
DOT
 10
-72.564272
 20
20.0765
 11
-72.564272
 21
10.076503
  0
INSERT
  2
*HAT_0003
  8
ゴム等
 10
0.0
 20
0.0
  0
ENDBLK
  0
BLOCK
  2
*GRP_0015
 70
    65
 10
0.0
 20
0.0
  0
LINE
  8
ボルト／ビス
  6
CONTINUOUS
 10
-65.864362
 20
-39.719092
 11
-65.77266
 21
-40.767257
  0
ARC
  8
ボルト／ビス
  6
CONTINUOUS
 10
-64.079129
 20
-40.61909
 40
1.7
 50
184.999989
 51
270.0
  0
LINE
  8
ボルト／ビス
  6
CONTINUOUS
 10
-64.07913
 20
-42.319092
 11
-62.364362
 21
-42.319092
  0
LINE
  8
ボルト／ビス
  6
CONTINUOUS
 10
-58.864362
 20
-39.719092
 11
-58.956065
 21
-40.767257
  0
ARC
  8
ボルト／ビス
  6
CONTINUOUS
 10
-60.649596
 20
-40.61909
 40
1.7
 50
270.0
 51
355.000011
  0
LINE
  8
ボルト／ビス
  6
CONTINUOUS
 10
-60.649595
 20
-42.319092
 11
-62.364362
 21
-42.319092
  0
LINE
  8
ボルト／ビス
  6
CONTINUOUS
 10
-64.761002
 20
-41.934188
 11
-64.761002
 21
-42.17635
  0
LINE
  8
ボルト／ビス
  6
CONTINUOUS
 10
-63.064362
 20
-41.284105
 11
-62.364362
 21
-41.284105
  0
LINE
  8
ボルト／ビス
  6
CONTINUOUS
 10
-63.464362
 20
-41.934188
 11
-64.761002
 21
-41.934188
  0
LINE
  8
ボルト／ビス
  6
CONTINUOUS
 10
-63.064362
 20
-41.284105
 11
-63.064362
 21
-41.534188
  0
ARC
  8
ボルト／ビス
  6
CONTINUOUS
 10
-63.464363
 20
-41.534185
 40
0.4
 50
270.0
 51
360.0
  0
LINE
  8
ボルト／ビス
  6
CONTINUOUS
 10
-59.967723
 20
-41.934188
 11
-59.967723
 21
-42.17635
  0
LINE
  8
ボルト／ビス
  6
CONTINUOUS
 10
-61.664362
 20
-41.284105
 11
-62.364362
 21
-41.284105
  0
LINE
  8
ボルト／ビス
  6
CONTINUOUS
 10
-61.264362
 20
-41.934188
 11
-59.967723
 21
-41.934188
  0
LINE
  8
ボルト／ビス
  6
CONTINUOUS
 10
-61.664362
 20
-41.284105
 11
-61.664362
 21
-41.534188
  0
ARC
  8
ボルト／ビス
  6
CONTINUOUS
 10
-61.264363
 20
-41.534185
 40
0.4
 50
180.0
 51
270.0
  0
LINE
  8
ボルト／ビス
  6
CONTINUOUS
 10
-65.864362
 20
-39.719092
 11
-58.864362
 21
-39.719092
  0
LINE
  8
ボルト／ビス
  6
CONTINUOUS
 10
-62.364362
 20
-44.29048
 11
-62.364362
 21
-17.446215
  0
LINE
  8
ボルト／ビス
  6
CONTINUOUS
 10
-64.364362
 20
-20.219092
 11
-63.864362
 21
-19.719092
  0
LINE
  8
ボルト／ビス
  6
CONTINUOUS
 10
-60.364362
 20
-20.219092
 11
-60.864362
 21
-19.719092
  0
LINE
  8
ボルト／ビス
  6
CONTINUOUS
 10
-64.364362
 20
-20.219092
 11
-60.364362
 21
-20.219092
  0
LINE
  8
ボルト／ビス
  6
CONTINUOUS
 10
-63.864362
 20
-19.719092
 11
-60.864362
 21
-19.719092
  0
LINE
  8
ボルト／ビス
  6
CONTINUOUS
 10
-63.864362
 20
-39.719092
 11
-63.864362
 21
-19.719092
  0
LINE
  8
ボルト／ビス
  6
CONTINUOUS
 10
-60.864362
 20
-39.719092
 11
-60.864362
 21
-19.719092
  0
LINE
  8
ボルト／ビス
  6
CONTINUOUS
 10
-64.364362
 20
-39.719092
 11
-64.364362
 21
-20.219092
  0
LINE
  8
ボルト／ビス
  6
CONTINUOUS
 10
-60.364362
 20
-39.719092
 11
-60.364362
 21
-20.219092
  0
ENDBLK
  0
BLOCK
  2
*GRP_0016
 70
    65
 10
0.0
 20
0.0
  0
LINE
  8
ボルト／ビス
  6
CONTINUOUS
 10
-84.87157
 20
-29.419128
 11
-86.871572
 21
-29.419128
  0
LINE
  8
ボルト／ビス
  6
CONTINUOUS
 10
-86.871572
 20
-29.419128
 11
-86.871572
 21
-7.419122
  0
LINE
  8
ボルト／ビス
  6
CONTINUOUS
 10
-86.871572
 20
-7.419122
 11
-84.87157
 21
-7.419122
  0
LINE
  8
ボルト／ビス
  6
CONTINUOUS
 10
-84.87157
 20
-29.419128
 11
-84.87157
 21
-7.419122
  0
LINE
  8
ボルト／ビス
  6
CONTINUOUS
 10
-87.87157
 20
-27.419125
 11
-86.871572
 21
-27.419125
  0
LINE
  8
ボルト／ビス
  6
CONTINUOUS
 10
-87.87157
 20
-27.419125
 11
-87.87157
 21
-9.419125
  0
LINE
  8
ボルト／ビス
  6
CONTINUOUS
 10
-87.87157
 20
-9.419125
 11
-86.871572
 21
-9.419125
  0
LINE
  8
ボルト／ビス
  6
CONTINUOUS
 62
    64
 10
-93.87157
 20
-23.230375
 11
-93.521342
 21
-24.192625
  0
ARC
  8
ボルト／ビス
  6
CONTINUOUS
 62
    64
 10
-90.722219
 20
-22.749248
 40
3.149352
 50
152.721967
 51
180.0
  0
ARC
  8
ボルト／ビス
  6
CONTINUOUS
 62
    64
 10
-81.799504
 20
-18.41912
 40
12.072067
 50
166.165002
 51
193.834985
  0
LINE
  8
ボルト／ビス
  6
CONTINUOUS
 62
    64
 10
-93.87157
 20
-13.607875
 11
-93.521342
 21
-12.645625
  0
ARC
  8
ボルト／ビス
  6
CONTINUOUS
 62
    64
 10
-90.722219
 20
-14.088993
 40
3.149352
 50
180.0
 51
207.278033
  0
LINE
  8
ボルト／ビス
  6
CONTINUOUS
 62
    64
 10
-93.87157
 20
-23.230375
 11
-93.87157
 21
-13.607875
  0
LINE
  8
ボルト／ビス
  6
CONTINUOUS
 62
    64
 10
-93.521342
 20
-12.645625
 11
-89.871572
 21
-12.645625
  0
LINE
  8
ボルト／ビス
  6
CONTINUOUS
 62
    64
 10
-93.521342
 20
-15.532375
 11
-89.871572
 21
-15.532375
  0
LINE
  8
ボルト／ビス
  6
CONTINUOUS
 62
    64
 10
-93.521342
 20
-24.192625
 11
-89.871572
 21
-24.192625
  0
LINE
  8
ボルト／ビス
  6
CONTINUOUS
 62
    64
 10
-93.521342
 20
-21.305875
 11
-89.871572
 21
-21.305875
  0
LINE
  8
ボルト／ビス
  6
CONTINUOUS
 62
    64
 10
-59.871572
 20
-20.719128
 11
-59.871572
 21
-16.119122
  0
LINE
  8
ボルト／ビス
  6
CONTINUOUS
 62
    64
 10
-60.87157
 20
-15.419125
 11
-59.871572
 21
-16.119122
  0
LINE
  8
ボルト／ビス
  6
CONTINUOUS
 62
    64
 10
-60.87157
 20
-21.419125
 11
-59.871572
 21
-20.719128
  0
LINE
  8
ボルト／ビス
  6
CONTINUOUS
 62
    64
 10
-60.87157
 20
-21.419125
 11
-60.87157
 21
-15.419125
  0
LINE
  8
ボルト／ビス
  6
CONTINUOUS
 62
    64
 10
-59.871572
 20
-20.719128
 11
-59.871572
 21
-16.119122
  0
LINE
  8
ボルト／ビス
  6
CONTINUOUS
 10
-89.871572
 20
-24.192625
 11
-89.871572
 21
-12.645625
  0
LINE
  8
ボルト／ビス
  6
CONTINUOUS
 10
-89.871572
 20
-24.419125
 11
-87.87157
 21
-24.419125
  0
LINE
  8
ボルト／ビス
  6
CONTINUOUS
 10
-89.871572
 20
-24.419125
 11
-89.871572
 21
-12.419125
  0
LINE
  8
ボルト／ビス
  6
CONTINUOUS
 10
-89.871572
 20
-12.419125
 11
-87.87157
 21
-12.419125
  0
LINE
  8
ボルト／ビス
  6
CONTINUOUS
 62
    64
 10
-84.87157
 20
-16.119122
 11
-59.871572
 21
-16.119122
  0
LINE
  8
ボルト／ビス
  6
CONTINUOUS
 62
    64
 10
-84.87157
 20
-20.719128
 11
-59.871572
 21
-20.719128
  0
LINE
  8
ボルト／ビス
  6
CONTINUOUS
 62
    64
 10
-84.87157
 20
-21.419125
 11
-60.87157
 21
-21.419125
  0
LINE
  8
ボルト／ビス
  6
CONTINUOUS
 62
    64
 10
-84.87157
 20
-15.419125
 11
-60.87157
 21
-15.419125
  0
ENDBLK
  0
BLOCK
  2
*GRP_0017
 70
    65
 10
0.0
 20
0.0
  0
LINE
  8
ボルト／ビス
  6
CONTINUOUS
 62
    64
 10
11.434243
 20
-66.919098
 11
12.482405
 21
-66.827395
  0
ARC
  8
ボルト／ビス
  6
CONTINUOUS
 62
    64
 10
12.334248
 20
-65.133867
 40
1.7
 50
274.999989
 51
360.0
  0
LINE
  8
ボルト／ビス
  6
CONTINUOUS
 62
    64
 10
14.034245
 20
-65.133865
 11
14.034245
 21
-63.419095
  0
LINE
  8
ボルト／ビス
  6
CONTINUOUS
 62
    64
 10
11.434243
 20
-59.919092
 11
12.482405
 21
-60.010795
  0
ARC
  8
ボルト／ビス
  6
CONTINUOUS
 62
    64
 10
12.334248
 20
-61.704334
 40
1.7
 50
0.0
 51
85.000011
  0
LINE
  8
ボルト／ビス
  6
CONTINUOUS
 62
    64
 10
14.034245
 20
-61.704325
 11
14.034245
 21
-63.419095
  0
LINE
  8
ボルト／ビス
  6
CONTINUOUS
 62
    64
 10
13.649338
 20
-65.815735
 11
13.891497
 21
-65.815735
  0
LINE
  8
ボルト／ビス
  6
CONTINUOUS
 62
    64
 10
12.999252
 20
-64.119092
 11
12.999252
 21
-63.419095
  0
LINE
  8
ボルト／ビス
  6
CONTINUOUS
 62
    64
 10
13.649338
 20
-64.519098
 11
13.649338
 21
-65.815735
  0
LINE
  8
ボルト／ビス
  6
CONTINUOUS
 62
    64
 10
12.999252
 20
-64.119092
 11
13.24934
 21
-64.119092
  0
ARC
  8
ボルト／ビス
  6
CONTINUOUS
 62
    64
 10
13.249343
 20
-64.519101
 40
0.4
 50
0.0
 51
90.0
  0
LINE
  8
ボルト／ビス
  6
CONTINUOUS
 62
    64
 10
13.649338
 20
-61.022455
 11
13.891497
 21
-61.022455
  0
LINE
  8
ボルト／ビス
  6
CONTINUOUS
 62
    64
 10
12.999252
 20
-62.719098
 11
12.999252
 21
-63.419095
  0
LINE
  8
ボルト／ビス
  6
CONTINUOUS
 62
    64
 10
13.649338
 20
-62.319092
 11
13.649338
 21
-61.022455
  0
LINE
  8
ボルト／ビス
  6
CONTINUOUS
 62
    64
 10
12.999252
 20
-62.719098
 11
13.24934
 21
-62.719098
  0
ARC
  8
ボルト／ビス
  6
CONTINUOUS
 62
    64
 10
13.249343
 20
-62.319101
 40
0.4
 50
270.0
 51
360.0
  0
LINE
  8
ボルト／ビス
  6
CONTINUOUS
 62
    64
 10
11.434243
 20
-66.919098
 11
11.434243
 21
-59.919092
  0
LINE
  8
ボルト／ビス
  6
CONTINUOUS
 62
    64
 10
-4.06576
 20
-65.419098
 11
-4.565755
 21
-64.919095
  0
LINE
  8
ボルト／ビス
  6
CONTINUOUS
 62
    64
 10
-4.06576
 20
-61.419092
 11
-4.565755
 21
-61.919095
  0
LINE
  8
ボルト／ビス
  6
CONTINUOUS
 62
    64
 10
-4.06576
 20
-65.419098
 11
-4.06576
 21
-61.419092
  0
LINE
  8
ボルト／ビス
  6
CONTINUOUS
 62
    64
 10
-4.565755
 20
-64.919095
 11
-4.565755
 21
-61.919095
  0
LINE
  8
ボルト／ビス
  6
CONTINUOUS
 62
    64
 10
11.434243
 20
-61.419092
 11
-4.06576
 21
-61.419092
  0
LINE
  8
ボルト／ビス
  6
CONTINUOUS
 62
    64
 10
11.434243
 20
-65.419098
 11
-4.06576
 21
-65.419098
  0
LINE
  8
ボルト／ビス
  6
CONTINUOUS
 62
    64
 10
11.434243
 20
-64.919095
 11
-4.565755
 21
-64.919095
  0
LINE
  8
ボルト／ビス
  6
CONTINUOUS
 62
    64
 10
11.434243
 20
-61.919095
 11
-4.565755
 21
-61.919095
  0
LINE
  8
ボルト／ビス
  6
DASHDOT
 62
    64
 10
17.034245
 20
-63.419095
 11
-7.565755
 21
-63.419095
  0
ENDBLK
  0
BLOCK
  2
*GRP_0018
 70
    65
 10
0.0
 20
0.0
  0
LINE
  8
ボルト／ビス
  6
CONTINUOUS
 62
    64
 10
-50.964235
 20
-13.919095
 11
-50.872533
 21
-12.870932
  0
ARC
  8
ボルト／ビス
  6
CONTINUOUS
 62
    64
 10
-49.179002
 20
-13.019098
 40
1.7
 50
90.0
 51
175.000011
  0
LINE
  8
ボルト／ビス
  6
CONTINUOUS
 62
    64
 10
-49.179003
 20
-11.3191
 11
-47.464232
 21
-11.3191
  0
LINE
  8
ボルト／ビス
  6
CONTINUOUS
 62
    64
 10
-43.964238
 20
-13.919095
 11
-44.05594
 21
-12.870932
  0
ARC
  8
ボルト／ビス
  6
CONTINUOUS
 62
    64
 10
-45.749469
 20
-13.019098
 40
1.7
 50
4.999989
 51
90.0
  0
LINE
  8
ボルト／ビス
  6
CONTINUOUS
 62
    64
 10
-45.74947
 20
-11.3191
 11
-47.464232
 21
-11.3191
  0
LINE
  8
ボルト／ビス
  6
CONTINUOUS
 62
    64
 10
-49.860873
 20
-11.704
 11
-49.860873
 21
-11.46184
  0
LINE
  8
ボルト／ビス
  6
CONTINUOUS
 62
    64
 10
-48.164238
 20
-12.354085
 11
-47.464232
 21
-12.354085
  0
LINE
  8
ボルト／ビス
  6
CONTINUOUS
 62
    64
 10
-48.564235
 20
-11.704
 11
-49.860873
 21
-11.704
  0
LINE
  8
ボルト／ビス
  6
CONTINUOUS
 62
    64
 10
-48.164238
 20
-12.354085
 11
-48.164238
 21
-12.104005
  0
ARC
  8
ボルト／ビス
  6
CONTINUOUS
 62
    64
 10
-48.564236
 20
-12.104003
 40
0.4
 50
0.0
 51
90.0
  0
LINE
  8
ボルト／ビス
  6
CONTINUOUS
 62
    64
 10
-45.067592
 20
-11.704
 11
-45.067592
 21
-11.46184
  0
LINE
  8
ボルト／ビス
  6
CONTINUOUS
 62
    64
 10
-46.764235
 20
-12.354085
 11
-47.464232
 21
-12.354085
  0
LINE
  8
ボルト／ビス
  6
CONTINUOUS
 62
    64
 10
-46.364238
 20
-11.704
 11
-45.067592
 21
-11.704
  0
LINE
  8
ボルト／ビス
  6
CONTINUOUS
 62
    64
 10
-46.764235
 20
-12.354085
 11
-46.764235
 21
-12.104005
  0
ARC
  8
ボルト／ビス
  6
CONTINUOUS
 62
    64
 10
-46.364236
 20
-12.104003
 40
0.4
 50
90.0
 51
180.0
  0
LINE
  8
ボルト／ビス
  6
CONTINUOUS
 62
    64
 10
-50.964235
 20
-13.919095
 11
-43.964238
 21
-13.919095
  0
LINE
  8
ボルト／ビス
  6
CONTINUOUS
 62
    64
 10
-49.464235
 20
-25.4191
 11
-48.964232
 21
-25.919095
  0
LINE
  8
ボルト／ビス
  6
CONTINUOUS
 62
    64
 10
-45.464238
 20
-25.4191
 11
-45.964232
 21
-25.919095
  0
LINE
  8
ボルト／ビス
  6
CONTINUOUS
 62
    64
 10
-49.464235
 20
-25.4191
 11
-45.464238
 21
-25.4191
  0
LINE
  8
ボルト／ビス
  6
CONTINUOUS
 62
    64
 10
-48.964232
 20
-25.919095
 11
-45.964232
 21
-25.919095
  0
LINE
  8
ボルト／ビス
  6
CONTINUOUS
 62
    64
 10
-48.964232
 20
-13.919095
 11
-48.964232
 21
-25.919095
  0
LINE
  8
ボルト／ビス
  6
CONTINUOUS
 62
    64
 10
-45.964232
 20
-13.919095
 11
-45.964232
 21
-25.919095
  0
LINE
  8
ボルト／ビス
  6
CONTINUOUS
 62
    64
 10
-45.464238
 20
-13.919095
 11
-45.464238
 21
-25.4191
  0
LINE
  8
ボルト／ビス
  6
CONTINUOUS
 62
    64
 10
-49.464235
 20
-13.919095
 11
-49.464235
 21
-25.4191
  0
LINE
  8
ボルト／ビス
  6
DASHDOT
 62
    64
 10
-47.464232
 20
-8.3191
 11
-47.464232
 21
-28.919095
  0
ENDBLK
  0
BLOCK
  2
*DIM_0019
 70
    65
 10
0.0
 20
0.0
  0
LINE
  8
寸法
  6
BYBLOCK
 62
     0
 10
-120.814615
 20
1.580877
 11
-119.25267
 21
1.580877
  0
LINE
  8
寸法
  6
BYBLOCK
 62
     0
 10
-120.814615
 20
59.080907
 11
-119.25267
 21
59.080907
  0
LINE
  8
寸法
  6
BYBLOCK
 62
     0
 10
-119.25267
 20
1.580877
 11
-119.25267
 21
59.080907
  0
POINT
  8
寸法
 62
     0
 10
-119.25267
 20
1.580877
 50
-90.0
  0
POINT
  8
寸法
 62
     0
 10
-119.25267
 20
59.080907
 50
-90.0
  0
TEXT
  7
TextStyle03
  8
寸法
  6
CONTINUOUS
 62
     0
 10
-119.575
 20
26.4625
  1
57.5
 40
3.5
 50
90.0
 72
     5
 11
-119.575
 21
34.1375
  0
ENDBLK
  0
BLOCK
  2
*DIM_0020
 70
    65
 10
0.0
 20
0.0
  0
LINE
  8
寸法
  6
BYBLOCK
 62
     0
 10
-82.36788
 20
-48.419117
 11
-119.25267
 21
-48.419117
  0
LINE
  8
寸法
  6
BYBLOCK
 62
     0
 10
-119.25267
 20
1.580877
 11
-119.25267
 21
-48.419117
  0
POINT
  8
寸法
 62
     0
 10
-119.25267
 20
1.580877
 50
-90.0
  0
POINT
  8
寸法
 62
     0
 10
-119.25267
 20
-48.419117
 50
-90.0
  0
TEXT
  7
TextStyle03
  8
寸法
  6
CONTINUOUS
 62
     0
 10
-119.575
 20
-25.3125
  1
50
 40
3.5
 50
90.0
 72
     5
 11
-119.575
 21
-21.5875
  0
ENDBLK
  0
BLOCK
  2
*GRP_0021
 70
    65
 10
0.0
 20
0.0
  0
POLYLINE
  8
寸法
  6
BYBLOCK
 62
     0
 66
     1
  0
VERTEX
  8
寸法
 10
-78.864295
 20
-27.610042
  0
VERTEX
  8
寸法
 10
-77.364295
 20
-25.011965
  0
VERTEX
  8
寸法
 10
-79.96237
 20
-26.511965
  0
SEQEND
  0
POLYLINE
  8
寸法
  6
BYBLOCK
 62
     0
 66
     1
  0
VERTEX
  8
寸法
 10
-77.364295
 20
-25.011965
  0
VERTEX
  8
寸法
 10
-95.12842
 20
-42.776092
  0
VERTEX
  8
寸法
 10
-95.12842
 20
-52.998243
  0
SEQEND
  0
ENDBLK
  0
BLOCK
  2
*GRP_0022
 70
    65
 10
0.0
 20
0.0
  0
POLYLINE
  8
寸法
  6
BYBLOCK
 62
     0
 66
     1
  0
VERTEX
  8
寸法
 10
-54.777225
 20
-36.868268
  0
VERTEX
  8
寸法
 10
-57.3753
 20
-35.368268
  0
VERTEX
  8
寸法
 10
-55.8753
 20
-37.966342
  0
SEQEND
  0
POLYLINE
  8
寸法
  6
BYBLOCK
 62
     0
 66
     1
  0
VERTEX
  8
寸法
 10
-57.3753
 20
-35.368268
  0
VERTEX
  8
寸法
 10
-42.062302
 20
-50.681265
  0
VERTEX
  8
寸法
 10
-42.062302
 20
-52.682945
  0
SEQEND
  0
ENDBLK
  0
BLOCK
  2
*GRP_0023
 70
    65
 10
0.0
 20
0.0
  0
POLYLINE
  8
寸法
  6
BYBLOCK
 62
     0
 66
     1
  0
VERTEX
  8
寸法
 10
-31.980535
 20
-63.684072
  0
VERTEX
  8
寸法
 10
-30.480535
 20
-61.085998
  0
VERTEX
  8
寸法
 10
-33.078612
 20
-62.585998
  0
SEQEND
  0
POLYLINE
  8
寸法
  6
BYBLOCK
 62
     0
 66
     1
  0
VERTEX
  8
寸法
 10
-30.480535
 20
-61.085998
  0
VERTEX
  8
寸法
 10
-34.747815
 20
-65.353277
  0
VERTEX
  8
寸法
 10
-34.747815
 20
-69.33807
  0
SEQEND
  0
ENDBLK
  0
BLOCK
  2
*GRP_0024
 70
    65
 10
0.0
 20
0.0
  0
POLYLINE
  8
寸法
  6
BYBLOCK
 62
     0
 66
     1
  0
VERTEX
  8
寸法
 10
-81.764628
 20
-25.369115
  0
VERTEX
  8
寸法
 10
-80.714655
 20
-22.558855
  0
VERTEX
  8
寸法
 10
-83.029087
 20
-24.467625
  0
SEQEND
  0
LINE
  8
寸法
  6
BYBLOCK
 62
     0
 10
-80.714655
 20
-22.558855
 11
-95.12842
 21
-42.776092
  0
ENDBLK
  0
BLOCK
  2
*DIM_0025
 70
    65
 10
0.0
 20
0.0
  0
LINE
  8
寸法
  6
BYBLOCK
 62
     0
 10
-112.216783
 20
1.580877
 11
-111.718272
 21
1.580877
  0
LINE
  8
寸法
  6
BYBLOCK
 62
     0
 10
-98.571533
 20
-18.419122
 11
-111.718272
 21
-18.419122
  0
LINE
  8
寸法
  6
BYBLOCK
 62
     0
 10
-111.718272
 20
1.580877
 11
-111.718272
 21
-18.419122
  0
POINT
  8
寸法
 62
     0
 10
-111.718272
 20
1.580877
  0
POINT
  8
寸法
 62
     0
 10
-111.718272
 20
-18.419122
  0
TEXT
  7
TextStyle03
  8
寸法
  6
CONTINUOUS
 62
     0
 10
-112.075
 20
-10.01875
  1
20
 40
3.0
 50
90.0
 72
     5
 11
-112.075
 21
-6.83125
  0
ENDBLK
  0
BLOCK
  2
*DIM_0026
 70
    65
 10
0.0
 20
0.0
  0
LINE
  8
寸法
  6
BYBLOCK
 62
     0
 10
-98.571533
 20
-48.419117
 11
-111.718272
 21
-48.419117
  0
LINE
  8
寸法
  6
BYBLOCK
 62
     0
 10
-111.718272
 20
-18.419122
 11
-111.718272
 21
-48.419117
  0
POINT
  8
寸法
 62
     0
 10
-111.718272
 20
-48.419117
  0
TEXT
  7
TextStyle03
  8
寸法
  6
CONTINUOUS
 62
     0
 10
-112.075
 20
-35.01875
  1
30
 40
3.0
 50
90.0
 72
     5
 11
-112.075
 21
-31.83125
  0
ENDBLK
  0
BLOCK
  2
*GRP_0027
 70
    65
 10
0.0
 20
0.0
  0
POLYLINE
  8
寸法
  6
BYBLOCK
 62
     0
 66
     1
  0
VERTEX
  8
寸法
 10
-34.640095
 20
-16.116965
  0
VERTEX
  8
寸法
 10
-33.140095
 20
-18.71504
  0
VERTEX
  8
寸法
 10
-35.73817
 20
-17.21504
  0
SEQEND
  0
POLYLINE
  8
寸法
  6
BYBLOCK
 62
     0
 66
     1
  0
VERTEX
  8
寸法
 10
-33.140095
 20
-18.71504
  0
VERTEX
  8
寸法
 10
-39.967065
 20
-11.88807
  0
VERTEX
  8
寸法
 10
-39.967065
 20
-4.886355
  0
SEQEND
  0
ENDBLK
  0
BLOCK
  2
*GRP_0028
 70
    65
 10
0.0
 20
0.0
  0
POLYLINE
  8
寸法
  6
BYBLOCK
 62
     0
 66
     1
  0
VERTEX
  8
寸法
 10
-77.16243
 20
13.521875
  0
VERTEX
  8
寸法
 10
-74.564355
 20
12.021875
  0
VERTEX
  8
寸法
 10
-76.064355
 20
14.61995
  0
SEQEND
  0
POLYLINE
  8
寸法
  6
BYBLOCK
 62
     0
 66
     1
  0
VERTEX
  8
寸法
 10
-74.564355
 20
12.021875
  0
VERTEX
  8
寸法
 10
-90.41466
 20
27.872177
  0
VERTEX
  8
寸法
 10
-90.41466
 20
29.714645
  0
SEQEND
  0
ENDBLK
  0
BLOCK
  2
*GRP_0029
 70
    65
 10
0.0
 20
0.0
  0
POLYLINE
  8
寸法
  6
BYBLOCK
 62
     0
 66
     1
  0
VERTEX
  8
寸法
 10
-71.757333
 20
19.66258
  0
VERTEX
  8
寸法
 10
-69.159257
 20
18.16258
  0
VERTEX
  8
寸法
 10
-70.659257
 20
20.760655
  0
SEQEND
  0
POLYLINE
  8
寸法
  6
BYBLOCK
 62
     0
 66
     1
  0
VERTEX
  8
寸法
 10
-69.159257
 20
18.16258
  0
VERTEX
  8
寸法
 10
-77.849225
 20
26.852545
  0
VERTEX
  8
寸法
 10
-77.849225
 20
31.084802
  0
SEQEND
  0
ENDBLK
  0
BLOCK
  2
*GRP_0030
 70
    65
 10
0.0
 20
0.0
  0
POLYLINE
  8
寸法
  6
BYBLOCK
 62
     0
 66
     1
  0
VERTEX
  8
寸法
 10
-55.564312
 20
18.575763
  0
VERTEX
  8
寸法
 10
-57.064312
 20
15.977687
  0
VERTEX
  8
寸法
 10
-54.466237
 20
17.477687
  0
SEQEND
  0
POLYLINE
  8
寸法
  6
BYBLOCK
 62
     0
 66
     1
  0
VERTEX
  8
寸法
 10
-57.064312
 20
15.977687
  0
VERTEX
  8
寸法
 10
-47.897293
 20
25.144705
  0
VERTEX
  8
寸法
 10
-47.897293
 20
27.566542
  0
SEQEND
  0
ENDBLK
  0
BLOCK
  2
*GRP_0031
 70
    65
 10
0.0
 20
0.0
  0
POLYLINE
  8
寸法
  6
BYBLOCK
 62
     0
 66
     1
  0
VERTEX
  8
寸法
 10
-51.494325
 20
14.555635
  0
VERTEX
  8
寸法
 10
-52.994325
 20
11.95756
  0
VERTEX
  8
寸法
 10
-50.39625
 20
13.45756
  0
SEQEND
  0
POLYLINE
  8
寸法
  6
BYBLOCK
 62
     0
 66
     1
  0
VERTEX
  8
寸法
 10
-52.994325
 20
11.95756
  0
VERTEX
  8
寸法
 10
-43.827305
 20
21.124577
  0
VERTEX
  8
寸法
 10
-43.827305
 20
23.546415
  0
SEQEND
  0
ENDBLK
  0
BLOCK
  2
*DIM_0032
 70
    65
 10
0.0
 20
0.0
  0
LINE
  8
寸法
  6
CONTINUOUS
 10
-85.36788
 20
1.580877
 11
-126.32236
 21
1.580877
  0
LINE
  8
寸法
  6
CONTINUOUS
 10
-19.364295
 20
-81.319098
 11
-126.32236
 21
-81.319098
  0
LINE
  8
寸法
  6
CONTINUOUS
 10
-126.32236
 20
1.580877
 11
-126.32236
 21
-81.319098
  0
POINT
  8
寸法
 10
-126.32236
 20
1.580877
 50
-90.0
  0
POINT
  8
寸法
 10
-126.32236
 20
-81.319098
 50
-90.0
  0
TEXT
  7
TextStyle03
  8
寸法
  6
CONTINUOUS
 10
-126.675
 20
-44.275
  1
82.9
 40
4.0
 50
90.0
 72
     5
 11
-126.675
 21
-35.525
  0
ENDBLK
  0
BLOCK
  2
*DIM_0033
 70
    65
 10
0.0
 20
0.0
  0
LINE
  8
寸法
  6
CONTINUOUS
 10
-19.364295
 20
-81.319098
 11
-134.375888
 21
-81.319098
  0
LINE
  8
寸法
  6
CONTINUOUS
 10
97.993045
 20
59.080907
 11
-134.375888
 21
59.080907
  0
LINE
  8
寸法
  6
CONTINUOUS
 10
-134.375888
 20
-81.319098
 11
-134.375888
 21
59.080907
  0
POINT
  8
寸法
 10
-134.375888
 20
-81.319098
 50
-90.0
  0
POINT
  8
寸法
 10
-134.375888
 20
59.080907
 50
-90.0
  0
TEXT
  7
TextStyle03
  8
寸法
  6
CONTINUOUS
 10
-134.725
 20
-16.65
  1
140.4
 40
4.0
 50
90.0
 72
     5
 11
-134.725
 21
-5.65
  0
ENDBLK
  0
BLOCK
  2
*GRP_0034
 70
    65
 10
0.0
 20
0.0
  0
LINE
  8
鉄骨等
  6
CONTINUOUS
 10
20.635707
 20
-81.319098
 11
20.635707
 21
-79.819098
  0
LINE
  8
鉄骨等
  6
CONTINUOUS
 10
20.635707
 20
-79.819098
 11
11.434243
 21
-79.819098
  0
LINE
  8
鉄骨等
  6
CONTINUOUS
 10
9.934243
 20
-77.3191
 11
9.934243
 21
-79.819098
  0
LINE
  8
鉄骨等
  6
CONTINUOUS
 10
9.934243
 20
-77.3191
 11
7.93424
 21
-77.3191
  0
LINE
  8
鉄骨等
  6
CONTINUOUS
 10
9.934243
 20
-76.319103
 11
7.93424
 21
-76.319103
  0
LINE
  8
鉄骨等
  6
CONTINUOUS
 10
7.93424
 20
-77.3191
 11
7.93424
 21
-76.319103
  0
LINE
  8
鉄骨等
  6
CONTINUOUS
 10
4.835705
 20
-60.419095
 11
4.835705
 21
-58.419092
  0
LINE
  8
鉄骨等
  6
CONTINUOUS
 10
4.835705
 20
-66.419095
 11
4.835705
 21
-68.419098
  0
LINE
  8
鉄骨等
  6
CONTINUOUS
 10
4.835705
 20
-66.419095
 11
9.934243
 21
-65.399388
  0
LINE
  8
鉄骨等
  6
CONTINUOUS
 10
9.934243
 20
-65.399388
 11
9.934243
 21
-61.438803
  0
LINE
  8
鉄骨等
  6
CONTINUOUS
 10
4.835705
 20
-60.419095
 11
9.934243
 21
-61.438803
  0
LINE
  8
鉄骨等
  6
CONTINUOUS
 10
6.335705
 20
-68.419098
 11
6.335705
 21
-67.419092
  0
LINE
  8
鉄骨等
  6
CONTINUOUS
 10
4.835705
 20
-68.419098
 11
6.335705
 21
-68.419098
  0
LINE
  8
鉄骨等
  6
CONTINUOUS
 10
4.835705
 20
-58.419092
 11
6.335705
 21
-58.419092
  0
LINE
  8
鉄骨等
  6
CONTINUOUS
 10
6.335705
 20
-59.419098
 11
6.335705
 21
-58.419092
  0
LINE
  8
鉄骨等
  6
CONTINUOUS
 10
6.335705
 20
-59.419098
 11
11.434243
 21
-59.419098
  0
LINE
  8
鉄骨等
  6
CONTINUOUS
 10
6.335705
 20
-67.419092
 11
9.934243
 21
-67.419092
  0
LINE
  8
鉄骨等
  6
CONTINUOUS
 10
9.934243
 20
-76.319103
 11
9.934243
 21
-67.419092
  0
LINE
  8
鉄骨等
  6
CONTINUOUS
 10
-47.334677
 20
-38.723492
 11
-44.102335
 21
-38.723492
  0
LINE
  8
鉄骨等
  6
CONTINUOUS
 10
-44.102335
 20
-38.723492
 11
-42.83458
 21
-40.27036
  0
LINE
  8
鉄骨等
  6
CONTINUOUS
 10
-42.83458
 20
-40.27036
 11
-42.06115
 21
-39.636482
  0
LINE
  8
鉄骨等
  6
CONTINUOUS
 10
20.635707
 20
-81.319098
 11
-14.364295
 21
-81.319098
  0
LINE
  8
鉄骨等
  6
CONTINUOUS
 10
-47.334677
 20
-38.723492
 11
-14.180215
 21
-79.177315
  0
LINE
  8
鉄骨等
  6
CONTINUOUS
 10
9.934243
 20
-79.819098
 11
-12.82444
 21
-79.819098
  0
LINE
  8
鉄骨等
  6
CONTINUOUS
 10
-14.180215
 20
-79.177315
 11
-12.996782
 21
-76.677318
  0
LINE
  8
鉄骨等
  6
CONTINUOUS
 10
-12.82444
 20
-79.819098
 11
-11.641007
 21
-77.3191
  0
LINE
  8
鉄骨等
  6
CONTINUOUS
 10
-12.996782
 20
-76.677318
 11
-14.264538
 21
-75.13045
  0
LINE
  8
鉄骨等
  6
CONTINUOUS
 10
-14.264538
 20
-75.13045
 11
-13.4911
 21
-74.496572
  0
LINE
  8
鉄骨等
  6
CONTINUOUS
 10
-11.997422
 20
-76.319103
 11
-13.4911
 21
-74.496572
  0
LINE
  8
鉄骨等
  6
CONTINUOUS
 10
-11.641007
 20
-77.3191
 11
-9.641005
 21
-77.3191
  0
LINE
  8
鉄骨等
  6
CONTINUOUS
 10
-9.641005
 20
-77.3191
 11
-9.641005
 21
-76.319103
  0
LINE
  8
鉄骨等
  6
CONTINUOUS
 10
-11.997422
 20
-76.319103
 11
-9.641005
 21
-76.319103
  0
LINE
  8
鉄骨等
  6
CONTINUOUS
 10
11.134243
 20
-63.419095
 11
11.434243
 21
-63.119095
  0
LINE
  8
鉄骨等
  6
CONTINUOUS
 10
11.134243
 20
-63.419095
 11
11.434243
 21
-63.719095
  0
LINE
  8
鉄骨等
  6
CONTINUOUS
 10
11.434243
 20
-63.119095
 11
11.434243
 21
-59.419098
  0
ARC
  8
鉄骨等
  6
CONTINUOUS
 10
16.134251
 20
-68.41909
 40
0.5
 50
270.0
 51
360.0
  0
LINE
  8
鉄骨等
  6
CONTINUOUS
 10
16.634247
 20
-68.41909
 11
16.634247
 21
-67.919095
  0
ARC
  8
鉄骨等
  6
CONTINUOUS
 10
16.134251
 20
-67.91909
 40
0.5
 50
0.0
 51
90.0
  0
LINE
  8
鉄骨等
  6
CONTINUOUS
 10
11.434243
 20
-79.819098
 11
11.434243
 21
-68.919092
  0
LINE
  8
鉄骨等
  6
CONTINUOUS
 10
16.134245
 20
-68.919092
 11
11.434243
 21
-68.919092
  0
LINE
  8
鉄骨等
  6
CONTINUOUS
 10
16.134245
 20
-67.419092
 11
11.434243
 21
-67.419092
  0
LINE
  8
鉄骨等
  6
CONTINUOUS
 10
11.434243
 20
-63.719095
 11
11.434243
 21
-67.419092
  0
LINE
  8
鉄骨等
  6
CONTINUOUS
 10
-74.364295
 20
-37.723495
 11
-43.628965
 21
-37.723495
  0
LINE
  8
鉄骨等
  6
CONTINUOUS
 10
-42.06115
 20
-39.636482
 11
-43.628965
 21
-37.723495
  0
LINE
  8
鉄骨等
  6
CONTINUOUS
 10
-14.364295
 20
-81.319098
 11
-48.864303
 21
-39.223495
  0
LINE
  8
鉄骨等
  6
CONTINUOUS
 10
-74.364295
 20
-37.723495
 11
-74.364295
 21
-39.723498
  0
LINE
  8
鉄骨等
  6
CONTINUOUS
 10
-74.364295
 20
-39.723498
 11
-72.364293
 21
-39.723498
  0
LINE
  8
鉄骨等
  6
CONTINUOUS
 10
-72.364293
 20
-39.723498
 11
-72.364293
 21
-39.223495
  0
LINE
  8
鉄骨等
  6
CONTINUOUS
 10
-62.364295
 20
-39.423498
 11
-62.664295
 21
-39.723498
  0
LINE
  8
鉄骨等
  6
CONTINUOUS
 10
-62.364295
 20
-39.423498
 11
-62.064295
 21
-39.723498
  0
LINE
  8
鉄骨等
  6
CONTINUOUS
 10
-62.064295
 20
-39.723498
 11
-58.364297
 21
-39.723498
  0
LINE
  8
鉄骨等
  6
CONTINUOUS
 10
-62.664295
 20
-39.723498
 11
-66.364293
 21
-39.723498
  0
LINE
  8
鉄骨等
  6
CONTINUOUS
 10
-72.364293
 20
-39.223495
 11
-66.864295
 21
-39.223495
  0
LINE
  8
鉄骨等
  6
CONTINUOUS
 10
-66.364293
 20
-39.723498
 11
-66.864295
 21
-39.223495
  0
LINE
  8
鉄骨等
  6
CONTINUOUS
 10
-58.364297
 20
-39.723498
 11
-57.864295
 21
-39.223495
  0
LINE
  8
鉄骨等
  6
CONTINUOUS
 10
-48.864303
 20
-39.223495
 11
-57.864295
 21
-39.223495
  0
ENDBLK
  0
BLOCK
  2
*GRP_0035
 70
    65
 10
0.0
 20
0.0
  0
ARC
  8
別途部材
  6
CONTINUOUS
 62
    96
 10
-76.86201
 20
-42.996364
 40
5.005952
 50
180.001373
 51
248.200992
  0
LINE
  8
別途部材
  6
CONTINUOUS
 62
    96
 10
-84.871533
 20
-48.419117
 11
-84.871533
 21
1.580877
  0
LINE
  8
別途部材
  6
CONTINUOUS
 62
    96
 10
-81.867947
 20
-42.996363
 11
-81.867947
 21
3.245442
  0
LINE
  8
別途部材
  6
CONTINUOUS
 10
-54.871533
 20
-60.419095
 11
-54.871533
 21
-57.18415
  0
LINE
  8
別途部材
  6
CONTINUOUS
 62
    96
 10
-84.871533
 20
-48.419117
 11
-54.871533
 21
-60.419095
  0
LINE
  8
別途部材
  6
CONTINUOUS
 62
    96
 10
-78.72115
 20
-47.644308
 11
-54.871533
 21
-57.18415
  0
ARC
  8
別途部材
  6
CONTINUOUS
 10
-1.306608
 20
133.670751
 40
156.303653
 50
230.688004
 51
237.681046
  0
ARC
  8
別途部材
  6
CONTINUOUS
 10
-1.306608
 20
133.670751
 40
153.3
 50
229.762604
 51
238.297129
  0
ENDBLK
  0
BLOCK
  2
*GRP_0036
 70
    65
 10
0.0
 20
0.0
  0
LINE
  8
別途部材
  6
CONTINUOUS
 62
   111
 10
-78.867947
 20
-29.919107
 11
-77.364362
 21
-29.919107
  0
LINE
  8
別途部材
  6
CONTINUOUS
 62
   111
 10
-78.867947
 20
1.580885
 11
-78.867947
 21
-29.919107
  0
LINE
  8
別途部材
  6
CONTINUOUS
 62
   111
 10
-77.364362
 20
-29.919107
 11
-77.364362
 21
2.205792
  0
ARC
  8
別途部材
  6
CONTINUOUS
 62
   111
 10
54.016393
 20
133.670751
 40
187.3659
 50
214.53512
 51
224.82821
  0
ARC
  8
別途部材
  6
CONTINUOUS
 62
   111
 10
54.016393
 20
133.670751
 40
185.859998
 50
213.85466
 51
225.018355
  0
ENDBLK
  0
BLOCK
  2
*GRP_0037
 70
    65
 10
0.0
 20
0.0
  0
ARC
  8
St
  6
CONTINUOUS
 10
-76.3644
 20
-2.96553
 40
1.0
 50
90.0
 51
180.0
  0
LINE
  8
St
  6
CONTINUOUS
 10
-76.364402
 20
-1.965528
 11
-75.364397
 21
-1.965528
  0
ARC
  8
St
  6
CONTINUOUS
 10
-75.3644
 20
-2.96553
 40
1.0
 50
0.0
 51
90.0
  0
LINE
  8
St
  6
CONTINUOUS
 10
-74.3644
 20
-40.965528
 11
-74.3644
 21
-2.965525
  0
ARC
  8
St
  6
CONTINUOUS
 10
-75.3644
 20
-40.965527
 40
1.0
 50
-90.0
 51
0.0
  0
LINE
  8
St
  6
CONTINUOUS
 10
-76.364402
 20
-41.965525
 11
-75.364397
 21
-41.965525
  0
LINE
  8
St
  6
CONTINUOUS
 10
-77.3644
 20
-40.965528
 11
-77.3644
 21
-2.965525
  0
ARC
  8
St
  6
CONTINUOUS
 10
-76.3644
 20
-40.965527
 40
1.0
 50
180.0
 51
270.0
  0
LINE
  8
St
  6
CONTINUOUS
 10
-75.467478
 20
-1.965528
 11
-74.3644
 21
-3.068605
  0
LINE
  8
St
  6
CONTINUOUS
 10
-77.174755
 20
-2.37958
 11
-74.3644
 21
-5.189935
  0
LINE
  8
St
  6
CONTINUOUS
 10
-77.3644
 20
-8.553895
 11
-74.3644
 21
-11.553895
  0
LINE
  8
St
  6
CONTINUOUS
 10
-77.3644
 20
-6.432565
 11
-74.3644
 21
-9.432565
  0
LINE
  8
St
  6
CONTINUOUS
 10
-77.3644
 20
-4.31125
 11
-74.3644
 21
-7.31125
  0
LINE
  8
St
  6
CONTINUOUS
 10
-77.3644
 20
-19.160485
 11
-74.3644
 21
-22.160485
  0
LINE
  8
St
  6
CONTINUOUS
 10
-77.3644
 20
-17.03917
 11
-74.3644
 21
-20.03917
  0
LINE
  8
St
  6
CONTINUOUS
 10
-77.3644
 20
-14.917855
 11
-74.3644
 21
-17.917855
  0
LINE
  8
St
  6
CONTINUOUS
 10
-77.3644
 20
-12.796525
 11
-74.3644
 21
-15.796525
  0
LINE
  8
St
  6
CONTINUOUS
 10
-77.3644
 20
-10.67521
 11
-74.3644
 21
-13.67521
  0
LINE
  8
St
  6
CONTINUOUS
 10
-77.3644
 20
-25.52446
 11
-74.3644
 21
-28.52446
  0
LINE
  8
St
  6
CONTINUOUS
 10
-77.3644
 20
-23.40313
 11
-74.3644
 21
-26.40313
  0
LINE
  8
St
  6
CONTINUOUS
 10
-77.3644
 20
-21.281815
 11
-74.3644
 21
-24.281815
  0
LINE
  8
St
  6
CONTINUOUS
 10
-77.3644
 20
-36.13105
 11
-74.3644
 21
-39.13105
  0
LINE
  8
St
  6
CONTINUOUS
 10
-77.3644
 20
-34.009735
 11
-74.3644
 21
-37.009735
  0
LINE
  8
St
  6
CONTINUOUS
 10
-77.3644
 20
-31.88842
 11
-74.3644
 21
-34.88842
  0
LINE
  8
St
  6
CONTINUOUS
 10
-77.3644
 20
-29.76709
 11
-74.3644
 21
-32.76709
  0
LINE
  8
St
  6
CONTINUOUS
 10
-77.3644
 20
-27.645775
 11
-74.3644
 21
-30.645775
  0
LINE
  8
St
  6
CONTINUOUS
 10
-77.3644
 20
-38.25238
 11
-74.397205
 21
-41.219575
  0
LINE
  8
St
  6
CONTINUOUS
 10
-77.3644
 20
-40.373695
 11
-75.77257
 21
-41.965525
  0
ENDBLK
  0
BLOCK
  2
*GRP_0038
 70
    65
 10
0.0
 20
0.0
  0
ARC
  8
St
  6
CONTINUOUS
 10
-80.867948
 20
-2.96553
 40
1.0
 50
90.0
 51
180.0
  0
LINE
  8
St
  6
CONTINUOUS
 10
-80.86795
 20
-1.965528
 11
-79.867945
 21
-1.965528
  0
ARC
  8
St
  6
CONTINUOUS
 10
-79.867947
 20
-2.96553
 40
1.0
 50
0.0
 51
90.0
  0
LINE
  8
St
  6
CONTINUOUS
 10
-78.867947
 20
-40.965528
 11
-78.867947
 21
-2.965525
  0
ARC
  8
St
  6
CONTINUOUS
 10
-79.867947
 20
-40.965527
 40
1.0
 50
-90.0
 51
0.0
  0
LINE
  8
St
  6
CONTINUOUS
 10
-80.86795
 20
-41.965525
 11
-79.867945
 21
-41.965525
  0
LINE
  8
St
  6
CONTINUOUS
 10
-81.867947
 20
-40.965528
 11
-81.867947
 21
-2.965525
  0
ARC
  8
St
  6
CONTINUOUS
 10
-80.867948
 20
-40.965527
 40
1.0
 50
180.0
 51
270.0
  0
LINE
  8
St
  6
CONTINUOUS
 10
-79.971025
 20
-1.965528
 11
-78.867947
 21
-3.068605
  0
LINE
  8
St
  6
CONTINUOUS
 10
-81.678302
 20
-2.37958
 11
-78.867947
 21
-5.189935
  0
LINE
  8
St
  6
CONTINUOUS
 10
-81.867947
 20
-8.553895
 11
-78.867947
 21
-11.553895
  0
LINE
  8
St
  6
CONTINUOUS
 10
-81.867947
 20
-6.432565
 11
-78.867947
 21
-9.432565
  0
LINE
  8
St
  6
CONTINUOUS
 10
-81.867947
 20
-4.31125
 11
-78.867947
 21
-7.31125
  0
LINE
  8
St
  6
CONTINUOUS
 10
-81.867947
 20
-19.160485
 11
-78.867947
 21
-22.160485
  0
LINE
  8
St
  6
CONTINUOUS
 10
-81.867947
 20
-17.03917
 11
-78.867947
 21
-20.03917
  0
LINE
  8
St
  6
CONTINUOUS
 10
-81.867947
 20
-14.917855
 11
-78.867947
 21
-17.917855
  0
LINE
  8
St
  6
CONTINUOUS
 10
-81.867947
 20
-12.796525
 11
-78.867947
 21
-15.796525
  0
LINE
  8
St
  6
CONTINUOUS
 10
-81.867947
 20
-10.67521
 11
-78.867947
 21
-13.67521
  0
LINE
  8
St
  6
CONTINUOUS
 10
-81.867947
 20
-25.52446
 11
-78.867947
 21
-28.52446
  0
LINE
  8
St
  6
CONTINUOUS
 10
-81.867947
 20
-23.40313
 11
-78.867947
 21
-26.40313
  0
LINE
  8
St
  6
CONTINUOUS
 10
-81.867947
 20
-21.281815
 11
-78.867947
 21
-24.281815
  0
LINE
  8
St
  6
CONTINUOUS
 10
-81.867947
 20
-36.13105
 11
-78.867947
 21
-39.13105
  0
LINE
  8
St
  6
CONTINUOUS
 10
-81.867947
 20
-34.009735
 11
-78.867947
 21
-37.009735
  0
LINE
  8
St
  6
CONTINUOUS
 10
-81.867947
 20
-31.88842
 11
-78.867947
 21
-34.88842
  0
LINE
  8
St
  6
CONTINUOUS
 10
-81.867947
 20
-29.76709
 11
-78.867947
 21
-32.76709
  0
LINE
  8
St
  6
CONTINUOUS
 10
-81.867947
 20
-27.645775
 11
-78.867947
 21
-30.645775
  0
LINE
  8
St
  6
CONTINUOUS
 10
-81.867947
 20
-38.25238
 11
-78.900752
 21
-41.219575
  0
LINE
  8
St
  6
CONTINUOUS
 10
-81.867947
 20
-40.373695
 11
-80.276117
 21
-41.965525
  0
ENDBLK
  0
BLOCK
  2
*GRP_0039
 70
    65
 10
0.0
 20
0.0
  0
LINE
  8
St
  6
CONTINUOUS
 10
9.934243
 20
-50.919078
 11
9.934228
 21
-33.919075
  0
LINE
  8
St
  6
CONTINUOUS
 10
9.934243
 20
-50.919078
 11
-0.164297
 21
-50.919078
  0
LINE
  8
St
  6
CONTINUOUS
 10
6.935713
 20
-33.919075
 11
9.934228
 21
-33.919075
  0
LINE
  8
St
  6
CONTINUOUS
 10
-1.664297
 20
-68.41909
 11
-0.164297
 21
-68.41909
  0
LINE
  8
St
  6
CONTINUOUS
 10
-56.864297
 20
-32.723492
 11
-56.864297
 21
-33.023492
  0
LINE
  8
St
  6
CONTINUOUS
 10
-56.864297
 20
-33.023492
 11
-57.3643
 21
-33.023492
  0
LINE
  8
St
  6
CONTINUOUS
 10
-57.3643
 20
-33.023492
 11
-57.3643
 21
-32.723492
  0
LINE
  8
St
  6
CONTINUOUS
 10
-18.564332
 20
-18.4192
 11
-23.564343
 21
-18.4192
  0
LINE
  8
St
  6
CONTINUOUS
 10
-23.564343
 20
-18.4192
 11
-27.06424
 21
-14.919122
  0
LINE
  8
St
  6
CONTINUOUS
 10
-28.564353
 20
-14.919122
 11
-27.06424
 21
-14.919122
  0
LINE
  8
St
  6
CONTINUOUS
 10
-2.56429
 20
-18.42349
 11
2.435705
 21
-18.42349
  0
LINE
  8
St
  6
CONTINUOUS
 10
-2.56429
 20
-18.42349
 11
-2.56429
 21
-20.643152
  0
LINE
  8
St
  6
CONTINUOUS
 10
-18.564332
 20
-20.643182
 11
-18.564332
 21
-18.4192
  0
ARC
  8
St
  6
CONTINUOUS
 10
7.435711
 20
-5.92348
 40
2.2
 50
90.0
 51
270.0
  0
LINE
  8
St
  6
CONTINUOUS
 10
-31.417458
 20
-4.92349
 11
-32.56429
 21
-4.92349
  0
LINE
  8
St
  6
CONTINUOUS
 10
-31.417458
 20
-4.92349
 11
-32.56429
 21
-6.42349
  0
LINE
  8
St
  6
CONTINUOUS
 10
11.435713
 20
-4.92349
 11
10.288873
 21
-4.92349
  0
LINE
  8
St
  6
CONTINUOUS
 10
10.288873
 20
-4.92349
 11
11.435713
 21
-6.42349
  0
LINE
  8
St
  6
CONTINUOUS
 10
11.435713
 20
-4.92349
 11
11.435713
 21
1.576512
  0
LINE
  8
St
  6
CONTINUOUS
 10
11.435713
 20
1.576512
 11
7.435707
 21
1.576512
  0
LINE
  8
St
  6
CONTINUOUS
 10
7.435707
 20
-3.72349
 11
7.435707
 21
1.576512
  0
LINE
  8
St
  6
CONTINUOUS
 10
-28.564293
 20
1.576512
 11
-32.56429
 21
1.576512
  0
LINE
  8
St
  6
CONTINUOUS
 10
-32.56429
 20
-4.92349
 11
-32.56429
 21
1.576512
  0
ARC
  8
St
  6
CONTINUOUS
 10
-28.564281
 20
-5.919071
 40
2.5
 50
300.705753
 51
419.293349
  0
LINE
  8
St
  6
CONTINUOUS
 10
-32.56429
 20
-18.4192
 11
-32.56429
 21
-6.42349
  0
LINE
  8
St
  6
CONTINUOUS
 10
-71.364295
 20
-21.919128
 11
-72.364293
 21
-22.919125
  0
LINE
  8
St
  6
CONTINUOUS
 10
-54.564272
 20
-30.72349
 11
-54.564272
 21
-18.419095
  0
LINE
  8
St
  6
CONTINUOUS
 10
-72.364293
 20
-13.91911
 11
-71.364295
 21
-14.919107
  0
LINE
  8
St
  6
CONTINUOUS
 10
-71.364295
 20
-21.919128
 11
-71.364295
 21
-14.919107
  0
LINE
  8
St
  6
CONTINUOUS
 10
-56.864297
 20
-32.723492
 11
-30.064285
 21
-32.723492
  0
LINE
  8
St
  6
CONTINUOUS
 10
-30.064285
 20
-33.919075
 11
-30.064285
 21
-32.723492
  0
LINE
  8
St
  6
CONTINUOUS
 10
-74.364295
 20
-18.719117
 11
-74.064295
 21
-18.419117
  0
LINE
  8
St
  6
CONTINUOUS
 10
-74.064295
 20
-18.419117
 11
-74.364295
 21
-18.119117
  0
LINE
  8
St
  6
CONTINUOUS
 10
-72.364293
 20
-13.91911
 11
-72.364293
 21
-10.723495
  0
LINE
  8
St
  6
CONTINUOUS
 10
-32.56429
 20
-18.419095
 11
-42.964232
 21
-18.419095
  0
POLYLINE
  8
St
  6
CONTINUOUS
 66
     1
  0
VERTEX
  8
St
 10
-0.164297
 20
-63.719088
  0
VERTEX
  8
St
 10
-0.464297
 20
-63.419088
  0
VERTEX
  8
St
 10
-0.164297
 20
-63.119088
  0
SEQEND
  0
POLYLINE
  8
St
  6
CONTINUOUS
 66
     1
  0
VERTEX
  8
St
 10
-1.664297
 20
-66.419088
  0
VERTEX
  8
St
 10
-2.1643
 20
-65.919085
  0
VERTEX
  8
St
 10
-2.1643
 20
-60.91909
  0
VERTEX
  8
St
 10
-1.664297
 20
-60.419088
  0
SEQEND
  0
LINE
  8
St
  6
CONTINUOUS
 10
-1.664297
 20
-68.41909
 11
-1.664297
 21
-66.419088
  0
LINE
  8
St
  6
CONTINUOUS
 10
-0.164297
 20
-68.41909
 11
-0.164297
 21
-63.719088
  0
LINE
  8
St
  6
CONTINUOUS
 10
-0.164297
 20
-63.119088
 11
-0.164297
 21
-52.419078
  0
ARC
  8
St
  6
CONTINUOUS
 10
14.234213
 20
-51.919074
 40
0.5
 50
270.0
 51
360.0
  0
LINE
  8
St
  6
CONTINUOUS
 10
14.734212
 20
-51.919075
 11
14.734212
 21
-51.419073
  0
ARC
  8
St
  6
CONTINUOUS
 10
14.234213
 20
-51.419074
 40
0.5
 50
0.0
 51
90.0
  0
LINE
  8
St
  6
CONTINUOUS
 10
-74.364295
 20
-32.723492
 11
-74.364295
 21
-18.719117
  0
LINE
  8
St
  6
CONTINUOUS
 10
-74.364295
 20
-18.119117
 11
-74.364295
 21
-9.223495
  0
LINE
  8
St
  6
CONTINUOUS
 10
-72.364293
 20
-22.919125
 11
-72.364293
 21
-25.286553
  0
LINE
  8
St
  6
CONTINUOUS
 10
-54.564272
 20
-30.72349
 11
-66.927362
 21
-30.72349
  0
LINE
  8
St
  6
CONTINUOUS
 10
14.23421
 20
-52.419078
 11
8.234247
 21
-52.419078
  0
LINE
  8
St
  6
CONTINUOUS
 10
7.634247
 20
-52.419078
 11
-0.164297
 21
-52.419078
  0
ARC
  8
St
  6
CONTINUOUS
 10
-70.471498
 20
-26.225788
 40
0.75
 50
272.457576
 51
452.457232
  0
ARC
  8
St
  6
CONTINUOUS
 10
-67.866597
 20
-28.830689
 40
0.75
 50
357.542364
 51
537.542397
  0
ARC
  8
St
  6
CONTINUOUS
 10
-70.364297
 20
-28.723489
 40
1.75
 50
92.457615
 51
357.542407
  0
ARC
  8
St
  6
CONTINUOUS
 10
-70.364297
 20
-28.723489
 40
3.25
 50
92.457518
 51
113.578083
  0
ARC
  8
St
  6
CONTINUOUS
 10
-71.864292
 20
-25.286554
 40
0.5
 50
180.0
 51
293.578083
  0
ARC
  8
St
  6
CONTINUOUS
 10
-70.364297
 20
-28.723489
 40
3.25
 50
336.421841
 51
357.542389
  0
ARC
  8
St
  6
CONTINUOUS
 10
-66.927365
 20
-30.223487
 40
0.5
 50
156.421841
 51
270.0
  0
LINE
  8
St
  6
CONTINUOUS
 10
7.934247
 20
-52.119078
 11
7.634247
 21
-52.419078
  0
LINE
  8
St
  6
CONTINUOUS
 10
7.934247
 20
-52.119078
 11
8.234247
 21
-52.419078
  0
LINE
  8
St
  6
CONTINUOUS
 10
-28.564353
 20
-14.919122
 11
-28.564353
 21
-8.068585
  0
LINE
  8
St
  6
CONTINUOUS
 10
-27.28771
 20
-8.068585
 11
-28.564353
 21
-8.068585
  0
LINE
  8
St
  6
CONTINUOUS
 10
-27.28768
 20
-3.7696
 11
-28.564293
 21
-3.7696
  0
LINE
  8
St
  6
CONTINUOUS
 10
-28.564293
 20
1.576512
 11
-28.564293
 21
-3.7696
  0
LINE
  8
St
  6
CONTINUOUS
 10
-53.064272
 20
-30.72349
 11
-53.064272
 21
-19.919095
  0
LINE
  8
St
  6
CONTINUOUS
 10
2.435705
 20
-18.42349
 11
5.940072
 21
-14.919122
  0
LINE
  8
St
  6
CONTINUOUS
 10
7.435707
 20
-8.123485
 11
7.435707
 21
-14.919122
  0
LINE
  8
St
  6
CONTINUOUS
 10
5.940072
 20
-14.919122
 11
7.435707
 21
-14.919122
  0
LINE
  8
St
  6
CONTINUOUS
 10
-28.564285
 20
-20.923488
 11
-28.564293
 21
-29.095982
  0
LINE
  8
St
  6
CONTINUOUS
 10
-26.472768
 20
-29.656405
 11
-28.564293
 21
-29.095982
  0
ARC
  8
St
  6
CONTINUOUS
 10
-26.731586
 20
-30.62233
 40
1.0
 50
348.4746
 51
434.999996
  0
ARC
  8
St
  6
CONTINUOUS
 10
5.603014
 20
-30.62233
 40
1.0
 50
105.000004
 51
191.5254
  0
ARC
  8
St
  6
CONTINUOUS
 10
-10.564285
 20
-33.919069
 40
15.500003
 50
168.4746
 51
371.5254
  0
LINE
  8
St
  6
CONTINUOUS
 10
5.34419
 20
-29.656405
 11
7.435722
 21
-29.095982
  0
ARC
  8
St
  6
CONTINUOUS
 10
-10.564285
 20
-33.919071
 40
19.5
 50
180.0
 51
221.955436
  0
LINE
  8
St
  6
CONTINUOUS
 10
-25.065752
 20
-46.955845
 11
-25.065752
 21
-50.919078
  0
LINE
  8
St
  6
CONTINUOUS
 10
-23.364303
 20
-53.119075
 11
-23.664303
 21
-53.419075
  0
LINE
  8
St
  6
CONTINUOUS
 10
-23.364303
 20
-53.119075
 11
-23.064303
 21
-53.419075
  0
LINE
  8
St
  6
CONTINUOUS
 10
-1.664297
 20
-60.419088
 11
-1.664297
 21
-53.419075
  0
LINE
  8
St
  6
CONTINUOUS
 10
-25.065752
 20
-50.919078
 11
-26.365758
 21
-50.919078
  0
LINE
  8
St
  6
CONTINUOUS
 10
-27.365755
 20
-51.919075
 11
-27.365755
 21
-53.419075
  0
LINE
  8
St
  6
CONTINUOUS
 10
-54.564272
 20
-18.419095
 11
-44.464232
 21
-18.419095
  0
LINE
  8
St
  6
CONTINUOUS
 10
-52.264232
 20
-13.919095
 11
-52.264232
 21
-15.419095
  0
LINE
  8
St
  6
CONTINUOUS
 10
-52.264232
 20
-15.419095
 11
-44.464232
 21
-15.419095
  0
LINE
  8
St
  6
CONTINUOUS
 10
-47.464232
 20
-14.219095
 11
-47.764232
 21
-13.919095
  0
LINE
  8
St
  6
CONTINUOUS
 10
-47.464232
 20
-14.219095
 11
-47.164232
 21
-13.919095
  0
LINE
  8
St
  6
CONTINUOUS
 10
-52.264232
 20
-13.919095
 11
-47.764232
 21
-13.919095
  0
LINE
  8
St
  6
CONTINUOUS
 10
-47.164232
 20
-13.919095
 11
-42.964232
 21
-13.919095
  0
LINE
  8
St
  6
CONTINUOUS
 10
-44.464232
 20
-18.419095
 11
-44.464232
 21
-15.419095
  0
LINE
  8
St
  6
CONTINUOUS
 10
-42.964232
 20
-18.419095
 11
-42.964232
 21
-13.919095
  0
LINE
  8
St
  6
CONTINUOUS
 10
-74.364295
 20
-9.223495
 11
-69.364293
 21
-9.223495
  0
LINE
  8
St
  6
CONTINUOUS
 10
-72.364293
 20
-10.723495
 11
-69.364293
 21
-10.723495
  0
LINE
  8
St
  6
CONTINUOUS
 10
-69.364293
 20
-10.723495
 11
-69.364293
 21
-9.223495
  0
LINE
  8
St
  6
CONTINUOUS
 10
-23.664303
 20
-53.419075
 11
-27.365755
 21
-53.419075
  0
LINE
  8
St
  6
CONTINUOUS
 10
-23.064303
 20
-53.419075
 11
-1.664297
 21
-53.419075
  0
LINE
  8
St
  6
CONTINUOUS
 10
-26.365758
 20
-50.919078
 11
-27.365755
 21
-51.919075
  0
ARC
  8
St
  6
CONTINUOUS
 10
5.54291
 20
-25.42119
 40
0.75
 50
92.457576
 51
272.457232
  0
ARC
  8
St
  6
CONTINUOUS
 10
2.93801
 20
-22.816289
 40
0.75
 50
177.542364
 51
357.542397
  0
ARC
  8
St
  6
CONTINUOUS
 10
5.43571
 20
-22.92349
 40
1.75
 50
272.457615
 51
537.542407
  0
LINE
  8
St
  6
CONTINUOUS
 10
11.435713
 20
-6.42349
 11
11.435735
 21
-50.919078
  0
LINE
  8
St
  6
CONTINUOUS
 10
14.23421
 20
-50.919078
 11
11.435735
 21
-50.919078
  0
LINE
  8
St
  6
CONTINUOUS
 10
7.435722
 20
-26.360418
 11
7.435722
 21
-29.095982
  0
ARC
  8
St
  6
CONTINUOUS
 10
5.43571
 20
-22.92349
 40
3.25
 50
272.457518
 51
293.578437
  0
ARC
  8
St
  6
CONTINUOUS
 10
6.935726
 20
-26.360415
 40
0.5
 50
0.000053
 51
113.578437
  0
ARC
  8
St
  6
CONTINUOUS
 10
5.43571
 20
-22.92349
 40
3.25
 50
156.421789
 51
177.542389
  0
ARC
  8
St
  6
CONTINUOUS
 10
1.998779
 20
-21.423488
 40
0.5
 50
-23.578211
 51
90.0
  0
LINE
  8
St
  6
CONTINUOUS
 10
-0.164297
 20
-47.993515
 11
-0.164297
 21
-50.919078
  0
ARC
  8
St
  6
CONTINUOUS
 10
-10.564279
 20
-33.919068
 40
17.499997
 50
306.461684
 51
359.999975
  0
LINE
  8
St
  6
CONTINUOUS
 10
-53.064272
 20
-19.919095
 11
-30.564287
 21
-19.919095
  0
ARC
  8
St
  6
CONTINUOUS
 10
-32.45709
 20
-26.225788
 40
0.75
 50
87.542768
 51
267.542424
  0
ARC
  8
St
  6
CONTINUOUS
 10
-35.061991
 20
-28.830689
 40
0.75
 50
2.457603
 51
182.457636
  0
ARC
  8
St
  6
CONTINUOUS
 10
-32.564291
 20
-28.723489
 40
1.75
 50
182.457593
 51
447.542385
  0
LINE
  8
St
  6
CONTINUOUS
 10
-53.064272
 20
-30.72349
 11
-36.001225
 21
-30.72349
  0
ARC
  8
St
  6
CONTINUOUS
 10
-32.564291
 20
-28.723489
 40
3.25
 50
182.457611
 51
203.578172
  0
ARC
  8
St
  6
CONTINUOUS
 10
-36.001223
 20
-30.223488
 40
0.5
 50
270.0
 51
383.578172
  0
LINE
  8
St
  6
CONTINUOUS
 10
-30.564287
 20
-19.919095
 11
-30.564287
 21
-25.28656
  0
ARC
  8
St
  6
CONTINUOUS
 10
-32.564291
 20
-28.723489
 40
3.25
 50
66.421802
 51
87.542482
  0
ARC
  8
St
  6
CONTINUOUS
 10
-31.064289
 20
-25.286557
 40
0.5
 50
246.421802
 51
359.99996
  0
LINE
  8
St
  6
CONTINUOUS
 10
-28.564285
 20
-20.923488
 11
-22.896633
 21
-20.923488
  0
LINE
  8
St
  6
CONTINUOUS
 10
-21.901255
 20
-21.972393
 11
-22.896633
 21
-20.923488
  0
ARC
  8
St
  6
CONTINUOUS
 10
-10.564285
 20
-33.919069
 40
15.500003
 50
121.072924
 51
130.025403
  0
ARC
  8
St
  6
CONTINUOUS
 10
-21.175886
 20
-21.284037
 40
1.0
 50
223.500014
 51
310.025403
  0
ARC
  8
St
  6
CONTINUOUS
 10
0.047313
 20
-21.284037
 40
1.0
 50
229.974597
 51
316.499986
  0
ARC
  8
St
  6
CONTINUOUS
 10
-10.564285
 20
-33.919069
 40
15.500003
 50
49.974601
 51
58.927076
  0
LINE
  8
St
  6
CONTINUOUS
 10
0.772693
 20
-21.972393
 11
1.768063
 21
-20.923488
  0
LINE
  8
St
  6
CONTINUOUS
 10
1.99877
 20
-20.923488
 11
1.768063
 21
-20.923488
  0
LINE
  8
St
  6
DOT
 10
-10.564285
 20
-33.919067
 11
-28.564293
 21
-29.095982
  0
LINE
  8
St
  6
DOT
 10
-10.564285
 20
-33.919067
 11
-22.896633
 21
-20.923488
  0
LINE
  8
St
  6
DOT
 10
-10.564285
 20
-33.919067
 11
7.435722
 21
-29.095982
  0
LINE
  8
St
  6
DOT
 10
-10.564285
 20
-33.919067
 11
1.768063
 21
-20.923488
  0
LINE
  8
St
  6
CONTINUOUS
 10
-62.364295
 20
-32.423492
 11
-62.664295
 21
-32.723492
  0
LINE
  8
St
  6
CONTINUOUS
 10
-62.364295
 20
-32.423492
 11
-62.064295
 21
-32.723492
  0
LINE
  8
St
  6
CONTINUOUS
 10
-57.3643
 20
-32.723492
 11
-62.064295
 21
-32.723492
  0
LINE
  8
St
  6
CONTINUOUS
 10
-62.664295
 20
-32.723492
 11
-74.364295
 21
-32.723492
  0
ENDBLK
  0
BLOCK
  2
*GRP_0040
 70
    65
 10
0.0
 20
0.0
  0
LINE
  8
ボルト／ビス
  6
CONTINUOUS
 10
-22.29364
 20
-64.544848
 11
-18.490375
 21
-69.185448
  0
LINE
  8
ボルト／ビス
  6
CONTINUOUS
 10
-22.29364
 20
-64.544848
 11
-23.067077
 21
-65.178727
  0
LINE
  8
ボルト／ビス
  6
CONTINUOUS
 10
-18.490375
 20
-69.185448
 11
-19.263807
 21
-69.819322
  0
LINE
  8
ボルト／ビス
  6
CONTINUOUS
 10
-23.067077
 20
-65.178727
 11
-19.263807
 21
-69.819322
  0
LINE
  8
ボルト／ビス
  6
CONTINUOUS
 10
-21.65976
 20
-65.318282
 11
-21.65976
 21
-65.318282
  0
ARC
  8
ボルト／ビス
  6
CONTINUOUS
 10
-21.342821
 20
-65.704994
 40
0.5
 50
39.336826
 51
129.33679
  0
LINE
  8
ボルト／ビス
  6
CONTINUOUS
 10
-20.956113
 20
-65.38806
 11
-19.054472
 21
-67.708355
  0
LINE
  8
ボルト／ビス
  6
CONTINUOUS
 10
-19.12425
 20
-68.412015
 11
-19.12425
 21
-68.412015
  0
ARC
  8
ボルト／ビス
  6
CONTINUOUS
 10
-19.441187
 20
-68.025293
 40
0.5
 50
-50.66321
 51
39.336831
  0
LINE
  8
ボルト／ビス
  6
CONTINUOUS
 10
-25.774093
 20
-67.397297
 11
-21.970827
 21
-72.037897
  0
LINE
  8
ボルト／ビス
  6
CONTINUOUS
 10
-25.774093
 20
-67.397297
 11
-25.84387
 21
-68.100958
  0
LINE
  8
ボルト／ビス
  6
CONTINUOUS
 10
-21.970827
 20
-72.037897
 11
-22.674475
 21
-71.96812
  0
LINE
  8
ボルト／ビス
  6
CONTINUOUS
 10
-25.84387
 20
-68.100958
 11
-22.674475
 21
-71.96812
  0
LINE
  8
ボルト／ビス
  6
CONTINUOUS
 10
-22.433198
 20
-65.952165
 11
-25.140212
 21
-68.170735
  0
LINE
  8
ボルト／ビス
  6
CONTINUOUS
 10
-19.897682
 20
-69.045892
 11
-22.604702
 21
-71.264465
  0
ENDBLK
  0
BLOCK
  2
*GRP_0041
 70
    65
 10
0.0
 20
0.0
  0
LINE
  8
ボルト／ビス
  6
CONTINUOUS
 10
-40.94671
 20
-41.78508
 11
-37.143445
 21
-46.42568
  0
LINE
  8
ボルト／ビス
  6
CONTINUOUS
 10
-40.94671
 20
-41.78508
 11
-41.720147
 21
-42.41896
  0
LINE
  8
ボルト／ビス
  6
CONTINUOUS
 10
-37.143445
 20
-46.42568
 11
-37.916878
 21
-47.059555
  0
LINE
  8
ボルト／ビス
  6
CONTINUOUS
 10
-41.720147
 20
-42.41896
 11
-37.916878
 21
-47.059555
  0
LINE
  8
ボルト／ビス
  6
CONTINUOUS
 10
-40.31283
 20
-42.558515
 11
-40.31283
 21
-42.558515
  0
ARC
  8
ボルト／ビス
  6
CONTINUOUS
 10
-39.995891
 20
-42.945227
 40
0.5
 50
39.336826
 51
129.33679
  0
LINE
  8
ボルト／ビス
  6
CONTINUOUS
 10
-39.609183
 20
-42.628293
 11
-37.707543
 21
-44.948588
  0
LINE
  8
ボルト／ビス
  6
CONTINUOUS
 10
-37.77732
 20
-45.652247
 11
-37.77732
 21
-45.652247
  0
ARC
  8
ボルト／ビス
  6
CONTINUOUS
 10
-38.094257
 20
-45.265525
 40
0.5
 50
-50.66321
 51
39.336831
  0
LINE
  8
ボルト／ビス
  6
CONTINUOUS
 10
-44.427163
 20
-44.63753
 11
-40.623898
 21
-49.27813
  0
LINE
  8
ボルト／ビス
  6
CONTINUOUS
 10
-44.427163
 20
-44.63753
 11
-44.49694
 21
-45.34119
  0
LINE
  8
ボルト／ビス
  6
CONTINUOUS
 10
-40.623898
 20
-49.27813
 11
-41.327545
 21
-49.208353
  0
LINE
  8
ボルト／ビス
  6
CONTINUOUS
 10
-44.49694
 20
-45.34119
 11
-41.327545
 21
-49.208353
  0
LINE
  8
ボルト／ビス
  6
CONTINUOUS
 10
-41.086268
 20
-43.192397
 11
-43.793282
 21
-45.410967
  0
LINE
  8
ボルト／ビス
  6
CONTINUOUS
 10
-38.550753
 20
-46.286125
 11
-41.257773
 21
-48.504698
  0
ENDBLK
  0
BLOCK
  2
*GRP_0042
 70
    65
 10
0.0
 20
0.0
  0
LINE
  8
ボルト／ビス
  6
CONTINUOUS
 10
-4.267515
 20
-76.819095
 11
1.732485
 21
-76.819095
  0
LINE
  8
ボルト／ビス
  6
CONTINUOUS
 10
-4.267515
 20
-76.819095
 11
-4.267515
 21
-77.8191
  0
LINE
  8
ボルト／ビス
  6
CONTINUOUS
 10
1.732485
 20
-76.819095
 11
1.732485
 21
-77.819092
  0
LINE
  8
ボルト／ビス
  6
CONTINUOUS
 10
-4.267515
 20
-77.8191
 11
1.732485
 21
-77.819092
  0
LINE
  8
ボルト／ビス
  6
CONTINUOUS
 10
-3.26751
 20
-76.819095
 11
-3.26751
 21
-76.819095
  0
ARC
  8
ボルト／ビス
  6
CONTINUOUS
 10
-2.767513
 20
-76.819092
 40
0.5
 50
90.000036
 51
180.0
  0
LINE
  8
ボルト／ビス
  6
CONTINUOUS
 10
-2.767515
 20
-76.3191
 11
0.232485
 21
-76.319092
  0
LINE
  8
ボルト／ビス
  6
CONTINUOUS
 10
0.732488
 20
-76.819095
 11
0.732488
 21
-76.819095
  0
ARC
  8
ボルト／ビス
  6
CONTINUOUS
 10
0.232487
 20
-76.81909
 40
0.5
 50
0.0
 51
90.000041
  0
LINE
  8
ボルト／ビス
  6
CONTINUOUS
 10
-4.267515
 20
-81.319098
 11
1.732485
 21
-81.319098
  0
LINE
  8
ボルト／ビス
  6
CONTINUOUS
 10
-4.267515
 20
-81.319098
 11
-3.767512
 21
-81.8191
  0
LINE
  8
ボルト／ビス
  6
CONTINUOUS
 10
1.732485
 20
-81.319098
 11
1.23249
 21
-81.819092
  0
LINE
  8
ボルト／ビス
  6
CONTINUOUS
 10
-3.767512
 20
-81.8191
 11
1.23249
 21
-81.819092
  0
LINE
  8
ボルト／ビス
  6
CONTINUOUS
 10
-3.26751
 20
-77.8191
 11
-3.26751
 21
-81.319098
  0
LINE
  8
ボルト／ビス
  6
CONTINUOUS
 10
0.732488
 20
-77.819092
 11
0.732488
 21
-81.319098
  0
ENDBLK
  0
BLOCK
  2
*GRP_0043
 70
    65
 10
0.0
 20
0.0
  0
LINE
  8
ボルト／ビス
  6
CONTINUOUS
 62
    64
 10
126.135713
 20
24.580925
 11
127.183875
 21
24.489222
  0
ARC
  8
ボルト／ビス
  6
CONTINUOUS
 62
    64
 10
127.035712
 20
22.795698
 40
1.7
 50
0.0
 51
85.000011
  0
LINE
  8
ボルト／ビス
  6
CONTINUOUS
 62
    64
 10
128.735715
 20
22.795693
 11
128.735715
 21
21.080923
  0
LINE
  8
ボルト／ビス
  6
CONTINUOUS
 62
    64
 10
126.135713
 20
17.580927
 11
127.183875
 21
17.67263
  0
ARC
  8
ボルト／ビス
  6
CONTINUOUS
 62
    64
 10
127.035712
 20
19.366165
 40
1.7
 50
274.999989
 51
360.0
  0
LINE
  8
ボルト／ビス
  6
CONTINUOUS
 62
    64
 10
128.735715
 20
19.36616
 11
128.735715
 21
21.080923
  0
LINE
  8
ボルト／ビス
  6
CONTINUOUS
 62
    64
 10
128.350807
 20
23.477563
 11
128.592967
 21
23.477563
  0
LINE
  8
ボルト／ビス
  6
CONTINUOUS
 62
    64
 10
127.700722
 20
21.780927
 11
127.700722
 21
21.080923
  0
LINE
  8
ボルト／ビス
  6
CONTINUOUS
 62
    64
 10
128.350807
 20
22.180925
 11
128.350807
 21
23.477563
  0
LINE
  8
ボルト／ビス
  6
CONTINUOUS
 62
    64
 10
127.700722
 20
21.780927
 11
127.95081
 21
21.780927
  0
ARC
  8
ボルト／ビス
  6
CONTINUOUS
 62
    64
 10
127.950807
 20
22.180932
 40
0.4
 50
270.0
 51
360.0
  0
LINE
  8
ボルト／ビス
  6
CONTINUOUS
 62
    64
 10
128.350807
 20
18.684282
 11
128.592967
 21
18.684282
  0
LINE
  8
ボルト／ビス
  6
CONTINUOUS
 62
    64
 10
127.700722
 20
20.380925
 11
127.700722
 21
21.080923
  0
LINE
  8
ボルト／ビス
  6
CONTINUOUS
 62
    64
 10
128.350807
 20
19.980927
 11
128.350807
 21
18.684282
  0
LINE
  8
ボルト／ビス
  6
CONTINUOUS
 62
    64
 10
127.700722
 20
20.380925
 11
127.95081
 21
20.380925
  0
ARC
  8
ボルト／ビス
  6
CONTINUOUS
 62
    64
 10
127.950807
 20
19.980932
 40
0.4
 50
0.0
 51
90.0
  0
LINE
  8
ボルト／ビス
  6
CONTINUOUS
 62
    64
 10
126.135713
 20
24.580925
 11
126.135713
 21
17.580927
  0
LINE
  8
ボルト／ビス
  6
CONTINUOUS
 62
    64
 10
118.635713
 20
23.080925
 11
118.13571
 21
22.580923
  0
LINE
  8
ボルト／ビス
  6
CONTINUOUS
 62
    64
 10
118.635713
 20
19.080927
 11
118.13571
 21
19.580923
  0
LINE
  8
ボルト／ビス
  6
CONTINUOUS
 62
    64
 10
126.135713
 20
22.580923
 11
118.13571
 21
22.580923
  0
LINE
  8
ボルト／ビス
  6
CONTINUOUS
 62
    64
 10
126.135713
 20
23.080925
 11
118.635713
 21
23.080925
  0
LINE
  8
ボルト／ビス
  6
CONTINUOUS
 62
    64
 10
126.135713
 20
19.580923
 11
118.13571
 21
19.580923
  0
LINE
  8
ボルト／ビス
  6
CONTINUOUS
 62
    64
 10
126.135713
 20
19.080927
 11
118.635713
 21
19.080927
  0
LINE
  8
ボルト／ビス
  6
CONTINUOUS
 62
    64
 10
118.635713
 20
23.080925
 11
118.635713
 21
19.080927
  0
LINE
  8
ボルト／ビス
  6
CONTINUOUS
 62
    64
 10
118.13571
 20
22.580923
 11
118.13571
 21
19.580923
  0
LINE
  8
ボルト／ビス
  6
CONTINUOUS
 62
    64
 10
130.707098
 20
21.080923
 11
115.885215
 21
21.080923
  0
ENDBLK
  0
BLOCK
  2
*GRP_0044
 70
    65
 10
0.0
 20
0.0
  0
LINE
  8
ボルト／ビス
  6
CONTINUOUS
 62
    64
 10
126.135713
 20
-28.369067
 11
127.183875
 21
-28.46077
  0
ARC
  8
ボルト／ビス
  6
CONTINUOUS
 62
    64
 10
127.035717
 20
-30.154294
 40
1.7
 50
0.0
 51
85.000011
  0
LINE
  8
ボルト／ビス
  6
CONTINUOUS
 62
    64
 10
128.735715
 20
-30.1543
 11
128.735715
 21
-31.86907
  0
LINE
  8
ボルト／ビス
  6
CONTINUOUS
 62
    64
 10
126.135713
 20
-35.369065
 11
127.183875
 21
-35.277362
  0
ARC
  8
ボルト／ビス
  6
CONTINUOUS
 62
    64
 10
127.035717
 20
-33.583828
 40
1.7
 50
274.999989
 51
360.0
  0
LINE
  8
ボルト／ビス
  6
CONTINUOUS
 62
    64
 10
128.735715
 20
-33.583832
 11
128.735715
 21
-31.86907
  0
LINE
  8
ボルト／ビス
  6
CONTINUOUS
 62
    64
 10
128.350807
 20
-29.47243
 11
128.592967
 21
-29.47243
  0
LINE
  8
ボルト／ビス
  6
CONTINUOUS
 62
    64
 10
127.700722
 20
-31.169065
 11
127.700722
 21
-31.86907
  0
LINE
  8
ボルト／ビス
  6
CONTINUOUS
 62
    64
 10
128.350807
 20
-30.769067
 11
128.350807
 21
-29.47243
  0
LINE
  8
ボルト／ビス
  6
CONTINUOUS
 62
    64
 10
127.700722
 20
-31.169065
 11
127.95081
 21
-31.169065
  0
ARC
  8
ボルト／ビス
  6
CONTINUOUS
 62
    64
 10
127.950812
 20
-30.769061
 40
0.4
 50
270.0
 51
360.0
  0
LINE
  8
ボルト／ビス
  6
CONTINUOUS
 62
    64
 10
128.350807
 20
-34.26571
 11
128.592967
 21
-34.26571
  0
LINE
  8
ボルト／ビス
  6
CONTINUOUS
 62
    64
 10
127.700722
 20
-32.569067
 11
127.700722
 21
-31.86907
  0
LINE
  8
ボルト／ビス
  6
CONTINUOUS
 62
    64
 10
128.350807
 20
-32.969065
 11
128.350807
 21
-34.26571
  0
LINE
  8
ボルト／ビス
  6
CONTINUOUS
 62
    64
 10
127.700722
 20
-32.569067
 11
127.95081
 21
-32.569067
  0
ARC
  8
ボルト／ビス
  6
CONTINUOUS
 62
    64
 10
127.950812
 20
-32.969061
 40
0.4
 50
0.0
 51
90.0
  0
LINE
  8
ボルト／ビス
  6
CONTINUOUS
 62
    64
 10
126.135713
 20
-28.369067
 11
126.135713
 21
-35.369065
  0
LINE
  8
ボルト／ビス
  6
CONTINUOUS
 62
    64
 10
118.635713
 20
-29.869067
 11
118.13571
 21
-30.36907
  0
LINE
  8
ボルト／ビス
  6
CONTINUOUS
 62
    64
 10
118.635713
 20
-33.869065
 11
118.13571
 21
-33.36907
  0
LINE
  8
ボルト／ビス
  6
CONTINUOUS
 62
    64
 10
126.135713
 20
-30.36907
 11
118.13571
 21
-30.36907
  0
LINE
  8
ボルト／ビス
  6
CONTINUOUS
 62
    64
 10
126.135713
 20
-29.869067
 11
118.635713
 21
-29.869067
  0
LINE
  8
ボルト／ビス
  6
CONTINUOUS
 62
    64
 10
126.135713
 20
-33.36907
 11
118.13571
 21
-33.36907
  0
LINE
  8
ボルト／ビス
  6
CONTINUOUS
 62
    64
 10
126.135713
 20
-33.869065
 11
118.635713
 21
-33.869065
  0
LINE
  8
ボルト／ビス
  6
CONTINUOUS
 62
    64
 10
118.635713
 20
-29.869067
 11
118.635713
 21
-33.869065
  0
LINE
  8
ボルト／ビス
  6
CONTINUOUS
 62
    64
 10
118.13571
 20
-30.36907
 11
118.13571
 21
-33.36907
  0
LINE
  8
ボルト／ビス
  6
CONTINUOUS
 62
    64
 10
130.707098
 20
-31.86907
 11
115.885215
 21
-31.86907
  0
ENDBLK
  0
BLOCK
  2
*GRP_0045
 70
    65
 10
0.0
 20
0.0
  0
LINE
  8
St
  6
CONTINUOUS
 10
136.228747
 20
-22.719092
 11
139.428758
 21
-25.919095
  0
LINE
  8
St
  6
CONTINUOUS
 10
135.521632
 20
-22.719092
 11
138.721643
 21
-25.919095
  0
ARC
  8
St
  6
CONTINUOUS
 62
   127
 10
126.135721
 20
-22.719086
 40
3.2
 50
180.0
 51
270.0
  0
LINE
  8
St
  6
CONTINUOUS
 10
122.93571
 20
14.515393
 11
126.135713
 21
11.315397
  0
LINE
  8
St
  6
CONTINUOUS
 10
122.93571
 20
13.808285
 11
126.135713
 21
10.60829
  0
LINE
  8
St
  6
CONTINUOUS
 10
122.93571
 20
-14.12608
 11
126.135713
 21
-17.326075
  0
LINE
  8
St
  6
CONTINUOUS
 10
122.93571
 20
-14.833187
 11
126.135713
 21
-18.033183
  0
LINE
  8
St
  6
CONTINUOUS
 10
122.93571
 20
-30.119073
 11
126.135713
 21
-30.119073
  0
LINE
  8
St
  6
CONTINUOUS
 10
122.93571
 20
-33.619067
 11
126.135713
 21
-33.619067
  0
LINE
  8
St
  6
CONTINUOUS
 10
122.93571
 20
19.330925
 11
126.135713
 21
19.330925
  0
LINE
  8
St
  6
CONTINUOUS
 10
122.93571
 20
22.83092
 11
126.135713
 21
22.83092
  0
LINE
  8
St
  6
CONTINUOUS
 10
127.962803
 20
-31.86907
 11
121.305743
 21
-31.86907
  0
LINE
  8
St
  6
CONTINUOUS
 10
127.962803
 20
21.080923
 11
121.305743
 21
21.080923
  0
LINE
  8
St
  6
CONTINUOUS
 10
123.735713
 20
22.83092
 11
123.735713
 21
19.330925
  0
LINE
  8
St
  6
CONTINUOUS
 10
124.535707
 20
22.83092
 11
124.535707
 21
19.330925
  0
LINE
  8
St
  6
CONTINUOUS
 10
125.33571
 20
22.83092
 11
125.33571
 21
19.330925
  0
LINE
  8
St
  6
CONTINUOUS
 10
123.735713
 20
-30.119073
 11
123.735713
 21
-33.619067
  0
LINE
  8
St
  6
CONTINUOUS
 10
124.535707
 20
-30.119073
 11
124.535707
 21
-33.619067
  0
LINE
  8
St
  6
CONTINUOUS
 10
125.33571
 20
-30.119073
 11
125.33571
 21
-33.619067
  0
LINE
  8
St
  6
CONTINUOUS
 10
122.93571
 20
-35.725518
 11
126.135713
 21
-35.725518
  0
LINE
  8
St
  6
CONTINUOUS
 62
   127
 10
122.93571
 20
-35.725518
 11
122.93571
 21
26.080933
  0
LINE
  8
St
  6
CONTINUOUS
 62
   127
 10
126.135713
 20
-35.725518
 11
126.135713
 21
26.080933
  0
LINE
  8
St
  6
CONTINUOUS
 10
122.93571
 20
26.080933
 11
126.135713
 21
26.080933
  0
LINE
  8
St
  6
CONTINUOUS
 10
172.935698
 20
-22.719092
 11
172.935698
 21
-25.919095
  0
LINE
  8
St
  6
CONTINUOUS
 10
162.935693
 20
-22.719092
 11
162.935693
 21
-25.919095
  0
LINE
  8
St
  6
CONTINUOUS
 62
   127
 10
162.935693
 20
-23.519095
 11
172.935698
 21
-23.519095
  0
LINE
  8
St
  6
CONTINUOUS
 62
   127
 10
162.935693
 20
-24.31909
 11
172.935698
 21
-24.31909
  0
LINE
  8
St
  6
CONTINUOUS
 62
   127
 10
162.935693
 20
-25.119092
 11
172.935698
 21
-25.119092
  0
LINE
  8
St
  6
CONTINUOUS
 10
167.935695
 20
-19.59085
 11
167.935695
 21
-29.338682
  0
LINE
  8
St
  6
CONTINUOUS
 10
183.23571
 20
-22.719092
 11
183.23571
 21
-25.919095
  0
LINE
  8
St
  6
CONTINUOUS
 62
   127
 10
126.135713
 20
-22.719092
 11
183.23571
 21
-22.719092
  0
LINE
  8
St
  6
CONTINUOUS
 62
   127
 10
126.135713
 20
-25.919095
 11
183.23571
 21
-25.919095
  0
ENDBLK
  0
BLOCK
  2
*DIM_0046
 70
    65
 10
0.0
 20
0.0
  0
LINE
  8
寸法
  6
CONTINUOUS
 10
116.435648
 20
64.080925
 11
116.435648
 21
94.754598
  0
LINE
  8
寸法
  6
CONTINUOUS
 10
122.93571
 20
94.754598
 11
116.435648
 21
94.754598
  0
POINT
  8
寸法
 10
116.435648
 20
94.754598
  0
TEXT
  7
TextStyle03
  8
寸法
  6
CONTINUOUS
 10
117.2375
 20
95.125
  1
6.5
 40
3.0
 72
     5
 11
122.1125
 21
95.125
  0
ENDBLK
  0
BLOCK
  2
*DIM_0047
 70
    65
 10
0.0
 20
0.0
  0
LINE
  8
寸法
  6
CONTINUOUS
 10
102.435652
 20
64.080925
 11
102.435652
 21
94.754598
  0
LINE
  8
寸法
  6
CONTINUOUS
 10
116.435648
 20
94.754598
 11
102.435652
 21
94.754598
  0
POINT
  8
寸法
 10
102.435652
 20
94.754598
  0
TEXT
  7
TextStyle03
  8
寸法
  6
CONTINUOUS
 10
107.83125
 20
95.125
  1
14
 40
3.0
 72
     5
 11
111.01875
 21
95.125
  0
ENDBLK
  0
BLOCK
  2
*DIM_0048
 70
    65
 10
0.0
 20
0.0
  0
LINE
  8
寸法
  6
CONTINUOUS
 10
-74.564268
 20
25.58782
 11
-74.564268
 21
94.754598
  0
LINE
  8
寸法
  6
CONTINUOUS
 10
102.435652
 20
94.754598
 11
-74.564268
 21
94.754598
  0
POINT
  8
寸法
 10
-74.564268
 20
94.754598
  0
TEXT
  7
TextStyle03
  8
寸法
  6
CONTINUOUS
 10
11.4875
 20
95.125
  1
177
 40
3.0
 72
     5
 11
16.3625
 21
95.125
  0
ENDBLK
  0
BLOCK
  2
*DIM_0049
 70
    65
 10
0.0
 20
0.0
  0
LINE
  8
寸法
  6
CONTINUOUS
 10
102.437083
 20
63.78091
 11
102.437083
 21
81.936453
  0
LINE
  8
寸法
  6
CONTINUOUS
 10
68.437083
 20
81.936453
 11
102.437083
 21
81.936453
  0
POINT
  8
寸法
 10
102.437083
 20
81.936453
  0
TEXT
  7
TextStyle03
  8
寸法
  6
CONTINUOUS
 10
83.83125
 20
82.3
  1
34
 40
3.0
 72
     5
 11
87.01875
 21
82.3
  0
ENDBLK
  0
BLOCK
  2
*DIM_0050
 70
    65
 10
0.0
 20
0.0
  0
LINE
  8
寸法
  6
CONTINUOUS
 10
68.437083
 20
36.880918
 11
68.437083
 21
81.936453
  0
LINE
  8
寸法
  6
CONTINUOUS
 10
-10.564362
 20
81.936453
 11
68.437083
 21
81.936453
  0
POINT
  8
寸法
 10
68.437083
 20
81.936453
  0
TEXT
  7
TextStyle03
  8
寸法
  6
CONTINUOUS
 10
27.33125
 20
82.3
  1
79
 40
3.0
 72
     5
 11
30.51875
 21
82.3
  0
ENDBLK
  0
BLOCK
  2
*DIM_0051
 70
    65
 10
0.0
 20
0.0
  0
LINE
  8
寸法
  6
CONTINUOUS
 10
-10.564365
 20
16.237912
 11
-10.564365
 21
81.936453
  0
LINE
  8
寸法
  6
CONTINUOUS
 10
-52.564362
 20
81.936453
 11
-10.564365
 21
81.936453
  0
POINT
  8
寸法
 10
-52.564362
 20
81.936453
  0
POINT
  8
寸法
 10
-10.564365
 20
81.936453
  0
TEXT
  7
TextStyle03
  8
寸法
  6
CONTINUOUS
 10
-33.16875
 20
82.3
  1
42
 40
3.0
 72
     5
 11
-29.98125
 21
82.3
  0
ENDBLK
  0
BLOCK
  2
*DIM_0052
 70
    65
 10
0.0
 20
0.0
  0
LINE
  8
寸法
  6
CONTINUOUS
 10
-52.564362
 20
35.280907
 11
-52.564362
 21
81.936453
  0
LINE
  8
寸法
  6
CONTINUOUS
 10
-74.564355
 20
81.936453
 11
-52.564362
 21
81.936453
  0
POINT
  8
寸法
 10
-74.564355
 20
81.936453
  0
POINT
  8
寸法
 10
-52.564362
 20
81.936453
  0
TEXT
  7
TextStyle03
  8
寸法
  6
CONTINUOUS
 10
-65.16875
 20
82.3
  1
22
 40
3.0
 72
     5
 11
-61.98125
 21
82.3
  0
ENDBLK
  0
BLOCK
  2
*DIM_0053
 70
    65
 10
0.0
 20
0.0
  0
LINE
  8
寸法
  6
CONTINUOUS
 10
20.635707
 20
-86.319098
 11
20.635707
 21
-88.85263
  0
LINE
  8
寸法
  6
CONTINUOUS
 10
27.635707
 20
-86.319098
 11
27.635707
 21
-88.85263
  0
LINE
  8
寸法
  6
CONTINUOUS
 10
20.635707
 20
-88.85263
 11
27.635707
 21
-88.85263
  0
POINT
  8
寸法
 10
20.635707
 20
-88.85263
  0
POINT
  8
寸法
 10
27.635707
 20
-88.85263
  0
TEXT
  7
TextStyle03
  8
寸法
  6
CONTINUOUS
 10
23.375
 20
-88.5
  1
7
 40
3.0
 72
     5
 11
24.875
 21
-88.5
  0
ENDBLK
  0
BLOCK
  2
*DIM_0054
 70
    65
 10
0.0
 20
0.0
  0
LINE
  8
寸法
  6
CONTINUOUS
 10
-14.364295
 20
-86.319098
 11
-14.364295
 21
-88.85263
  0
LINE
  8
寸法
  6
CONTINUOUS
 10
20.635707
 20
-88.85263
 11
-14.364295
 21
-88.85263
  0
POINT
  8
寸法
 10
-14.364295
 20
-88.85263
  0
TEXT
  7
TextStyle03
  8
寸法
  6
CONTINUOUS
 10
1.53125
 20
-88.5
  1
35
 40
3.0
 72
     5
 11
4.71875
 21
-88.5
  0
ENDBLK
  0
BLOCK
  2
*DIM_0055
 70
    65
 10
0.0
 20
0.0
  0
LINE
  8
寸法
  6
CONTINUOUS
 10
-54.871533
 20
-65.419095
 11
-54.871533
 21
-88.85263
  0
LINE
  8
寸法
  6
CONTINUOUS
 10
-14.364295
 20
-88.85263
 11
-54.871533
 21
-88.85263
  0
POINT
  8
寸法
 10
-54.871533
 20
-88.85263
  0
TEXT
  7
TextStyle03
  8
寸法
  6
CONTINUOUS
 10
-38.00625
 20
-92.35
  1
40.5
 40
3.0
 72
     5
 11
-31.44375
 21
-92.35
  0
ENDBLK
  0
BLOCK
  2
*DIM_0056
 70
    65
 10
0.0
 20
0.0
  0
LINE
  8
寸法
  6
CONTINUOUS
 10
-84.871533
 20
-53.419117
 11
-84.871533
 21
-88.85263
  0
LINE
  8
寸法
  6
CONTINUOUS
 10
-54.871533
 20
-88.85263
 11
-84.871533
 21
-88.85263
  0
POINT
  8
寸法
 10
-84.871533
 20
-88.85263
  0
TEXT
  7
TextStyle03
  8
寸法
  6
CONTINUOUS
 10
-71.46875
 20
-88.5
  1
30
 40
3.0
 72
     5
 11
-68.28125
 21
-88.5
  0
ENDBLK
  0
BLOCK
  2
*GRP_0057
 70
    65
 10
0.0
 20
0.0
  0
POLYLINE
  8
寸法
  6
BYBLOCK
 62
     0
 66
     1
  0
VERTEX
  8
寸法
 10
4.962363
 20
-69.90674
  0
VERTEX
  8
寸法
 10
2.364287
 20
-68.40674
  0
VERTEX
  8
寸法
 10
3.864287
 20
-71.004815
  0
SEQEND
  0
POLYLINE
  8
寸法
  6
BYBLOCK
 62
     0
 66
     1
  0
VERTEX
  8
寸法
 10
2.364287
 20
-68.40674
  0
VERTEX
  8
寸法
 10
14.696265
 20
-80.738717
  0
VERTEX
  8
寸法
 10
14.696265
 20
-102.682903
  0
SEQEND
  0
ENDBLK
  0
BLOCK
  2
*GRP_0058
 70
    65
 10
0.0
 20
0.0
  0
LINE
  8
通り芯
  6
CONTINUOUS
 10
28.832145
 20
-79.819098
 11
28.832145
 21
-77.819095
  0
LINE
  8
通り芯
  6
CONTINUOUS
 10
28.832145
 20
-77.819095
 11
141.132135
 21
-77.819095
  0
LINE
  8
通り芯
  6
CONTINUOUS
 10
28.832145
 20
-79.819098
 11
141.132135
 21
-79.819098
  0
ARC
  8
通り芯
  6
CONTINUOUS
 10
141.132139
 20
-77.819096
 40
2.0
 50
-90.0
 51
0.0
  0
INSERT
  2
*GRP_0060
  8
通り芯
  6
DOT
 10
0.0
 20
0.0
  0
INSERT
  2
*GRP_0061
  8
通り芯
  6
DOT
 10
0.0
 20
0.0
  0
LINE
  8
通り芯
  6
CONTINUOUS
 10
143.132137
 20
-77.819095
 11
143.132137
 21
-50.319105
  0
LINE
  8
通り芯
  6
CONTINUOUS
 10
141.132135
 20
-77.819095
 11
141.132135
 21
-50.319105
  0
LINE
  8
通り芯
  6
CONTINUOUS
 10
143.132137
 20
-50.319105
 11
141.132135
 21
-50.319105
  0
ENDBLK
  0
BLOCK
  2
*GRP_0059
 70
    65
 10
0.0
 20
0.0
  0
POLYLINE
  8
寸法
  6
BYBLOCK
 62
     0
 66
     1
  0
VERTEX
  8
寸法
 10
116.632133
 20
-83.91718
  0
VERTEX
  8
寸法
 10
118.132133
 20
-81.319105
  0
VERTEX
  8
寸法
 10
115.534058
 20
-82.819105
  0
SEQEND
  0
POLYLINE
  8
寸法
  6
BYBLOCK
 62
     0
 66
     1
  0
VERTEX
  8
寸法
 10
118.132133
 20
-81.319105
  0
VERTEX
  8
寸法
 10
110.291178
 20
-89.16006
  0
VERTEX
  8
寸法
 10
110.291178
 20
-108.58655
  0
SEQEND
  0
ENDBLK
  0
BLOCK
  2
*GRP_0060
 70
    65
 10
0.0
 20
0.0
  0
LINE
  8
通り芯
  6
CONTINUOUS
 10
53.83215
 20
-76.002737
 11
53.83215
 21
-80.627605
  0
LINE
  8
通り芯
  6
CONTINUOUS
 10
52.18215
 20
-79.819105
 11
52.18215
 21
-77.819103
  0
LINE
  8
通り芯
  6
CONTINUOUS
 10
55.48215
 20
-79.819105
 11
55.48215
 21
-77.819103
  0
LINE
  8
通り芯
  6
CONTINUOUS
 10
52.18215
 20
-78.319105
 11
55.48215
 21
-78.319105
  0
LINE
  8
通り芯
  6
CONTINUOUS
 10
52.18215
 20
-78.819107
 11
55.48215
 21
-78.819107
  0
LINE
  8
通り芯
  6
CONTINUOUS
 10
52.18215
 20
-79.319103
 11
55.48215
 21
-79.319103
  0
LINE
  8
型材断面
  6
CONTINUOUS
 10
53.83215
 20
-78.319113
 11
53.83215
 21
-83.195425
  0
LINE
  8
型材断面
  6
CONTINUOUS
 10
55.48215
 20
-81.319105
 11
55.48215
 21
-79.31911
  0
LINE
  8
型材断面
  6
CONTINUOUS
 10
52.18215
 20
-81.319105
 11
52.18215
 21
-79.31911
  0
LINE
  8
型材断面
  6
CONTINUOUS
 10
52.18215
 20
-80.819103
 11
55.48215
 21
-80.819103
  0
LINE
  8
型材断面
  6
CONTINUOUS
 10
52.18215
 20
-80.319107
 11
55.48215
 21
-80.319107
  0
LINE
  8
型材断面
  6
CONTINUOUS
 10
52.18215
 20
-79.819105
 11
55.48215
 21
-79.819105
  0
LINE
  8
ボルト／ビス
  6
CONTINUOUS
 10
50.83215
 20
-81.319105
 11
56.83215
 21
-81.319105
  0
LINE
  8
ボルト／ビス
  6
CONTINUOUS
 10
50.83215
 20
-81.319105
 11
51.332152
 21
-81.819107
  0
LINE
  8
ボルト／ビス
  6
CONTINUOUS
 10
56.83215
 20
-81.319105
 11
56.332155
 21
-81.8191
  0
LINE
  8
ボルト／ビス
  6
CONTINUOUS
 10
51.332152
 20
-81.819107
 11
56.332155
 21
-81.8191
  0
LINE
  8
ボルト／ビス
  6
CONTINUOUS
 10
50.83215
 20
-76.819098
 11
56.83215
 21
-76.819098
  0
LINE
  8
ボルト／ビス
  6
CONTINUOUS
 10
50.83215
 20
-76.819098
 11
50.83215
 21
-77.819103
  0
LINE
  8
ボルト／ビス
  6
CONTINUOUS
 10
56.83215
 20
-76.819098
 11
56.83215
 21
-77.819095
  0
LINE
  8
ボルト／ビス
  6
CONTINUOUS
 10
50.83215
 20
-77.819103
 11
56.83215
 21
-77.819095
  0
LINE
  8
ボルト／ビス
  6
CONTINUOUS
 10
51.832155
 20
-76.819098
 11
51.832155
 21
-76.819098
  0
ARC
  8
ボルト／ビス
  6
CONTINUOUS
 10
52.332146
 20
-76.819102
 40
0.5
 50
90.000036
 51
180.0
  0
LINE
  8
ボルト／ビス
  6
CONTINUOUS
 10
52.33215
 20
-76.319103
 11
55.33215
 21
-76.319095
  0
LINE
  8
ボルト／ビス
  6
CONTINUOUS
 10
55.832152
 20
-76.819098
 11
55.832152
 21
-76.819098
  0
ARC
  8
ボルト／ビス
  6
CONTINUOUS
 10
55.332146
 20
-76.8191
 40
0.5
 50
0.0
 51
90.000041
  0
LINE
  8
ボルト／ビス
  6
CONTINUOUS
 10
51.832155
 20
-81.319105
 11
51.832155
 21
-77.819103
  0
LINE
  8
ボルト／ビス
  6
CONTINUOUS
 10
55.832152
 20
-81.319105
 11
55.832152
 21
-77.819103
  0
ENDBLK
  0
BLOCK
  2
*GRP_0061
 70
    65
 10
0.0
 20
0.0
  0
LINE
  8
通り芯
  6
CONTINUOUS
 10
118.132133
 20
-76.002737
 11
118.132133
 21
-80.627605
  0
LINE
  8
通り芯
  6
CONTINUOUS
 10
116.482133
 20
-79.819105
 11
116.482133
 21
-77.819103
  0
LINE
  8
通り芯
  6
CONTINUOUS
 10
119.782133
 20
-79.819105
 11
119.782133
 21
-77.819103
  0
LINE
  8
通り芯
  6
CONTINUOUS
 10
116.482133
 20
-78.319105
 11
119.782133
 21
-78.319105
  0
LINE
  8
通り芯
  6
CONTINUOUS
 10
116.482133
 20
-78.819107
 11
119.782133
 21
-78.819107
  0
LINE
  8
通り芯
  6
CONTINUOUS
 10
116.482133
 20
-79.319103
 11
119.782133
 21
-79.319103
  0
LINE
  8
型材断面
  6
CONTINUOUS
 10
118.132133
 20
-78.319113
 11
118.132133
 21
-83.195425
  0
LINE
  8
型材断面
  6
CONTINUOUS
 10
119.782133
 20
-81.319105
 11
119.782133
 21
-79.31911
  0
LINE
  8
型材断面
  6
CONTINUOUS
 10
116.482133
 20
-81.319105
 11
116.482133
 21
-79.31911
  0
LINE
  8
型材断面
  6
CONTINUOUS
 10
116.482133
 20
-80.819103
 11
119.782133
 21
-80.819103
  0
LINE
  8
型材断面
  6
CONTINUOUS
 10
116.482133
 20
-80.319107
 11
119.782133
 21
-80.319107
  0
LINE
  8
型材断面
  6
CONTINUOUS
 10
116.482133
 20
-79.819105
 11
119.782133
 21
-79.819105
  0
LINE
  8
ボルト／ビス
  6
CONTINUOUS
 10
115.132133
 20
-81.319105
 11
121.132133
 21
-81.319105
  0
LINE
  8
ボルト／ビス
  6
CONTINUOUS
 10
115.132133
 20
-81.319105
 11
115.632135
 21
-81.819107
  0
LINE
  8
ボルト／ビス
  6
CONTINUOUS
 10
121.132133
 20
-81.319105
 11
120.632137
 21
-81.8191
  0
LINE
  8
ボルト／ビス
  6
CONTINUOUS
 10
115.632135
 20
-81.819107
 11
120.632137
 21
-81.8191
  0
LINE
  8
ボルト／ビス
  6
CONTINUOUS
 10
115.132133
 20
-76.819098
 11
121.132133
 21
-76.819098
  0
LINE
  8
ボルト／ビス
  6
CONTINUOUS
 10
115.132133
 20
-76.819098
 11
115.132133
 21
-77.819103
  0
LINE
  8
ボルト／ビス
  6
CONTINUOUS
 10
121.132133
 20
-76.819098
 11
121.132133
 21
-77.819095
  0
LINE
  8
ボルト／ビス
  6
CONTINUOUS
 10
115.132133
 20
-77.819103
 11
121.132133
 21
-77.819095
  0
LINE
  8
ボルト／ビス
  6
CONTINUOUS
 10
116.132137
 20
-76.819098
 11
116.132137
 21
-76.819098
  0
ARC
  8
ボルト／ビス
  6
CONTINUOUS
 10
116.632128
 20
-76.819102
 40
0.5
 50
90.000036
 51
180.0
  0
LINE
  8
ボルト／ビス
  6
CONTINUOUS
 10
116.632133
 20
-76.319103
 11
119.632133
 21
-76.319095
  0
LINE
  8
ボルト／ビス
  6
CONTINUOUS
 10
120.132135
 20
-76.819098
 11
120.132135
 21
-76.819098
  0
ARC
  8
ボルト／ビス
  6
CONTINUOUS
 10
119.632128
 20
-76.8191
 40
0.5
 50
0.0
 51
90.000041
  0
LINE
  8
ボルト／ビス
  6
CONTINUOUS
 10
116.132137
 20
-81.319105
 11
116.132137
 21
-77.819103
  0
LINE
  8
ボルト／ビス
  6
CONTINUOUS
 10
120.132135
 20
-81.319105
 11
120.132135
 21
-77.819103
  0
ENDBLK
  0
BLOCK
  2
*GRP_0062
 70
    65
 10
0.0
 20
0.0
  0
ARC
  8
型材断面
  6
CONTINUOUS
 62
    47
 10
11.985709
 20
-14.373425
 40
0.3
 50
180.0
 51
270.0
  0
LINE
  8
型材断面
  6
CONTINUOUS
 62
    47
 10
11.98571
 20
-14.673423
 11
13.385713
 21
-14.673423
  0
LINE
  8
型材断面
  6
CONTINUOUS
 62
    47
 10
13.685713
 20
-14.373423
 11
13.685713
 21
2.826575
  0
ARC
  8
型材断面
  6
CONTINUOUS
 62
    47
 10
13.385709
 20
-14.373425
 40
0.3
 50
270.0
 51
360.0
  0
ARC
  8
型材断面
  6
CONTINUOUS
 62
    47
 10
-33.814291
 20
2.826575
 40
1.0
 50
90.0
 51
180.0
  0
ARC
  8
型材断面
  6
CONTINUOUS
 62
    47
 10
-33.114291
 20
-14.373425
 40
0.3
 50
270.0
 51
360.0
  0
LINE
  8
型材断面
  6
CONTINUOUS
 62
    47
 10
-33.114287
 20
-14.673423
 11
-34.51429
 21
-14.673423
  0
LINE
  8
型材断面
  6
CONTINUOUS
 62
    47
 10
-34.81429
 20
-14.373423
 11
-34.81429
 21
2.826575
  0
ARC
  8
型材断面
  6
CONTINUOUS
 62
    47
 10
-34.514291
 20
-14.373425
 40
0.3
 50
180.0
 51
270.0
  0
LINE
  8
型材断面
  6
CONTINUOUS
 62
    47
 10
11.68571
 20
1.826577
 11
-32.814287
 21
1.826577
  0
LINE
  8
型材断面
  6
CONTINUOUS
 62
    47
 10
12.685707
 20
3.826572
 11
-33.814293
 21
3.826572
  0
ARC
  8
型材断面
  6
CONTINUOUS
 62
    47
 10
12.685709
 20
2.826575
 40
1.0
 50
0.0
 51
90.0
  0
LINE
  8
型材断面
  6
CONTINUOUS
 62
    47
 10
11.68571
 20
-5.173427
 11
11.68571
 21
1.826577
  0
LINE
  8
型材断面
  6
CONTINUOUS
 62
    47
 10
10.985713
 20
-5.173427
 11
11.68571
 21
-5.173427
  0
ARC
  8
型材断面
  6
CONTINUOUS
 62
    47
 10
10.985709
 20
-5.373425
 40
0.2
 50
90.0
 51
216.085808
  0
LINE
  8
型材断面
  6
CONTINUOUS
 62
    47
 10
10.824087
 20
-5.491225
 11
11.68571
 21
-6.673427
  0
LINE
  8
型材断面
  6
CONTINUOUS
 62
    47
 10
11.68571
 20
-14.373423
 11
11.68571
 21
-6.673427
  0
ARC
  8
型材断面
  6
CONTINUOUS
 62
    47
 10
-32.114291
 20
-5.373425
 40
0.2
 50
323.914192
 51
450.0
  0
LINE
  8
型材断面
  6
CONTINUOUS
 62
    47
 10
-32.814287
 20
-5.173427
 11
-32.814287
 21
1.826577
  0
LINE
  8
型材断面
  6
CONTINUOUS
 62
    47
 10
-32.11429
 20
-5.173427
 11
-32.814287
 21
-5.173427
  0
LINE
  8
型材断面
  6
CONTINUOUS
 62
    47
 10
-31.952665
 20
-5.491225
 11
-32.814287
 21
-6.673427
  0
LINE
  8
型材断面
  6
CONTINUOUS
 62
    47
 10
-32.814287
 20
-14.373423
 11
-32.814287
 21
-6.673427
  0
ENDBLK
  0
BLOCK
  2
*GRP_0063
 70
    65
 10
0.0
 20
0.0
  0
ARC
  8
型材断面
  6
CONTINUOUS
 62
    47
 10
90.985652
 20
-14.369065
 40
0.3
 50
180.0
 51
270.0
  0
LINE
  8
型材断面
  6
CONTINUOUS
 62
    47
 10
90.985652
 20
-14.66907
 11
92.385652
 21
-14.66907
  0
LINE
  8
型材断面
  6
CONTINUOUS
 62
    47
 10
92.685652
 20
-14.36907
 11
92.685652
 21
2.83093
  0
ARC
  8
型材断面
  6
CONTINUOUS
 62
    47
 10
92.385652
 20
-14.369065
 40
0.3
 50
270.0
 51
360.0
  0
ARC
  8
型材断面
  6
CONTINUOUS
 62
    47
 10
45.185652
 20
2.830935
 40
1.0
 50
90.0
 51
180.0
  0
ARC
  8
型材断面
  6
CONTINUOUS
 62
    47
 10
45.885652
 20
-14.369065
 40
0.3
 50
270.0
 51
360.0
  0
LINE
  8
型材断面
  6
CONTINUOUS
 62
    47
 10
45.885652
 20
-14.66907
 11
44.485652
 21
-14.66907
  0
LINE
  8
型材断面
  6
CONTINUOUS
 62
    47
 10
44.185652
 20
-14.36907
 11
44.185652
 21
2.83093
  0
ARC
  8
型材断面
  6
CONTINUOUS
 62
    47
 10
44.485652
 20
-14.369065
 40
0.3
 50
180.0
 51
270.0
  0
LINE
  8
型材断面
  6
CONTINUOUS
 62
    47
 10
90.685652
 20
1.83093
 11
46.185652
 21
1.83093
  0
LINE
  8
型材断面
  6
CONTINUOUS
 62
    47
 10
91.685652
 20
3.83093
 11
45.185652
 21
3.83093
  0
ARC
  8
型材断面
  6
CONTINUOUS
 62
    47
 10
91.685652
 20
2.830935
 40
1.0
 50
0.0
 51
90.0
  0
LINE
  8
型材断面
  6
CONTINUOUS
 62
    47
 10
90.685652
 20
-5.16907
 11
90.685652
 21
1.83093
  0
LINE
  8
型材断面
  6
CONTINUOUS
 62
    47
 10
89.985652
 20
-5.16907
 11
90.685652
 21
-5.16907
  0
ARC
  8
型材断面
  6
CONTINUOUS
 62
    47
 10
89.985652
 20
-5.369065
 40
0.2
 50
90.0
 51
216.085808
  0
LINE
  8
型材断面
  6
CONTINUOUS
 62
    47
 10
89.824028
 20
-5.48687
 11
90.685652
 21
-6.66907
  0
LINE
  8
型材断面
  6
CONTINUOUS
 62
    47
 10
90.685652
 20
-14.36907
 11
90.685652
 21
-6.66907
  0
ARC
  8
型材断面
  6
CONTINUOUS
 62
    47
 10
46.885652
 20
-5.369065
 40
0.2
 50
323.914192
 51
450.0
  0
LINE
  8
型材断面
  6
CONTINUOUS
 62
    47
 10
46.185652
 20
-5.16907
 11
46.185652
 21
1.83093
  0
LINE
  8
型材断面
  6
CONTINUOUS
 62
    47
 10
46.885652
 20
-5.16907
 11
46.185652
 21
-5.16907
  0
LINE
  8
型材断面
  6
CONTINUOUS
 62
    47
 10
47.04728
 20
-5.48687
 11
46.185652
 21
-6.66907
  0
LINE
  8
型材断面
  6
CONTINUOUS
 62
    47
 10
46.185652
 20
-14.36907
 11
46.185652
 21
-6.66907
  0
ENDBLK
  0
BLOCK
  2
*GRP_0064
 70
    65
 10
0.0
 20
0.0
  0
POLYLINE
  8
寸法
  6
CONTINUOUS
 66
     1
  0
VERTEX
  8
寸法
 10
2.734633
 20
76.68245
  0
VERTEX
  8
寸法
 10
27.457355
 20
90.10745
  0
VERTEX
  8
寸法
 10
27.457355
 20
104.834728
  0
SEQEND
  0
ENDBLK
  0
BLOCK
  2
*GRP_0065
 70
    65
 10
0.0
 20
0.0
  0
LINE
  8
寸法
  6
CONTINUOUS
 10
27.457355
 20
90.10745
 11
54.62099
 21
72.598363
  0
ENDBLK
  0
BLOCK
  2
*GRP_0066
 70
    65
 10
0.0
 20
0.0
  0
INSERT
  2
*GRP_0067
  8
補助線
  6
DOT
 10
0.0
 20
0.0
  0
INSERT
  2
*GRP_0068
  8
補助線
  6
DOT
 10
0.0
 20
0.0
  0
LINE
  8
St
  6
CONTINUOUS
 62
   127
 10
-19.814275
 20
7.580945
 11
-1.314287
 21
7.580945
  0
LINE
  8
St
  6
CONTINUOUS
 62
   127
 10
-23.064295
 20
-10.41907
 11
-23.064295
 21
-16.21906
  0
LINE
  8
St
  6
CONTINUOUS
 62
   127
 10
-23.064295
 20
-16.21906
 11
1.93571
 21
-16.21906
  0
LINE
  8
St
  6
CONTINUOUS
 62
   127
 10
1.93571
 20
-10.41907
 11
1.93571
 21
-16.21906
  0
LINE
  8
St
  6
CONTINUOUS
 62
   127
 10
-23.064295
 20
-10.41907
 11
1.93571
 21
-10.41907
  0
LINE
  8
St
  6
CONTINUOUS
 62
   127
 10
-2.790865
 20
-0.921363
 11
-18.337863
 21
-0.921363
  0
LINE
  8
St
  6
CONTINUOUS
 62
   127
 10
-2.790865
 20
0.078687
 11
-18.337863
 21
0.078687
  0
LINE
  8
St
  6
CONTINUOUS
 62
   127
 10
-18.337863
 20
0.078687
 11
-18.337863
 21
-0.921363
  0
LINE
  8
St
  6
CONTINUOUS
 62
   127
 10
-2.790865
 20
0.078687
 11
-2.790865
 21
-0.921363
  0
LINE
  8
St
  6
CONTINUOUS
 62
   127
 10
-15.375558
 20
4.078678
 11
-16.337748
 21
3.72845
  0
LINE
  8
St
  6
CONTINUOUS
 62
   127
 10
-5.753013
 20
4.078678
 11
-4.790823
 21
3.72845
  0
LINE
  8
St
  6
CONTINUOUS
 62
   127
 10
-15.375558
 20
4.078678
 11
-5.753013
 21
4.078678
  0
LINE
  8
St
  6
CONTINUOUS
 62
   127
 10
-4.790823
 20
3.72845
 11
-4.790823
 21
0.078687
  0
LINE
  8
St
  6
CONTINUOUS
 62
   127
 10
-7.67755
 20
3.72845
 11
-7.67755
 21
0.078687
  0
LINE
  8
St
  6
CONTINUOUS
 62
   127
 10
-16.337748
 20
3.72845
 11
-16.337748
 21
0.078687
  0
LINE
  8
St
  6
CONTINUOUS
 62
   127
 10
-13.45102
 20
3.72845
 11
-13.45102
 21
0.078687
  0
LINE
  8
St
  6
CONTINUOUS
 62
   127
 10
-4.790823
 20
0.078687
 11
-16.337748
 21
0.078687
  0
LINE
  8
St
  6
CONTINUOUS
 62
   127
 10
-10.564285
 20
-9.921317
 11
-5.814333
 21
-9.921317
  0
LINE
  8
St
  6
CONTINUOUS
 62
   127
 10
-5.814333
 20
-9.921317
 11
-6.314207
 21
-10.421267
  0
LINE
  8
St
  6
CONTINUOUS
 62
   127
 10
-10.564285
 20
-10.421267
 11
-6.314207
 21
-10.421267
  0
LINE
  8
St
  6
CONTINUOUS
 62
   127
 10
-5.814333
 20
-9.421367
 11
-5.814333
 21
-9.921317
  0
LINE
  8
St
  6
CONTINUOUS
 62
   127
 10
6.9356
 20
-3.47182
 11
-10.564285
 21
-3.47182
  0
LINE
  8
St
  6
CONTINUOUS
 62
   127
 10
6.9356
 20
-8.370835
 11
-10.564285
 21
-8.370835
  0
LINE
  8
St
  6
CONTINUOUS
 62
   127
 10
-10.564285
 20
-1.921338
 11
-5.814333
 21
-1.921338
  0
LINE
  8
St
  6
CONTINUOUS
 62
   127
 10
-5.814333
 20
-1.921338
 11
-6.314207
 21
-1.421313
  0
LINE
  8
St
  6
CONTINUOUS
 62
   127
 10
-10.564285
 20
-1.421313
 11
-6.314207
 21
-1.421313
  0
LINE
  8
St
  6
CONTINUOUS
 62
   127
 10
-5.814333
 20
-2.421295
 11
-5.814333
 21
-1.921338
  0
LINE
  8
St
  6
CONTINUOUS
 62
   127
 10
6.9356
 20
-8.370835
 11
6.9356
 21
-8.921342
  0
LINE
  8
St
  6
CONTINUOUS
 62
   127
 10
6.435725
 20
-9.421367
 11
-10.564285
 21
-9.421367
  0
LINE
  8
St
  6
CONTINUOUS
 62
   127
 10
6.9356
 20
-3.47182
 11
6.9356
 21
-2.92132
  0
LINE
  8
St
  6
CONTINUOUS
 62
   127
 10
6.435725
 20
-2.421295
 11
-10.564285
 21
-2.421295
  0
LINE
  8
St
  6
CONTINUOUS
 62
   127
 10
-10.564285
 20
-9.921317
 11
-15.314238
 21
-9.921317
  0
LINE
  8
St
  6
CONTINUOUS
 62
   127
 10
-15.314238
 20
-9.921317
 11
-14.814362
 21
-10.421267
  0
LINE
  8
St
  6
CONTINUOUS
 62
   127
 10
-10.564285
 20
-10.421267
 11
-14.814362
 21
-10.421267
  0
LINE
  8
St
  6
CONTINUOUS
 62
   127
 10
-15.314238
 20
-9.421367
 11
-15.314238
 21
-9.921317
  0
LINE
  8
St
  6
CONTINUOUS
 62
   127
 10
-28.06432
 20
-3.47182
 11
-10.564285
 21
-3.47182
  0
LINE
  8
St
  6
CONTINUOUS
 62
   127
 10
-28.06432
 20
-8.370835
 11
-10.564285
 21
-8.370835
  0
LINE
  8
St
  6
CONTINUOUS
 62
   127
 10
-10.564285
 20
-1.921338
 11
-15.314238
 21
-1.921338
  0
LINE
  8
St
  6
CONTINUOUS
 62
   127
 10
-15.314238
 20
-1.921338
 11
-14.814362
 21
-1.421313
  0
LINE
  8
St
  6
CONTINUOUS
 62
   127
 10
-10.564285
 20
-1.421313
 11
-14.814362
 21
-1.421313
  0
LINE
  8
St
  6
CONTINUOUS
 62
   127
 10
-15.314238
 20
-2.421295
 11
-15.314238
 21
-1.921338
  0
LINE
  8
St
  6
CONTINUOUS
 62
   127
 10
-28.06432
 20
-8.370835
 11
-28.06432
 21
-8.921342
  0
LINE
  8
St
  6
CONTINUOUS
 62
   127
 10
-27.564287
 20
-9.421367
 11
-10.564285
 21
-9.421367
  0
LINE
  8
St
  6
CONTINUOUS
 62
   127
 10
-28.06432
 20
-3.47182
 11
-28.06432
 21
-2.92132
  0
LINE
  8
St
  6
CONTINUOUS
 62
   127
 10
-27.564287
 20
-2.421295
 11
-10.564285
 21
-2.421295
  0
LINE
  8
St
  6
CONTINUOUS
 62
   127
 10
-19.814275
 20
7.580945
 11
-19.814275
 21
-2.421295
  0
LINE
  8
St
  6
CONTINUOUS
 62
   127
 10
-19.814275
 20
-9.421367
 11
-19.814275
 21
-10.41907
  0
LINE
  8
St
  6
CONTINUOUS
 62
   127
 10
-1.314287
 20
7.580945
 11
-1.314287
 21
-2.421295
  0
LINE
  8
St
  6
CONTINUOUS
 62
   127
 10
-1.314287
 20
-9.421367
 11
-1.314287
 21
-10.41907
  0
LINE
  8
St
  6
CONTINUOUS
 62
   127
 10
-17.31427
 20
-21.653777
 11
-17.31427
 21
-21.06202
  0
LINE
  8
St
  6
CONTINUOUS
 62
   127
 10
-3.814278
 20
-21.653777
 11
-3.814278
 21
-21.06202
  0
LINE
  8
St
  6
CONTINUOUS
 62
   127
 10
59.186825
 20
7.580945
 11
77.686813
 21
7.580945
  0
LINE
  8
St
  6
CONTINUOUS
 62
   127
 10
63.436797
 20
45.985445
 11
63.436797
 21
35.58545
  0
LINE
  8
St
  6
CONTINUOUS
 62
   127
 10
64.18679
 20
46.735438
 11
64.18679
 21
35.58545
  0
LINE
  8
St
  6
CONTINUOUS
 62
   127
 10
72.436805
 20
46.985472
 11
64.436802
 21
46.985472
  0
LINE
  8
St
  6
CONTINUOUS
 62
   127
 10
73.43681
 20
45.985445
 11
63.436797
 21
45.985445
  0
LINE
  8
St
  6
CONTINUOUS
 62
   127
 10
72.686817
 20
46.735438
 11
72.686817
 21
35.58545
  0
LINE
  8
St
  6
CONTINUOUS
 62
   127
 10
73.43681
 20
45.985445
 11
73.43681
 21
35.58545
  0
LINE
  8
St
  6
CONTINUOUS
 62
   127
 10
73.43681
 20
45.985445
 11
72.436805
 21
46.985472
  0
LINE
  8
St
  6
CONTINUOUS
 62
   127
 10
63.436797
 20
45.985445
 11
64.436802
 21
46.985472
  0
LINE
  8
St
  6
CONTINUOUS
 62
   127
 10
55.936797
 20
-10.41907
 11
55.936797
 21
-16.21906
  0
LINE
  8
St
  6
CONTINUOUS
 62
   127
 10
55.936797
 20
-16.21906
 11
80.93681
 21
-16.21906
  0
LINE
  8
St
  6
CONTINUOUS
 62
   127
 10
80.93681
 20
-10.41907
 11
80.93681
 21
-16.21906
  0
LINE
  8
St
  6
CONTINUOUS
 62
   127
 10
55.936797
 20
-10.41907
 11
80.93681
 21
-10.41907
  0
LINE
  8
St
  6
CONTINUOUS
 62
   127
 10
76.210235
 20
-0.921363
 11
60.663245
 21
-0.921363
  0
LINE
  8
St
  6
CONTINUOUS
 62
   127
 10
76.210235
 20
0.078687
 11
60.663245
 21
0.078687
  0
LINE
  8
St
  6
CONTINUOUS
 62
   127
 10
60.663245
 20
0.078687
 11
60.663245
 21
-0.921363
  0
LINE
  8
St
  6
CONTINUOUS
 62
   127
 10
76.210235
 20
0.078687
 11
76.210235
 21
-0.921363
  0
LINE
  8
St
  6
CONTINUOUS
 62
   127
 10
63.62555
 20
4.078678
 11
62.663352
 21
3.72845
  0
LINE
  8
St
  6
CONTINUOUS
 62
   127
 10
73.248087
 20
4.078678
 11
74.210285
 21
3.72845
  0
LINE
  8
St
  6
CONTINUOUS
 62
   127
 10
63.62555
 20
4.078678
 11
73.248087
 21
4.078678
  0
LINE
  8
St
  6
CONTINUOUS
 62
   127
 10
74.210285
 20
3.72845
 11
74.210285
 21
0.078687
  0
LINE
  8
St
  6
CONTINUOUS
 62
   127
 10
71.32355
 20
3.72845
 11
71.32355
 21
0.078687
  0
LINE
  8
St
  6
CONTINUOUS
 62
   127
 10
62.663352
 20
3.72845
 11
62.663352
 21
0.078687
  0
LINE
  8
St
  6
CONTINUOUS
 62
   127
 10
65.550087
 20
3.72845
 11
65.550087
 21
0.078687
  0
LINE
  8
St
  6
CONTINUOUS
 62
   127
 10
74.210285
 20
0.078687
 11
62.663352
 21
0.078687
  0
LINE
  8
St
  6
CONTINUOUS
 62
   127
 10
68.436815
 20
-9.921317
 11
73.186775
 21
-9.921317
  0
LINE
  8
St
  6
CONTINUOUS
 62
   127
 10
73.186775
 20
-9.921317
 11
72.686893
 21
-10.421267
  0
LINE
  8
St
  6
CONTINUOUS
 62
   127
 10
68.436815
 20
-10.421267
 11
72.686893
 21
-10.421267
  0
LINE
  8
St
  6
CONTINUOUS
 62
   127
 10
73.186775
 20
-9.421367
 11
73.186775
 21
-9.921317
  0
LINE
  8
St
  6
CONTINUOUS
 62
   127
 10
85.9367
 20
-3.47182
 11
68.436815
 21
-3.47182
  0
LINE
  8
St
  6
CONTINUOUS
 62
   127
 10
85.9367
 20
-8.370835
 11
68.436815
 21
-8.370835
  0
LINE
  8
St
  6
CONTINUOUS
 62
   127
 10
68.436815
 20
-1.921338
 11
73.186775
 21
-1.921338
  0
LINE
  8
St
  6
CONTINUOUS
 62
   127
 10
73.186775
 20
-1.921338
 11
72.686893
 21
-1.421313
  0
LINE
  8
St
  6
CONTINUOUS
 62
   127
 10
68.436815
 20
-1.421313
 11
72.686893
 21
-1.421313
  0
LINE
  8
St
  6
CONTINUOUS
 62
   127
 10
73.186775
 20
-2.421295
 11
73.186775
 21
-1.921338
  0
LINE
  8
St
  6
CONTINUOUS
 62
   127
 10
85.9367
 20
-8.370835
 11
85.9367
 21
-8.921342
  0
LINE
  8
St
  6
CONTINUOUS
 62
   127
 10
85.436825
 20
-9.421367
 11
68.436815
 21
-9.421367
  0
LINE
  8
St
  6
CONTINUOUS
 62
   127
 10
85.9367
 20
-3.47182
 11
85.9367
 21
-2.92132
  0
LINE
  8
St
  6
CONTINUOUS
 62
   127
 10
85.436825
 20
-2.421295
 11
68.436815
 21
-2.421295
  0
LINE
  8
St
  6
CONTINUOUS
 62
   127
 10
68.436815
 20
-9.921317
 11
63.686862
 21
-9.921317
  0
LINE
  8
St
  6
CONTINUOUS
 62
   127
 10
63.686862
 20
-9.921317
 11
64.186745
 21
-10.421267
  0
LINE
  8
St
  6
CONTINUOUS
 62
   127
 10
68.436815
 20
-10.421267
 11
64.186745
 21
-10.421267
  0
LINE
  8
St
  6
CONTINUOUS
 62
   127
 10
63.686862
 20
-9.421367
 11
63.686862
 21
-9.921317
  0
LINE
  8
St
  6
CONTINUOUS
 62
   127
 10
50.936787
 20
-3.47182
 11
68.436815
 21
-3.47182
  0
LINE
  8
St
  6
CONTINUOUS
 62
   127
 10
50.936787
 20
-8.370835
 11
68.436815
 21
-8.370835
  0
LINE
  8
St
  6
CONTINUOUS
 62
   127
 10
68.436815
 20
-1.921338
 11
63.686862
 21
-1.921338
  0
LINE
  8
St
  6
CONTINUOUS
 62
   127
 10
63.686862
 20
-1.921338
 11
64.186745
 21
-1.421313
  0
LINE
  8
St
  6
CONTINUOUS
 62
   127
 10
68.436815
 20
-1.421313
 11
64.186745
 21
-1.421313
  0
LINE
  8
St
  6
CONTINUOUS
 62
   127
 10
63.686862
 20
-2.421295
 11
63.686862
 21
-1.921338
  0
LINE
  8
St
  6
CONTINUOUS
 62
   127
 10
50.936787
 20
-8.370835
 11
50.936787
 21
-8.921342
  0
LINE
  8
St
  6
CONTINUOUS
 62
   127
 10
51.436813
 20
-9.421367
 11
68.436815
 21
-9.421367
  0
LINE
  8
St
  6
CONTINUOUS
 62
   127
 10
50.936787
 20
-3.47182
 11
50.936787
 21
-2.92132
  0
LINE
  8
St
  6
CONTINUOUS
 62
   127
 10
51.436813
 20
-2.421295
 11
68.436815
 21
-2.421295
  0
LINE
  8
St
  6
CONTINUOUS
 62
   127
 10
59.186825
 20
7.580945
 11
59.186825
 21
-2.421295
  0
LINE
  8
St
  6
CONTINUOUS
 62
   127
 10
59.186825
 20
-9.421367
 11
59.186825
 21
-10.41907
  0
LINE
  8
St
  6
CONTINUOUS
 62
   127
 10
77.686813
 20
7.580945
 11
77.686813
 21
-2.421295
  0
LINE
  8
St
  6
CONTINUOUS
 62
   127
 10
77.686813
 20
-9.421367
 11
77.686813
 21
-10.41907
  0
LINE
  8
St
  6
CONTINUOUS
 62
   127
 10
61.68683
 20
-21.653777
 11
61.68683
 21
-21.06202
  0
LINE
  8
St
  6
CONTINUOUS
 62
   127
 10
75.18683
 20
-21.653777
 11
75.18683
 21
-21.06202
  0
LINE
  8
St
  6
CONTINUOUS
 62
   127
 10
-17.21428
 20
-21.599268
 11
-17.21428
 21
-16.21906
  0
LINE
  8
St
  6
CONTINUOUS
 62
   127
 10
-3.91429
 20
-21.599268
 11
-3.91429
 21
-16.21906
  0
LINE
  8
St
  6
CONTINUOUS
 62
   127
 10
61.78682
 20
-21.599268
 11
61.78682
 21
-16.21906
  0
LINE
  8
St
  6
CONTINUOUS
 62
   127
 10
75.08681
 20
-21.599268
 11
75.08681
 21
-16.21906
  0
LINE
  8
St
  6
CONTINUOUS
 62
   127
 10
9.435928
 20
13.080935
 11
9.435928
 21
10.580953
  0
LINE
  8
St
  6
CONTINUOUS
 62
   127
 10
-30.564055
 20
10.580953
 11
9.435928
 21
10.580953
  0
LINE
  8
St
  6
CONTINUOUS
 62
   127
 10
-30.564055
 20
13.080935
 11
-30.564055
 21
10.580953
  0
LINE
  8
St
  6
CONTINUOUS
 62
   127
 10
-0.564055
 20
13.080935
 11
-0.564055
 21
33.080968
  0
LINE
  8
St
  6
DOT
 62
   127
 10
-3.564062
 20
13.080935
 11
-3.564062
 21
33.080968
  0
LINE
  8
St
  6
CONTINUOUS
 62
   127
 10
-20.564073
 20
13.080935
 11
-20.564073
 21
33.080968
  0
LINE
  8
St
  6
DOT
 62
   127
 10
-17.564088
 20
13.080935
 11
-17.564088
 21
33.080968
  0
LINE
  8
St
  6
CONTINUOUS
 62
   127
 10
1.935928
 20
11.581092
 11
6.935923
 21
11.581092
  0
LINE
  8
St
  6
CONTINUOUS
 62
   127
 10
6.228815
 20
11.581092
 11
6.228815
 21
20.081098
  0
LINE
  8
St
  6
CONTINUOUS
 62
   127
 10
2.643073
 20
11.581092
 11
2.643073
 21
20.081098
  0
LINE
  8
St
  6
CONTINUOUS
 62
   127
 10
1.935928
 20
19.373983
 11
6.935923
 21
19.373983
  0
LINE
  8
St
  6
CONTINUOUS
 62
   127
 10
6.935923
 20
19.373983
 11
6.228815
 21
20.081098
  0
LINE
  8
St
  6
CONTINUOUS
 62
   127
 10
6.935923
 20
11.581092
 11
6.935923
 21
19.373983
  0
LINE
  8
St
  6
CONTINUOUS
 62
   127
 10
1.935928
 20
11.581092
 11
1.935928
 21
19.373983
  0
LINE
  8
St
  6
CONTINUOUS
 62
   127
 10
1.935928
 20
19.373983
 11
2.643073
 21
20.081098
  0
LINE
  8
St
  6
CONTINUOUS
 62
   127
 10
2.643073
 20
20.081098
 11
6.228815
 21
20.081098
  0
LINE
  8
St
  6
CONTINUOUS
 62
   127
 10
-23.064077
 20
11.581092
 11
-28.064073
 21
11.581092
  0
LINE
  8
St
  6
CONTINUOUS
 62
   127
 10
-27.356927
 20
11.581092
 11
-27.356927
 21
20.081098
  0
LINE
  8
St
  6
CONTINUOUS
 62
   127
 10
-23.771185
 20
11.581092
 11
-23.771185
 21
20.081098
  0
LINE
  8
St
  6
CONTINUOUS
 62
   127
 10
-23.064077
 20
19.373983
 11
-28.064073
 21
19.373983
  0
LINE
  8
St
  6
CONTINUOUS
 62
   127
 10
-28.064073
 20
19.373983
 11
-27.356927
 21
20.081098
  0
LINE
  8
St
  6
CONTINUOUS
 62
   127
 10
-28.064073
 20
11.581092
 11
-28.064073
 21
19.373983
  0
LINE
  8
St
  6
CONTINUOUS
 62
   127
 10
-23.064077
 20
11.581092
 11
-23.064077
 21
19.373983
  0
LINE
  8
St
  6
CONTINUOUS
 62
   127
 10
-23.064077
 20
19.373983
 11
-23.771185
 21
20.081098
  0
LINE
  8
St
  6
CONTINUOUS
 62
   127
 10
-23.771185
 20
20.081098
 11
-27.356927
 21
20.081098
  0
LINE
  8
St
  6
CONTINUOUS
 62
   127
 10
88.436795
 20
42.373842
 11
87.729687
 21
43.08095
  0
LINE
  8
St
  6
CONTINUOUS
 62
   127
 10
83.43683
 20
42.373842
 11
84.143937
 21
43.08095
  0
LINE
  8
St
  6
CONTINUOUS
 62
   127
 10
81.936823
 20
23.080955
 11
89.936802
 21
23.080955
  0
LINE
  8
St
  6
CONTINUOUS
 62
   127
 10
81.936823
 20
23.080955
 11
81.936823
 21
28.08095
  0
LINE
  8
St
  6
CONTINUOUS
 62
   127
 10
89.936802
 20
23.080955
 11
89.936802
 21
28.08095
  0
LINE
  8
St
  6
CONTINUOUS
 62
   127
 10
53.436793
 20
42.373842
 11
48.436828
 21
42.373842
  0
LINE
  8
St
  6
CONTINUOUS
 62
   127
 10
48.436828
 20
42.373842
 11
49.143935
 21
43.08095
  0
LINE
  8
St
  6
CONTINUOUS
 62
   127
 10
53.436793
 20
42.373842
 11
52.729685
 21
43.08095
  0
LINE
  8
St
  6
CONTINUOUS
 62
   127
 10
52.729685
 20
43.08095
 11
49.143935
 21
43.08095
  0
LINE
  8
St
  6
CONTINUOUS
 62
   127
 10
54.9368
 20
23.080955
 11
46.93682
 21
23.080955
  0
LINE
  8
St
  6
CONTINUOUS
 62
   127
 10
54.9368
 20
23.080955
 11
54.9368
 21
28.08095
  0
LINE
  8
St
  6
CONTINUOUS
 62
   127
 10
46.93682
 20
23.080955
 11
46.93682
 21
28.08095
  0
LINE
  8
St
  6
DOT
 62
   127
 10
80.937035
 20
55.380957
 11
80.937035
 21
58.08095
  0
LINE
  8
St
  6
DOT
 62
   127
 10
55.937045
 20
55.380957
 11
55.937045
 21
58.08095
  0
LINE
  8
St
  6
CONTINUOUS
 62
   127
 10
61.536785
 20
35.58095
 11
75.3368
 21
35.58095
  0
LINE
  8
St
  6
DOT
 62
   127
 10
79.937053
 20
38.080955
 11
79.937053
 21
40.780948
  0
LINE
  8
St
  6
DOT
 62
   127
 10
56.937027
 20
38.080955
 11
56.937027
 21
40.780948
  0
LINE
  8
St
  6
DOT
 62
   127
 10
-0.564055
 20
13.08092
 11
-0.564055
 21
15.780935
  0
LINE
  8
St
  6
DOT
 62
   127
 10
-0.564055
 20
30.380953
 11
-0.564055
 21
33.080938
  0
LINE
  8
St
  6
DOT
 62
   127
 10
-20.564073
 20
13.08092
 11
-20.564073
 21
15.780935
  0
LINE
  8
St
  6
DOT
 62
   127
 10
-20.564073
 20
30.380953
 11
-20.564073
 21
33.080938
  0
LINE
  8
St
  6
CONTINUOUS
 62
   127
 10
9.435928
 20
13.080935
 11
-30.564055
 21
13.080935
  0
LINE
  8
St
  6
CONTINUOUS
 62
   127
 10
-20.564073
 20
33.080968
 11
-0.564055
 21
33.080968
  0
LINE
  8
St
  6
CONTINUOUS
 62
   127
 10
56.436815
 20
8.080948
 11
56.436815
 21
10.580953
  0
LINE
  8
St
  6
CONTINUOUS
 62
   127
 10
80.436823
 20
10.580953
 11
56.436815
 21
10.580953
  0
LINE
  8
St
  6
CONTINUOUS
 62
   127
 10
80.436823
 20
8.080948
 11
80.436823
 21
10.580953
  0
LINE
  8
St
  6
CONTINUOUS
 62
   127
 10
80.436823
 20
8.080948
 11
56.436815
 21
8.080948
  0
LINE
  8
St
  6
DOT
 62
   127
 10
75.936815
 20
8.080948
 11
75.936815
 21
10.580953
  0
LINE
  8
St
  6
DOT
 62
   127
 10
60.936815
 20
8.080948
 11
60.936815
 21
10.580953
  0
LINE
  8
St
  6
CONTINUOUS
 62
   127
 10
-22.564285
 20
8.080948
 11
-22.564285
 21
10.580953
  0
LINE
  8
St
  6
CONTINUOUS
 62
   127
 10
1.435715
 20
10.580953
 11
-22.564285
 21
10.580953
  0
LINE
  8
St
  6
CONTINUOUS
 62
   127
 10
1.435715
 20
8.080948
 11
1.435715
 21
10.580953
  0
LINE
  8
St
  6
CONTINUOUS
 62
   127
 10
1.435715
 20
8.080948
 11
-22.564285
 21
8.080948
  0
LINE
  8
St
  6
DOT
 62
   127
 10
-3.064285
 20
8.080948
 11
-3.064285
 21
10.580953
  0
LINE
  8
St
  6
DOT
 62
   127
 10
-18.064285
 20
8.080948
 11
-18.064285
 21
10.580953
  0
LINE
  8
St
  6
CONTINUOUS
 62
   127
 10
-22.564285
 20
33.080938
 11
-22.564285
 21
35.58095
  0
LINE
  8
St
  6
CONTINUOUS
 62
   127
 10
1.435715
 20
35.58095
 11
-22.564285
 21
35.58095
  0
LINE
  8
St
  6
CONTINUOUS
 62
   127
 10
1.435715
 20
33.080938
 11
1.435715
 21
35.58095
  0
LINE
  8
St
  6
CONTINUOUS
 62
   127
 10
1.435715
 20
33.080938
 11
-22.564285
 21
33.080938
  0
LINE
  8
St
  6
DOT
 62
   127
 10
-3.064285
 20
33.080938
 11
-3.064285
 21
35.58095
  0
LINE
  8
St
  6
DOT
 62
   127
 10
-18.064285
 20
33.080938
 11
-18.064285
 21
35.58095
  0
LINE
  8
St
  6
CONTINUOUS
 62
   127
 10
-21.56428
 20
35.58545
 11
-21.56428
 21
37.085457
  0
LINE
  8
St
  6
CONTINUOUS
 62
   127
 10
0.435717
 20
37.085457
 11
-21.56428
 21
37.085457
  0
LINE
  8
St
  6
CONTINUOUS
 62
   127
 10
0.435717
 20
35.58545
 11
0.435717
 21
37.085457
  0
LINE
  8
St
  6
CONTINUOUS
 62
   127
 10
0.435717
 20
35.58545
 11
-21.56428
 21
35.58545
  0
LINE
  8
St
  6
DOT
 62
   127
 10
-15.814285
 20
35.58545
 11
-15.814285
 21
37.085457
  0
LINE
  8
St
  6
DOT
 62
   127
 10
-5.314293
 20
35.58545
 11
-5.314293
 21
37.085457
  0
LINE
  8
St
  6
DASHDOTX2
 62
   127
 10
-10.564285
 20
-33.919067
 11
-10.564285
 21
46.985472
  0
LINE
  8
St
  6
DASHDOTX2
 62
   127
 10
68.436815
 20
-33.919067
 11
68.436815
 21
46.985472
  0
LINE
  8
St
  6
CONTINUOUS
 62
   127
 10
78.236817
 20
42.873815
 11
77.52971
 21
43.580953
  0
LINE
  8
St
  6
CONTINUOUS
 62
   127
 10
59.34392
 20
43.580953
 11
58.636813
 21
42.873815
  0
LINE
  8
St
  6
CONTINUOUS
 62
   127
 10
63.99746
 20
42.873815
 11
63.290375
 21
43.580953
  0
LINE
  8
St
  6
CONTINUOUS
 62
   127
 10
72.936808
 20
42.873815
 11
72.229708
 21
43.580953
  0
LINE
  8
St
  6
CONTINUOUS
 62
   127
 10
63.99746
 20
42.873815
 11
64.704598
 21
43.580953
  0
LINE
  8
St
  6
CONTINUOUS
 62
   127
 10
72.936808
 20
42.873815
 11
72.229708
 21
43.580953
  0
LINE
  8
St
  6
CONTINUOUS
 62
   127
 10
72.936808
 20
42.873815
 11
73.643915
 21
43.580953
  0
LINE
  8
St
  6
CONTINUOUS
 62
   127
 10
61.18682
 20
44.080955
 11
61.18682
 21
45.50123
  0
LINE
  8
St
  6
CONTINUOUS
 62
   127
 10
60.686817
 20
43.580953
 11
59.34392
 21
43.580953
  0
LINE
  8
St
  6
CONTINUOUS
 62
   127
 10
75.686817
 20
44.080955
 11
75.686817
 21
45.50123
  0
LINE
  8
St
  6
CONTINUOUS
 62
   127
 10
76.18682
 20
43.580953
 11
77.52971
 21
43.580953
  0
LINE
  8
St
  6
CONTINUOUS
 62
   127
 10
76.18682
 20
43.580953
 11
60.686817
 21
43.580953
  0
LINE
  8
St
  6
CONTINUOUS
 62
   127
 10
59.34392
 20
35.58095
 11
58.636813
 21
36.288057
  0
LINE
  8
St
  6
CONTINUOUS
 62
   127
 10
58.636813
 20
42.873815
 11
58.636813
 21
36.288057
  0
LINE
  8
St
  6
CONTINUOUS
 62
   127
 10
78.236817
 20
42.873815
 11
78.236817
 21
36.288057
  0
LINE
  8
St
  6
CONTINUOUS
 62
   127
 10
77.52971
 20
35.58095
 11
78.236817
 21
36.288057
  0
LINE
  8
St
  6
CONTINUOUS
 62
   127
 10
59.34392
 20
35.58095
 11
77.52971
 21
35.58095
  0
LINE
  8
St
  6
CONTINUOUS
 62
   127
 10
63.99746
 20
36.288057
 11
63.290375
 21
35.58092
  0
LINE
  8
St
  6
CONTINUOUS
 62
   127
 10
72.936808
 20
36.288057
 11
72.229708
 21
35.58092
  0
LINE
  8
St
  6
CONTINUOUS
 62
   127
 10
63.99746
 20
36.288057
 11
64.704598
 21
35.58092
  0
LINE
  8
St
  6
CONTINUOUS
 62
   127
 10
72.936808
 20
36.288057
 11
72.229708
 21
35.58092
  0
LINE
  8
St
  6
CONTINUOUS
 62
   127
 10
72.936808
 20
36.288057
 11
73.643915
 21
35.58092
  0
LINE
  8
St
  6
CONTINUOUS
 62
   127
 10
63.99746
 20
42.873815
 11
63.99746
 21
36.288057
  0
LINE
  8
St
  6
CONTINUOUS
 62
   127
 10
72.936808
 20
42.873815
 11
72.936808
 21
36.288057
  0
LINE
  8
St
  6
DASHDOTX2
 62
   127
 10
68.436815
 20
51.080953
 11
68.436815
 21
35.58095
  0
LINE
  8
St
  6
CONTINUOUS
 62
   127
 10
-0.764282
 20
44.373822
 11
-1.47139
 21
45.080953
  0
LINE
  8
St
  6
CONTINUOUS
 62
   127
 10
-19.65718
 20
45.080953
 11
-20.364287
 21
44.373822
  0
LINE
  8
St
  6
CONTINUOUS
 62
   127
 10
-15.00364
 20
44.373822
 11
-15.710725
 21
45.080953
  0
LINE
  8
St
  6
CONTINUOUS
 62
   127
 10
-6.064293
 20
44.373822
 11
-6.771393
 21
45.080953
  0
LINE
  8
St
  6
CONTINUOUS
 62
   127
 10
-15.00364
 20
44.373822
 11
-14.296503
 21
45.080953
  0
LINE
  8
St
  6
CONTINUOUS
 62
   127
 10
-6.064293
 20
44.373822
 11
-6.771393
 21
45.080953
  0
LINE
  8
St
  6
CONTINUOUS
 62
   127
 10
-6.064293
 20
44.373822
 11
-5.357185
 21
45.080953
  0
LINE
  8
St
  6
CONTINUOUS
 62
   127
 10
-17.81428
 20
45.580955
 11
-17.81428
 21
47.001238
  0
LINE
  8
St
  6
CONTINUOUS
 62
   127
 10
-18.314282
 20
45.080953
 11
-19.65718
 21
45.080953
  0
LINE
  8
St
  6
CONTINUOUS
 62
   127
 10
-3.314282
 20
45.580955
 11
-3.314282
 21
47.001238
  0
LINE
  8
St
  6
CONTINUOUS
 62
   127
 10
-2.81428
 20
45.080953
 11
-1.47139
 21
45.080953
  0
LINE
  8
St
  6
CONTINUOUS
 62
   127
 10
-2.81428
 20
45.080953
 11
-18.314282
 21
45.080953
  0
LINE
  8
St
  6
CONTINUOUS
 62
   127
 10
-19.65718
 20
37.08095
 11
-20.364287
 21
37.788065
  0
LINE
  8
St
  6
CONTINUOUS
 62
   127
 10
-20.364287
 20
44.373822
 11
-20.364287
 21
37.788065
  0
LINE
  8
St
  6
CONTINUOUS
 62
   127
 10
-0.764282
 20
44.373822
 11
-0.764282
 21
37.788065
  0
LINE
  8
St
  6
CONTINUOUS
 62
   127
 10
-1.47139
 20
37.08095
 11
-0.764282
 21
37.788065
  0
LINE
  8
St
  6
CONTINUOUS
 62
   127
 10
-19.65718
 20
37.08095
 11
-1.47139
 21
37.08095
  0
LINE
  8
St
  6
CONTINUOUS
 62
   127
 10
-15.00364
 20
37.788065
 11
-15.710725
 21
37.080927
  0
LINE
  8
St
  6
CONTINUOUS
 62
   127
 10
-6.064293
 20
37.788065
 11
-6.771393
 21
37.080927
  0
LINE
  8
St
  6
CONTINUOUS
 62
   127
 10
-15.00364
 20
37.788065
 11
-14.296503
 21
37.080927
  0
LINE
  8
St
  6
CONTINUOUS
 62
   127
 10
-6.064293
 20
37.788065
 11
-6.771393
 21
37.080927
  0
LINE
  8
St
  6
CONTINUOUS
 62
   127
 10
-6.064293
 20
37.788065
 11
-5.357185
 21
37.080927
  0
LINE
  8
St
  6
CONTINUOUS
 62
   127
 10
-15.00364
 20
44.373822
 11
-15.00364
 21
37.788065
  0
LINE
  8
St
  6
CONTINUOUS
 62
   127
 10
-6.064293
 20
44.373822
 11
-6.064293
 21
37.788065
  0
LINE
  8
St
  6
DASHDOTX2
 62
   127
 10
-10.564285
 20
52.580953
 11
-10.564285
 21
37.08095
  0
LINE
  8
St
  6
CONTINUOUS
 62
   127
 10
89.936802
 20
28.08095
 11
81.936823
 21
28.08095
  0
LINE
  8
St
  6
CONTINUOUS
 62
   127
 10
54.9368
 20
28.08095
 11
46.93682
 21
28.08095
  0
LINE
  8
St
  6
CONTINUOUS
 62
   127
 10
-22.063878
 20
10.580915
 11
-23.064077
 21
11.581092
  0
LINE
  8
St
  6
CONTINUOUS
 62
   127
 10
-22.063878
 20
10.580915
 11
-29.06425
 21
10.580915
  0
LINE
  8
St
  6
CONTINUOUS
 62
   127
 10
-29.06425
 20
10.580915
 11
-28.064073
 21
11.581092
  0
LINE
  8
St
  6
CONTINUOUS
 62
   127
 10
7.936108
 20
10.580915
 11
6.935923
 21
11.581092
  0
LINE
  8
St
  6
CONTINUOUS
 62
   127
 10
0.935728
 20
10.580915
 11
7.936108
 21
10.580915
  0
LINE
  8
St
  6
CONTINUOUS
 62
   127
 10
0.935728
 20
10.580915
 11
1.935928
 21
11.581092
  0
LINE
  8
St
  6
DASHDOT
 62
   127
 10
4.43594
 20
10.580915
 11
4.43594
 21
20.081098
  0
LINE
  8
St
  6
DASHDOT
 62
   127
 10
-25.564075
 20
10.580915
 11
-25.564075
 21
20.081098
  0
LINE
  8
St
  6
DOT
 62
   127
 10
57.936823
 20
35.580972
 11
78.936837
 21
35.580972
  0
LINE
  8
St
  6
DOT
 62
   127
 10
75.436805
 20
10.580953
 11
75.436805
 21
35.580972
  0
LINE
  8
St
  6
DOT
 62
   127
 10
61.43678
 20
10.580953
 11
61.43678
 21
35.580972
  0
LINE
  8
St
  6
CONTINUOUS
 62
   127
 10
90.936815
 20
28.08095
 11
90.936815
 21
38.080955
  0
LINE
  8
St
  6
CONTINUOUS
 62
   127
 10
90.936815
 20
28.08095
 11
45.936815
 21
28.08095
  0
LINE
  8
St
  6
CONTINUOUS
 62
   127
 10
45.936815
 20
28.08095
 11
45.936815
 21
38.080955
  0
LINE
  8
St
  6
CONTINUOUS
 62
   127
 10
90.936815
 20
38.080955
 11
45.936815
 21
38.080955
  0
LINE
  8
St
  6
CONTINUOUS
 62
   127
 10
50.436823
 20
10.580953
 11
86.436815
 21
10.580953
  0
LINE
  8
St
  6
CONTINUOUS
 62
   127
 10
86.436815
 20
10.580953
 11
86.436815
 21
28.08095
  0
LINE
  8
St
  6
CONTINUOUS
 62
   127
 10
50.436823
 20
10.580953
 11
50.436823
 21
28.08095
  0
LINE
  8
St
  6
DOT
 62
   127
 10
48.186815
 20
28.08095
 11
48.186815
 21
38.080955
  0
LINE
  8
St
  6
DOT
 62
   127
 10
53.68682
 20
28.08095
 11
53.68682
 21
38.080955
  0
LINE
  8
St
  6
DOT
 62
   127
 10
83.186817
 20
28.08095
 11
83.186817
 21
38.080955
  0
LINE
  8
St
  6
DOT
 62
   127
 10
88.686808
 20
28.08095
 11
88.686808
 21
38.080955
  0
LINE
  8
St
  6
DASHDOTX2
 62
   127
 10
50.93681
 20
26.08094
 11
50.93681
 21
40.080965
  0
LINE
  8
St
  6
DASHDOTX2
 62
   127
 10
85.936813
 20
26.08094
 11
85.936813
 21
40.080965
  0
LINE
  8
St
  6
DOTX2
 62
   127
 10
55.936813
 20
10.580953
 11
55.936813
 21
28.08095
  0
LINE
  8
St
  6
DOTX2
 62
   127
 10
80.93681
 20
10.580953
 11
80.93681
 21
28.08095
  0
LINE
  8
St
  6
CONTINUOUS
 62
   127
 10
48.436828
 20
28.08095
 11
48.436828
 21
42.373842
  0
LINE
  8
St
  6
CONTINUOUS
 62
   127
 10
52.729685
 20
28.08095
 11
52.729685
 21
42.373842
  0
LINE
  8
St
  6
CONTINUOUS
 62
   127
 10
53.436793
 20
28.08095
 11
53.436793
 21
42.373842
  0
LINE
  8
St
  6
CONTINUOUS
 62
   127
 10
49.143935
 20
28.08095
 11
49.143935
 21
43.08095
  0
LINE
  8
St
  6
DASHDOT
 62
   127
 10
50.93681
 20
23.080955
 11
50.93681
 21
43.08095
  0
LINE
  8
St
  6
CONTINUOUS
 62
   127
 10
83.43683
 20
28.08095
 11
83.43683
 21
42.373842
  0
LINE
  8
St
  6
CONTINUOUS
 62
   127
 10
88.436795
 20
28.08095
 11
88.436795
 21
42.373842
  0
LINE
  8
St
  6
CONTINUOUS
 62
   127
 10
83.43683
 20
42.373842
 11
88.436795
 21
42.373842
  0
LINE
  8
St
  6
CONTINUOUS
 62
   127
 10
87.729687
 20
28.08095
 11
87.729687
 21
43.08095
  0
LINE
  8
St
  6
CONTINUOUS
 62
   127
 10
84.143937
 20
28.08095
 11
84.143937
 21
43.08095
  0
LINE
  8
St
  6
CONTINUOUS
 62
   127
 10
84.143937
 20
43.08095
 11
87.729687
 21
43.08095
  0
LINE
  8
St
  6
DASHDOT
 62
   127
 10
85.936813
 20
23.080955
 11
85.936813
 21
43.08095
  0
LINE
  8
St
  6
DOT
 62
   127
 10
-17.564282
 20
4.580945
 11
-3.564287
 21
4.580945
  0
LINE
  8
St
  6
DOT
 62
   127
 10
-17.564282
 20
4.580945
 11
-17.564282
 21
7.580945
  0
LINE
  8
St
  6
DOT
 62
   127
 10
-3.564287
 20
4.580945
 11
-3.564287
 21
7.580945
  0
LINE
  8
St
  6
DOT
 62
   127
 10
-15.56428
 20
4.580945
 11
-15.56428
 21
-46.99576
  0
LINE
  8
St
  6
DOT
 62
   127
 10
-5.56429
 20
4.580945
 11
-5.56429
 21
-46.99576
  0
LINE
  8
St
  6
DOT
 62
   127
 10
61.436817
 20
4.580945
 11
75.436813
 21
4.580945
  0
LINE
  8
St
  6
DOT
 62
   127
 10
61.436817
 20
4.580945
 11
61.436817
 21
7.580945
  0
LINE
  8
St
  6
DOT
 62
   127
 10
75.436813
 20
4.580945
 11
75.436813
 21
7.580945
  0
LINE
  8
St
  6
DOT
 62
   127
 10
63.436828
 20
4.580945
 11
63.436828
 21
-46.99576
  0
LINE
  8
St
  6
DOT
 62
   127
 10
73.43681
 20
4.580945
 11
73.43681
 21
-46.99576
  0
LINE
  8
St
  6
CONTINUOUS
 62
   127
 10
61.536785
 20
4.580945
 11
61.536785
 21
35.58095
  0
LINE
  8
St
  6
CONTINUOUS
 62
   127
 10
75.3368
 20
35.58095
 11
75.3368
 21
4.580945
  0
LINE
  8
St
  6
CONTINUOUS
 62
   127
 10
61.536785
 20
4.580945
 11
75.3368
 21
4.580945
  0
LINE
  8
St
  6
CONTINUOUS
 62
   127
 10
72.436805
 20
-43.419055
 11
64.436802
 21
-43.419055
  0
LINE
  8
St
  6
CONTINUOUS
 62
   127
 10
73.43681
 20
-42.419027
 11
63.436797
 21
-42.419027
  0
LINE
  8
St
  6
CONTINUOUS
 62
   127
 10
73.43681
 20
-42.419027
 11
72.436805
 21
-43.419055
  0
LINE
  8
St
  6
CONTINUOUS
 62
   127
 10
63.436797
 20
-42.419027
 11
64.436802
 21
-43.419055
  0
LINE
  8
St
  6
CONTINUOUS
 62
   127
 10
73.436825
 20
-18.419042
 11
63.436813
 21
-18.419042
  0
LINE
  8
St
  6
CONTINUOUS
 62
   127
 10
63.436797
 20
-42.419027
 11
63.436797
 21
4.580945
  0
LINE
  8
St
  6
CONTINUOUS
 62
   127
 10
73.43681
 20
-42.419027
 11
73.43681
 21
4.580945
  0
LINE
  8
St
  6
CONTINUOUS
 62
   127
 10
72.686817
 20
-43.169013
 11
72.686817
 21
-18.419042
  0
LINE
  8
St
  6
CONTINUOUS
 62
   127
 10
64.18679
 20
-43.169013
 11
64.18679
 21
-18.419042
  0
LINE
  8
St
  6
CONTINUOUS
 62
   127
 10
-15.564303
 20
45.985445
 11
-15.564303
 21
35.58545
  0
LINE
  8
St
  6
CONTINUOUS
 62
   127
 10
-14.81431
 20
46.735438
 11
-14.81431
 21
35.58545
  0
LINE
  8
St
  6
CONTINUOUS
 62
   127
 10
-6.564295
 20
46.985472
 11
-14.564297
 21
46.985472
  0
LINE
  8
St
  6
CONTINUOUS
 62
   127
 10
-5.56429
 20
45.985445
 11
-15.564303
 21
45.985445
  0
LINE
  8
St
  6
CONTINUOUS
 62
   127
 10
-6.314282
 20
46.735438
 11
-6.314282
 21
35.58545
  0
LINE
  8
St
  6
CONTINUOUS
 62
   127
 10
-5.56429
 20
45.985445
 11
-5.56429
 21
35.58545
  0
LINE
  8
St
  6
CONTINUOUS
 62
   127
 10
-5.56429
 20
45.985445
 11
-6.564295
 21
46.985472
  0
LINE
  8
St
  6
CONTINUOUS
 62
   127
 10
-15.564303
 20
45.985445
 11
-14.564297
 21
46.985472
  0
LINE
  8
St
  6
CONTINUOUS
 62
   127
 10
-17.464315
 20
35.58095
 11
-3.6643
 21
35.58095
  0
LINE
  8
St
  6
CONTINUOUS
 62
   127
 10
-17.464315
 20
4.580945
 11
-17.464315
 21
35.58095
  0
LINE
  8
St
  6
CONTINUOUS
 62
   127
 10
-3.6643
 20
35.58095
 11
-3.6643
 21
4.580945
  0
LINE
  8
St
  6
CONTINUOUS
 62
   127
 10
-17.464315
 20
4.580945
 11
-3.6643
 21
4.580945
  0
LINE
  8
St
  6
CONTINUOUS
 62
   127
 10
-6.564295
 20
-43.419055
 11
-14.564297
 21
-43.419055
  0
LINE
  8
St
  6
CONTINUOUS
 62
   127
 10
-5.56429
 20
-42.419027
 11
-15.564303
 21
-42.419027
  0
LINE
  8
St
  6
CONTINUOUS
 62
   127
 10
-5.56429
 20
-42.419027
 11
-6.564295
 21
-43.419055
  0
LINE
  8
St
  6
CONTINUOUS
 62
   127
 10
-15.564303
 20
-42.419027
 11
-14.564297
 21
-43.419055
  0
LINE
  8
St
  6
CONTINUOUS
 62
   127
 10
-5.564282
 20
-18.419042
 11
-15.564287
 21
-18.419042
  0
LINE
  8
St
  6
CONTINUOUS
 62
   127
 10
-15.564303
 20
-42.419027
 11
-15.564303
 21
4.580945
  0
LINE
  8
St
  6
CONTINUOUS
 62
   127
 10
-5.56429
 20
-42.419027
 11
-5.56429
 21
4.580945
  0
LINE
  8
St
  6
CONTINUOUS
 62
   127
 10
-6.314282
 20
-43.169013
 11
-6.314282
 21
-18.419042
  0
LINE
  8
St
  6
CONTINUOUS
 62
   127
 10
-14.81431
 20
-43.169013
 11
-14.81431
 21
-18.419042
  0
LINE
  8
St
  6
CONTINUOUS
 62
   127
 10
80.861825
 20
38.080955
 11
80.861825
 21
41.080962
  0
LINE
  8
St
  6
DOT
 62
   127
 10
78.936837
 20
35.580972
 11
78.936837
 21
41.080962
  0
LINE
  8
St
  6
CONTINUOUS
 62
   127
 10
56.011828
 20
38.080955
 11
56.011828
 21
41.080962
  0
LINE
  8
St
  6
CONTINUOUS
 62
   127
 10
80.861825
 20
41.080962
 11
56.011828
 21
41.080962
  0
LINE
  8
St
  6
DOT
 62
   127
 10
57.936823
 20
35.580972
 11
57.936823
 21
41.080962
  0
CIRCLE
  8
St
  6
CONTINUOUS
 62
   127
 10
-10.564285
 20
-33.919067
 40
13.999995
  0
ARC
  8
St
  6
CONTINUOUS
 62
   127
 10
-14.894531
 20
0.929325
 40
3.149353
 50
62.71606
 51
89.994507
  0
ARC
  8
St
  6
CONTINUOUS
 62
   127
 10
-10.564285
 20
-7.993355
 40
12.072068
 50
76.159304
 51
103.829709
  0
ARC
  8
St
  6
CONTINUOUS
 62
   127
 10
-6.234187
 20
0.929325
 40
3.149353
 50
89.994522
 51
117.272969
  0
ARC
  8
St
  6
CONTINUOUS
 62
   127
 10
7.435775
 20
-5.921318
 40
2.5
 50
101.531655
 51
258.460121
  0
ARC
  8
St
  6
CONTINUOUS
 62
   127
 10
6.435722
 20
-8.921328
 40
0.5
 50
269.997253
 51
359.998627
  0
ARC
  8
St
  6
CONTINUOUS
 62
   127
 10
6.435722
 20
-2.921308
 40
0.5
 50
359.998627
 51
449.994507
  0
ARC
  8
St
  6
CONTINUOUS
 62
   127
 10
-28.564344
 20
-5.921318
 40
2.5
 50
281.534401
 51
438.457374
  0
ARC
  8
St
  6
CONTINUOUS
 62
   127
 10
-27.564291
 20
-8.921328
 40
0.5
 50
179.99588
 51
269.997253
  0
ARC
  8
St
  6
CONTINUOUS
 62
   127
 10
-27.564291
 20
-2.921308
 40
0.5
 50
89.994507
 51
179.99588
  0
ARC
  8
St
  6
CONTINUOUS
 62
   127
 10
-10.564285
 20
-33.907232
 40
15.249999
 50
119.435859
 51
420.558663
  0
ARC
  8
St
  6
CONTINUOUS
 62
   127
 10
-3.314273
 20
-21.062013
 40
0.5
 50
60.558663
 51
179.99588
  0
ARC
  8
St
  6
CONTINUOUS
 62
   127
 10
-17.814278
 20
-21.062013
 40
0.5
 50
359.998642
 51
479.435874
  0
CIRCLE
  8
St
  6
CONTINUOUS
 62
   127
 10
68.436815
 20
-33.919067
 40
13.999995
  0
ARC
  8
St
  6
CONTINUOUS
 62
   127
 10
64.106571
 20
0.929325
 40
3.149353
 50
62.71606
 51
89.994507
  0
ARC
  8
St
  6
CONTINUOUS
 62
   127
 10
68.436817
 20
-7.993355
 40
12.072068
 50
76.159304
 51
103.829709
  0
ARC
  8
St
  6
CONTINUOUS
 62
   127
 10
72.766915
 20
0.929325
 40
3.149353
 50
89.994522
 51
117.272969
  0
ARC
  8
St
  6
CONTINUOUS
 62
   127
 10
86.436877
 20
-5.921318
 40
2.5
 50
101.531655
 51
258.460121
  0
ARC
  8
St
  6
CONTINUOUS
 62
   127
 10
85.436824
 20
-8.921328
 40
0.5
 50
269.997253
 51
359.998627
  0
ARC
  8
St
  6
CONTINUOUS
 62
   127
 10
85.436824
 20
-2.921308
 40
0.5
 50
359.998627
 51
449.994507
  0
ARC
  8
St
  6
CONTINUOUS
 62
   127
 10
50.436758
 20
-5.921318
 40
2.5
 50
281.534401
 51
438.457374
  0
ARC
  8
St
  6
CONTINUOUS
 62
   127
 10
51.436811
 20
-8.921328
 40
0.5
 50
179.99588
 51
269.997253
  0
ARC
  8
St
  6
CONTINUOUS
 62
   127
 10
51.436811
 20
-2.921308
 40
0.5
 50
89.994507
 51
179.99588
  0
ARC
  8
St
  6
CONTINUOUS
 62
   127
 10
68.436817
 20
-33.907232
 40
15.249999
 50
119.435859
 51
420.558663
  0
ARC
  8
St
  6
CONTINUOUS
 62
   127
 10
75.686829
 20
-21.062013
 40
0.5
 50
60.558663
 51
179.99588
  0
ARC
  8
St
  6
CONTINUOUS
 62
   127
 10
61.186831
 20
-21.062013
 40
0.5
 50
359.998642
 51
479.435874
  0
ARC
  8
St
  6
CONTINUOUS
 62
   127
 10
68.436817
 20
43.580961
 40
7.5
 50
14.833936
 51
165.160571
  0
ARC
  8
St
  6
CONTINUOUS
 62
   127
 10
60.686817
 20
44.080962
 40
0.5
 50
269.997253
 51
359.998627
  0
ARC
  8
St
  6
CONTINUOUS
 62
   127
 10
76.186818
 20
44.080962
 40
0.5
 50
179.99588
 51
269.997253
  0
ARC
  8
St
  6
CONTINUOUS
 62
   127
 10
-10.564285
 20
45.080966
 40
7.5
 50
14.833936
 51
165.160571
  0
ARC
  8
St
  6
CONTINUOUS
 62
   127
 10
-18.314285
 20
45.580967
 40
0.5
 50
269.997253
 51
359.998627
  0
ARC
  8
St
  6
CONTINUOUS
 62
   127
 10
-2.814284
 20
45.580967
 40
0.5
 50
179.99588
 51
269.997253
  0
ARC
  8
St
  6
CONTINUOUS
 10
88.437013
 20
53.080961
 40
5.0
 50
0.0
 51
90.0
  0
LINE
  8
St
  6
CONTINUOUS
 62
   127
 10
93.437015
 20
43.080957
 11
93.437015
 21
53.080948
  0
ARC
  8
St
  6
CONTINUOUS
 10
88.437013
 20
43.080966
 40
5.0
 50
270.0
 51
360.0
  0
LINE
  8
St
  6
CONTINUOUS
 62
   127
 10
48.437038
 20
58.08095
 11
88.437012
 21
58.08095
  0
ARC
  8
St
  6
CONTINUOUS
 10
48.437033
 20
53.080961
 40
5.0
 50
90.0
 51
180.0
  0
LINE
  8
St
  6
CONTINUOUS
 62
   127
 10
43.437035
 20
43.080957
 11
43.437035
 21
53.080948
  0
LINE
  8
St
  6
CONTINUOUS
 62
   127
 10
48.437038
 20
38.080955
 11
88.437012
 21
38.080955
  0
ARC
  8
St
  6
CONTINUOUS
 10
48.437033
 20
43.080966
 40
5.0
 50
180.0
 51
270.0
  0
ARC
  8
St
  6
CONTINUOUS
 10
48.437018
 20
43.080958
 40
2.3
 50
180.0
 51
270.0
  0
LINE
  8
St
  6
CONTINUOUS
 62
   127
 10
46.13702
 20
43.08095
 11
46.13702
 21
53.080955
  0
ARC
  8
St
  6
CONTINUOUS
 10
48.437018
 20
53.080968
 40
2.3
 50
90.0
 51
180.0
  0
LINE
  8
St
  6
CONTINUOUS
 62
   127
 10
48.437023
 20
55.380957
 11
88.437005
 21
55.380957
  0
ARC
  8
St
  6
CONTINUOUS
 10
88.437005
 20
53.080968
 40
2.3
 50
0.0
 51
90.0
  0
LINE
  8
St
  6
CONTINUOUS
 62
   127
 10
90.737008
 20
43.08095
 11
90.737008
 21
53.080955
  0
LINE
  8
St
  6
CONTINUOUS
 62
   127
 10
48.437023
 20
40.780948
 11
88.437005
 21
40.780948
  0
ARC
  8
St
  6
CONTINUOUS
 10
88.437005
 20
43.080958
 40
2.3
 50
270.0
 51
360.0
  0
ARC
  8
St
  6
CONTINUOUS
 10
9.435943
 20
18.080931
 40
5.0
 50
-90.0
 51
0.0
  0
LINE
  8
St
  6
CONTINUOUS
 62
   127
 10
14.435945
 20
18.080923
 11
14.435945
 21
28.080935
  0
ARC
  8
St
  6
CONTINUOUS
 10
9.435943
 20
28.080948
 40
5.0
 50
0.0
 51
90.0
  0
LINE
  8
St
  6
CONTINUOUS
 62
   127
 10
-30.56407
 20
33.080938
 11
9.435943
 21
33.080938
  0
ARC
  8
St
  6
CONTINUOUS
 10
-30.564075
 20
28.080948
 40
5.0
 50
90.0
 51
180.0
  0
LINE
  8
St
  6
CONTINUOUS
 62
   127
 10
-35.564073
 20
18.080923
 11
-35.564073
 21
28.080935
  0
LINE
  8
St
  6
CONTINUOUS
 62
   127
 10
-30.56407
 20
13.08092
 11
9.435943
 21
13.08092
  0
ARC
  8
St
  6
CONTINUOUS
 10
-30.564075
 20
18.080931
 40
5.0
 50
180.0
 51
270.0
  0
ARC
  8
St
  6
CONTINUOUS
 10
-30.564082
 20
18.080946
 40
2.3
 50
180.0
 51
270.0
  0
LINE
  8
St
  6
CONTINUOUS
 62
   127
 10
-32.86408
 20
18.080938
 11
-32.86408
 21
28.08095
  0
ARC
  8
St
  6
CONTINUOUS
 10
-30.564082
 20
28.080963
 40
2.3
 50
90.0
 51
180.0
  0
LINE
  8
St
  6
CONTINUOUS
 62
   127
 10
-30.564077
 20
15.780935
 11
9.435958
 21
15.780935
  0
ARC
  8
St
  6
CONTINUOUS
 10
9.435958
 20
18.080946
 40
2.3
 50
-90.0
 51
0.0
  0
LINE
  8
St
  6
CONTINUOUS
 62
   127
 10
11.73596
 20
18.080938
 11
11.73596
 21
28.08095
  0
LINE
  8
St
  6
CONTINUOUS
 62
   127
 10
-30.564077
 20
30.380953
 11
9.435958
 21
30.380953
  0
ARC
  8
St
  6
CONTINUOUS
 10
9.435958
 20
28.080963
 40
2.3
 50
0.0
 51
90.0
  0
LINE
  8
St
  6
DASHDOT
 10
28.936475
 20
58.08095
 11
28.936475
 21
13.080935
  0
LINE
  8
St
  6
DOT
 62
   127
 10
48.437023
 20
13.080927
 11
88.437005
 21
13.080927
  0
ARC
  8
St
  6
DOT
 10
48.437009
 20
18.080923
 40
5.0
 50
180.0
 51
270.0
  0
LINE
  8
St
  6
DOT
 62
   127
 10
43.437005
 20
18.080915
 11
43.437005
 21
28.080927
  0
ARC
  8
St
  6
DOT
 10
48.437009
 20
28.080941
 40
5.0
 50
90.0
 51
180.0
  0
LINE
  8
St
  6
DOT
 62
   127
 10
88.43702
 20
33.08093
 11
48.437008
 21
33.08093
  0
ARC
  8
St
  6
DOT
 10
88.437026
 20
28.080941
 40
5.0
 50
0.0
 51
90.0
  0
LINE
  8
St
  6
DOT
 62
   127
 10
93.437023
 20
18.080915
 11
93.437023
 21
28.080927
  0
ARC
  8
St
  6
DOT
 10
88.437026
 20
18.080923
 40
5.0
 50
-90.0
 51
0.0
  0
ARC
  8
St
  6
DOT
 10
88.437034
 20
18.080938
 40
2.3
 50
270.0
 51
360.0
  0
LINE
  8
St
  6
DOT
 62
   127
 10
90.73703
 20
18.08093
 11
90.73703
 21
28.080942
  0
ARC
  8
St
  6
DOT
 10
88.437034
 20
28.080956
 40
2.3
 50
0.0
 51
90.0
  0
LINE
  8
St
  6
DOT
 62
   127
 10
88.437027
 20
15.780927
 11
48.436993
 21
15.780927
  0
ARC
  8
St
  6
DOT
 10
48.436994
 20
18.080938
 40
2.3
 50
180.0
 51
270.0
  0
LINE
  8
St
  6
DOT
 62
   127
 10
46.13699
 20
18.08093
 11
46.13699
 21
28.080942
  0
LINE
  8
St
  6
DOT
 62
   127
 10
88.437027
 20
30.380945
 11
48.436993
 21
30.380945
  0
ARC
  8
St
  6
DOT
 10
48.436994
 20
28.080956
 40
2.3
 50
90.0
 51
180.0
  0
LINE
  8
St
  6
DOT
 62
   127
 10
9.435928
 20
38.08094
 11
-30.564055
 21
38.08094
  0
ARC
  8
St
  6
DOT
 10
9.435943
 20
43.080936
 40
5.0
 50
-90.0
 51
0.0
  0
LINE
  8
St
  6
DOT
 62
   127
 10
14.435945
 20
43.080927
 11
14.435945
 21
53.08094
  0
ARC
  8
St
  6
DOT
 10
9.435943
 20
53.080953
 40
5.0
 50
0.0
 51
90.0
  0
LINE
  8
St
  6
DOT
 62
   127
 10
-30.56407
 20
58.080942
 11
9.435943
 21
58.080942
  0
ARC
  8
St
  6
DOT
 10
-30.564075
 20
53.080953
 40
5.0
 50
90.0
 51
180.0
  0
LINE
  8
St
  6
DOT
 62
   127
 10
-35.564073
 20
43.080927
 11
-35.564073
 21
53.08094
  0
ARC
  8
St
  6
DOT
 10
-30.564075
 20
43.080936
 40
5.0
 50
180.0
 51
270.0
  0
ARC
  8
St
  6
DOT
 10
-30.564082
 20
43.080951
 40
2.3
 50
180.0
 51
270.0
  0
LINE
  8
St
  6
DOT
 62
   127
 10
-32.86408
 20
43.080942
 11
-32.86408
 21
53.080955
  0
ARC
  8
St
  6
DOT
 10
-30.564082
 20
53.080968
 40
2.3
 50
90.0
 51
180.0
  0
LINE
  8
St
  6
DOT
 62
   127
 10
-30.564077
 20
40.78094
 11
9.435958
 21
40.78094
  0
ARC
  8
St
  6
DOT
 10
9.435958
 20
43.080951
 40
2.3
 50
-90.0
 51
0.0
  0
LINE
  8
St
  6
DOT
 62
   127
 10
11.73596
 20
43.080942
 11
11.73596
 21
53.080955
  0
LINE
  8
St
  6
DOT
 62
   127
 10
-30.564077
 20
55.380957
 11
9.435958
 21
55.380957
  0
ARC
  8
St
  6
DOT
 10
9.435958
 20
53.080968
 40
2.3
 50
0.0
 51
90.0
  0
LINE
  8
St
  6
DOT
 10
48.186815
 20
58.08095
 11
9.435943
 21
58.08095
  0
LINE
  8
St
  6
DOT
 10
48.186815
 20
38.080955
 11
9.450928
 21
38.080955
  0
LINE
  8
St
  6
DOT
 10
9.435928
 20
13.080935
 11
48.424775
 21
13.080935
  0
LINE
  8
St
  6
DOT
 10
9.435928
 20
33.080938
 11
48.437008
 21
33.080938
  0
ENDBLK
  0
BLOCK
  2
*GRP_0067
 70
    65
 10
0.0
 20
0.0
  0
LINE
  8
補助線
  6
BYBLOCK
 62
     0
 10
68.436815
 20
-32.419067
 11
68.436815
 21
-35.419067
  0
LINE
  8
補助線
  6
BYBLOCK
 62
     0
 10
69.936815
 20
-33.919067
 11
66.936815
 21
-33.919067
  0
ENDBLK
  0
BLOCK
  2
*GRP_0068
 70
    65
 10
0.0
 20
0.0
  0
LINE
  8
補助線
  6
BYBLOCK
 62
     0
 10
-10.564285
 20
-32.419067
 11
-10.564285
 21
-35.419067
  0
LINE
  8
補助線
  6
BYBLOCK
 62
     0
 10
-9.064285
 20
-33.919067
 11
-12.064285
 21
-33.919067
  0
ENDBLK
  0
BLOCK
  2
*GRP_0069
 70
    65
 10
0.0
 20
0.0
  0
LINE
  8
ボルト／ビス
  6
CONTINUOUS
 62
    64
 10
73.686815
 20
59.68098
 11
63.186815
 21
59.68098
  0
LINE
  8
ボルト／ビス
  6
CONTINUOUS
 62
    64
 10
68.436815
 20
68.6018
 11
68.436815
 21
45.111888
  0
LINE
  8
ボルト／ビス
  6
CONTINUOUS
 62
    64
 10
63.186815
 20
59.68098
 11
63.186815
 21
61.08098
  0
ARC
  8
ボルト／ビス
  6
CONTINUOUS
 62
    64
 10
65.686817
 20
61.080975
 40
2.5
 50
90.0
 51
180.0
  0
LINE
  8
ボルト／ビス
  6
CONTINUOUS
 62
    64
 10
65.686815
 20
63.58098
 11
71.186815
 21
63.58098
  0
LINE
  8
ボルト／ビス
  6
CONTINUOUS
 62
    64
 10
73.686815
 20
59.68098
 11
73.686815
 21
61.08098
  0
ARC
  8
ボルト／ビス
  6
CONTINUOUS
 62
    64
 10
71.186817
 20
61.080975
 40
2.5
 50
0.0
 51
90.0
  0
LINE
  8
ボルト／ビス
  6
CONTINUOUS
 62
    64
 10
71.436815
 20
50.18098
 11
70.936815
 21
49.68098
  0
LINE
  8
ボルト／ビス
  6
CONTINUOUS
 62
    64
 10
65.436815
 20
50.18098
 11
65.936815
 21
49.68098
  0
LINE
  8
ボルト／ビス
  6
CONTINUOUS
 62
    64
 10
65.436815
 20
59.68098
 11
65.436815
 21
50.18098
  0
LINE
  8
ボルト／ビス
  6
CONTINUOUS
 62
    64
 10
65.936815
 20
59.68098
 11
65.936815
 21
49.68098
  0
LINE
  8
ボルト／ビス
  6
CONTINUOUS
 62
    64
 10
71.436815
 20
59.68098
 11
71.436815
 21
50.18098
  0
LINE
  8
ボルト／ビス
  6
CONTINUOUS
 62
    64
 10
65.436815
 20
50.18098
 11
71.436815
 21
50.18098
  0
LINE
  8
ボルト／ビス
  6
CONTINUOUS
 62
    64
 10
70.936815
 20
59.68098
 11
70.936815
 21
49.68098
  0
LINE
  8
ボルト／ビス
  6
CONTINUOUS
 62
    64
 10
65.936815
 20
49.68098
 11
70.936815
 21
49.68098
  0
ENDBLK
  0
BLOCK
  2
*GRP_0070
 70
    65
 10
0.0
 20
0.0
  0
LINE
  8
ボルト／ビス
  6
CONTINUOUS
 62
    64
 10
-5.314365
 20
34.680968
 11
-15.814365
 21
34.680968
  0
LINE
  8
ボルト／ビス
  6
CONTINUOUS
 62
    64
 10
-10.564365
 20
43.601787
 11
-10.564365
 21
20.111875
  0
LINE
  8
ボルト／ビス
  6
CONTINUOUS
 62
    64
 10
-15.814365
 20
34.680968
 11
-15.814365
 21
36.080968
  0
ARC
  8
ボルト／ビス
  6
CONTINUOUS
 62
    64
 10
-13.314363
 20
36.080962
 40
2.5
 50
90.0
 51
180.0
  0
LINE
  8
ボルト／ビス
  6
CONTINUOUS
 62
    64
 10
-13.314365
 20
38.580968
 11
-7.814365
 21
38.580968
  0
LINE
  8
ボルト／ビス
  6
CONTINUOUS
 62
    64
 10
-5.314365
 20
34.680968
 11
-5.314365
 21
36.080968
  0
ARC
  8
ボルト／ビス
  6
CONTINUOUS
 62
    64
 10
-7.814363
 20
36.080962
 40
2.5
 50
0.0
 51
90.0
  0
LINE
  8
ボルト／ビス
  6
CONTINUOUS
 62
    64
 10
-7.564365
 20
25.180968
 11
-8.064365
 21
24.680968
  0
LINE
  8
ボルト／ビス
  6
CONTINUOUS
 62
    64
 10
-13.564365
 20
25.180968
 11
-13.064365
 21
24.680968
  0
LINE
  8
ボルト／ビス
  6
CONTINUOUS
 62
    64
 10
-13.564365
 20
34.680968
 11
-13.564365
 21
25.180968
  0
LINE
  8
ボルト／ビス
  6
CONTINUOUS
 62
    64
 10
-13.064365
 20
34.680968
 11
-13.064365
 21
24.680968
  0
LINE
  8
ボルト／ビス
  6
CONTINUOUS
 62
    64
 10
-7.564365
 20
34.680968
 11
-7.564365
 21
25.180968
  0
LINE
  8
ボルト／ビス
  6
CONTINUOUS
 62
    64
 10
-13.564365
 20
25.180968
 11
-7.564365
 21
25.180968
  0
LINE
  8
ボルト／ビス
  6
CONTINUOUS
 62
    64
 10
-8.064365
 20
34.680968
 11
-8.064365
 21
24.680968
  0
LINE
  8
ボルト／ビス
  6
CONTINUOUS
 62
    64
 10
-13.064365
 20
24.680968
 11
-8.064365
 21
24.680968
  0
ENDBLK
  0
BLOCK
  2
*GRP_0071
 70
    65
 10
0.0
 20
0.0
  0
LINE
  8
St
  6
DOT
 10
-10.564365
 20
34.680968
 11
-10.564365
 21
33.080968
  0
LINE
  8
St
  6
DOT
 10
-15.564365
 20
34.680968
 11
-15.564365
 21
33.080968
  0
LINE
  8
St
  6
DOT
 10
-5.564365
 20
34.680968
 11
-5.564365
 21
33.080968
  0
LINE
  8
St
  6
DOT
 10
-15.564365
 20
34.360967
 11
-5.564365
 21
34.360967
  0
LINE
  8
St
  6
DOT
 10
-15.564365
 20
34.040968
 11
-5.564365
 21
34.040968
  0
LINE
  8
St
  6
DOT
 10
-15.564365
 20
33.720968
 11
-5.564365
 21
33.720968
  0
LINE
  8
St
  6
DOT
 10
-15.564365
 20
33.400967
 11
-5.564365
 21
33.400967
  0
LINE
  8
St
  6
CONTINUOUS
 10
-25.564365
 20
34.680968
 11
-25.564365
 21
33.080968
  0
LINE
  8
St
  6
CONTINUOUS
 10
-21.478762
 20
33.080968
 11
-19.878762
 21
34.680968
  0
LINE
  8
St
  6
CONTINUOUS
 10
-20.771658
 20
33.080968
 11
-19.171658
 21
34.680968
  0
LINE
  8
St
  6
DOT
 10
63.436815
 20
58.08098
 11
63.436815
 21
59.68098
  0
LINE
  8
St
  6
DOT
 10
73.436815
 20
59.68098
 11
73.436815
 21
58.08098
  0
LINE
  8
St
  6
DOT
 10
68.436815
 20
59.68098
 11
68.436815
 21
58.08098
  0
LINE
  8
St
  6
DOT
 10
73.436815
 20
59.36098
 11
63.436815
 21
59.36098
  0
LINE
  8
St
  6
DOT
 10
73.436815
 20
59.04098
 11
63.436815
 21
59.04098
  0
LINE
  8
St
  6
DOT
 10
73.436815
 20
58.72098
 11
63.436815
 21
58.72098
  0
LINE
  8
St
  6
DOT
 10
73.436815
 20
58.40098
 11
63.436815
 21
58.40098
  0
LINE
  8
St
  6
CONTINUOUS
 10
83.436815
 20
58.08098
 11
83.436815
 21
59.68098
  0
LINE
  8
St
  6
CONTINUOUS
 10
77.708508
 20
58.08098
 11
79.308508
 21
59.68098
  0
LINE
  8
St
  6
CONTINUOUS
 10
78.415612
 20
58.08098
 11
80.015612
 21
59.68098
  0
LINE
  8
St
  6
CONTINUOUS
 10
46.309262
 20
58.08098
 11
47.909262
 21
59.68098
  0
LINE
  8
St
  6
CONTINUOUS
 10
47.016367
 20
58.08098
 11
48.616367
 21
59.68098
  0
LINE
  8
St
  6
CONTINUOUS
 10
83.436815
 20
58.08098
 11
39.436815
 21
58.08098
  0
LINE
  8
St
  6
CONTINUOUS
 10
-25.564365
 20
34.680968
 11
-3.004507
 21
34.680968
  0
ARC
  8
St
  6
CONTINUOUS
 10
-3.004507
 20
34.680964
 40
1.6
 50
270.0
 51
300.762025
  0
ARC
  8
St
  6
CONTINUOUS
 10
39.436816
 20
58.080977
 40
1.6
 50
90.0
 51
120.762025
  0
LINE
  8
St
  6
CONTINUOUS
 10
-3.004507
 20
34.680968
 11
38.996673
 21
59.68098
  0
LINE
  8
St
  6
CONTINUOUS
 10
83.436815
 20
59.68098
 11
38.996673
 21
59.68098
  0
LINE
  8
St
  6
CONTINUOUS
 10
-25.564365
 20
33.080968
 11
-2.564365
 21
33.080968
  0
LINE
  8
St
  6
CONTINUOUS
 10
39.436815
 20
58.08098
 11
-2.564365
 21
33.080968
  0
LINE
  8
St
  6
CONTINUOUS
 10
5.118642
 20
37.65406
 11
5.675165
 21
39.847295
  0
LINE
  8
St
  6
CONTINUOUS
 10
5.726258
 20
38.015725
 11
6.28278
 21
40.208963
  0
LINE
  8
St
  6
CONTINUOUS
 10
31.947523
 20
53.623193
 11
32.504045
 21
55.816427
  0
LINE
  8
St
  6
CONTINUOUS
 10
32.555137
 20
53.984857
 11
33.11166
 21
56.178095
  0
ENDBLK
  0
BLOCK
  2
*GRP_0072
 70
    65
 10
0.0
 20
0.0
  0
POLYLINE
  8
寸法
  6
CONTINUOUS
 66
     1
  0
VERTEX
  8
寸法
 10
22.254065
 20
48.784073
  0
VERTEX
  8
寸法
 10
20.161002
 20
51.155378
  0
VERTEX
  8
寸法
 10
20.161002
 20
54.352422
  0
SEQEND
  0
ENDBLK
  0
BLOCK
  2
*GRP_0073
 70
    65
 10
0.0
 20
0.0
  0
INSERT
  2
*GRP_0093
  8
型材断面
  6
CONTINUOUS
 10
0.0
 20
0.0
  0
LINE
  8
型材断面
  6
DOT
 10
73.436817
 20
-33.919067
 11
63.436813
 21
-33.919067
  0
LINE
  8
型材断面
  6
DOT
 10
68.436815
 20
-38.91907
 11
68.436815
 21
-28.919065
  0
ENDBLK
  0
BLOCK
  2
*GRP_0074
 70
    65
 10
0.0
 20
0.0
  0
LINE
  8
型材断面
  6
CONTINUOUS
 62
    47
 10
127.936873
 20
-40.319117
 11
127.936873
 21
-38.319115
  0
LINE
  8
型材断面
  6
CONTINUOUS
 62
    47
 10
127.936873
 20
-38.319115
 11
129.436873
 21
-38.319115
  0
LINE
  8
型材断面
  6
CONTINUOUS
 62
    47
 10
131.935422
 20
-43.319117
 11
132.235422
 21
-43.019117
  0
LINE
  8
型材断面
  6
CONTINUOUS
 62
    47
 10
131.935422
 20
-43.319117
 11
132.235422
 21
-43.619117
  0
LINE
  8
型材断面
  6
CONTINUOUS
 62
    47
 10
127.936873
 20
-40.319117
 11
130.735422
 21
-40.87882
  0
LINE
  8
型材断面
  6
CONTINUOUS
 62
    47
 10
129.436873
 20
-38.319115
 11
129.436873
 21
-39.31912
  0
LINE
  8
型材断面
  6
CONTINUOUS
 62
    47
 10
129.436873
 20
-39.31912
 11
132.235422
 21
-39.31912
  0
LINE
  8
型材断面
  6
CONTINUOUS
 62
    47
 10
132.235422
 20
-43.019117
 11
132.235422
 21
-39.31912
  0
LINE
  8
型材断面
  6
CONTINUOUS
 62
    47
 10
22.336873
 20
-65.723965
 11
21.736873
 21
-65.123965
  0
LINE
  8
型材断面
  6
CONTINUOUS
 62
    47
 10
21.736873
 20
-63.419065
 11
21.736873
 21
-65.123965
  0
LINE
  8
型材断面
  6
CONTINUOUS
 62
    47
 10
22.336873
 20
-65.723965
 11
22.936873
 21
-65.723965
  0
LINE
  8
型材断面
  6
CONTINUOUS
 62
    47
 10
22.336873
 20
-70.823965
 11
22.936873
 21
-70.823965
  0
LINE
  8
型材断面
  6
CONTINUOUS
 62
    47
 10
22.336873
 20
-70.823965
 11
21.736873
 21
-71.423965
  0
LINE
  8
型材断面
  6
CONTINUOUS
 62
    47
 10
22.936873
 20
-65.723965
 11
22.936873
 21
-64.619065
  0
LINE
  8
型材断面
  6
CONTINUOUS
 62
    47
 10
22.936873
 20
-64.619065
 11
25.436878
 21
-64.619065
  0
LINE
  8
型材断面
  6
CONTINUOUS
 62
    47
 10
22.936873
 20
-70.823965
 11
22.936873
 21
-71.923967
  0
LINE
  8
型材断面
  6
CONTINUOUS
 62
    47
 10
22.936873
 20
-71.923967
 11
25.436878
 21
-71.923967
  0
LINE
  8
型材断面
  6
CONTINUOUS
 62
    47
 10
25.436878
 20
-64.619065
 11
25.436878
 21
-71.923967
  0
LINE
  8
型材断面
  6
CONTINUOUS
 62
    47
 10
26.936878
 20
-65.419067
 11
26.936878
 21
-73.423967
  0
LINE
  8
型材断面
  6
CONTINUOUS
 62
    47
 10
26.936878
 20
-73.423967
 11
23.236873
 21
-73.423967
  0
LINE
  8
型材断面
  6
CONTINUOUS
 62
    47
 10
21.736873
 20
-71.423965
 11
21.736873
 21
-75.419065
  0
LINE
  8
型材断面
  6
CONTINUOUS
 62
    47
 10
23.236873
 20
-73.423967
 11
23.236873
 21
-74.797765
  0
LINE
  8
型材断面
  6
CONTINUOUS
 62
    47
 10
21.736873
 20
-75.419065
 11
27.636875
 21
-81.31912
  0
LINE
  8
型材断面
  6
CONTINUOUS
 62
    47
 10
35.935377
 20
-63.419065
 11
37.935373
 21
-63.419065
  0
LINE
  8
型材断面
  6
CONTINUOUS
 62
    47
 10
37.935373
 20
-64.919065
 11
37.165122
 21
-64.919065
  0
LINE
  8
型材断面
  6
CONTINUOUS
 62
    47
 10
37.935373
 20
-63.419065
 11
37.935373
 21
-64.919065
  0
LINE
  8
型材断面
  6
CONTINUOUS
 62
    47
 10
30.535377
 20
-68.219065
 11
35.335377
 21
-68.219065
  0
LINE
  8
型材断面
  6
CONTINUOUS
 62
    47
 10
30.035375
 20
-67.71907
 11
30.535377
 21
-68.219065
  0
LINE
  8
型材断面
  6
CONTINUOUS
 62
    47
 10
35.835373
 20
-67.71907
 11
35.335377
 21
-68.219065
  0
LINE
  8
型材断面
  6
CONTINUOUS
 62
    47
 10
30.035375
 20
-67.71907
 11
29.265673
 21
-67.71907
  0
LINE
  8
型材断面
  6
CONTINUOUS
 62
    47
 10
35.935377
 20
-63.419065
 11
35.375375
 21
-66.21907
  0
LINE
  8
型材断面
  6
CONTINUOUS
 62
    47
 10
35.835373
 20
-67.71907
 11
36.605075
 21
-67.71907
  0
LINE
  8
型材断面
  6
CONTINUOUS
 62
    47
 10
37.165122
 20
-64.919065
 11
36.605075
 21
-67.71907
  0
LINE
  8
型材断面
  6
CONTINUOUS
 62
    47
 10
32.935377
 20
-66.51907
 11
32.635377
 21
-66.21907
  0
LINE
  8
型材断面
  6
CONTINUOUS
 62
    47
 10
32.935377
 20
-66.51907
 11
33.235377
 21
-66.21907
  0
LINE
  8
型材断面
  6
CONTINUOUS
 62
    47
 10
30.495372
 20
-66.21907
 11
32.635377
 21
-66.21907
  0
LINE
  8
型材断面
  6
CONTINUOUS
 62
    47
 10
33.235377
 20
-66.21907
 11
35.375375
 21
-66.21907
  0
LINE
  8
型材断面
  6
CONTINUOUS
 62
    47
 10
26.936878
 20
-65.419067
 11
28.805675
 21
-65.419067
  0
LINE
  8
型材断面
  6
CONTINUOUS
 62
    47
 10
29.265673
 20
-67.71907
 11
28.805675
 21
-65.419067
  0
LINE
  8
型材断面
  6
CONTINUOUS
 62
    47
 10
21.736873
 20
-63.419065
 11
29.935377
 21
-63.419065
  0
LINE
  8
型材断面
  6
CONTINUOUS
 62
    47
 10
30.495372
 20
-66.21907
 11
29.935377
 21
-63.419065
  0
LINE
  8
型材断面
  6
CONTINUOUS
 62
    47
 10
23.236873
 20
-74.797765
 11
24.258223
 21
-75.819115
  0
LINE
  8
型材断面
  6
CONTINUOUS
 62
    47
 10
25.758178
 20
-77.319115
 11
28.258175
 21
-79.81912
  0
LINE
  8
型材断面
  6
CONTINUOUS
 62
    47
 10
24.258223
 20
-75.819115
 11
30.435373
 21
-75.819115
  0
LINE
  8
型材断面
  6
CONTINUOUS
 62
    47
 10
30.435373
 20
-75.819115
 11
30.435373
 21
-77.319115
  0
LINE
  8
型材断面
  6
CONTINUOUS
 62
    47
 10
25.758178
 20
-77.319115
 11
30.435373
 21
-77.319115
  0
LINE
  8
型材断面
  6
CONTINUOUS
 62
    47
 10
129.436873
 20
-47.368818
 11
130.735422
 21
-47.368818
  0
LINE
  8
型材断面
  6
CONTINUOUS
 62
    47
 10
130.735422
 20
-45.759415
 11
127.936873
 21
-46.319117
  0
LINE
  8
型材断面
  6
CONTINUOUS
 62
    47
 10
130.735422
 20
-40.87882
 11
130.735422
 21
-45.759415
  0
LINE
  8
型材断面
  6
CONTINUOUS
 62
    47
 10
139.236875
 20
-81.01912
 11
139.536875
 21
-81.31912
  0
LINE
  8
型材断面
  6
CONTINUOUS
 62
    47
 10
144.736873
 20
-81.31912
 11
139.536875
 21
-81.31912
  0
LINE
  8
型材断面
  6
CONTINUOUS
 62
    47
 10
139.236875
 20
-81.01912
 11
138.936875
 21
-81.31912
  0
LINE
  8
型材断面
  6
CONTINUOUS
 62
    47
 10
27.636875
 20
-81.31912
 11
138.936875
 21
-81.31912
  0
LINE
  8
型材断面
  6
CONTINUOUS
 62
    47
 10
28.258175
 20
-79.81912
 11
143.236873
 21
-79.81912
  0
LINE
  8
型材断面
  6
CONTINUOUS
 62
    47
 10
143.236873
 20
-79.81912
 11
143.236873
 21
-49.81912
  0
LINE
  8
型材断面
  6
CONTINUOUS
 62
    47
 10
132.235422
 20
-48.31912
 11
144.736873
 21
-48.31912
  0
LINE
  8
型材断面
  6
CONTINUOUS
 62
    47
 10
154.836875
 20
-54.31912
 11
154.836875
 21
-56.319115
  0
LINE
  8
型材断面
  6
CONTINUOUS
 62
    47
 10
154.836875
 20
-54.31912
 11
144.736873
 21
-54.31912
  0
LINE
  8
型材断面
  6
CONTINUOUS
 62
    47
 10
144.736873
 20
-48.31912
 11
144.736873
 21
-54.31912
  0
LINE
  8
型材断面
  6
CONTINUOUS
 62
    47
 10
154.836875
 20
-56.319115
 11
144.736873
 21
-56.319115
  0
LINE
  8
型材断面
  6
CONTINUOUS
 62
    47
 10
144.736873
 20
-81.31912
 11
144.736873
 21
-56.319115
  0
LINE
  8
型材断面
  6
CONTINUOUS
 62
    47
 10
127.936873
 20
-46.319117
 11
127.936873
 21
-48.31912
  0
LINE
  8
型材断面
  6
CONTINUOUS
 62
    47
 10
127.936873
 20
-48.31912
 11
129.436873
 21
-48.31912
  0
LINE
  8
型材断面
  6
CONTINUOUS
 62
    47
 10
129.436873
 20
-47.368818
 11
129.436873
 21
-48.31912
  0
LINE
  8
型材断面
  6
CONTINUOUS
 62
    47
 10
134.235425
 20
-53.819117
 11
134.235425
 21
-52.319117
  0
LINE
  8
型材断面
  6
CONTINUOUS
 62
    47
 10
134.235425
 20
-53.819117
 11
130.735422
 21
-53.819117
  0
LINE
  8
型材断面
  6
CONTINUOUS
 62
    47
 10
130.735422
 20
-47.368818
 11
130.735422
 21
-53.819117
  0
LINE
  8
型材断面
  6
CONTINUOUS
 62
    47
 10
143.236873
 20
-49.81912
 11
132.235422
 21
-49.81912
  0
LINE
  8
型材断面
  6
CONTINUOUS
 62
    47
 10
132.235422
 20
-43.619117
 11
132.235422
 21
-48.31912
  0
LINE
  8
型材断面
  6
CONTINUOUS
 62
    47
 10
132.235422
 20
-49.81912
 11
132.235422
 21
-52.319117
  0
LINE
  8
型材断面
  6
CONTINUOUS
 62
    47
 10
134.235425
 20
-52.319117
 11
132.235422
 21
-52.319117
  0
ENDBLK
  0
BLOCK
  2
*GRP_0075
 70
    65
 10
0.0
 20
0.0
  0
LINE
  8
型材断面
  6
DOT
 10
143.236873
 20
-79.81912
 11
143.236873
 21
-81.31912
  0
LINE
  8
型材断面
  6
DOT
 10
135.23687
 20
-79.81912
 11
135.23687
 21
-81.31912
  0
LINE
  8
型材断面
  6
DOT
 10
135.23687
 20
-80.94412
 11
143.236873
 21
-80.94412
  0
LINE
  8
型材断面
  6
DOT
 10
135.23687
 20
-80.56912
 11
143.236873
 21
-80.56912
  0
LINE
  8
型材断面
  6
DOT
 10
135.23687
 20
-80.19412
 11
143.236873
 21
-80.19412
  0
ENDBLK
  0
BLOCK
  2
*GRP_0076
 70
    65
 10
0.0
 20
0.0
  0
ARC
  8
型材断面
  6
CONTINUOUS
 62
    47
 10
90.986827
 20
-14.369061
 40
0.3
 50
180.0
 51
270.0
  0
LINE
  8
型材断面
  6
CONTINUOUS
 62
    47
 10
90.986825
 20
-14.669065
 11
92.386828
 21
-14.669065
  0
LINE
  8
型材断面
  6
CONTINUOUS
 62
    47
 10
92.686828
 20
-14.369065
 11
92.686828
 21
2.83094
  0
ARC
  8
型材断面
  6
CONTINUOUS
 62
    47
 10
92.386827
 20
-14.369061
 40
0.3
 50
270.0
 51
360.0
  0
ARC
  8
型材断面
  6
CONTINUOUS
 62
    47
 10
45.186827
 20
2.830939
 40
1.0
 50
90.0
 51
180.0
  0
ARC
  8
型材断面
  6
CONTINUOUS
 62
    47
 10
45.886827
 20
-14.369061
 40
0.3
 50
270.0
 51
360.0
  0
LINE
  8
型材断面
  6
CONTINUOUS
 62
    47
 10
45.886828
 20
-14.669065
 11
44.486825
 21
-14.669065
  0
LINE
  8
型材断面
  6
CONTINUOUS
 62
    47
 10
44.186825
 20
-14.369065
 11
44.186825
 21
2.83094
  0
ARC
  8
型材断面
  6
CONTINUOUS
 62
    47
 10
44.486827
 20
-14.369061
 40
0.3
 50
180.0
 51
270.0
  0
LINE
  8
型材断面
  6
CONTINUOUS
 62
    47
 10
90.686825
 20
1.830935
 11
46.186828
 21
1.830935
  0
LINE
  8
型材断面
  6
CONTINUOUS
 62
    47
 10
91.68683
 20
3.830938
 11
45.18683
 21
3.830938
  0
ARC
  8
型材断面
  6
CONTINUOUS
 62
    47
 10
91.686827
 20
2.830939
 40
1.0
 50
0.0
 51
90.0
  0
LINE
  8
型材断面
  6
CONTINUOUS
 62
    47
 10
90.686825
 20
-5.169063
 11
90.686825
 21
1.830935
  0
LINE
  8
型材断面
  6
CONTINUOUS
 62
    47
 10
89.986828
 20
-5.169063
 11
90.686825
 21
-5.169063
  0
ARC
  8
型材断面
  6
CONTINUOUS
 62
    47
 10
89.986827
 20
-5.369061
 40
0.2
 50
90.0
 51
216.085808
  0
LINE
  8
型材断面
  6
CONTINUOUS
 62
    47
 10
89.825202
 20
-5.48686
 11
90.686825
 21
-6.669063
  0
LINE
  8
型材断面
  6
CONTINUOUS
 62
    47
 10
90.686825
 20
-14.369065
 11
90.686825
 21
-6.669063
  0
ARC
  8
型材断面
  6
CONTINUOUS
 62
    47
 10
46.886827
 20
-5.369061
 40
0.2
 50
323.914192
 51
450.0
  0
LINE
  8
型材断面
  6
CONTINUOUS
 62
    47
 10
46.186828
 20
-5.169063
 11
46.186828
 21
1.830935
  0
LINE
  8
型材断面
  6
CONTINUOUS
 62
    47
 10
46.886825
 20
-5.169063
 11
46.186828
 21
-5.169063
  0
LINE
  8
型材断面
  6
CONTINUOUS
 62
    47
 10
47.048458
 20
-5.48686
 11
46.186828
 21
-6.669063
  0
LINE
  8
型材断面
  6
CONTINUOUS
 62
    47
 10
46.186828
 20
-14.369065
 11
46.186828
 21
-6.669063
  0
ENDBLK
  0
BLOCK
  2
*GRP_0077
 70
    65
 10
0.0
 20
0.0
  0
SPLINE
  5
1400000
100
AcDbEntity
  8
ガラス
100
AcDbSpline
  6
CONTINUOUS
 70
     0
 71
     3
 74
     3
 44
0.0
 11
144.945905
 21
-84.37759
 11
143.39144
 21
-83.430678
 11
142.816588
 21
-81.852025
  0
SPLINE
  5
1400001
100
AcDbEntity
  8
ガラス
100
AcDbSpline
  6
CONTINUOUS
 70
     0
 71
     3
 74
     3
 44
0.0
 11
142.816588
 21
-81.852025
 11
144.055745
 21
-82.30345
 11
145.17482
 21
-82.481088
  0
ARC
  8
ガラス
  6
CONTINUOUS
 10
145.060353
 20
-83.429339
 40
0.955135
 50
263.117442
 51
443.117442
  0
ENDBLK
  0
BLOCK
  2
*GRP_0078
 70
    65
 10
0.0
 20
0.0
  0
SPLINE
  5
1400002
100
AcDbEntity
  8
ガラス
100
AcDbSpline
  6
CONTINUOUS
 70
     0
 71
     3
 74
     3
 44
0.0
 11
140.541155
 21
-71.446577
 11
140.611055
 21
-69.62776
 11
141.70982
 21
-68.356818
  0
SPLINE
  5
1400003
100
AcDbEntity
  8
ガラス
100
AcDbSpline
  6
CONTINUOUS
 70
     0
 71
     3
 74
     3
 44
0.0
 11
141.70982
 21
-68.356818
 11
141.919085
 21
-69.658922
 11
142.309002
 21
-70.722805
  0
ARC
  8
ガラス
  6
CONTINUOUS
 10
141.425072
 20
-71.084694
 40
0.955135
 50
202.264587
 51
382.264587
  0
ENDBLK
  0
BLOCK
  2
*GRP_0079
 70
    65
 10
0.0
 20
0.0
  0
SPLINE
  5
1400004
100
AcDbEntity
  8
ガラス
100
AcDbSpline
  6
CONTINUOUS
 70
     0
 71
     3
 74
     3
 44
0.0
 11
132.004325
 21
-66.628608
 11
130.449868
 21
-65.681688
 11
129.875015
 21
-64.103042
  0
SPLINE
  5
1400005
100
AcDbEntity
  8
ガラス
100
AcDbSpline
  6
CONTINUOUS
 70
     0
 71
     3
 74
     3
 44
0.0
 11
129.875015
 21
-64.103042
 11
131.114172
 21
-64.554475
 11
132.23324
 21
-64.732105
  0
ARC
  8
ガラス
  6
CONTINUOUS
 10
132.11878
 20
-65.680356
 40
0.955135
 50
263.117442
 51
443.117442
  0
ENDBLK
  0
BLOCK
  2
*GRP_0080
 70
    65
 10
0.0
 20
0.0
  0
SPLINE
  5
1400006
100
AcDbEntity
  8
ガラス
100
AcDbSpline
  6
CONTINUOUS
 70
     0
 71
     3
 74
     3
 44
0.0
 11
109.584043
 21
-24.535998
 11
109.65395
 21
-22.71718
 11
110.752708
 21
-21.446238
  0
SPLINE
  5
1400007
100
AcDbEntity
  8
ガラス
100
AcDbSpline
  6
CONTINUOUS
 70
     0
 71
     3
 74
     3
 44
0.0
 11
110.752708
 21
-21.446238
 11
110.96198
 21
-22.748335
 11
111.351898
 21
-23.812225
  0
ARC
  8
ガラス
  6
CONTINUOUS
 10
110.467964
 20
-24.174111
 40
0.955135
 50
202.264587
 51
382.264587
  0
ENDBLK
  0
BLOCK
  2
*GRP_0081
 70
    65
 10
0.0
 20
0.0
  0
SPLINE
  5
1400008
100
AcDbEntity
  8
ガラス
100
AcDbSpline
  6
CONTINUOUS
 70
     0
 71
     3
 74
     3
 44
0.0
 11
109.58405
 21
-39.377268
 11
109.653943
 21
-37.55845
 11
110.752708
 21
-36.2875
  0
SPLINE
  5
1400009
100
AcDbEntity
  8
ガラス
100
AcDbSpline
  6
CONTINUOUS
 70
     0
 71
     3
 74
     3
 44
0.0
 11
110.752708
 21
-36.2875
 11
110.96198
 21
-37.589613
 11
111.351905
 21
-38.653495
  0
ARC
  8
ガラス
  6
CONTINUOUS
 10
110.467963
 20
-39.015381
 40
0.955135
 50
202.264587
 51
382.264587
  0
ENDBLK
  0
BLOCK
  2
*GRP_0082
 70
    65
 10
0.0
 20
0.0
  0
SPLINE
  5
1400010
100
AcDbEntity
  8
ガラス
100
AcDbSpline
  6
CONTINUOUS
 70
     0
 71
     3
 74
     3
 44
0.0
 11
109.58405
 21
-52.763508
 11
109.65395
 21
-50.94469
 11
110.752708
 21
-49.673747
  0
SPLINE
  5
1400011
100
AcDbEntity
  8
ガラス
100
AcDbSpline
  6
CONTINUOUS
 70
     0
 71
     3
 74
     3
 44
0.0
 11
110.752708
 21
-49.673747
 11
110.96198
 21
-50.975853
 11
111.351898
 21
-52.039743
  0
ARC
  8
ガラス
  6
CONTINUOUS
 10
110.467963
 20
-52.401625
 40
0.955135
 50
202.264587
 51
382.264587
  0
ENDBLK
  0
BLOCK
  2
*GRP_0083
 70
    65
 10
0.0
 20
0.0
  0
SPLINE
  5
1400012
100
AcDbEntity
  8
ガラス
100
AcDbSpline
  6
CONTINUOUS
 70
     0
 71
     3
 74
     3
 44
0.0
 11
113.700297
 21
-62.680682
 11
112.145832
 21
-61.73377
 11
111.57098
 21
-60.155125
  0
SPLINE
  5
1400013
100
AcDbEntity
  8
ガラス
100
AcDbSpline
  6
CONTINUOUS
 70
     0
 71
     3
 74
     3
 44
0.0
 11
111.57098
 21
-60.155125
 11
112.81013
 21
-60.606542
 11
113.929212
 21
-60.784173
  0
ARC
  8
ガラス
  6
CONTINUOUS
 10
113.814747
 20
-61.732428
 40
0.955135
 50
263.117442
 51
443.117442
  0
ENDBLK
  0
BLOCK
  2
*GRP_0084
 70
    65
 10
0.0
 20
0.0
  0
SPLINE
  5
1400014
100
AcDbEntity
  8
ガラス
100
AcDbSpline
  6
CONTINUOUS
 70
     0
 71
     3
 74
     3
 44
0.0
 11
109.796375
 21
11.88134
 11
109.866282
 21
13.700158
 11
110.96504
 21
14.9711
  0
SPLINE
  5
1400015
100
AcDbEntity
  8
ガラス
100
AcDbSpline
  6
CONTINUOUS
 70
     0
 71
     3
 74
     3
 44
0.0
 11
110.96504
 21
14.9711
 11
111.174313
 21
13.668988
 11
111.56423
 21
12.605098
  0
ARC
  8
ガラス
  6
CONTINUOUS
 10
110.680297
 20
12.243217
 40
0.955135
 50
202.264587
 51
382.264587
  0
ENDBLK
  0
BLOCK
  2
*GRP_0085
 70
    65
 10
0.0
 20
0.0
  0
SPLINE
  5
1400016
100
AcDbEntity
  8
ガラス
100
AcDbSpline
  6
CONTINUOUS
 70
     0
 71
     3
 74
     3
 44
0.0
 11
109.796383
 21
-8.83825
 11
109.866282
 21
-7.019425
 11
110.96504
 21
-5.748475
  0
SPLINE
  5
1400017
100
AcDbEntity
  8
ガラス
100
AcDbSpline
  6
CONTINUOUS
 70
     0
 71
     3
 74
     3
 44
0.0
 11
110.96504
 21
-5.748475
 11
111.174313
 21
-7.050595
 11
111.56423
 21
-8.114477
  0
ARC
  8
ガラス
  6
CONTINUOUS
 10
110.680297
 20
-8.47636
 40
0.955135
 50
202.264587
 51
382.264587
  0
ENDBLK
  0
BLOCK
  2
*GRP_0086
 70
    65
 10
0.0
 20
0.0
  0
LINE
  8
ゴム等
  6
DOT
 10
35.335377
 20
-65.919063
 11
35.83538
 21
-63.419065
  0
LINE
  8
ゴム等
  6
DOT
 10
30.035375
 20
-63.419065
 11
30.535377
 21
-65.919063
  0
LINE
  8
ゴム等
  6
DOT
 10
27.935375
 20
-58.419063
 11
27.935375
 21
-63.419065
  0
LINE
  8
ゴム等
  6
DOT
 10
37.93538
 20
-58.419063
 11
37.93538
 21
-63.419065
  0
LINE
  8
ゴム等
  6
DOT
 10
35.335377
 20
-65.919063
 11
30.535377
 21
-65.919063
  0
LINE
  8
ゴム等
  6
DOT
 10
27.935375
 20
-63.419065
 11
30.035375
 21
-63.419065
  0
LINE
  8
ゴム等
  6
DOT
 10
35.83538
 20
-63.419065
 11
37.93538
 21
-63.419065
  0
LINE
  8
ゴム等
  6
DOT
 10
32.935377
 20
-58.919065
 11
32.435375
 21
-58.419063
  0
LINE
  8
ゴム等
  6
DOT
 10
32.935377
 20
-58.919065
 11
33.43538
 21
-58.419063
  0
LINE
  8
ゴム等
  6
DOT
 10
37.93538
 20
-58.419063
 11
33.43538
 21
-58.419063
  0
LINE
  8
ゴム等
  6
DOT
 10
32.435375
 20
-58.419063
 11
27.935375
 21
-58.419063
  0
INSERT
  2
*HAT_0004
  8
ゴム等
 10
0.0
 20
0.0
  0
ENDBLK
  0
BLOCK
  2
*GRP_0087
 70
    65
 10
0.0
 20
0.0
  0
LINE
  8
ゴム等
  6
DOT
 10
130.436878
 20
-45.719117
 11
127.93688
 21
-46.219113
  0
LINE
  8
ゴム等
  6
DOT
 10
127.93688
 20
-40.419115
 11
130.436878
 21
-40.919117
  0
LINE
  8
ゴム等
  6
DOT
 10
122.936878
 20
-38.319115
 11
127.93688
 21
-38.319115
  0
LINE
  8
ゴム等
  6
DOT
 10
122.936878
 20
-48.319113
 11
127.93688
 21
-48.319113
  0
LINE
  8
ゴム等
  6
DOT
 10
130.436878
 20
-45.719117
 11
130.436878
 21
-40.919117
  0
LINE
  8
ゴム等
  6
DOT
 10
127.93688
 20
-38.319115
 11
127.93688
 21
-40.419115
  0
LINE
  8
ゴム等
  6
DOT
 10
127.93688
 20
-46.219113
 11
127.93688
 21
-48.319113
  0
LINE
  8
ゴム等
  6
DOT
 10
123.43688
 20
-43.319117
 11
122.936878
 21
-42.819115
  0
LINE
  8
ゴム等
  6
DOT
 10
123.43688
 20
-43.319117
 11
122.936878
 21
-43.819113
  0
LINE
  8
ゴム等
  6
DOT
 10
122.936878
 20
-48.319113
 11
122.936878
 21
-43.819113
  0
LINE
  8
ゴム等
  6
DOT
 10
122.936878
 20
-42.819115
 11
122.936878
 21
-38.319115
  0
INSERT
  2
*HAT_0005
  8
ゴム等
 10
0.0
 20
0.0
  0
ENDBLK
  0
BLOCK
  2
*GRP_0088
 70
    65
 10
0.0
 20
0.0
  0
LINE
  8
ゴム等
  6
CONTINUOUS
 10
18.935345
 20
-47.419052
 11
18.935345
 21
-43.419055
  0
LINE
  8
ゴム等
  6
CONTINUOUS
 10
24.935345
 20
-47.419052
 11
24.935345
 21
-55.419055
  0
LINE
  8
ゴム等
  6
CONTINUOUS
 10
18.935345
 20
-55.419055
 11
21.13535
 21
-55.419055
  0
LINE
  8
ゴム等
  6
CONTINUOUS
 10
18.935345
 20
-47.419052
 11
21.13535
 21
-47.419052
  0
LINE
  8
ゴム等
  6
CONTINUOUS
 10
18.935345
 20
-55.419055
 11
18.935345
 21
-57.419057
  0
ARC
  8
ゴム等
  6
CONTINUOUS
 10
19.935347
 20
-50.919041
 40
1.0
 50
90.0
 51
180.0
  0
LINE
  8
ゴム等
  6
CONTINUOUS
 10
22.435347
 20
-49.919057
 11
19.93535
 21
-49.919057
  0
ARC
  8
ゴム等
  6
CONTINUOUS
 10
22.435347
 20
-50.919041
 40
1.0
 50
0.0
 51
90.0
  0
LINE
  8
ゴム等
  6
CONTINUOUS
 10
23.435345
 20
-50.919055
 11
23.435345
 21
-51.919052
  0
ARC
  8
ゴム等
  6
CONTINUOUS
 10
22.435347
 20
-51.919041
 40
1.0
 50
-90.0
 51
0.0
  0
LINE
  8
ゴム等
  6
CONTINUOUS
 10
22.435347
 20
-52.919057
 11
19.93535
 21
-52.919057
  0
LINE
  8
ゴム等
  6
CONTINUOUS
 10
18.935345
 20
-50.919055
 11
18.935345
 21
-51.919052
  0
ARC
  8
ゴム等
  6
CONTINUOUS
 10
19.935347
 20
-51.919041
 40
1.0
 50
180.0
 51
270.0
  0
LINE
  8
ゴム等
  6
CONTINUOUS
 10
16.735347
 20
-43.419055
 11
18.935345
 21
-43.419055
  0
ARC
  8
ゴム等
  6
CONTINUOUS
 10
16.735347
 20
-45.419041
 40
2.0
 50
90.0
 51
180.0
  0
LINE
  8
ゴム等
  6
CONTINUOUS
 10
14.735345
 20
-45.419057
 11
14.735345
 21
-58.919057
  0
ARC
  8
ゴム等
  6
CONTINUOUS
 10
15.735347
 20
-58.919041
 40
1.0
 50
180.0
 51
270.0
  0
LINE
  8
ゴム等
  6
CONTINUOUS
 10
24.935345
 20
-47.419052
 11
21.730137
 21
-46.67812
  0
ARC
  8
ゴム等
  6
CONTINUOUS
 10
21.635347
 20
-47.169041
 40
0.5
 50
79.071863
 51
180.0
  0
LINE
  8
ゴム等
  6
CONTINUOUS
 10
21.13535
 20
-47.419052
 11
21.13535
 21
-47.169055
  0
LINE
  8
ゴム等
  6
CONTINUOUS
 10
24.935345
 20
-55.419055
 11
21.730137
 21
-56.159987
  0
ARC
  8
ゴム等
  6
CONTINUOUS
 10
21.635347
 20
-55.669041
 40
0.5
 50
180.0
 51
280.928137
  0
LINE
  8
ゴム等
  6
CONTINUOUS
 10
21.13535
 20
-55.419055
 11
21.13535
 21
-55.669052
  0
LINE
  8
ゴム等
  6
CONTINUOUS
 10
15.73535
 20
-59.919055
 11
16.435347
 21
-59.919055
  0
LINE
  8
ゴム等
  6
CONTINUOUS
 10
16.435347
 20
-59.919055
 11
16.135347
 21
-57.419057
  0
LINE
  8
ゴム等
  6
CONTINUOUS
 10
18.935345
 20
-57.419057
 11
16.135347
 21
-57.419057
  0
INSERT
  2
*HAT_0006
  8
ゴム等
 10
0.0
 20
0.0
  0
ENDBLK
  0
BLOCK
  2
*GRP_0089
 70
    65
 10
0.0
 20
0.0
  0
LINE
  8
ゴム等
  6
CONTINUOUS
 10
25.23683
 20
-70.773932
 11
25.23683
 21
-65.77393
  0
LINE
  8
ゴム等
  6
CONTINUOUS
 10
23.236828
 20
-65.77393
 11
21.736828
 21
-65.77393
  0
LINE
  8
ゴム等
  6
CONTINUOUS
 10
23.236828
 20
-70.773932
 11
21.736828
 21
-70.773932
  0
LINE
  8
ゴム等
  6
CONTINUOUS
 10
21.736828
 20
-74.77393
 11
21.736828
 21
-70.773932
  0
LINE
  8
ゴム等
  6
CONTINUOUS
 10
21.736828
 20
-65.77393
 11
21.736828
 21
-59.77393
  0
LINE
  8
ゴム等
  6
CONTINUOUS
 10
21.736828
 20
-59.77393
 11
18.736828
 21
-59.77393
  0
LINE
  8
ゴム等
  6
CONTINUOUS
 10
18.736828
 20
-57.773927
 11
18.736828
 21
-59.77393
  0
LINE
  8
ゴム等
  6
CONTINUOUS
 10
18.736828
 20
-57.773927
 11
16.23683
 21
-57.773927
  0
ARC
  8
ゴム等
  6
CONTINUOUS
 10
27.486826
 20
-68.773916
 40
12.75
 50
151.927513
 51
208.072487
  0
LINE
  8
ゴム等
  6
CONTINUOUS
 10
16.23683
 20
-57.773927
 11
16.23683
 21
-62.77393
  0
LINE
  8
ゴム等
  6
CONTINUOUS
 10
21.736828
 20
-74.77393
 11
16.23683
 21
-74.77393
  0
LINE
  8
ゴム等
  6
CONTINUOUS
 10
25.23683
 20
-65.77393
 11
24.040535
 21
-64.873863
  0
ARC
  8
ゴム等
  6
CONTINUOUS
 10
23.736826
 20
-65.273916
 40
0.5
 50
52.618449
 51
180.0
  0
LINE
  8
ゴム等
  6
CONTINUOUS
 10
23.236828
 20
-65.77393
 11
23.236828
 21
-65.273927
  0
LINE
  8
ゴム等
  6
CONTINUOUS
 10
25.23683
 20
-70.773932
 11
24.040535
 21
-71.673992
  0
ARC
  8
ゴム等
  6
CONTINUOUS
 10
23.736826
 20
-71.273916
 40
0.5
 50
180.0
 51
307.381551
  0
LINE
  8
ゴム等
  6
CONTINUOUS
 10
23.236828
 20
-70.773932
 11
23.236828
 21
-71.273927
  0
INSERT
  2
*HAT_0007
  8
ゴム等
 10
0.0
 20
0.0
  0
ENDBLK
  0
BLOCK
  2
*GRP_0090
 70
    65
 10
0.0
 20
0.0
  0
LINE
  8
ボルト／ビス
  6
CONTINUOUS
 10
29.435383
 20
-56.41906
 11
29.527085
 21
-55.370897
  0
ARC
  8
ボルト／ビス
  6
CONTINUOUS
 10
31.220617
 20
-55.519058
 40
1.7
 50
90.0
 51
175.000011
  0
LINE
  8
ボルト／ビス
  6
CONTINUOUS
 10
31.220615
 20
-53.819057
 11
32.935377
 21
-53.819057
  0
LINE
  8
ボルト／ビス
  6
CONTINUOUS
 10
36.43538
 20
-56.41906
 11
36.343678
 21
-55.370897
  0
ARC
  8
ボルト／ビス
  6
CONTINUOUS
 10
34.65015
 20
-55.519058
 40
1.7
 50
4.999989
 51
90.0
  0
LINE
  8
ボルト／ビス
  6
CONTINUOUS
 10
34.650147
 20
-53.819057
 11
32.935377
 21
-53.819057
  0
LINE
  8
ボルト／ビス
  6
CONTINUOUS
 10
30.538738
 20
-54.203965
 11
30.538738
 21
-53.961805
  0
LINE
  8
ボルト／ビス
  6
CONTINUOUS
 10
32.23538
 20
-54.85405
 11
32.935377
 21
-54.85405
  0
LINE
  8
ボルト／ビス
  6
CONTINUOUS
 10
31.835383
 20
-54.203965
 11
30.538738
 21
-54.203965
  0
LINE
  8
ボルト／ビス
  6
CONTINUOUS
 10
32.23538
 20
-54.85405
 11
32.23538
 21
-54.603963
  0
ARC
  8
ボルト／ビス
  6
CONTINUOUS
 10
31.835384
 20
-54.603963
 40
0.4
 50
0.0
 51
90.0
  0
LINE
  8
ボルト／ビス
  6
CONTINUOUS
 10
35.332018
 20
-54.203965
 11
35.332018
 21
-53.961805
  0
LINE
  8
ボルト／ビス
  6
CONTINUOUS
 10
33.635383
 20
-54.85405
 11
32.935377
 21
-54.85405
  0
LINE
  8
ボルト／ビス
  6
CONTINUOUS
 10
34.03538
 20
-54.203965
 11
35.332018
 21
-54.203965
  0
LINE
  8
ボルト／ビス
  6
CONTINUOUS
 10
33.635383
 20
-54.85405
 11
33.635383
 21
-54.603963
  0
ARC
  8
ボルト／ビス
  6
CONTINUOUS
 10
34.035384
 20
-54.603963
 40
0.4
 50
90.0
 51
180.0
  0
LINE
  8
ボルト／ビス
  6
CONTINUOUS
 10
29.435383
 20
-56.41906
 11
36.43538
 21
-56.41906
  0
LINE
  8
ボルト／ビス
  6
CONTINUOUS
 10
32.935377
 20
-51.847675
 11
32.935377
 21
-72.062335
  0
LINE
  8
ボルト／ビス
  6
CONTINUOUS
 10
30.935383
 20
-69.91906
 11
31.435377
 21
-70.419063
  0
LINE
  8
ボルト／ビス
  6
CONTINUOUS
 10
34.93538
 20
-69.91906
 11
34.435377
 21
-70.419063
  0
LINE
  8
ボルト／ビス
  6
CONTINUOUS
 10
30.935383
 20
-69.91906
 11
34.93538
 21
-69.91906
  0
LINE
  8
ボルト／ビス
  6
CONTINUOUS
 10
31.435377
 20
-70.419063
 11
34.435377
 21
-70.419063
  0
LINE
  8
ボルト／ビス
  6
CONTINUOUS
 10
34.93538
 20
-56.41906
 11
34.93538
 21
-69.91906
  0
LINE
  8
ボルト／ビス
  6
CONTINUOUS
 10
30.935383
 20
-56.41906
 11
30.935383
 21
-69.91906
  0
LINE
  8
ボルト／ビス
  6
CONTINUOUS
 10
31.435377
 20
-56.41906
 11
31.435377
 21
-70.419063
  0
LINE
  8
ボルト／ビス
  6
CONTINUOUS
 10
34.435377
 20
-56.41906
 11
34.435377
 21
-70.419063
  0
ENDBLK
  0
BLOCK
  2
*GRP_0091
 70
    65
 10
0.0
 20
0.0
  0
LINE
  8
ボルト／ビス
  6
CONTINUOUS
 10
132.235422
 20
-46.819113
 11
133.283585
 21
-46.72741
  0
ARC
  8
ボルト／ビス
  6
CONTINUOUS
 10
133.135422
 20
-45.033887
 40
1.7
 50
274.999989
 51
360.0
  0
LINE
  8
ボルト／ビス
  6
CONTINUOUS
 10
134.835425
 20
-45.03388
 11
134.835425
 21
-43.319117
  0
LINE
  8
ボルト／ビス
  6
CONTINUOUS
 10
132.235422
 20
-39.819115
 11
133.283585
 21
-39.910818
  0
ARC
  8
ボルト／ビス
  6
CONTINUOUS
 10
133.135422
 20
-41.604354
 40
1.7
 50
0.0
 51
85.000011
  0
LINE
  8
ボルト／ビス
  6
CONTINUOUS
 10
134.835425
 20
-41.604348
 11
134.835425
 21
-43.319117
  0
LINE
  8
ボルト／ビス
  6
CONTINUOUS
 10
134.450518
 20
-45.715758
 11
134.692678
 21
-45.715758
  0
LINE
  8
ボルト／ビス
  6
CONTINUOUS
 10
133.800433
 20
-44.019115
 11
133.800433
 21
-43.319117
  0
LINE
  8
ボルト／ビス
  6
CONTINUOUS
 10
134.450518
 20
-44.419113
 11
134.450518
 21
-45.715758
  0
LINE
  8
ボルト／ビス
  6
CONTINUOUS
 10
133.800433
 20
-44.019115
 11
134.05052
 21
-44.019115
  0
ARC
  8
ボルト／ビス
  6
CONTINUOUS
 10
134.050517
 20
-44.419121
 40
0.4
 50
0.0
 51
90.0
  0
LINE
  8
ボルト／ビス
  6
CONTINUOUS
 10
134.450518
 20
-40.922477
 11
134.692678
 21
-40.922477
  0
LINE
  8
ボルト／ビス
  6
CONTINUOUS
 10
133.800433
 20
-42.619113
 11
133.800433
 21
-43.319117
  0
LINE
  8
ボルト／ビス
  6
CONTINUOUS
 10
134.450518
 20
-42.219115
 11
134.450518
 21
-40.922477
  0
LINE
  8
ボルト／ビス
  6
CONTINUOUS
 10
133.800433
 20
-42.619113
 11
134.05052
 21
-42.619113
  0
ARC
  8
ボルト／ビス
  6
CONTINUOUS
 10
134.050517
 20
-42.219121
 40
0.4
 50
270.0
 51
360.0
  0
LINE
  8
ボルト／ビス
  6
CONTINUOUS
 10
132.235422
 20
-46.819113
 11
132.235422
 21
-39.819115
  0
LINE
  8
ボルト／ビス
  6
CONTINUOUS
 10
136.806807
 20
-43.319117
 11
116.592147
 21
-43.319117
  0
LINE
  8
ボルト／ビス
  6
CONTINUOUS
 10
118.735422
 20
-45.319113
 11
118.23542
 21
-44.819117
  0
LINE
  8
ボルト／ビス
  6
CONTINUOUS
 10
118.735422
 20
-41.319115
 11
118.23542
 21
-41.819117
  0
LINE
  8
ボルト／ビス
  6
CONTINUOUS
 10
118.735422
 20
-45.319113
 11
118.735422
 21
-41.319115
  0
LINE
  8
ボルト／ビス
  6
CONTINUOUS
 10
118.23542
 20
-44.819117
 11
118.23542
 21
-41.819117
  0
LINE
  8
ボルト／ビス
  6
CONTINUOUS
 10
132.235422
 20
-41.319115
 11
118.735422
 21
-41.319115
  0
LINE
  8
ボルト／ビス
  6
CONTINUOUS
 10
132.235422
 20
-45.319113
 11
118.735422
 21
-45.319113
  0
LINE
  8
ボルト／ビス
  6
CONTINUOUS
 10
132.235422
 20
-44.819117
 11
118.23542
 21
-44.819117
  0
LINE
  8
ボルト／ビス
  6
CONTINUOUS
 10
132.235422
 20
-41.819117
 11
118.23542
 21
-41.819117
  0
ENDBLK
  0
BLOCK
  2
*GRP_0092
 70
    65
 10
0.0
 20
0.0
  0
LINE
  8
別途部材
  6
DOT
 10
133.236875
 20
-69.819122
 11
133.236875
 21
-79.81912
  0
LINE
  8
別途部材
  6
DOT
 10
143.236873
 20
-79.81912
 11
133.236875
 21
-79.81912
  0
INSERT
  2
*HAT_0008
  8
別途部材
 10
0.0
 20
0.0
  0
LINE
  8
別途部材
  6
DOT
 10
143.236873
 20
-69.819122
 11
133.236875
 21
-69.819122
  0
LINE
  8
別途部材
  6
DOT
 10
143.236873
 20
-69.819122
 11
143.236873
 21
-79.81912
  0
ENDBLK
  0
BLOCK
  2
*GRP_0093
 70
    65
 10
0.0
 20
0.0
  0
ARC
  8
型材断面
  6
CONTINUOUS
 62
    47
 10
50.436815
 20
-5.919064
 40
2.2
 50
270.0
 51
450.0
  0
ARC
  8
型材断面
  6
CONTINUOUS
 62
    47
 10
76.736815
 20
-20.474735
 40
0.3
 50
180.0
 51
238.310451
  0
ARC
  8
型材断面
  6
CONTINUOUS
 62
    47
 10
60.136815
 20
-20.474735
 40
0.3
 50
301.689549
 51
360.0
  0
LINE
  8
型材断面
  6
CONTINUOUS
 62
    47
 10
90.436828
 20
-4.919057
 11
89.28998
 21
-4.919057
  0
LINE
  8
型材断面
  6
CONTINUOUS
 62
    47
 10
90.436828
 20
-18.419057
 11
90.436828
 21
-6.419057
  0
LINE
  8
型材断面
  6
CONTINUOUS
 62
    47
 10
89.28998
 20
-4.919057
 11
90.436828
 21
-6.419057
  0
LINE
  8
型材断面
  6
CONTINUOUS
 62
    47
 10
47.58368
 20
-4.919057
 11
46.436832
 21
-4.919057
  0
LINE
  8
型材断面
  6
CONTINUOUS
 62
    47
 10
47.58368
 20
-4.919057
 11
46.436832
 21
-6.419057
  0
LINE
  8
型材断面
  6
CONTINUOUS
 62
    47
 10
85.160232
 20
-3.769607
 11
86.43683
 21
-3.769607
  0
LINE
  8
型材断面
  6
CONTINUOUS
 62
    47
 10
85.160232
 20
-8.068563
 11
86.43683
 21
-8.068563
  0
ARC
  8
型材断面
  6
CONTINUOUS
 62
    47
 10
86.436819
 20
-5.919066
 40
2.5
 50
120.706651
 51
239.29391
  0
LINE
  8
型材断面
  6
CONTINUOUS
 62
    47
 10
55.436832
 20
-18.419057
 11
60.436828
 21
-18.419057
  0
LINE
  8
型材断面
  6
CONTINUOUS
 62
    47
 10
60.436828
 20
-20.474762
 11
60.436828
 21
-18.419057
  0
LINE
  8
型材断面
  6
CONTINUOUS
 62
    47
 10
81.436828
 20
-18.419057
 11
76.436832
 21
-18.419057
  0
LINE
  8
型材断面
  6
CONTINUOUS
 62
    47
 10
76.436832
 20
-20.474762
 11
76.436832
 21
-18.419057
  0
LINE
  8
型材断面
  6
CONTINUOUS
 62
    47
 10
86.43683
 20
-29.09596
 11
86.43683
 21
-20.92351
  0
LINE
  8
型材断面
  6
CONTINUOUS
 62
    47
 10
80.769177
 20
-20.92351
 11
86.43683
 21
-20.92351
  0
LINE
  8
型材断面
  6
CONTINUOUS
 62
    47
 10
80.769177
 20
-20.92351
 11
79.77383
 21
-21.972408
  0
ARC
  8
型材断面
  6
CONTINUOUS
 62
    47
 10
68.436815
 20
-33.919064
 40
15.5
 50
49.974578
 51
58.310451
  0
ARC
  8
型材断面
  6
CONTINUOUS
 62
    47
 10
79.048417
 20
-21.284038
 40
1.0
 50
229.974578
 51
316.500153
  0
LINE
  8
型材断面
  6
CONTINUOUS
 62
    47
 10
84.345327
 20
-29.656412
 11
86.43683
 21
-29.09596
  0
ARC
  8
型材断面
  6
CONTINUOUS
 62
    47
 10
84.604113
 20
-30.622328
 40
1.0
 50
105.000058
 51
191.525393
  0
LINE
  8
型材断面
  6
CONTINUOUS
 62
    47
 10
50.43683
 20
-29.09596
 11
50.43683
 21
-20.92351
  0
LINE
  8
型材断面
  6
CONTINUOUS
 62
    47
 10
56.104483
 20
-20.92351
 11
50.43683
 21
-20.92351
  0
LINE
  8
型材断面
  6
CONTINUOUS
 62
    47
 10
56.104483
 20
-20.92351
 11
57.099883
 21
-21.972408
  0
ARC
  8
型材断面
  6
CONTINUOUS
 62
    47
 10
57.825217
 20
-21.284038
 40
1.0
 50
223.499847
 51
310.025422
  0
LINE
  8
型材断面
  6
CONTINUOUS
 62
    47
 10
52.528377
 20
-29.656412
 11
50.43683
 21
-29.09596
  0
ARC
  8
型材断面
  6
CONTINUOUS
 62
    47
 10
52.269522
 20
-30.622328
 40
1.0
 50
348.474607
 51
434.999942
  0
ARC
  8
型材断面
  6
CONTINUOUS
 62
    47
 10
68.436815
 20
-33.919064
 40
15.5
 50
168.474603
 51
371.525393
  0
ARC
  8
型材断面
  6
CONTINUOUS
 62
    47
 10
68.436815
 20
-33.919064
 40
15.5
 50
121.689549
 51
130.025407
  0
LINE
  8
型材断面
  6
CONTINUOUS
 62
    47
 10
55.436832
 20
-18.419057
 11
51.936882
 21
-14.919107
  0
LINE
  8
型材断面
  6
CONTINUOUS
 62
    47
 10
51.936882
 20
-14.919107
 11
50.43683
 21
-14.919107
  0
LINE
  8
型材断面
  6
CONTINUOUS
 62
    47
 10
50.43683
 20
-8.11906
 11
50.43683
 21
-14.919107
  0
LINE
  8
型材断面
  6
CONTINUOUS
 62
    47
 10
81.436828
 20
-18.419057
 11
84.936778
 21
-14.919107
  0
LINE
  8
型材断面
  6
CONTINUOUS
 62
    47
 10
84.936778
 20
-14.919107
 11
86.43683
 21
-14.919107
  0
LINE
  8
型材断面
  6
CONTINUOUS
 62
    47
 10
86.43683
 20
-8.068563
 11
86.43683
 21
-14.919107
  0
LINE
  8
型材断面
  6
CONTINUOUS
 62
    47
 10
46.436832
 20
-6.419057
 11
46.436832
 21
-18.419057
  0
ARC
  8
型材断面
  6
CONTINUOUS
 62
    47
 10
68.436817
 20
-33.919063
 40
17.499998
 50
169.917098
 51
267.543714
  0
LINE
  8
型材断面
  6
CONTINUOUS
 62
    47
 10
51.207133
 20
-30.85531
 11
48.93683
 21
-30.246962
  0
ARC
  8
型材断面
  6
CONTINUOUS
 62
    47
 10
122.186876
 20
18.830944
 40
0.75
 50
180.0
 51
270.0
  0
LINE
  8
型材断面
  6
CONTINUOUS
 62
    47
 10
122.186878
 20
18.080938
 11
122.186878
 21
18.080938
  0
ARC
  8
型材断面
  6
CONTINUOUS
 62
    47
 10
122.186876
 20
18.830944
 40
0.75
 50
270.0
 51
360.0
  0
LINE
  8
型材断面
  6
CONTINUOUS
 62
    47
 10
121.436878
 20
18.830938
 11
121.436878
 21
24.080938
  0
LINE
  8
型材断面
  6
CONTINUOUS
 62
    47
 10
122.936878
 20
18.830938
 11
122.936878
 21
26.08094
  0
LINE
  8
型材断面
  6
CONTINUOUS
 62
    47
 10
102.436828
 20
59.08094
 11
116.43683
 21
59.08094
  0
LINE
  8
型材断面
  6
CONTINUOUS
 62
    47
 10
102.436828
 20
59.08094
 11
102.436828
 21
57.080938
  0
ARC
  8
型材断面
  6
CONTINUOUS
 62
    47
 10
122.186876
 20
-29.669056
 40
0.75
 50
90.0
 51
180.0
  0
LINE
  8
型材断面
  6
CONTINUOUS
 62
    47
 10
122.186878
 20
-28.919057
 11
122.186878
 21
-28.919057
  0
ARC
  8
型材断面
  6
CONTINUOUS
 62
    47
 10
122.186876
 20
-29.669056
 40
0.75
 50
0.0
 51
90.0
  0
LINE
  8
型材断面
  6
CONTINUOUS
 62
    47
 10
46.436832
 20
-4.919057
 11
46.436832
 21
1.580938
  0
LINE
  8
型材断面
  6
CONTINUOUS
 62
    47
 10
46.436832
 20
1.580938
 11
50.43683
 21
1.580938
  0
LINE
  8
型材断面
  6
CONTINUOUS
 62
    47
 10
50.43683
 20
-3.719057
 11
50.43683
 21
1.580938
  0
LINE
  8
型材断面
  6
CONTINUOUS
 62
    47
 10
86.43683
 20
-3.769607
 11
86.43683
 21
1.580938
  0
LINE
  8
型材断面
  6
CONTINUOUS
 62
    47
 10
86.43683
 20
1.580938
 11
90.436828
 21
1.580938
  0
LINE
  8
型材断面
  6
CONTINUOUS
 62
    47
 10
90.436828
 20
-4.919057
 11
90.436828
 21
1.580938
  0
LINE
  8
型材断面
  6
CONTINUOUS
 62
    47
 10
121.436878
 20
-48.319113
 11
122.936878
 21
-48.319113
  0
LINE
  8
型材断面
  6
CONTINUOUS
 62
    47
 10
120.43688
 20
-45.819107
 11
121.436878
 21
-46.819113
  0
LINE
  8
型材断面
  6
CONTINUOUS
 62
    47
 10
121.436878
 20
-48.319113
 11
121.436878
 21
-46.819113
  0
LINE
  8
型材断面
  6
CONTINUOUS
 62
    47
 10
122.936878
 20
-29.669057
 11
122.936878
 21
-43.01911
  0
LINE
  8
型材断面
  6
CONTINUOUS
 62
    47
 10
122.936878
 20
-43.61911
 11
122.936878
 21
-48.319113
  0
LINE
  8
型材断面
  6
CONTINUOUS
 62
    47
 10
122.636878
 20
-43.31911
 11
122.936878
 21
-43.01911
  0
LINE
  8
型材断面
  6
CONTINUOUS
 62
    47
 10
122.636878
 20
-43.31911
 11
122.936878
 21
-43.61911
  0
LINE
  8
型材断面
  6
CONTINUOUS
 62
    47
 10
120.43688
 20
-45.819107
 11
120.43688
 21
-39.819107
  0
LINE
  8
型材断面
  6
CONTINUOUS
 62
    47
 10
121.436878
 20
-29.669057
 11
121.436878
 21
-37.819113
  0
LINE
  8
型材断面
  6
CONTINUOUS
 62
    47
 10
20.935333
 20
-56.41906
 11
25.435333
 21
-56.41906
  0
LINE
  8
型材断面
  6
CONTINUOUS
 62
    47
 10
67.68683
 20
-51.403007
 11
67.68683
 21
-56.41906
  0
LINE
  8
型材断面
  6
CONTINUOUS
 62
    47
 10
39.93683
 20
-56.41906
 11
67.68683
 21
-56.41906
  0
LINE
  8
型材断面
  6
CONTINUOUS
 62
    47
 10
69.18683
 20
-51.403007
 11
69.18683
 21
-56.41906
  0
LINE
  8
型材断面
  6
CONTINUOUS
 62
    47
 10
18.93533
 20
-58.419063
 11
18.93533
 21
-55.966562
  0
LINE
  8
型材断面
  6
CONTINUOUS
 62
    47
 10
18.93533
 20
-43.419063
 11
18.93533
 21
-46.81906
  0
LINE
  8
型材断面
  6
CONTINUOUS
 62
    47
 10
19.53533
 20
-47.41906
 11
18.93533
 21
-46.81906
  0
LINE
  8
型材断面
  6
CONTINUOUS
 62
    47
 10
19.53533
 20
-47.41906
 11
20.935333
 21
-47.41906
  0
LINE
  8
型材断面
  6
CONTINUOUS
 62
    47
 10
20.935333
 20
-44.919063
 11
20.935333
 21
-47.41906
  0
LINE
  8
型材断面
  6
CONTINUOUS
 62
    47
 10
19.53533
 20
-55.419063
 11
20.935333
 21
-55.419063
  0
LINE
  8
型材断面
  6
CONTINUOUS
 62
    47
 10
20.935333
 20
-56.471612
 11
20.935333
 21
-55.419063
  0
LINE
  8
型材断面
  6
CONTINUOUS
 62
    47
 10
19.53533
 20
-55.419063
 11
18.93533
 21
-56.019063
  0
LINE
  8
型材断面
  6
CONTINUOUS
 62
    47
 10
20.935333
 20
-44.919063
 11
25.435333
 21
-44.919063
  0
LINE
  8
型材断面
  6
CONTINUOUS
 62
    47
 10
25.435333
 20
-56.41906
 11
25.435333
 21
-44.919063
  0
ARC
  8
型材断面
  6
CONTINUOUS
 62
    47
 10
68.436817
 20
-33.919063
 40
17.499998
 50
272.456286
 51
370.0829
  0
LINE
  8
型材断面
  6
CONTINUOUS
 62
    47
 10
85.66658
 20
-30.85531
 11
87.93683
 21
-30.246962
  0
LINE
  8
型材断面
  6
CONTINUOUS
 62
    47
 10
87.93683
 20
-30.246962
 11
87.93683
 21
-20.41906
  0
LINE
  8
型材断面
  6
CONTINUOUS
 62
    47
 10
113.636832
 20
24.080938
 11
113.636832
 21
-37.819113
  0
LINE
  8
型材断面
  6
CONTINUOUS
 62
    47
 10
113.636832
 20
-39.819107
 11
113.636832
 21
-56.41906
  0
LINE
  8
型材断面
  6
CONTINUOUS
 62
    47
 10
116.43683
 20
57.58094
 11
113.636832
 21
57.58094
  0
LINE
  8
型材断面
  6
CONTINUOUS
 62
    47
 10
113.636832
 20
26.08094
 11
113.636832
 21
57.58094
  0
LINE
  8
型材断面
  6
CONTINUOUS
 62
    47
 10
116.43683
 20
59.08094
 11
116.43683
 21
57.58094
  0
LINE
  8
型材断面
  6
CONTINUOUS
 62
    47
 10
122.936878
 20
26.08094
 11
113.636832
 21
26.08094
  0
LINE
  8
型材断面
  6
CONTINUOUS
 62
    47
 10
121.436878
 20
24.080938
 11
113.636832
 21
24.080938
  0
LINE
  8
型材断面
  6
CONTINUOUS
 62
    47
 10
121.436878
 20
-37.819113
 11
113.636832
 21
-37.819113
  0
LINE
  8
型材断面
  6
CONTINUOUS
 62
    47
 10
120.43688
 20
-39.819107
 11
113.636832
 21
-39.819107
  0
LINE
  8
型材断面
  6
CONTINUOUS
 62
    47
 10
90.436828
 20
-18.419057
 11
111.63683
 21
-18.419057
  0
LINE
  8
型材断面
  6
CONTINUOUS
 62
    47
 10
69.18683
 20
-56.41906
 11
111.63683
 21
-56.41906
  0
LINE
  8
型材断面
  6
CONTINUOUS
 62
    47
 10
102.436828
 20
57.080938
 11
111.63683
 21
57.080938
  0
LINE
  8
型材断面
  6
CONTINUOUS
 62
    47
 10
111.63683
 20
-18.419057
 11
111.63683
 21
57.080938
  0
LINE
  8
型材断面
  6
CONTINUOUS
 62
    47
 10
48.93683
 20
-30.246962
 11
48.93683
 21
-20.41906
  0
LINE
  8
型材断面
  6
CONTINUOUS
 62
    47
 10
46.436832
 20
-18.419057
 11
35.43683
 21
-18.419057
  0
LINE
  8
型材断面
  6
CONTINUOUS
 62
    47
 10
35.43683
 20
-18.419057
 11
35.43683
 21
-19.919057
  0
LINE
  8
型材断面
  6
CONTINUOUS
 62
    47
 10
35.43683
 20
-19.919057
 11
38.43683
 21
-19.919057
  0
LINE
  8
型材断面
  6
CONTINUOUS
 62
    47
 10
38.43683
 20
-56.41906
 11
38.43683
 21
-19.919057
  0
LINE
  8
型材断面
  6
CONTINUOUS
 62
    47
 10
18.93533
 20
-43.419063
 11
26.935333
 21
-43.419063
  0
LINE
  8
型材断面
  6
CONTINUOUS
 62
    47
 10
107.636832
 20
-58.119063
 11
107.336832
 21
-58.419063
  0
LINE
  8
型材断面
  6
CONTINUOUS
 62
    47
 10
107.636832
 20
-58.119063
 11
107.936832
 21
-58.419063
  0
LINE
  8
型材断面
  6
CONTINUOUS
 62
    47
 10
107.936832
 20
-58.419063
 11
122.936878
 21
-58.419063
  0
LINE
  8
型材断面
  6
CONTINUOUS
 62
    47
 10
113.636832
 20
-56.41906
 11
121.93688
 21
-56.41906
  0
LINE
  8
型材断面
  6
CONTINUOUS
 62
    47
 10
122.936878
 20
-57.419057
 11
122.936878
 21
-58.419063
  0
LINE
  8
型材断面
  6
CONTINUOUS
 62
    47
 10
121.93688
 20
-56.41906
 11
122.936878
 21
-57.419057
  0
LINE
  8
型材断面
  6
CONTINUOUS
 62
    47
 10
39.93683
 20
-25.856012
 11
39.93683
 21
-56.41906
  0
ARC
  8
型材断面
  6
CONTINUOUS
 62
    47
 10
40.436826
 20
-25.855977
 40
0.5
 50
66.421821
 51
180.0
  0
LINE
  8
型材断面
  6
CONTINUOUS
 62
    47
 10
45.373783
 20
-20.41906
 11
48.93683
 21
-20.41906
  0
ARC
  8
型材断面
  6
CONTINUOUS
 62
    47
 10
45.373757
 20
-20.919046
 40
0.5
 50
90.0
 51
203.578178
  0
ARC
  8
型材断面
  6
CONTINUOUS
 62
    47
 10
42.021657
 20
-24.667446
 40
0.5
 50
14.998835
 51
92.160733
  0
LINE
  8
型材断面
  6
CONTINUOUS
 62
    47
 10
42.504628
 20
-24.53806
 11
42.636732
 21
-25.03111
  0
ARC
  8
型材断面
  6
CONTINUOUS
 62
    47
 10
41.936826
 20
-22.419046
 40
3.25
 50
246.421822
 51
274.52439
  0
ARC
  8
型材断面
  6
CONTINUOUS
 62
    47
 10
42.153755
 20
-25.160476
 40
0.5
 50
-85.47561
 51
14.998682
  0
ARC
  8
型材断面
  6
CONTINUOUS
 62
    47
 10
41.936826
 20
-22.419046
 40
1.75
 50
357.839267
 51
632.160733
  0
ARC
  8
型材断面
  6
CONTINUOUS
 62
    47
 10
44.185226
 20
-22.503877
 40
0.5
 50
177.839266
 51
255.001165
  0
LINE
  8
型材断面
  6
CONTINUOUS
 62
    47
 10
44.05583
 20
-22.986858
 11
44.54888
 21
-23.118962
  0
ARC
  8
型材断面
  6
CONTINUOUS
 62
    47
 10
41.936826
 20
-22.419046
 40
3.25
 50
355.47561
 51
383.578179
  0
ARC
  8
型材断面
  6
CONTINUOUS
 62
    47
 10
44.678256
 20
-22.635975
 40
0.5
 50
255.001318
 51
355.47561
  0
ARC
  8
型材断面
  6
CONTINUOUS
 62
    47
 10
109.1667
 20
-24.06889
 40
0.5
 50
132.839267
 51
210.001165
  0
LINE
  8
型材断面
  6
CONTINUOUS
 62
    47
 10
108.733677
 20
-24.31891
 11
108.988933
 21
-24.76096
  0
ARC
  8
型材断面
  6
CONTINUOUS
 62
    47
 10
109.421918
 20
-24.510922
 40
0.5
 50
210.001318
 51
310.47561
  0
ARC
  8
型材断面
  6
CONTINUOUS
 62
    47
 10
107.636826
 20
-22.419046
 40
1.75
 50
312.839267
 51
587.160733
  0
ARC
  8
型材断面
  6
CONTINUOUS
 62
    47
 10
106.106952
 20
-24.06889
 40
0.5
 50
-30.001165
 51
47.160734
  0
LINE
  8
型材断面
  6
CONTINUOUS
 62
    47
 10
106.53998
 20
-24.31891
 11
106.284733
 21
-24.76096
  0
ARC
  8
型材断面
  6
CONTINUOUS
 62
    47
 10
105.851734
 20
-24.510922
 40
0.5
 50
229.52439
 51
329.998682
  0
LINE
  8
型材断面
  6
CONTINUOUS
 62
    47
 10
111.63683
 20
-56.41906
 11
111.63683
 21
-22.419063
  0
ARC
  8
型材断面
  6
CONTINUOUS
 62
    47
 10
107.636826
 20
-22.419046
 40
3.25
 50
310.47561
 51
360.0
  0
LINE
  8
型材断面
  6
CONTINUOUS
 62
    47
 10
110.88683
 20
-22.419063
 11
111.63683
 21
-22.419063
  0
LINE
  8
型材断面
  6
CONTINUOUS
 62
    47
 10
87.93683
 20
-20.41906
 11
104.199883
 21
-20.41906
  0
ARC
  8
型材断面
  6
CONTINUOUS
 62
    47
 10
107.636826
 20
-22.419046
 40
3.25
 50
156.421822
 51
229.52439
  0
ARC
  8
型材断面
  6
CONTINUOUS
 62
    47
 10
104.199894
 20
-20.919046
 40
0.5
 50
-23.578179
 51
90.0
  0
LINE
  8
型材断面
  6
CONTINUOUS
 62
    47
 10
32.935377
 20
-58.119063
 11
32.635377
 21
-58.419063
  0
LINE
  8
型材断面
  6
CONTINUOUS
 62
    47
 10
32.935377
 20
-58.119063
 11
33.235377
 21
-58.419063
  0
LINE
  8
型材断面
  6
CONTINUOUS
 62
    47
 10
18.93533
 20
-58.419063
 11
32.635377
 21
-58.419063
  0
LINE
  8
型材断面
  6
CONTINUOUS
 62
    47
 10
26.935333
 20
-43.419063
 11
26.935333
 21
-56.41906
  0
LINE
  8
型材断面
  6
CONTINUOUS
 62
    47
 10
38.43683
 20
-56.41906
 11
26.935333
 21
-56.41906
  0
LINE
  8
型材断面
  6
CONTINUOUS
 62
    47
 10
53.43683
 20
-58.119063
 11
53.13683
 21
-58.419063
  0
LINE
  8
型材断面
  6
CONTINUOUS
 62
    47
 10
53.43683
 20
-58.119063
 11
53.73683
 21
-58.419063
  0
LINE
  8
型材断面
  6
CONTINUOUS
 62
    47
 10
101.43683
 20
-58.119063
 11
101.13683
 21
-58.419063
  0
LINE
  8
型材断面
  6
CONTINUOUS
 62
    47
 10
101.43683
 20
-58.119063
 11
101.73683
 21
-58.419063
  0
LINE
  8
型材断面
  6
CONTINUOUS
 62
    47
 10
101.73683
 20
-58.419063
 11
107.336832
 21
-58.419063
  0
LINE
  8
型材断面
  6
CONTINUOUS
 62
    47
 10
33.235377
 20
-58.419063
 11
53.13683
 21
-58.419063
  0
LINE
  8
型材断面
  6
CONTINUOUS
 62
    47
 10
53.73683
 20
-58.419063
 11
101.13683
 21
-58.419063
  0
ENDBLK
  0
BLOCK
  2
*DIM_0094
 70
    65
 10
0.0
 20
0.0
  0
LINE
  8
寸法
  6
CONTINUOUS
 10
-84.871533
 20
-53.419117
 11
-84.871533
 21
-98.106343
  0
LINE
  8
寸法
  6
CONTINUOUS
 10
144.736873
 20
-86.31912
 11
144.736873
 21
-98.106343
  0
LINE
  8
寸法
  6
CONTINUOUS
 10
-84.871533
 20
-98.106343
 11
144.736873
 21
-98.106343
  0
POINT
  8
寸法
 10
-84.871533
 20
-98.106343
  0
POINT
  8
寸法
 10
144.736873
 20
-98.106343
  0
TEXT
  7
TextStyle03
  8
寸法
  6
CONTINUOUS
 10
25.8
 20
-97.75
  1
229.5
 40
3.0
 72
     5
 11
34.05
 21
-97.75
  0
ENDBLK
  0
BLOCK
  2
*DIM_0095
 70
    65
 10
0.0
 20
0.0
  0
LINE
  8
寸法
  6
CONTINUOUS
 10
154.836875
 20
-61.319115
 11
154.836875
 21
-98.106343
  0
LINE
  8
寸法
  6
CONTINUOUS
 10
144.736873
 20
-98.106343
 11
154.836875
 21
-98.106343
  0
POINT
  8
寸法
 10
154.836875
 20
-98.106343
  0
TEXT
  7
TextStyle03
  8
寸法
  6
CONTINUOUS
 10
146.49375
 20
-97.75
  1
10.1
 40
3.0
 72
     5
 11
153.05625
 21
-97.75
  0
ENDBLK
  0
BLOCK
  2
*DIM_0096
 70
    65
 10
0.0
 20
0.0
  0
LINE
  8
寸法
  6
CONTINUOUS
 10
159.836875
 20
-56.319115
 11
173.259125
 21
-56.319115
  0
LINE
  8
寸法
  6
CONTINUOUS
 10
149.736873
 20
-81.31912
 11
173.259125
 21
-81.31912
  0
LINE
  8
寸法
  6
CONTINUOUS
 10
173.259125
 20
-56.319115
 11
173.259125
 21
-81.31912
  0
POINT
  8
寸法
 10
173.259125
 20
-56.319115
  0
POINT
  8
寸法
 10
173.259125
 20
-81.31912
  0
TEXT
  7
TextStyle03
  8
寸法
  6
CONTINUOUS
 10
172.875
 20
-70.41875
  1
25
 40
3.0
 50
90.0
 72
     5
 11
172.875
 21
-67.23125
  0
ENDBLK
  0
BLOCK
  2
*DIM_0097
 70
    65
 10
0.0
 20
0.0
  0
LINE
  8
寸法
  6
CONTINUOUS
 10
122.936878
 20
31.08094
 11
122.936878
 21
94.754598
  0
LINE
  8
寸法
  6
CONTINUOUS
 10
154.836875
 20
-49.31912
 11
154.836875
 21
94.754598
  0
LINE
  8
寸法
  6
CONTINUOUS
 10
122.936878
 20
94.754598
 11
154.836875
 21
94.754598
  0
POINT
  8
寸法
 10
122.936878
 20
94.754598
  0
POINT
  8
寸法
 10
154.836875
 20
94.754598
  0
TEXT
  7
TextStyle03
  8
寸法
  6
CONTINUOUS
 10
135.59375
 20
95.125
  1
31.9
 40
3.0
 72
     5
 11
142.15625
 21
95.125
  0
ENDBLK
  0
BLOCK
  2
*DIM_0098
 70
    65
 10
0.0
 20
0.0
  0
LINE
  8
寸法
  6
CONTINUOUS
 10
27.636875
 20
-86.31912
 11
27.636875
 21
-88.85263
  0
LINE
  8
寸法
  6
CONTINUOUS
 10
144.736873
 20
-86.31912
 11
144.736873
 21
-88.85263
  0
LINE
  8
寸法
  6
CONTINUOUS
 10
27.636875
 20
-88.85263
 11
144.736873
 21
-88.85263
  0
POINT
  8
寸法
 10
27.636875
 20
-88.85263
  0
POINT
  8
寸法
 10
144.736873
 20
-88.85263
  0
TEXT
  7
TextStyle03
  8
寸法
  6
CONTINUOUS
 10
82.05
 20
-88.5
  1
117.1
 40
3.0
 72
     5
 11
90.3
 21
-88.5
  0
ENDBLK
  0
ENDSEC
  0
SECTION
  2
ENTITIES
  0
POLYLINE
  8
通り芯
  6
CONTINUOUS
 66
     1
 70
     1
  0
VERTEX
  8
通り芯
 10
-210.0
 20
-148.5
  0
VERTEX
  8
通り芯
 10
210.0
 20
-148.5
  0
VERTEX
  8
通り芯
 10
210.0
 20
148.5
  0
VERTEX
  8
通り芯
 10
-210.0
 20
148.5
  0
SEQEND
  0
INSERT
  2
*GRP_0001
  8
通り芯
  6
CONTINUOUS
 10
0.0
 20
0.0
  0
LINE
  8
通り芯
  6
CONTINUOUS
 10
-45.71898
 20
-40.694905
 11
-43.940082
 21
-39.236988
  0
LINE
  8
通り芯
  6
CONTINUOUS
 10
-15.24732
 20
-77.875305
 11
-13.468408
 21
-76.417375
  0
LINE
  8
通り芯
  6
CONTINUOUS
 10
-13.468408
 20
-76.417375
 11
-43.940082
 21
-39.236988
  0
LINE
  8
通り芯
  6
CONTINUOUS
 10
-11.565758
 20
-79.819098
 11
-11.565758
 21
-77.819098
  0
LINE
  8
通り芯
  6
CONTINUOUS
 10
9.934243
 20
-77.819098
 11
-11.565758
 21
-77.819098
  0
LINE
  8
通り芯
  6
CONTINUOUS
 10
9.934243
 20
-79.819098
 11
-11.565758
 21
-79.819098
  0
LINE
  8
通り芯
  6
CONTINUOUS
 10
9.934243
 20
-77.819098
 11
9.934243
 21
-79.819098
  0
INSERT
  2
*GRP_0002
  8
通り芯
  6
CONTINUOUS
 10
0.0
 20
0.0
  0
INSERT
  2
*GRP_0003
  8
通り芯
  6
CONTINUOUS
 10
0.0
 20
0.0
  0
LINE
  8
通り芯
  6
CONTINUOUS
 10
-34.16706
 20
-51.16166
 11
-34.488037
 21
-54.398488
  0
LINE
  8
通り芯
  6
CONTINUOUS
 10
-33.718843
 20
-51.708558
 11
-34.03982
 21
-54.945388
  0
LINE
  8
通り芯
  6
CONTINUOUS
 10
-17.644155
 20
-71.322285
 11
-17.965135
 21
-74.559127
  0
LINE
  8
通り芯
  6
CONTINUOUS
 10
-17.195938
 20
-71.869182
 11
-17.516917
 21
-75.106027
  0
LINE
  8
通り芯
  6
CONTINUOUS
 10
5.502215
 20
-77.819098
 11
7.502218
 21
-79.819098
  0
LINE
  8
通り芯
  6
CONTINUOUS
 10
6.20932
 20
-77.819098
 11
8.209323
 21
-79.819098
  0
LINE
  8
通り芯
  6
CONTINUOUS
 10
-9.65546
 20
-77.819098
 11
-7.655458
 21
-79.819098
  0
LINE
  8
通り芯
  6
CONTINUOUS
 10
-8.948355
 20
-77.819098
 11
-6.948352
 21
-79.819098
  0
INSERT
  2
*GRP_0004
  8
通り芯
  6
CONTINUOUS
 10
0.0
 20
0.0
  0
INSERT
  2
*GRP_0058
  8
通り芯
  6
CONTINUOUS
 10
0.0
 20
0.0
  0
INSERT
  2
*GRP_0005
  8
型材断面
  6
CONTINUOUS
 10
0.0
 20
0.0
  0
POLYLINE
  8
型材断面
  6
CONTINUOUS
 66
     1
  0
VERTEX
  8
型材断面
 10
-126.32236
 20
91.090365
  0
VERTEX
  8
型材断面
 10
-128.111517
 20
84.527312
  0
VERTEX
  8
型材断面
 10
-126.32236
 20
84.527312
  0
SEQEND
  0
POLYLINE
  8
型材断面
  6
CONTINUOUS
 66
     1
  0
VERTEX
  8
型材断面
 10
-126.32236
 20
88.421118
  0
VERTEX
  8
型材断面
 10
-128.111517
 20
81.858065
  0
VERTEX
  8
型材断面
 10
-126.32236
 20
81.858065
  0
SEQEND
  0
INSERT
  2
*GRP_0006
  8
型材断面
  6
DOT
 10
0.0
 20
0.0
  0
LINE
  8
型材断面
  6
DOT
 10
-0.06429
 20
1.826577
 11
-0.06429
 21
3.826577
  0
LINE
  8
型材断面
  6
DOT
 10
-21.06429
 20
1.826577
 11
-21.06429
 21
3.826577
  0
LINE
  8
型材断面
  6
DOT
 10
-21.06429
 20
2.326577
 11
-0.06429
 21
2.326577
  0
LINE
  8
型材断面
  6
DOT
 10
-21.06429
 20
2.826577
 11
-0.06429
 21
2.826577
  0
LINE
  8
型材断面
  6
DOT
 10
-21.06429
 20
3.326577
 11
-0.06429
 21
3.326577
  0
INSERT
  2
*GRP_0007
  8
型材断面
  6
DOT
 10
0.0
 20
0.0
  0
INSERT
  2
*GRP_0062
  8
型材断面
  6
CONTINUOUS
 62
    47
 10
0.0
 20
0.0
  0
INSERT
  2
*GRP_0063
  8
型材断面
  6
CONTINUOUS
 62
    47
 10
0.0
 20
0.0
  0
LINE
  8
型材断面
  6
DOT
 10
78.93565
 20
1.83093
 11
78.93565
 21
3.83093
  0
LINE
  8
型材断面
  6
DOT
 10
57.93565
 20
1.83093
 11
57.93565
 21
3.83093
  0
LINE
  8
型材断面
  6
DOT
 10
57.93565
 20
2.33093
 11
78.93565
 21
2.33093
  0
LINE
  8
型材断面
  6
DOT
 10
57.93565
 20
2.83093
 11
78.93565
 21
2.83093
  0
LINE
  8
型材断面
  6
DOT
 10
57.93565
 20
3.33093
 11
78.93565
 21
3.33093
  0
INSERT
  2
*GRP_0073
  8
型材断面
  6
CONTINUOUS
 10
0.0
 20
0.0
  0
INSERT
  2
*GRP_0074
  8
型材断面
  6
CONTINUOUS
 10
0.0
 20
0.0
  0
INSERT
  2
*GRP_0075
  8
型材断面
  6
DOT
 10
0.0
 20
0.0
  0
LINE
  8
型材断面
  6
DOT
 10
111.63683
 20
-58.419063
 11
111.63683
 21
-56.41906
  0
LINE
  8
型材断面
  6
DOT
 10
103.636828
 20
-58.419063
 11
103.636828
 21
-56.41906
  0
LINE
  8
型材断面
  6
DOT
 10
111.63683
 20
-58.019065
 11
103.636828
 21
-58.019065
  0
LINE
  8
型材断面
  6
DOT
 10
111.63683
 20
-57.61906
 11
103.636828
 21
-57.61906
  0
LINE
  8
型材断面
  6
DOT
 10
111.63683
 20
-57.219063
 11
103.636828
 21
-57.219063
  0
LINE
  8
型材断面
  6
DOT
 10
111.63683
 20
-56.819057
 11
103.636828
 21
-56.819057
  0
LINE
  8
型材断面
  6
DOT
 10
111.63683
 20
-18.79405
 11
103.636835
 21
-18.794057
  0
LINE
  8
型材断面
  6
DOT
 10
111.63683
 20
-19.169057
 11
103.636835
 21
-19.169057
  0
LINE
  8
型材断面
  6
DOT
 10
111.63683
 20
-19.54405
 11
103.636835
 21
-19.544057
  0
LINE
  8
型材断面
  6
DOT
 10
111.63683
 20
-19.924053
 11
103.636835
 21
-19.92406
  0
LINE
  8
型材断面
  6
DOT
 10
111.63683
 20
-20.304047
 11
103.636835
 21
-20.304055
  0
LINE
  8
型材断面
  6
DOT
 10
111.63683
 20
-18.419057
 11
111.636808
 21
-22.419055
  0
LINE
  8
型材断面
  6
DOT
 10
103.636835
 20
-18.419057
 11
103.636835
 21
-20.41906
  0
POLYLINE
  8
型材断面
  6
DOT
 66
     1
  0
VERTEX
  8
型材断面
 10
111.63683
 20
-20.68405
  0
VERTEX
  8
型材断面
 10
107.865523
 20
-20.684058
  0
VERTEX
  8
型材断面
 10
107.8655
 20
-20.684058
  0
SEQEND
  0
POLYLINE
  8
型材断面
  6
DOT
 66
     1
  0
VERTEX
  8
型材断面
 10
107.408195
 20
-20.684058
  0
VERTEX
  8
型材断面
 10
107.408173
 20
-20.684058
  0
VERTEX
  8
型材断面
 10
104.64125
 20
-20.684058
  0
SEQEND
  0
LINE
  8
型材断面
  6
DOT
 10
111.63683
 20
-21.064052
 11
108.744312
 21
-21.064052
  0
LINE
  8
型材断面
  6
DOT
 10
106.529375
 20
-21.06406
 11
104.678428
 21
-21.06406
  0
LINE
  8
型材断面
  6
DOT
 10
111.63683
 20
-21.444048
 11
109.090078
 21
-21.444048
  0
LINE
  8
型材断面
  6
DOT
 10
106.183618
 20
-21.444055
 11
104.536543
 21
-21.444055
  0
LINE
  8
型材断面
  6
DOT
 10
111.63683
 20
-22.204053
 11
109.373593
 21
-22.204053
  0
LINE
  8
型材断面
  6
DOT
 10
105.900102
 20
-22.20406
 11
104.393967
 21
-22.20406
  0
LINE
  8
型材断面
  6
DOT
 10
111.63683
 20
-21.82405
 11
109.282595
 21
-21.82405
  0
LINE
  8
型材断面
  6
DOT
 10
105.9911
 20
-21.824057
 11
104.44178
 21
-21.824057
  0
LINE
  8
型材断面
  6
DOT
 10
104.391043
 20
-22.584055
 11
105.894643
 21
-22.584055
  0
LINE
  8
型材断面
  6
DOT
 10
109.379053
 20
-22.584047
 11
110.88266
 21
-22.584047
  0
LINE
  8
型材断面
  6
DOT
 10
104.43287
 20
-22.964058
 11
105.97388
 21
-22.964058
  0
LINE
  8
型材断面
  6
DOT
 10
109.299822
 20
-22.96405
 11
110.840825
 21
-22.96405
  0
LINE
  8
型材断面
  6
DOT
 10
104.521265
 20
-23.34406
 11
106.1513
 21
-23.34406
  0
LINE
  8
型材断面
  6
DOT
 10
109.122402
 20
-23.344052
 11
110.752438
 21
-23.344052
  0
LINE
  8
型材断面
  6
DOT
 10
105.12722
 20
-24.48406
 11
106.444617
 21
-24.48406
  0
LINE
  8
型材断面
  6
DOT
 10
108.829077
 20
-24.484052
 11
110.146482
 21
-24.484052
  0
LINE
  8
型材断面
  6
DOT
 10
104.857775
 20
-24.104058
 11
106.544885
 21
-24.104058
  0
LINE
  8
型材断面
  6
DOT
 10
108.72881
 20
-24.10405
 11
110.415928
 21
-24.10405
  0
LINE
  8
型材断面
  6
DOT
 10
106.438348
 20
-23.724055
 11
104.66036
 21
-23.724055
  0
LINE
  8
型材断面
  6
DOT
 10
110.613335
 20
-23.724047
 11
108.835355
 21
-23.724047
  0
INSERT
  2
*GRP_0076
  8
型材断面
  6
CONTINUOUS
 62
    47
 10
0.0
 20
0.0
  0
LINE
  8
ガラス
  6
CONTINUOUS
 10
-59.56436
 20
50.67178
 11
-59.56436
 21
1.580885
  0
LINE
  8
ガラス
  6
CONTINUOUS
 10
-60.06436
 20
50.67178
 11
-60.06436
 21
1.580885
  0
LINE
  8
ガラス
  6
CONTINUOUS
 10
-66.36436
 20
50.67178
 11
-66.36436
 21
1.580885
  0
LINE
  8
ガラス
  6
CONTINUOUS
 10
-65.86436
 20
50.67178
 11
-65.86436
 21
1.580885
  0
INSERT
  2
*GRP_0077
  8
ガラス
  6
CONTINUOUS
 10
0.0
 20
0.0
  0
INSERT
  2
*GRP_0078
  8
ガラス
  6
CONTINUOUS
 10
0.0
 20
0.0
  0
INSERT
  2
*GRP_0079
  8
ガラス
  6
CONTINUOUS
 10
0.0
 20
0.0
  0
INSERT
  2
*GRP_0080
  8
ガラス
  6
CONTINUOUS
 10
0.0
 20
0.0
  0
INSERT
  2
*GRP_0081
  8
ガラス
  6
CONTINUOUS
 10
0.0
 20
0.0
  0
INSERT
  2
*GRP_0082
  8
ガラス
  6
CONTINUOUS
 10
0.0
 20
0.0
  0
INSERT
  2
*GRP_0083
  8
ガラス
  6
CONTINUOUS
 10
0.0
 20
0.0
  0
INSERT
  2
*GRP_0084
  8
ガラス
  6
CONTINUOUS
 10
0.0
 20
0.0
  0
INSERT
  2
*GRP_0085
  8
ガラス
  6
CONTINUOUS
 10
0.0
 20
0.0
  0
INSERT
  2
*GRP_0008
  8
ゴム等
  6
CONTINUOUS
 10
0.0
 20
0.0
  0
INSERT
  2
*GRP_0009
  8
ゴム等
  6
CONTINUOUS
 10
0.0
 20
0.0
  0
INSERT
  2
*GRP_0010
  8
ゴム等
  6
CONTINUOUS
 10
0.0
 20
0.0
  0
INSERT
  2
*GRP_0011
  8
ゴム等
  6
CONTINUOUS
 10
0.0
 20
0.0
  0
INSERT
  2
*GRP_0012
  8
ゴム等
  6
DOT
 10
0.0
 20
0.0
  0
INSERT
  2
*GRP_0013
  8
ゴム等
  6
CONTINUOUS
 10
0.0
 20
0.0
  0
INSERT
  2
*GRP_0014
  8
ゴム等
  6
DOT
 10
0.0
 20
0.0
  0
INSERT
  2
*GRP_0086
  8
ゴム等
  6
DOT
 10
0.0
 20
0.0
  0
INSERT
  2
*GRP_0087
  8
ゴム等
  6
DOT
 10
0.0
 20
0.0
  0
INSERT
  2
*GRP_0088
  8
ゴム等
  6
CONTINUOUS
 10
0.0
 20
0.0
  0
INSERT
  2
*GRP_0089
  8
ゴム等
  6
CONTINUOUS
 10
0.0
 20
0.0
  0
INSERT
  2
*GRP_0015
  8
ボルト／ビス
  6
CONTINUOUS
 10
0.0
 20
0.0
  0
INSERT
  2
*GRP_0016
  8
ボルト／ビス
  6
CONTINUOUS
 10
0.0
 20
0.0
  0
INSERT
  2
*GRP_0017
  8
ボルト／ビス
  6
CONTINUOUS
 10
0.0
 20
0.0
  0
INSERT
  2
*GRP_0018
  8
ボルト／ビス
  6
CONTINUOUS
 10
0.0
 20
0.0
  0
INSERT
  2
*GRP_0043
  8
ボルト／ビス
  6
CONTINUOUS
 62
    64
 10
0.0
 20
0.0
  0
INSERT
  2
*GRP_0044
  8
ボルト／ビス
  6
CONTINUOUS
 62
    64
 10
0.0
 20
0.0
  0
INSERT
  2
*GRP_0069
  8
ボルト／ビス
  6
CONTINUOUS
 62
    64
 10
0.0
 20
0.0
  0
INSERT
  2
*GRP_0070
  8
ボルト／ビス
  6
CONTINUOUS
 62
    64
 10
0.0
 20
0.0
  0
INSERT
  2
*GRP_0090
  8
ボルト／ビス
  6
CONTINUOUS
 10
0.0
 20
0.0
  0
INSERT
  2
*GRP_0091
  8
ボルト／ビス
  6
CONTINUOUS
 10
0.0
 20
0.0
  0
TEXT
  7
TextStyle03
  8
文字
  6
CONTINUOUS
 10
-126.275
 20
21.875
  1
ドーム呼称寸法
 40
4.0
 50
90.0
 72
     5
 11
-126.275
 21
52.875
  0
TEXT
  7
TextStyle03
  8
文字
  6
CONTINUOUS
 10
-32.7
 20
-86.025
  1
TK-1112
 40
4.0
 50
90.0
 72
     5
 11
-32.7
 21
-70.525
  0
TEXT
  7
TextStyle03
  8
文字
  6
CONTINUOUS
 10
-93.425
 20
-70.625
  1
TKR-1701
 40
4.0
 50
90.0
 72
     5
 11
-93.425
 21
-52.875
  0
TEXT
  7
TextStyle03
  8
文字
  6
CONTINUOUS
 10
-40.1
 20
-70.375
  1
TKR-1401
 40
4.0
 50
90.0
 72
     5
 11
-40.1
 21
-52.625
  0
TEXT
  7
TextStyle03
  8
文字
  6
CONTINUOUS
 10
71.825
 20
105.175
  1
ＮＳコード：ＮＳＤ
 40
5.0
 72
     5
 11
121.825
 21
105.175
  0
TEXT
  7
TextStyle03
  8
文字
  6
CONTINUOUS
 10
-37.75
 20
-4.05
  1
TK-1104S
 40
4.0
 50
90.0
 72
     5
 11
-37.75
 21
13.7
  0
TEXT
  7
TextStyle03
  8
文字
  6
CONTINUOUS
 10
-88.125
 20
30.125
  1
TK-0009
 40
4.0
 50
90.0
 72
     5
 11
-88.125
 21
45.625
  0
TEXT
  7
TextStyle03
  8
文字
  6
CONTINUOUS
 10
-75.9
 20
31.65
  1
TKR-1303
 40
4.0
 50
90.0
 72
     5
 11
-75.9
 21
49.4
  0
TEXT
  7
TextStyle03
  8
文字
  6
CONTINUOUS
 10
-45.75
 20
28.175
  1
TKR-1107
 40
4.0
 50
90.0
 72
     5
 11
-45.75
 21
45.925
  0
TEXT
  7
TextStyle03
  8
文字
  6
CONTINUOUS
 10
-41.25
 20
23.925
  1
TK-1166
 40
4.0
 50
90.0
 72
     5
 11
-41.25
 21
39.425
  0
TEXT
  7
TextStyle03
  8
文字
  6
CONTINUOUS
 10
71.575
 20
125.05
  1
シリーズ：ＴＤ１
 40
5.0
 72
     5
 11
115.95
 21
125.05
  0
TEXT
  7
TextStyle03
  8
文字
  6
CONTINUOUS
 10
71.575
 20
119.425
  1
　　　　　（上下可動）
 40
5.0
 72
     5
 11
132.825
 21
119.425
  0
TEXT
  7
TextStyle03
  8
文字
  6
CONTINUOUS
 10
71.575
 20
113.8
  1
図面名　：下枠断面詳細図Ａ
 40
5.0
 72
     5
 11
144.075
 21
113.8
  0
TEXT
  7
TextStyle03
  8
文字
  6
CONTINUOUS
 10
16.5
 20
-119.85
  1
TKR-1401
 40
4.0
 50
90.0
 72
     5
 11
16.5
 21
-102.1
  0
TEXT
  7
TextStyle03
  8
文字
  6
CONTINUOUS
 10
109.15
 20
-131.65
  1
M4リベット
 40
4.0
 50
90.0
 72
     5
 11
109.15
 21
-109.65
  0
TEXT
  7
TextStyle03
  8
文字
  6
CONTINUOUS
 10
113.65
 20
-131.65
  1
(コーナー)
 40
4.0
 50
90.0
 72
     5
 11
113.65
 21
-109.4
  0
TEXT
  7
TextStyle03
  8
文字
  6
CONTINUOUS
 10
28.85
 20
105.75
  1
バランスステー
 40
3.0
 50
90.0
 72
     5
 11
28.85
 21
129.0
  0
TEXT
  7
TextStyle03
  8
文字
  6
CONTINUOUS
 10
21.575
 20
54.675
  1
出荷固定金物
 40
4.0
 50
90.0
 72
     5
 11
21.575
 21
81.175
  0
TEXT
  7
TextStyle03
  8
文字
  6
CONTINUOUS
 10
-178.825
 20
124.975
  1
※Wドームは□1300までとなります
 40
4.0
 72
     5
 11
-109.575
 21
124.975
  0
INSERT
  2
*DIM_0019
  8
寸法
  6
CONTINUOUS
 10
0.0
 20
0.0
  0
INSERT
  2
*DIM_0020
  8
寸法
  6
CONTINUOUS
 10
0.0
 20
0.0
  0
INSERT
  2
*GRP_0021
  8
寸法
  6
CONTINUOUS
 10
0.0
 20
0.0
  0
INSERT
  2
*GRP_0022
  8
寸法
  6
CONTINUOUS
 10
0.0
 20
0.0
  0
INSERT
  2
*GRP_0023
  8
寸法
  6
CONTINUOUS
 10
0.0
 20
0.0
  0
INSERT
  2
*GRP_0024
  8
寸法
  6
CONTINUOUS
 10
0.0
 20
0.0
  0
INSERT
  2
*DIM_0025
  8
寸法
  6
CONTINUOUS
 10
0.0
 20
0.0
  0
INSERT
  2
*DIM_0026
  8
寸法
  6
CONTINUOUS
 10
0.0
 20
0.0
  0
INSERT
  2
*GRP_0027
  8
寸法
  6
CONTINUOUS
 10
0.0
 20
0.0
  0
INSERT
  2
*GRP_0028
  8
寸法
  6
CONTINUOUS
 10
0.0
 20
0.0
  0
INSERT
  2
*GRP_0029
  8
寸法
  6
CONTINUOUS
 10
0.0
 20
0.0
  0
INSERT
  2
*GRP_0030
  8
寸法
  6
CONTINUOUS
 10
0.0
 20
0.0
  0
INSERT
  2
*GRP_0031
  8
寸法
  6
CONTINUOUS
 10
0.0
 20
0.0
  0
INSERT
  2
*DIM_0032
  8
寸法
  6
CONTINUOUS
 10
0.0
 20
0.0
  0
INSERT
  2
*DIM_0033
  8
寸法
  6
CONTINUOUS
 10
0.0
 20
0.0
  0
INSERT
  2
*DIM_0046
  8
寸法
  6
CONTINUOUS
 10
0.0
 20
0.0
  0
INSERT
  2
*DIM_0047
  8
寸法
  6
CONTINUOUS
 10
0.0
 20
0.0
  0
INSERT
  2
*DIM_0048
  8
寸法
  6
CONTINUOUS
 10
0.0
 20
0.0
  0
INSERT
  2
*DIM_0049
  8
寸法
  6
CONTINUOUS
 10
0.0
 20
0.0
  0
INSERT
  2
*DIM_0050
  8
寸法
  6
CONTINUOUS
 10
0.0
 20
0.0
  0
INSERT
  2
*DIM_0051
  8
寸法
  6
CONTINUOUS
 10
0.0
 20
0.0
  0
INSERT
  2
*DIM_0052
  8
寸法
  6
CONTINUOUS
 10
0.0
 20
0.0
  0
INSERT
  2
*DIM_0053
  8
寸法
  6
CONTINUOUS
 10
0.0
 20
0.0
  0
INSERT
  2
*DIM_0054
  8
寸法
  6
CONTINUOUS
 10
0.0
 20
0.0
  0
INSERT
  2
*DIM_0055
  8
寸法
  6
CONTINUOUS
 10
0.0
 20
0.0
  0
INSERT
  2
*DIM_0056
  8
寸法
  6
CONTINUOUS
 10
0.0
 20
0.0
  0
INSERT
  2
*GRP_0057
  8
寸法
  6
CONTINUOUS
 10
0.0
 20
0.0
  0
INSERT
  2
*GRP_0059
  8
寸法
  6
CONTINUOUS
 10
0.0
 20
0.0
  0
INSERT
  2
*GRP_0064
  8
寸法
  6
CONTINUOUS
 10
0.0
 20
0.0
  0
INSERT
  2
*GRP_0065
  8
寸法
  6
CONTINUOUS
 10
0.0
 20
0.0
  0
INSERT
  2
*GRP_0072
  8
寸法
  6
CONTINUOUS
 10
0.0
 20
0.0
  0
INSERT
  2
*DIM_0094
  8
寸法
  6
CONTINUOUS
 10
0.0
 20
0.0
  0
INSERT
  2
*DIM_0095
  8
寸法
  6
CONTINUOUS
 10
0.0
 20
0.0
  0
INSERT
  2
*DIM_0096
  8
寸法
  6
CONTINUOUS
 10
0.0
 20
0.0
  0
INSERT
  2
*DIM_0097
  8
寸法
  6
CONTINUOUS
 10
0.0
 20
0.0
  0
INSERT
  2
*DIM_0098
  8
寸法
  6
CONTINUOUS
 10
0.0
 20
0.0
  0
INSERT
  2
*GRP_0092
  8
別途部材
  6
DOT
 10
0.0
 20
0.0
  0
LINE
  8
曲げ物
  6
CONTINUOUS
 10
-66.364315
 20
1.580885
 11
-59.564312
 21
1.580885
  0
INSERT
  2
*GRP_0034
  8
鉄骨等
  6
CONTINUOUS
 10
0.0
 20
0.0
  0
INSERT
  2
*GRP_0035
  8
St
  6
CONTINUOUS
 10
0.0
 20
0.0
  0
INSERT
  2
*GRP_0036
  8
St
  6
CONTINUOUS
 10
0.0
 20
0.0
  0
INSERT
  2
*GRP_0037
  8
St
  6
CONTINUOUS
 10
0.0
 20
0.0
  0
INSERT
  2
*GRP_0038
  8
St
  6
CONTINUOUS
 10
0.0
 20
0.0
  0
INSERT
  2
*GRP_0039
  8
St
  6
CONTINUOUS
 10
0.0
 20
0.0
  0
INSERT
  2
*GRP_0045
  8
St
  6
CONTINUOUS
 10
0.0
 20
0.0
  0
INSERT
  2
*GRP_0066
  8
St
  6
CONTINUOUS
 10
0.0
 20
0.0
  0
LINE
  8
St
  6
DOT
 10
85.436817
 20
58.08095
 11
85.436817
 21
103.561188
  0
LINE
  8
St
  6
DOT
 10
51.436813
 20
58.08095
 11
51.436813
 21
103.561188
  0
LINE
  8
St
  6
DOT
 10
6.435717
 20
33.080938
 11
6.435717
 21
103.561188
  0
LINE
  8
St
  6
DOT
 10
-27.564287
 20
33.080938
 11
-27.564287
 21
103.561188
  0
INSERT
  2
*GRP_0071
  8
St
  6
CONTINUOUS
 10
0.0
 20
0.0
  0
LINE
  8
その他部品等
  6
CONTINUOUS
 62
    47
 10
-126.32236
 20
1.580877
 11
-126.32236
 21
91.090365
  0
ENDSEC
  0
EOF
