  0
SECTION
  2
HEADER
  9
$EXTMIN
 10
-210.0
 20
-148.5
  9
$EXTMAX
 10
210.0
 20
148.5
  9
$PDMODE
 70
    32
  9
$PDSIZE
 40
1.5
  9
$LTSCALE
 40
10.0
  0
ENDSEC
  0
SECTION
  2
TABLES
  0
TABLE
  2
LTYPE
 70
    15
  0
LTYPE
  2
CONTINUOUS
 70
    64
  3
実線
 72
    65
 73
     0
 40
0.0
  0
LTYPE
  2
DASHED
 70
    64
  3
破線A
 72
    65
 73
     2
 40
0.6
 49
0.4
 49
-0.2
  0
LTYPE
  2
DASHEDX2
 70
    64
  3
破線B
 72
    65
 73
     2
 40
1.3
 49
0.9
 49
-0.4
  0
LTYPE
  2
DASHDOT
 70
    64
  3
１点鎖線A
 72
    65
 73
     4
 40
0.5375
 49
0.375
 49
-0.05
 49
0.0625
 49
-0.05
  0
LTYPE
  2
DASHDOTX2
 70
    64
  3
１点鎖線B
 72
    65
 73
     4
 40
1.075
 49
0.75
 49
-0.1
 49
0.125
 49
-0.1
  0
LTYPE
  2
DIVIDE2
 70
    64
  3
２点鎖線A
 72
    65
 73
     6
 40
0.5125
 49
0.3
 49
-0.0375
 49
0.05
 49
-0.0375
 49
0.05
 49
-0.0375
  0
LTYPE
  2
DIVIDE
 70
    64
  3
２点鎖線B
 72
    65
 73
     6
 40
1.05
 49
0.55
 49
-0.1
 49
0.1
 49
-0.1
 49
0.1
 49
-0.1
  0
LTYPE
  2
DOT
 70
    64
  3
点線A
 72
    65
 73
     2
 40
0.1125
 49
0.0625
 49
-0.05
  0
LTYPE
  2
DOTX2
 70
    64
  3
点線B
 72
    65
 73
     2
 40
0.275
 49
0.15
 49
-0.125
  0
LTYPE
  2
CONTINUOUS
 70
    64
  3
実線
 72
    65
 73
     0
 40
0.0
  0
LTYPE
  2
CONTINUOUS
 70
    64
  3
実線
 72
    65
 73
     0
 40
0.0
  0
LTYPE
  2
CONTINUOUS
 70
    64
  3
実線
 72
    65
 73
     0
 40
0.0
  0
LTYPE
  2
CONTINUOUS
 70
    64
  3
実線
 72
    65
 73
     0
 40
0.0
  0
LTYPE
  2
CONTINUOUS
 70
    64
  3
実線
 72
    65
 73
     0
 40
0.0
  0
LTYPE
  2
CONTINUOUS
 70
    64
  3
実線
 72
    65
 73
     0
 40
0.0
  0
ENDTAB
  0
TABLE
  2
LAYER
 70
    34
  0
LAYER
  2
通り芯
 70
     0
 62
    15
  6
CONTINUOUS
  0
LAYER
  2
補助線
 70
     0
 62
    16
  6
DOT
  0
LAYER
  2
躯体
 70
     0
 62
    31
  6
CONTINUOUS
  0
LAYER
  2
型材
 70
     0
 62
    32
  6
CONTINUOUS
  0
LAYER
  2
型材断面
 70
     0
 62
    47
  6
CONTINUOUS
  0
LAYER
  2
ガラス
 70
     0
 62
    48
  6
CONTINUOUS
  0
LAYER
  2
ゴム等
 70
     0
 62
    63
  6
CONTINUOUS
  0
LAYER
  2
ボルト／ビス
 70
     0
 62
    64
  6
CONTINUOUS
  0
LAYER
  2
文字
 70
     0
 62
    79
  6
CONTINUOUS
  0
LAYER
  2
寸法
 70
     0
 62
    80
  6
CONTINUOUS
  0
LAYER
  2
ﾊｯﾁﾝｸﾞ
 70
     0
 62
    95
  6
CONTINUOUS
  0
LAYER
  2
別途部材
 70
     0
 62
    96
  6
CONTINUOUS
  0
LAYER
  2
曲げ物
 70
     0
 62
   111
  6
CONTINUOUS
  0
LAYER
  2
鉄骨等
 70
     0
 62
   112
  6
CONTINUOUS
  0
LAYER
  2
St
 70
     0
 62
   127
  6
CONTINUOUS
  0
LAYER
  2
その他部品等
 70
     0
 62
   128
  6
CONTINUOUS
  0
LAYER
  2
ｶﾞｽｹｯﾄ
 70
     0
 62
   143
  6
CONTINUOUS
  0
LAYER
  2
ｽｹｯﾁ
 70
     0
 62
    14
  6
CONTINUOUS
  0
LAYER
  2
0
 70
     0
 62
    17
  6
CONTINUOUS
  0
LAYER
  2
1
 70
     0
 62
    30
  6
CONTINUOUS
  0
LAYER
  2
4
 70
     0
 62
    33
  6
CONTINUOUS
  0
LAYER
  2
ﾚｲﾔ3
 70
     0
 62
    46
  6
CONTINUOUS
  0
LAYER
  2
外形線
 70
     0
 62
    49
  6
CONTINUOUS
  0
LAYER
  2
部品
 70
     0
 62
    14
  6
CONTINUOUS
  0
LAYER
  2
サッシ芯
 70
     0
 62
    17
  6
DASHDOTX2
  0
LAYER
  2
寸法線
 70
     0
 62
    62
  6
CONTINUOUS
  0
LAYER
  2
姿図外形線
 70
     0
 62
    65
  6
CONTINUOUS
  0
LAYER
  2
姿補助線
 70
     0
 62
    30
  6
CONTINUOUS
  0
LAYER
  2
透視線
 70
     0
 62
    78
  6
DOT
  0
LAYER
  2
用紙
 70
     0
 62
    81
  6
CONTINUOUS
  0
LAYER
  2
実線図枠
 70
     0
 62
    94
  6
CONTINUOUS
  0
LAYER
  2
補助図枠
 70
     0
 62
    97
  6
CONTINUOUS
  0
LAYER
  2
建具記号
 70
     0
 62
   110
  6
CONTINUOUS
  0
LAYER
  2
補助文字
 70
     0
 62
   113
  6
CONTINUOUS
  0
ENDTAB
  0
TABLE
  2
STYLE
 70
    10
  0
STYLE
  2
STANDARD
 70
     0
 40
1.0
 41
1.0
 42
1.0
 50
0.0
 71
     0
  3
TXT
  4
BIGFONT
  0
STYLE
  2
TATE
 70
     4
 40
1.0
 41
1.0
 42
1.0
 50
0.0
 71
     0
  3
TXT
  4
BIGFONT
  0
STYLE
  2
TextStyle03
 70
     0
 40
1.0
 41
1.0
 42
1.0
 50
0.0
 71
     0
  3
MONOTXT
  4
BIGFONT
  0
STYLE
  2
TextStyle04
 70
     0
 40
1.0
 41
1.0
 42
1.0
 50
0.0
 71
     0
  3
MONOTXT
  4
BIGFONT
  0
STYLE
  2
TextStyle05
 70
     0
 40
1.0
 41
1.0
 42
1.0
 50
0.0
 71
     0
  3
MONOTXT
  4
BIGFONT
  0
STYLE
  2
TextStyle06
 70
     0
 40
1.0
 41
1.0
 42
1.0
 50
0.0
 71
     0
  3
MONOTXT
  4
BIGFONT
  0
STYLE
  2
TextStyle07
 70
     0
 40
1.0
 41
1.0
 42
1.0
 50
0.0
 71
     0
  3
MONOTXT
  4
BIGFONT
  0
STYLE
  2
TextStyle08
 70
     0
 40
1.0
 41
1.0
 42
1.0
 50
0.0
 71
     0
  3
MONOTXT
  4
BIGFONT
  0
STYLE
  2
TextStyle09
 70
     0
 40
1.0
 41
1.0
 42
1.0
 50
0.0
 71
     0
  3
MONOTXT
  4
BIGFONT
  0
STYLE
  2
TextStyle10
 70
     0
 40
1.0
 41
1.0
 42
1.0
 50
0.0
 71
     0
  3
MONOTXT
  4
BIGFONT
  0
ENDTAB
  0
ENDSEC
  0
SECTION
  2
BLOCKS
  0
BLOCK
  2
*GRP_0001
 70
    65
 10
0.0
 20
0.0
  0
LINE
  8
型材断面
  6
CONTINUOUS
 10
195.0
 20
133.5
 11
195.0
 21
-133.5
  0
LINE
  8
型材断面
  6
CONTINUOUS
 10
195.0
 20
-133.5
 11
-185.0
 21
-133.5
  0
LINE
  8
型材断面
  6
CONTINUOUS
 10
-185.0
 20
-133.5
 11
-185.0
 21
133.5
  0
LINE
  8
型材断面
  6
CONTINUOUS
 10
195.0
 20
133.5
 11
-185.0
 21
133.5
  0
LINE
  8
型材断面
  6
CONTINUOUS
 10
145.0
 20
-133.5
 11
145.0
 21
-118.5
  0
LINE
  8
型材断面
  6
CONTINUOUS
 10
195.0
 20
-118.5
 11
145.0
 21
-118.5
  0
ENDBLK
  0
BLOCK
  2
*GRP_0002
 70
    65
 10
0.0
 20
0.0
  0
INSERT
  2
*GRP_0022
  8
補助線
  6
CONTINUOUS
 10
0.0
 20
0.0
  0
LINE
  8
ボルト／ビス
  6
CONTINUOUS
 10
-84.935405
 20
10.371595
 11
-84.685405
 21
10.515933
  0
LINE
  8
ボルト／ビス
  6
CONTINUOUS
 10
-84.935405
 20
10.371595
 11
-85.185405
 21
10.515933
  0
LINE
  8
ボルト／ビス
  6
CONTINUOUS
 10
-84.685405
 20
10.804608
 11
-84.935405
 21
10.948945
  0
LINE
  8
ボルト／ビス
  6
CONTINUOUS
 10
-85.185405
 20
10.804608
 11
-84.935405
 21
10.948945
  0
CIRCLE
  8
ボルト／ビス
  6
CONTINUOUS
 10
-84.935405
 20
10.66027
 40
0.25
  0
LINE
  8
ボルト／ビス
  6
CONTINUOUS
 10
-85.185405
 20
10.515933
 11
-85.185405
 21
10.804608
  0
LINE
  8
ボルト／ビス
  6
CONTINUOUS
 10
-84.685405
 20
10.804608
 11
-84.685405
 21
10.515933
  0
ENDBLK
  0
BLOCK
  2
*GRP_0003
 70
    65
 10
0.0
 20
0.0
  0
INSERT
  2
*GRP_0023
  8
補助線
  6
CONTINUOUS
 10
0.0
 20
0.0
  0
LINE
  8
ボルト／ビス
  6
CONTINUOUS
 10
-69.935405
 20
10.371595
 11
-69.685405
 21
10.515933
  0
LINE
  8
ボルト／ビス
  6
CONTINUOUS
 10
-69.935405
 20
10.371595
 11
-70.185405
 21
10.515933
  0
LINE
  8
ボルト／ビス
  6
CONTINUOUS
 10
-69.685405
 20
10.804608
 11
-69.935405
 21
10.948945
  0
LINE
  8
ボルト／ビス
  6
CONTINUOUS
 10
-70.185405
 20
10.804608
 11
-69.935405
 21
10.948945
  0
CIRCLE
  8
ボルト／ビス
  6
CONTINUOUS
 10
-69.935405
 20
10.66027
 40
0.25
  0
LINE
  8
ボルト／ビス
  6
CONTINUOUS
 10
-70.185405
 20
10.515933
 11
-70.185405
 21
10.804608
  0
LINE
  8
ボルト／ビス
  6
CONTINUOUS
 10
-69.685405
 20
10.804608
 11
-69.685405
 21
10.515933
  0
ENDBLK
  0
BLOCK
  2
*GRP_0004
 70
    65
 10
0.0
 20
0.0
  0
INSERT
  2
*GRP_0024
  8
補助線
  6
CONTINUOUS
 10
0.0
 20
0.0
  0
LINE
  8
ボルト／ビス
  6
CONTINUOUS
 10
-93.72408
 20
19.16027
 11
-93.579742
 21
19.41027
  0
LINE
  8
ボルト／ビス
  6
CONTINUOUS
 10
-93.72408
 20
19.16027
 11
-93.579742
 21
18.91027
  0
LINE
  8
ボルト／ビス
  6
CONTINUOUS
 10
-93.291068
 20
19.41027
 11
-93.14673
 21
19.16027
  0
LINE
  8
ボルト／ビス
  6
CONTINUOUS
 10
-93.291068
 20
18.91027
 11
-93.14673
 21
19.16027
  0
CIRCLE
  8
ボルト／ビス
  6
CONTINUOUS
 10
-93.435405
 20
19.16027
 40
0.25
  0
LINE
  8
ボルト／ビス
  6
CONTINUOUS
 10
-93.579742
 20
18.91027
 11
-93.291068
 21
18.91027
  0
LINE
  8
ボルト／ビス
  6
CONTINUOUS
 10
-93.291068
 20
19.41027
 11
-93.579742
 21
19.41027
  0
ENDBLK
  0
BLOCK
  2
*GRP_0005
 70
    65
 10
0.0
 20
0.0
  0
INSERT
  2
*GRP_0025
  8
補助線
  6
CONTINUOUS
 10
0.0
 20
0.0
  0
LINE
  8
ボルト／ビス
  6
CONTINUOUS
 10
-93.72408
 20
34.16027
 11
-93.579742
 21
34.41027
  0
LINE
  8
ボルト／ビス
  6
CONTINUOUS
 10
-93.72408
 20
34.16027
 11
-93.579742
 21
33.91027
  0
LINE
  8
ボルト／ビス
  6
CONTINUOUS
 10
-93.291068
 20
34.41027
 11
-93.14673
 21
34.16027
  0
LINE
  8
ボルト／ビス
  6
CONTINUOUS
 10
-93.291068
 20
33.91027
 11
-93.14673
 21
34.16027
  0
CIRCLE
  8
ボルト／ビス
  6
CONTINUOUS
 10
-93.435405
 20
34.16027
 40
0.25
  0
LINE
  8
ボルト／ビス
  6
CONTINUOUS
 10
-93.579742
 20
33.91027
 11
-93.291068
 21
33.91027
  0
LINE
  8
ボルト／ビス
  6
CONTINUOUS
 10
-93.291068
 20
34.41027
 11
-93.579742
 21
34.41027
  0
ENDBLK
  0
BLOCK
  2
*GRP_0006
 70
    65
 10
0.0
 20
0.0
  0
INSERT
  2
*GRP_0026
  8
補助線
  6
CONTINUOUS
 10
0.0
 20
0.0
  0
LINE
  8
ボルト／ビス
  6
CONTINUOUS
 10
-54.935405
 20
10.371595
 11
-55.185405
 21
10.515933
  0
LINE
  8
ボルト／ビス
  6
CONTINUOUS
 10
-54.935405
 20
10.371595
 11
-54.685405
 21
10.515933
  0
LINE
  8
ボルト／ビス
  6
CONTINUOUS
 10
-55.185405
 20
10.804608
 11
-54.935405
 21
10.948945
  0
LINE
  8
ボルト／ビス
  6
CONTINUOUS
 10
-54.685405
 20
10.804608
 11
-54.935405
 21
10.948945
  0
CIRCLE
  8
ボルト／ビス
  6
CONTINUOUS
 10
-54.935405
 20
10.66027
 40
0.25
  0
LINE
  8
ボルト／ビス
  6
CONTINUOUS
 10
-54.685405
 20
10.515933
 11
-54.685405
 21
10.804608
  0
LINE
  8
ボルト／ビス
  6
CONTINUOUS
 10
-55.185405
 20
10.804608
 11
-55.185405
 21
10.515933
  0
ENDBLK
  0
BLOCK
  2
*GRP_0007
 70
    65
 10
0.0
 20
0.0
  0
INSERT
  2
*GRP_0027
  8
補助線
  6
CONTINUOUS
 10
0.0
 20
0.0
  0
LINE
  8
ボルト／ビス
  6
CONTINUOUS
 10
-46.14673
 20
19.16027
 11
-46.291068
 21
19.41027
  0
LINE
  8
ボルト／ビス
  6
CONTINUOUS
 10
-46.14673
 20
19.16027
 11
-46.291068
 21
18.91027
  0
LINE
  8
ボルト／ビス
  6
CONTINUOUS
 10
-46.579742
 20
19.41027
 11
-46.72408
 21
19.16027
  0
LINE
  8
ボルト／ビス
  6
CONTINUOUS
 10
-46.579742
 20
18.91027
 11
-46.72408
 21
19.16027
  0
CIRCLE
  8
ボルト／ビス
  6
CONTINUOUS
 10
-46.435405
 20
19.16027
 40
0.25
  0
LINE
  8
ボルト／ビス
  6
CONTINUOUS
 10
-46.291068
 20
18.91027
 11
-46.579742
 21
18.91027
  0
LINE
  8
ボルト／ビス
  6
CONTINUOUS
 10
-46.579742
 20
19.41027
 11
-46.291068
 21
19.41027
  0
ENDBLK
  0
BLOCK
  2
*GRP_0008
 70
    65
 10
0.0
 20
0.0
  0
INSERT
  2
*GRP_0028
  8
補助線
  6
CONTINUOUS
 10
0.0
 20
0.0
  0
LINE
  8
ボルト／ビス
  6
CONTINUOUS
 10
-46.14673
 20
34.16027
 11
-46.291068
 21
34.41027
  0
LINE
  8
ボルト／ビス
  6
CONTINUOUS
 10
-46.14673
 20
34.16027
 11
-46.291068
 21
33.91027
  0
LINE
  8
ボルト／ビス
  6
CONTINUOUS
 10
-46.579742
 20
34.41027
 11
-46.72408
 21
34.16027
  0
LINE
  8
ボルト／ビス
  6
CONTINUOUS
 10
-46.579742
 20
33.91027
 11
-46.72408
 21
34.16027
  0
CIRCLE
  8
ボルト／ビス
  6
CONTINUOUS
 10
-46.435405
 20
34.16027
 40
0.25
  0
LINE
  8
ボルト／ビス
  6
CONTINUOUS
 10
-46.291068
 20
33.91027
 11
-46.579742
 21
33.91027
  0
LINE
  8
ボルト／ビス
  6
CONTINUOUS
 10
-46.579742
 20
34.41027
 11
-46.291068
 21
34.41027
  0
ENDBLK
  0
BLOCK
  2
*GRP_0009
 70
    65
 10
0.0
 20
0.0
  0
INSERT
  2
*GRP_0029
  8
補助線
  6
CONTINUOUS
 10
0.0
 20
0.0
  0
LINE
  8
ボルト／ビス
  6
CONTINUOUS
 10
-84.935405
 20
57.948945
 11
-84.685405
 21
57.804608
  0
LINE
  8
ボルト／ビス
  6
CONTINUOUS
 10
-84.935405
 20
57.948945
 11
-85.185405
 21
57.804608
  0
LINE
  8
ボルト／ビス
  6
CONTINUOUS
 10
-84.685405
 20
57.515933
 11
-84.935405
 21
57.371595
  0
LINE
  8
ボルト／ビス
  6
CONTINUOUS
 10
-85.185405
 20
57.515933
 11
-84.935405
 21
57.371595
  0
CIRCLE
  8
ボルト／ビス
  6
CONTINUOUS
 10
-84.935405
 20
57.66027
 40
0.25
  0
LINE
  8
ボルト／ビス
  6
CONTINUOUS
 10
-85.185405
 20
57.804608
 11
-85.185405
 21
57.515933
  0
LINE
  8
ボルト／ビス
  6
CONTINUOUS
 10
-84.685405
 20
57.515933
 11
-84.685405
 21
57.804608
  0
ENDBLK
  0
BLOCK
  2
*GRP_0010
 70
    65
 10
0.0
 20
0.0
  0
INSERT
  2
*GRP_0030
  8
補助線
  6
CONTINUOUS
 10
0.0
 20
0.0
  0
LINE
  8
ボルト／ビス
  6
CONTINUOUS
 10
-69.935405
 20
57.948945
 11
-69.685405
 21
57.804608
  0
LINE
  8
ボルト／ビス
  6
CONTINUOUS
 10
-69.935405
 20
57.948945
 11
-70.185405
 21
57.804608
  0
LINE
  8
ボルト／ビス
  6
CONTINUOUS
 10
-69.685405
 20
57.515933
 11
-69.935405
 21
57.371595
  0
LINE
  8
ボルト／ビス
  6
CONTINUOUS
 10
-70.185405
 20
57.515933
 11
-69.935405
 21
57.371595
  0
CIRCLE
  8
ボルト／ビス
  6
CONTINUOUS
 10
-69.935405
 20
57.66027
 40
0.25
  0
LINE
  8
ボルト／ビス
  6
CONTINUOUS
 10
-70.185405
 20
57.804608
 11
-70.185405
 21
57.515933
  0
LINE
  8
ボルト／ビス
  6
CONTINUOUS
 10
-69.685405
 20
57.515933
 11
-69.685405
 21
57.804608
  0
ENDBLK
  0
BLOCK
  2
*GRP_0011
 70
    65
 10
0.0
 20
0.0
  0
INSERT
  2
*GRP_0031
  8
補助線
  6
CONTINUOUS
 10
0.0
 20
0.0
  0
LINE
  8
ボルト／ビス
  6
CONTINUOUS
 10
-93.72408
 20
49.16027
 11
-93.579742
 21
48.91027
  0
LINE
  8
ボルト／ビス
  6
CONTINUOUS
 10
-93.72408
 20
49.16027
 11
-93.579742
 21
49.41027
  0
LINE
  8
ボルト／ビス
  6
CONTINUOUS
 10
-93.291068
 20
48.91027
 11
-93.14673
 21
49.16027
  0
LINE
  8
ボルト／ビス
  6
CONTINUOUS
 10
-93.291068
 20
49.41027
 11
-93.14673
 21
49.16027
  0
CIRCLE
  8
ボルト／ビス
  6
CONTINUOUS
 10
-93.435405
 20
49.16027
 40
0.25
  0
LINE
  8
ボルト／ビス
  6
CONTINUOUS
 10
-93.579742
 20
49.41027
 11
-93.291068
 21
49.41027
  0
LINE
  8
ボルト／ビス
  6
CONTINUOUS
 10
-93.291068
 20
48.91027
 11
-93.579742
 21
48.91027
  0
ENDBLK
  0
BLOCK
  2
*GRP_0012
 70
    65
 10
0.0
 20
0.0
  0
INSERT
  2
*GRP_0032
  8
補助線
  6
CONTINUOUS
 10
0.0
 20
0.0
  0
LINE
  8
ボルト／ビス
  6
CONTINUOUS
 10
-54.935405
 20
57.948945
 11
-55.185405
 21
57.804608
  0
LINE
  8
ボルト／ビス
  6
CONTINUOUS
 10
-54.935405
 20
57.948945
 11
-54.685405
 21
57.804608
  0
LINE
  8
ボルト／ビス
  6
CONTINUOUS
 10
-55.185405
 20
57.515933
 11
-54.935405
 21
57.371595
  0
LINE
  8
ボルト／ビス
  6
CONTINUOUS
 10
-54.685405
 20
57.515933
 11
-54.935405
 21
57.371595
  0
CIRCLE
  8
ボルト／ビス
  6
CONTINUOUS
 10
-54.935405
 20
57.66027
 40
0.25
  0
LINE
  8
ボルト／ビス
  6
CONTINUOUS
 10
-54.685405
 20
57.804608
 11
-54.685405
 21
57.515933
  0
LINE
  8
ボルト／ビス
  6
CONTINUOUS
 10
-55.185405
 20
57.515933
 11
-55.185405
 21
57.804608
  0
ENDBLK
  0
BLOCK
  2
*GRP_0013
 70
    65
 10
0.0
 20
0.0
  0
INSERT
  2
*GRP_0033
  8
補助線
  6
CONTINUOUS
 10
0.0
 20
0.0
  0
LINE
  8
ボルト／ビス
  6
CONTINUOUS
 10
-46.14673
 20
49.16027
 11
-46.291068
 21
48.91027
  0
LINE
  8
ボルト／ビス
  6
CONTINUOUS
 10
-46.14673
 20
49.16027
 11
-46.291068
 21
49.41027
  0
LINE
  8
ボルト／ビス
  6
CONTINUOUS
 10
-46.579742
 20
48.91027
 11
-46.72408
 21
49.16027
  0
LINE
  8
ボルト／ビス
  6
CONTINUOUS
 10
-46.579742
 20
49.41027
 11
-46.72408
 21
49.16027
  0
CIRCLE
  8
ボルト／ビス
  6
CONTINUOUS
 10
-46.435405
 20
49.16027
 40
0.25
  0
LINE
  8
ボルト／ビス
  6
CONTINUOUS
 10
-46.291068
 20
49.41027
 11
-46.579742
 21
49.41027
  0
LINE
  8
ボルト／ビス
  6
CONTINUOUS
 10
-46.579742
 20
48.91027
 11
-46.291068
 21
48.91027
  0
ENDBLK
  0
BLOCK
  2
*DIM_0014
 70
    65
 10
0.0
 20
0.0
  0
LINE
  8
寸法
  6
BYBLOCK
 62
     0
 10
-68.935405
 20
-39.779985
 11
-25.043632
 21
-39.779985
  0
LINE
  8
寸法
  6
BYBLOCK
 62
     0
 10
-25.043632
 20
-52.279985
 11
-25.043632
 21
-39.779985
  0
POINT
  8
寸法
 62
     0
 10
-25.043632
 20
-52.279985
  0
POINT
  8
寸法
 62
     0
 10
-25.043632
 20
-39.779985
  0
TEXT
  7
TextStyle03
  8
寸法
  6
CONTINUOUS
 62
     0
 10
-25.45
 20
-48.4875
  1
250
 40
3.0
 50
90.0
 72
     5
 11
-25.45
 21
-43.6125
  0
ENDBLK
  0
BLOCK
  2
*DIM_0015
 70
    65
 10
0.0
 20
0.0
  0
LINE
  8
寸法
  6
BYBLOCK
 62
     0
 10
-92.435405
 20
-16.126177
 11
-47.435405
 21
-16.126177
  0
POINT
  8
寸法
 62
     0
 10
-92.435405
 20
-16.126177
  0
POINT
  8
寸法
 62
     0
 10
-47.435405
 20
-16.126177
  0
TEXT
  7
TextStyle03
  8
寸法
  6
CONTINUOUS
 62
     0
 10
-80.85
 20
-15.775
  1
呼称寸法　900
 40
3.0
 72
     5
 11
-59.1
 21
-15.775
  0
ENDBLK
  0
BLOCK
  2
*GRP_0016
 70
    65
 10
0.0
 20
0.0
  0
POLYLINE
  8
寸法
  6
CONTINUOUS
 62
     0
 66
     1
  0
VERTEX
  8
寸法
 10
-49.53765
 20
24.156562
  0
VERTEX
  8
寸法
 10
-45.856455
 20
20.475367
  0
VERTEX
  8
寸法
 10
-23.013878
 20
20.475367
  0
SEQEND
  0
ENDBLK
  0
BLOCK
  2
*DIM_0017
 70
    65
 10
0.0
 20
0.0
  0
LINE
  8
寸法
  6
BYBLOCK
 62
     0
 10
-46.435405
 20
56.66027
 11
-29.575493
 21
56.66027
  0
LINE
  8
寸法
  6
BYBLOCK
 62
     0
 10
-38.41153
 20
51.110273
 11
-29.575493
 21
51.110273
  0
LINE
  8
寸法
  6
BYBLOCK
 62
     0
 10
-29.575493
 20
56.66027
 11
-29.575493
 21
51.110273
  0
POINT
  8
寸法
 62
     0
 10
-29.575493
 20
56.66027
  0
POINT
  8
寸法
 62
     0
 10
-29.575493
 20
51.110273
  0
TEXT
  7
TextStyle03
  8
寸法
  6
CONTINUOUS
 62
     0
 10
-29.975
 20
51.4125
  1
111
 40
3.0
 50
90.0
 72
     5
 11
-29.975
 21
56.2875
  0
ENDBLK
  0
BLOCK
  2
*DIM_0018
 70
    65
 10
0.0
 20
0.0
  0
LINE
  8
寸法
  6
BYBLOCK
 62
     0
 10
-46.435405
 20
11.66027
 11
-29.575493
 21
11.66027
  0
LINE
  8
寸法
  6
BYBLOCK
 62
     0
 10
-38.41153
 20
17.210268
 11
-29.575493
 21
17.210268
  0
LINE
  8
寸法
  6
BYBLOCK
 62
     0
 10
-29.575493
 20
11.66027
 11
-29.575493
 21
17.210268
  0
POINT
  8
寸法
 62
     0
 10
-29.575493
 20
11.66027
  0
POINT
  8
寸法
 62
     0
 10
-29.575493
 20
17.210268
  0
TEXT
  7
TextStyle03
  8
寸法
  6
CONTINUOUS
 62
     0
 10
-29.975
 20
11.9625
  1
111
 40
3.0
 50
90.0
 72
     5
 11
-29.975
 21
16.8375
  0
ENDBLK
  0
BLOCK
  2
*DIM_0019
 70
    65
 10
0.0
 20
0.0
  0
LINE
  8
寸法
  6
BYBLOCK
 62
     0
 10
-84.935405
 20
57.66027
 11
-84.935405
 21
75.599285
  0
LINE
  8
寸法
  6
BYBLOCK
 62
     0
 10
-54.935405
 20
57.66027
 11
-54.935405
 21
75.599285
  0
LINE
  8
寸法
  6
BYBLOCK
 62
     0
 10
-84.935405
 20
75.599285
 11
-54.935405
 21
75.599285
  0
POINT
  8
寸法
 62
     0
 10
-84.935405
 20
75.599285
  0
POINT
  8
寸法
 62
     0
 10
-54.935405
 20
75.599285
  0
TEXT
  7
TextStyle03
  8
寸法
  6
CONTINUOUS
 62
     0
 10
-72.4125
 20
75.95
  1
600
 40
3.0
 72
     5
 11
-67.5375
 21
75.95
  0
ENDBLK
  0
BLOCK
  2
*DIM_0020
 70
    65
 10
0.0
 20
0.0
  0
LINE
  8
寸法
  6
BYBLOCK
 62
     0
 10
-93.435405
 20
56.66027
 11
-116.343648
 21
56.66027
  0
LINE
  8
寸法
  6
BYBLOCK
 62
     0
 10
-93.435405
 20
34.16027
 11
-116.343648
 21
34.16027
  0
LINE
  8
寸法
  6
BYBLOCK
 62
     0
 10
-116.343648
 20
56.66027
 11
-116.343648
 21
34.16027
  0
POINT
  8
寸法
 62
     0
 10
-116.343648
 20
56.66027
  0
POINT
  8
寸法
 62
     0
 10
-116.343648
 20
34.16027
  0
TEXT
  7
TextStyle03
  8
寸法
  6
CONTINUOUS
 62
     0
 10
-116.75
 20
42.9375
  1
450
 40
3.0
 50
90.0
 72
     5
 11
-116.75
 21
47.8125
  0
ENDBLK
  0
BLOCK
  2
*DIM_0021
 70
    65
 10
0.0
 20
0.0
  0
LINE
  8
寸法
  6
BYBLOCK
 62
     0
 10
-93.435405
 20
11.66027
 11
-116.343648
 21
11.66027
  0
LINE
  8
寸法
  6
BYBLOCK
 62
     0
 10
-116.343648
 20
34.16027
 11
-116.343648
 21
11.66027
  0
POINT
  8
寸法
 62
     0
 10
-116.343648
 20
11.66027
  0
TEXT
  7
TextStyle03
  8
寸法
  6
CONTINUOUS
 62
     0
 10
-116.75
 20
20.4375
  1
450
 40
3.0
 50
90.0
 72
     5
 11
-116.75
 21
25.3125
  0
ENDBLK
  0
BLOCK
  2
*GRP_0022
 70
    65
 10
0.0
 20
0.0
  0
LINE
  8
補助線
  6
BYBLOCK
 62
     0
 10
-85.060405
 20
10.66027
 11
-84.810405
 21
10.66027
  0
LINE
  8
補助線
  6
BYBLOCK
 62
     0
 10
-84.935405
 20
10.53527
 11
-84.935405
 21
10.78527
  0
ENDBLK
  0
BLOCK
  2
*GRP_0023
 70
    65
 10
0.0
 20
0.0
  0
LINE
  8
補助線
  6
BYBLOCK
 62
     0
 10
-70.060405
 20
10.66027
 11
-69.810405
 21
10.66027
  0
LINE
  8
補助線
  6
BYBLOCK
 62
     0
 10
-69.935405
 20
10.53527
 11
-69.935405
 21
10.78527
  0
ENDBLK
  0
BLOCK
  2
*GRP_0024
 70
    65
 10
0.0
 20
0.0
  0
LINE
  8
補助線
  6
BYBLOCK
 62
     0
 10
-93.435405
 20
19.03527
 11
-93.435405
 21
19.28527
  0
LINE
  8
補助線
  6
BYBLOCK
 62
     0
 10
-93.560405
 20
19.16027
 11
-93.310405
 21
19.16027
  0
ENDBLK
  0
BLOCK
  2
*GRP_0025
 70
    65
 10
0.0
 20
0.0
  0
LINE
  8
補助線
  6
BYBLOCK
 62
     0
 10
-93.435405
 20
34.03527
 11
-93.435405
 21
34.28527
  0
LINE
  8
補助線
  6
BYBLOCK
 62
     0
 10
-93.560405
 20
34.16027
 11
-93.310405
 21
34.16027
  0
ENDBLK
  0
BLOCK
  2
*GRP_0026
 70
    65
 10
0.0
 20
0.0
  0
LINE
  8
補助線
  6
BYBLOCK
 62
     0
 10
-54.810405
 20
10.66027
 11
-55.060405
 21
10.66027
  0
LINE
  8
補助線
  6
BYBLOCK
 62
     0
 10
-54.935405
 20
10.53527
 11
-54.935405
 21
10.78527
  0
ENDBLK
  0
BLOCK
  2
*GRP_0027
 70
    65
 10
0.0
 20
0.0
  0
LINE
  8
補助線
  6
BYBLOCK
 62
     0
 10
-46.435405
 20
19.03527
 11
-46.435405
 21
19.28527
  0
LINE
  8
補助線
  6
BYBLOCK
 62
     0
 10
-46.310405
 20
19.16027
 11
-46.560405
 21
19.16027
  0
ENDBLK
  0
BLOCK
  2
*GRP_0028
 70
    65
 10
0.0
 20
0.0
  0
LINE
  8
補助線
  6
BYBLOCK
 62
     0
 10
-46.435405
 20
34.03527
 11
-46.435405
 21
34.28527
  0
LINE
  8
補助線
  6
BYBLOCK
 62
     0
 10
-46.310405
 20
34.16027
 11
-46.560405
 21
34.16027
  0
ENDBLK
  0
BLOCK
  2
*GRP_0029
 70
    65
 10
0.0
 20
0.0
  0
LINE
  8
補助線
  6
BYBLOCK
 62
     0
 10
-85.060405
 20
57.66027
 11
-84.810405
 21
57.66027
  0
LINE
  8
補助線
  6
BYBLOCK
 62
     0
 10
-84.935405
 20
57.78527
 11
-84.935405
 21
57.53527
  0
ENDBLK
  0
BLOCK
  2
*GRP_0030
 70
    65
 10
0.0
 20
0.0
  0
LINE
  8
補助線
  6
BYBLOCK
 62
     0
 10
-70.060405
 20
57.66027
 11
-69.810405
 21
57.66027
  0
LINE
  8
補助線
  6
BYBLOCK
 62
     0
 10
-69.935405
 20
57.78527
 11
-69.935405
 21
57.53527
  0
ENDBLK
  0
BLOCK
  2
*GRP_0031
 70
    65
 10
0.0
 20
0.0
  0
LINE
  8
補助線
  6
BYBLOCK
 62
     0
 10
-93.435405
 20
49.28527
 11
-93.435405
 21
49.03527
  0
LINE
  8
補助線
  6
BYBLOCK
 62
     0
 10
-93.560405
 20
49.16027
 11
-93.310405
 21
49.16027
  0
ENDBLK
  0
BLOCK
  2
*GRP_0032
 70
    65
 10
0.0
 20
0.0
  0
LINE
  8
補助線
  6
BYBLOCK
 62
     0
 10
-54.810405
 20
57.66027
 11
-55.060405
 21
57.66027
  0
LINE
  8
補助線
  6
BYBLOCK
 62
     0
 10
-54.935405
 20
57.78527
 11
-54.935405
 21
57.53527
  0
ENDBLK
  0
BLOCK
  2
*GRP_0033
 70
    65
 10
0.0
 20
0.0
  0
LINE
  8
補助線
  6
BYBLOCK
 62
     0
 10
-46.435405
 20
49.28527
 11
-46.435405
 21
49.03527
  0
LINE
  8
補助線
  6
BYBLOCK
 62
     0
 10
-46.310405
 20
49.16027
 11
-46.560405
 21
49.16027
  0
ENDBLK
  0
BLOCK
  2
*GRP_0034
 70
    65
 10
0.0
 20
0.0
  0
LINE
  8
補助線
  6
BYBLOCK
 62
    64
 10
87.63081
 20
-59.664113
 11
87.854195
 21
-59.776353
  0
LINE
  8
補助線
  6
BYBLOCK
 62
    64
 10
87.798623
 20
-59.60854
 11
87.686383
 21
-59.831925
  0
LINE
  8
補助線
  6
BYBLOCK
 62
    64
 10
72.97645
 20
-52.301393
 11
72.753058
 21
-52.189152
  0
LINE
  8
補助線
  6
BYBLOCK
 62
    64
 10
72.92087
 20
-52.133575
 11
72.808635
 21
-52.356965
  0
LINE
  8
補助線
  6
BYBLOCK
 62
    64
 10
58.09866
 20
-44.826502
 11
57.87527
 21
-44.71427
  0
LINE
  8
補助線
  6
BYBLOCK
 62
    64
 10
58.043082
 20
-44.65869
 11
57.930847
 21
-44.88208
  0
LINE
  8
型材断面
  6
CONTINUOUS
 10
88.750465
 20
-58.827758
 11
89.083922
 21
-59.834635
  0
LINE
  8
型材断面
  6
CONTINUOUS
 10
89.083922
 20
-59.834635
 11
88.634978
 21
-60.728195
  0
LINE
  8
型材断面
  6
CONTINUOUS
 10
88.634978
 20
-60.728195
 11
87.6281
 21
-61.061653
  0
LINE
  8
型材断面
  6
CONTINUOUS
 10
58.10136
 20
-43.428963
 11
57.094487
 21
-43.762428
  0
LINE
  8
型材断面
  6
CONTINUOUS
 10
57.094487
 20
-43.762428
 11
56.64554
 21
-44.65599
  0
LINE
  8
型材断面
  6
CONTINUOUS
 10
56.64554
 20
-44.65599
 11
56.979008
 21
-45.662865
  0
LINE
  8
型材断面
  6
CONTINUOUS
 10
88.750465
 20
-58.827758
 11
58.101475
 21
-43.428923
  0
LINE
  8
型材断面
  6
CONTINUOUS
 10
87.6281
 20
-61.061653
 11
56.978973
 21
-45.662758
  0
LINE
  8
ボルト／ビス
  6
CONTINUOUS
 62
    64
 10
87.94986
 20
-59.307515
 11
88.203605
 21
-59.693452
  0
LINE
  8
ボルト／ビス
  6
CONTINUOUS
 62
    64
 10
87.94986
 20
-59.307515
 11
87.48876
 21
-59.334297
  0
LINE
  8
ボルト／ビス
  6
CONTINUOUS
 62
    64
 10
87.535145
 20
-60.13295
 11
87.996245
 21
-60.106167
  0
LINE
  8
ボルト／ビス
  6
CONTINUOUS
 62
    64
 10
87.535145
 20
-60.13295
 11
87.2814
 21
-59.747012
  0
CIRCLE
  8
ボルト／ビス
  6
CONTINUOUS
 62
    64
 10
87.742503
 20
-59.720233
 40
0.4
  0
LINE
  8
ボルト／ビス
  6
CONTINUOUS
 62
    64
 10
87.48876
 20
-59.334297
 11
87.2814
 21
-59.747012
  0
LINE
  8
ボルト／ビス
  6
CONTINUOUS
 62
    64
 10
88.203605
 20
-59.693452
 11
87.996245
 21
-60.106167
  0
LINE
  8
ボルト／ビス
  6
CONTINUOUS
 62
    64
 10
73.072113
 20
-51.832555
 11
72.611008
 21
-51.859332
  0
LINE
  8
ボルト／ビス
  6
CONTINUOUS
 62
    64
 10
73.072113
 20
-51.832555
 11
73.325857
 21
-52.21849
  0
LINE
  8
ボルト／ビス
  6
CONTINUOUS
 62
    64
 10
72.657393
 20
-52.657988
 11
72.40365
 21
-52.272052
  0
LINE
  8
ボルト／ビス
  6
CONTINUOUS
 62
    64
 10
72.657393
 20
-52.657988
 11
73.118495
 21
-52.631207
  0
CIRCLE
  8
ボルト／ビス
  6
CONTINUOUS
 62
    64
 10
72.86475
 20
-52.245273
 40
0.4
  0
LINE
  8
ボルト／ビス
  6
CONTINUOUS
 62
    64
 10
73.325857
 20
-52.21849
 11
73.118495
 21
-52.631207
  0
LINE
  8
ボルト／ビス
  6
CONTINUOUS
 62
    64
 10
72.611008
 20
-51.859332
 11
72.40365
 21
-52.272052
  0
LINE
  8
ボルト／ビス
  6
CONTINUOUS
 62
    64
 10
58.194323
 20
-44.357665
 11
57.733217
 21
-44.384447
  0
LINE
  8
ボルト／ビス
  6
CONTINUOUS
 62
    64
 10
58.194323
 20
-44.357665
 11
58.448065
 21
-44.743602
  0
LINE
  8
ボルト／ビス
  6
CONTINUOUS
 62
    64
 10
57.779605
 20
-45.183103
 11
57.525863
 21
-44.797165
  0
LINE
  8
ボルト／ビス
  6
CONTINUOUS
 62
    64
 10
57.779605
 20
-45.183103
 11
58.240712
 21
-45.15632
  0
CIRCLE
  8
ボルト／ビス
  6
CONTINUOUS
 62
    64
 10
57.986967
 20
-44.770385
 40
0.4
  0
LINE
  8
ボルト／ビス
  6
CONTINUOUS
 62
    64
 10
58.448065
 20
-44.743602
 11
58.240712
 21
-45.15632
  0
LINE
  8
ボルト／ビス
  6
CONTINUOUS
 62
    64
 10
57.733217
 20
-44.384447
 11
57.525863
 21
-44.797165
  0
ENDBLK
  0
BLOCK
  2
*GRP_0035
 70
    65
 10
0.0
 20
0.0
  0
LINE
  8
補助線
  6
BYBLOCK
 62
    64
 10
58.098695
 20
-59.664113
 11
57.87531
 21
-59.776353
  0
LINE
  8
補助線
  6
BYBLOCK
 62
    64
 10
57.930883
 20
-59.60854
 11
58.043123
 21
-59.831925
  0
LINE
  8
補助線
  6
BYBLOCK
 62
    64
 10
72.753055
 20
-52.301393
 11
72.976447
 21
-52.189152
  0
LINE
  8
補助線
  6
BYBLOCK
 62
    64
 10
72.808635
 20
-52.133575
 11
72.92087
 21
-52.356965
  0
LINE
  8
補助線
  6
BYBLOCK
 62
    64
 10
87.630845
 20
-44.826502
 11
87.854235
 21
-44.71427
  0
LINE
  8
補助線
  6
BYBLOCK
 62
    64
 10
87.686422
 20
-44.65869
 11
87.798658
 21
-44.88208
  0
LINE
  8
型材断面
  6
CONTINUOUS
 10
56.97904
 20
-58.827758
 11
56.645582
 21
-59.834635
  0
LINE
  8
型材断面
  6
CONTINUOUS
 10
56.645582
 20
-59.834635
 11
57.094528
 21
-60.728195
  0
LINE
  8
型材断面
  6
CONTINUOUS
 10
57.094528
 20
-60.728195
 11
58.101405
 21
-61.061653
  0
LINE
  8
型材断面
  6
CONTINUOUS
 10
87.628145
 20
-43.428963
 11
88.635017
 21
-43.762428
  0
LINE
  8
型材断面
  6
CONTINUOUS
 10
88.635017
 20
-43.762428
 11
89.083965
 21
-44.65599
  0
LINE
  8
型材断面
  6
CONTINUOUS
 10
89.083965
 20
-44.65599
 11
88.750497
 21
-45.662865
  0
LINE
  8
型材断面
  6
CONTINUOUS
 10
56.97904
 20
-58.827758
 11
87.62803
 21
-43.428923
  0
LINE
  8
型材断面
  6
CONTINUOUS
 10
58.101405
 20
-61.061653
 11
88.750533
 21
-45.662758
  0
LINE
  8
ボルト／ビス
  6
CONTINUOUS
 62
    64
 10
57.779645
 20
-59.307515
 11
57.5259
 21
-59.693452
  0
LINE
  8
ボルト／ビス
  6
CONTINUOUS
 62
    64
 10
57.779645
 20
-59.307515
 11
58.240745
 21
-59.334297
  0
LINE
  8
ボルト／ビス
  6
CONTINUOUS
 62
    64
 10
58.19436
 20
-60.13295
 11
57.73326
 21
-60.106167
  0
LINE
  8
ボルト／ビス
  6
CONTINUOUS
 62
    64
 10
58.19436
 20
-60.13295
 11
58.448105
 21
-59.747012
  0
CIRCLE
  8
ボルト／ビス
  6
CONTINUOUS
 62
    64
 10
57.987003
 20
-59.720233
 40
0.4
  0
LINE
  8
ボルト／ビス
  6
CONTINUOUS
 62
    64
 10
58.240745
 20
-59.334297
 11
58.448105
 21
-59.747012
  0
LINE
  8
ボルト／ビス
  6
CONTINUOUS
 62
    64
 10
57.5259
 20
-59.693452
 11
57.73326
 21
-60.106167
  0
LINE
  8
ボルト／ビス
  6
CONTINUOUS
 62
    64
 10
72.657393
 20
-51.832555
 11
73.118498
 21
-51.859332
  0
LINE
  8
ボルト／ビス
  6
CONTINUOUS
 62
    64
 10
72.657393
 20
-51.832555
 11
72.403648
 21
-52.21849
  0
LINE
  8
ボルト／ビス
  6
CONTINUOUS
 62
    64
 10
73.072113
 20
-52.657988
 11
73.325855
 21
-52.272052
  0
LINE
  8
ボルト／ビス
  6
CONTINUOUS
 62
    64
 10
73.072113
 20
-52.657988
 11
72.61101
 21
-52.631207
  0
CIRCLE
  8
ボルト／ビス
  6
CONTINUOUS
 62
    64
 10
72.864755
 20
-52.245273
 40
0.4
  0
LINE
  8
ボルト／ビス
  6
CONTINUOUS
 62
    64
 10
72.403648
 20
-52.21849
 11
72.61101
 21
-52.631207
  0
LINE
  8
ボルト／ビス
  6
CONTINUOUS
 62
    64
 10
73.118498
 20
-51.859332
 11
73.325855
 21
-52.272052
  0
LINE
  8
ボルト／ビス
  6
CONTINUOUS
 62
    64
 10
87.535182
 20
-44.357665
 11
87.996287
 21
-44.384447
  0
LINE
  8
ボルト／ビス
  6
CONTINUOUS
 62
    64
 10
87.535182
 20
-44.357665
 11
87.28144
 21
-44.743602
  0
LINE
  8
ボルト／ビス
  6
CONTINUOUS
 62
    64
 10
87.9499
 20
-45.183103
 11
88.203643
 21
-44.797165
  0
LINE
  8
ボルト／ビス
  6
CONTINUOUS
 62
    64
 10
87.9499
 20
-45.183103
 11
87.488793
 21
-45.15632
  0
CIRCLE
  8
ボルト／ビス
  6
CONTINUOUS
 62
    64
 10
87.742538
 20
-44.770385
 40
0.4
  0
LINE
  8
ボルト／ビス
  6
CONTINUOUS
 62
    64
 10
87.28144
 20
-44.743602
 11
87.488793
 21
-45.15632
  0
LINE
  8
ボルト／ビス
  6
CONTINUOUS
 62
    64
 10
87.996287
 20
-44.384447
 11
88.203643
 21
-44.797165
  0
ENDBLK
  0
BLOCK
  2
*DIM_0036
 70
    65
 10
0.0
 20
0.0
  0
LINE
  8
寸法
  6
CONTINUOUS
 10
-47.435405
 20
-16.126177
 11
-43.290405
 21
-16.126177
  0
POINT
  8
寸法
 10
-47.435405
 20
-16.126177
  0
POINT
  8
寸法
 10
-43.290405
 20
-16.126177
  0
TEXT
  7
TextStyle03
  8
寸法
  6
CONTINUOUS
 10
-46.78125
 20
-15.35
  1
82.9
 40
3.0
 72
     5
 11
-40.21875
 21
-15.35
  0
ENDBLK
  0
BLOCK
  2
*DIM_0037
 70
    65
 10
0.0
 20
0.0
  0
LINE
  8
寸法
  6
CONTINUOUS
 10
-92.435405
 20
-16.126177
 11
-96.580405
 21
-16.126177
  0
POINT
  8
寸法
 10
-92.435405
 20
-16.126177
  0
POINT
  8
寸法
 10
-96.580405
 20
-16.126177
  0
TEXT
  7
TextStyle03
  8
寸法
  6
CONTINUOUS
 10
-99.58125
 20
-15.05
  1
82.9
 40
3.0
 72
     5
 11
-93.01875
 21
-15.05
  0
ENDBLK
  0
BLOCK
  2
*DIM_0039
 70
    65
 10
0.0
 20
0.0
  0
LINE
  8
寸法
  6
CONTINUOUS
 10
110.738655
 20
67.66633
 11
110.738655
 21
76.344283
  0
LINE
  8
寸法
  6
CONTINUOUS
 10
155.738655
 20
67.66633
 11
155.738655
 21
76.344283
  0
LINE
  8
寸法
  6
CONTINUOUS
 10
110.738655
 20
76.344283
 11
155.738655
 21
76.344283
  0
POINT
  8
寸法
 10
110.738655
 20
76.344283
  0
POINT
  8
寸法
 10
155.738655
 20
76.344283
  0
TEXT
  7
TextStyle03
  8
寸法
  6
CONTINUOUS
 10
130.7875
 20
76.7
  1
900
 40
3.0
 72
     5
 11
135.6625
 21
76.7
  0
ENDBLK
  0
BLOCK
  2
*DIM_0040
 70
    65
 10
0.0
 20
0.0
  0
LINE
  8
寸法
  6
CONTINUOUS
 10
160.738655
 20
62.66633
 11
171.242637
 21
62.66633
  0
LINE
  8
寸法
  6
CONTINUOUS
 10
160.738655
 20
17.66633
 11
171.242637
 21
17.66633
  0
LINE
  8
寸法
  6
CONTINUOUS
 10
171.242637
 20
62.66633
 11
171.242637
 21
17.66633
  0
POINT
  8
寸法
 10
171.242637
 20
62.66633
  0
POINT
  8
寸法
 10
171.242637
 20
17.66633
  0
TEXT
  7
TextStyle03
  8
寸法
  6
CONTINUOUS
 10
170.875
 20
37.7125
  1
900
 40
3.0
 50
90.0
 72
     5
 11
170.875
 21
42.5875
  0
ENDBLK
  0
BLOCK
  2
*GRP_0041
 70
    65
 10
0.0
 20
0.0
  0
LINE
  8
ボルト／ビス
  6
CONTINUOUS
 10
-93.435405
 20
-52.279987
 11
-93.435405
 21
-51.579987
  0
LINE
  8
ボルト／ビス
  6
CONTINUOUS
 10
-93.985405
 20
-52.279987
 11
-93.985405
 21
-52.179987
  0
LINE
  8
ボルト／ビス
  6
CONTINUOUS
 10
-93.985405
 20
-52.179987
 11
-92.885405
 21
-52.179987
  0
LINE
  8
ボルト／ビス
  6
CONTINUOUS
 10
-92.885405
 20
-52.179987
 11
-92.885405
 21
-52.279987
  0
LINE
  8
ボルト／ビス
  6
CONTINUOUS
 10
-93.985405
 20
-52.279987
 11
-92.885405
 21
-52.279987
  0
LINE
  8
ボルト／ビス
  6
CONTINUOUS
 10
-93.885405
 20
-52.129987
 11
-93.885405
 21
-52.179987
  0
LINE
  8
ボルト／ビス
  6
CONTINUOUS
 10
-93.885405
 20
-52.129987
 11
-92.985405
 21
-52.129987
  0
LINE
  8
ボルト／ビス
  6
CONTINUOUS
 10
-92.985405
 20
-52.129987
 11
-92.985405
 21
-52.179987
  0
LINE
  8
ボルト／ビス
  6
CONTINUOUS
 62
    64
 10
-93.675968
 20
-51.829987
 11
-93.72408
 21
-51.8475
  0
ARC
  8
ボルト／ビス
  6
CONTINUOUS
 62
    64
 10
-93.651911
 20
-51.987457
 40
0.157468
 50
62.721967
 51
90.0
  0
ARC
  8
ボルト／ビス
  6
CONTINUOUS
 62
    64
 10
-93.435404
 20
-52.433593
 40
0.603603
 50
76.165002
 51
103.834985
  0
LINE
  8
ボルト／ビス
  6
CONTINUOUS
 62
    64
 10
-93.194842
 20
-51.829987
 11
-93.14673
 21
-51.8475
  0
ARC
  8
ボルト／ビス
  6
CONTINUOUS
 62
    64
 10
-93.218898
 20
-51.987457
 40
0.157468
 50
90.0
 51
117.278033
  0
LINE
  8
ボルト／ビス
  6
CONTINUOUS
 62
    64
 10
-93.675968
 20
-51.829987
 11
-93.194842
 21
-51.829987
  0
LINE
  8
ボルト／ビス
  6
CONTINUOUS
 62
    64
 10
-93.14673
 20
-51.8475
 11
-93.14673
 21
-52.029987
  0
LINE
  8
ボルト／ビス
  6
CONTINUOUS
 62
    64
 10
-93.291068
 20
-51.8475
 11
-93.291068
 21
-52.029987
  0
LINE
  8
ボルト／ビス
  6
CONTINUOUS
 62
    64
 10
-93.72408
 20
-51.8475
 11
-93.72408
 21
-52.029987
  0
LINE
  8
ボルト／ビス
  6
CONTINUOUS
 62
    64
 10
-93.579742
 20
-51.8475
 11
-93.579742
 21
-52.029987
  0
LINE
  8
ボルト／ビス
  6
CONTINUOUS
 10
-93.72408
 20
-52.029987
 11
-93.14673
 21
-52.029987
  0
LINE
  8
ボルト／ビス
  6
CONTINUOUS
 10
-93.735405
 20
-52.029987
 11
-93.735405
 21
-52.129987
  0
LINE
  8
ボルト／ビス
  6
CONTINUOUS
 10
-93.735405
 20
-52.029987
 11
-93.135405
 21
-52.029987
  0
LINE
  8
ボルト／ビス
  6
CONTINUOUS
 10
-93.135405
 20
-52.029987
 11
-93.135405
 21
-52.129987
  0
ENDBLK
  0
BLOCK
  2
*GRP_0042
 70
    65
 10
0.0
 20
0.0
  0
LINE
  8
ボルト／ビス
  6
CONTINUOUS
 10
-46.435405
 20
-52.279987
 11
-46.435405
 21
-51.579987
  0
LINE
  8
ボルト／ビス
  6
CONTINUOUS
 10
-46.985405
 20
-52.279987
 11
-46.985405
 21
-52.179987
  0
LINE
  8
ボルト／ビス
  6
CONTINUOUS
 10
-46.985405
 20
-52.179987
 11
-45.885405
 21
-52.179987
  0
LINE
  8
ボルト／ビス
  6
CONTINUOUS
 10
-45.885405
 20
-52.179987
 11
-45.885405
 21
-52.279987
  0
LINE
  8
ボルト／ビス
  6
CONTINUOUS
 10
-46.985405
 20
-52.279987
 11
-45.885405
 21
-52.279987
  0
LINE
  8
ボルト／ビス
  6
CONTINUOUS
 10
-46.885405
 20
-52.129987
 11
-46.885405
 21
-52.179987
  0
LINE
  8
ボルト／ビス
  6
CONTINUOUS
 10
-46.885405
 20
-52.129987
 11
-45.985405
 21
-52.129987
  0
LINE
  8
ボルト／ビス
  6
CONTINUOUS
 10
-45.985405
 20
-52.129987
 11
-45.985405
 21
-52.179987
  0
LINE
  8
ボルト／ビス
  6
CONTINUOUS
 62
    64
 10
-46.675968
 20
-51.829987
 11
-46.72408
 21
-51.8475
  0
ARC
  8
ボルト／ビス
  6
CONTINUOUS
 62
    64
 10
-46.651912
 20
-51.987458
 40
0.157468
 50
62.721967
 51
90.0
  0
ARC
  8
ボルト／ビス
  6
CONTINUOUS
 62
    64
 10
-46.435405
 20
-52.433594
 40
0.603603
 50
76.165002
 51
103.834985
  0
LINE
  8
ボルト／ビス
  6
CONTINUOUS
 62
    64
 10
-46.194842
 20
-51.829987
 11
-46.14673
 21
-51.8475
  0
ARC
  8
ボルト／ビス
  6
CONTINUOUS
 62
    64
 10
-46.218899
 20
-51.987458
 40
0.157468
 50
90.0
 51
117.278033
  0
LINE
  8
ボルト／ビス
  6
CONTINUOUS
 62
    64
 10
-46.675968
 20
-51.829987
 11
-46.194842
 21
-51.829987
  0
LINE
  8
ボルト／ビス
  6
CONTINUOUS
 62
    64
 10
-46.14673
 20
-51.8475
 11
-46.14673
 21
-52.029987
  0
LINE
  8
ボルト／ビス
  6
CONTINUOUS
 62
    64
 10
-46.291068
 20
-51.8475
 11
-46.291068
 21
-52.029987
  0
LINE
  8
ボルト／ビス
  6
CONTINUOUS
 62
    64
 10
-46.72408
 20
-51.8475
 11
-46.72408
 21
-52.029987
  0
LINE
  8
ボルト／ビス
  6
CONTINUOUS
 62
    64
 10
-46.579742
 20
-51.8475
 11
-46.579742
 21
-52.029987
  0
LINE
  8
ボルト／ビス
  6
CONTINUOUS
 10
-46.72408
 20
-52.029987
 11
-46.14673
 21
-52.029987
  0
LINE
  8
ボルト／ビス
  6
CONTINUOUS
 10
-46.735405
 20
-52.029987
 11
-46.735405
 21
-52.129987
  0
LINE
  8
ボルト／ビス
  6
CONTINUOUS
 10
-46.735405
 20
-52.029987
 11
-46.135405
 21
-52.029987
  0
LINE
  8
ボルト／ビス
  6
CONTINUOUS
 10
-46.135405
 20
-52.029987
 11
-46.135405
 21
-52.129987
  0
ENDBLK
  0
BLOCK
  2
*GRP_0043
 70
    65
 10
0.0
 20
0.0
  0
LINE
  8
ボルト／ビス
  6
CONTINUOUS
 10
46.742503
 20
-52.279987
 11
46.742503
 21
-51.579987
  0
LINE
  8
ボルト／ビス
  6
CONTINUOUS
 10
46.192503
 20
-52.279987
 11
46.192503
 21
-52.179987
  0
LINE
  8
ボルト／ビス
  6
CONTINUOUS
 10
46.192503
 20
-52.179987
 11
47.292503
 21
-52.179987
  0
LINE
  8
ボルト／ビス
  6
CONTINUOUS
 10
47.292503
 20
-52.179987
 11
47.292503
 21
-52.279987
  0
LINE
  8
ボルト／ビス
  6
CONTINUOUS
 10
46.192503
 20
-52.279987
 11
47.292503
 21
-52.279987
  0
LINE
  8
ボルト／ビス
  6
CONTINUOUS
 10
46.292503
 20
-52.129987
 11
46.292503
 21
-52.179987
  0
LINE
  8
ボルト／ビス
  6
CONTINUOUS
 10
46.292503
 20
-52.129987
 11
47.192503
 21
-52.129987
  0
LINE
  8
ボルト／ビス
  6
CONTINUOUS
 10
47.192503
 20
-52.129987
 11
47.192503
 21
-52.179987
  0
LINE
  8
ボルト／ビス
  6
CONTINUOUS
 62
    64
 10
46.50194
 20
-51.829987
 11
46.453828
 21
-51.8475
  0
ARC
  8
ボルト／ビス
  6
CONTINUOUS
 62
    64
 10
46.525995
 20
-51.987458
 40
0.157468
 50
62.721967
 51
90.0
  0
ARC
  8
ボルト／ビス
  6
CONTINUOUS
 62
    64
 10
46.742501
 20
-52.433594
 40
0.603603
 50
76.165002
 51
103.834985
  0
LINE
  8
ボルト／ビス
  6
CONTINUOUS
 62
    64
 10
46.983065
 20
-51.829987
 11
47.031178
 21
-51.8475
  0
ARC
  8
ボルト／ビス
  6
CONTINUOUS
 62
    64
 10
46.959007
 20
-51.987458
 40
0.157468
 50
90.0
 51
117.278033
  0
LINE
  8
ボルト／ビス
  6
CONTINUOUS
 62
    64
 10
46.50194
 20
-51.829987
 11
46.983065
 21
-51.829987
  0
LINE
  8
ボルト／ビス
  6
CONTINUOUS
 62
    64
 10
47.031178
 20
-51.8475
 11
47.031178
 21
-52.029987
  0
LINE
  8
ボルト／ビス
  6
CONTINUOUS
 62
    64
 10
46.88684
 20
-51.8475
 11
46.88684
 21
-52.029987
  0
LINE
  8
ボルト／ビス
  6
CONTINUOUS
 62
    64
 10
46.453828
 20
-51.8475
 11
46.453828
 21
-52.029987
  0
LINE
  8
ボルト／ビス
  6
CONTINUOUS
 62
    64
 10
46.598165
 20
-51.8475
 11
46.598165
 21
-52.029987
  0
LINE
  8
ボルト／ビス
  6
CONTINUOUS
 10
46.453828
 20
-52.029987
 11
47.031178
 21
-52.029987
  0
LINE
  8
ボルト／ビス
  6
CONTINUOUS
 10
46.442503
 20
-52.029987
 11
46.442503
 21
-52.129987
  0
LINE
  8
ボルト／ビス
  6
CONTINUOUS
 10
46.442503
 20
-52.029987
 11
47.042503
 21
-52.029987
  0
LINE
  8
ボルト／ビス
  6
CONTINUOUS
 10
47.042503
 20
-52.029987
 11
47.042503
 21
-52.129987
  0
ENDBLK
  0
BLOCK
  2
*GRP_0044
 70
    65
 10
0.0
 20
0.0
  0
LINE
  8
ボルト／ビス
  6
CONTINUOUS
 10
93.742503
 20
-52.279987
 11
93.742503
 21
-51.579987
  0
LINE
  8
ボルト／ビス
  6
CONTINUOUS
 10
93.192503
 20
-52.279987
 11
93.192503
 21
-52.179987
  0
LINE
  8
ボルト／ビス
  6
CONTINUOUS
 10
93.192503
 20
-52.179987
 11
94.292503
 21
-52.179987
  0
LINE
  8
ボルト／ビス
  6
CONTINUOUS
 10
94.292503
 20
-52.179987
 11
94.292503
 21
-52.279987
  0
LINE
  8
ボルト／ビス
  6
CONTINUOUS
 10
93.192503
 20
-52.279987
 11
94.292503
 21
-52.279987
  0
LINE
  8
ボルト／ビス
  6
CONTINUOUS
 10
93.292503
 20
-52.129987
 11
93.292503
 21
-52.179987
  0
LINE
  8
ボルト／ビス
  6
CONTINUOUS
 10
93.292503
 20
-52.129987
 11
94.192503
 21
-52.129987
  0
LINE
  8
ボルト／ビス
  6
CONTINUOUS
 10
94.192503
 20
-52.129987
 11
94.192503
 21
-52.179987
  0
LINE
  8
ボルト／ビス
  6
CONTINUOUS
 62
    64
 10
93.50194
 20
-51.829987
 11
93.453828
 21
-51.8475
  0
ARC
  8
ボルト／ビス
  6
CONTINUOUS
 62
    64
 10
93.525994
 20
-51.987459
 40
0.157468
 50
62.721967
 51
90.0
  0
ARC
  8
ボルト／ビス
  6
CONTINUOUS
 62
    64
 10
93.742501
 20
-52.433595
 40
0.603603
 50
76.165002
 51
103.834985
  0
LINE
  8
ボルト／ビス
  6
CONTINUOUS
 62
    64
 10
93.983065
 20
-51.829987
 11
94.031178
 21
-51.8475
  0
ARC
  8
ボルト／ビス
  6
CONTINUOUS
 62
    64
 10
93.959007
 20
-51.987459
 40
0.157468
 50
90.0
 51
117.278033
  0
LINE
  8
ボルト／ビス
  6
CONTINUOUS
 62
    64
 10
93.50194
 20
-51.829987
 11
93.983065
 21
-51.829987
  0
LINE
  8
ボルト／ビス
  6
CONTINUOUS
 62
    64
 10
94.031178
 20
-51.8475
 11
94.031178
 21
-52.029987
  0
LINE
  8
ボルト／ビス
  6
CONTINUOUS
 62
    64
 10
93.88684
 20
-51.8475
 11
93.88684
 21
-52.029987
  0
LINE
  8
ボルト／ビス
  6
CONTINUOUS
 62
    64
 10
93.453828
 20
-51.8475
 11
93.453828
 21
-52.029987
  0
LINE
  8
ボルト／ビス
  6
CONTINUOUS
 62
    64
 10
93.598165
 20
-51.8475
 11
93.598165
 21
-52.029987
  0
LINE
  8
ボルト／ビス
  6
CONTINUOUS
 10
93.453828
 20
-52.029987
 11
94.031178
 21
-52.029987
  0
LINE
  8
ボルト／ビス
  6
CONTINUOUS
 10
93.442503
 20
-52.029987
 11
93.442503
 21
-52.129987
  0
LINE
  8
ボルト／ビス
  6
CONTINUOUS
 10
93.442503
 20
-52.029987
 11
94.042503
 21
-52.029987
  0
LINE
  8
ボルト／ビス
  6
CONTINUOUS
 10
94.042503
 20
-52.029987
 11
94.042503
 21
-52.129987
  0
ENDBLK
  0
BLOCK
  2
*GRP_0045
 70
    65
 10
0.0
 20
0.0
  0
LINE
  8
型材断面
  6
DOT
 10
70.242503
 20
-42.855165
 11
45.70228
 21
-42.855165
  0
LINE
  8
型材断面
  6
DOT
 10
70.242503
 20
-44.580165
 11
43.597502
 21
-44.580165
  0
LINE
  8
型材断面
  6
DOT
 10
70.242503
 20
-46.330165
 11
43.597502
 21
-46.330165
  0
LINE
  8
型材断面
  6
DOT
 10
70.242503
 20
-42.855165
 11
94.782725
 21
-42.855165
  0
LINE
  8
型材断面
  6
DOT
 10
70.242503
 20
-44.580165
 11
96.887502
 21
-44.580165
  0
LINE
  8
型材断面
  6
DOT
 10
70.242503
 20
-46.330165
 11
96.887502
 21
-46.330165
  0
LINE
  8
別途部材
  6
DOT
 62
    96
 10
45.242503
 20
-41.279985
 11
44.642503
 21
-42.779985
  0
LINE
  8
別途部材
  6
DOT
 62
    96
 10
45.242503
 20
-41.279985
 11
70.242503
 21
-41.279985
  0
LINE
  8
別途部材
  6
DOT
 10
44.642503
 20
-42.779985
 11
70.242503
 21
-42.779985
  0
LINE
  8
別途部材
  6
DOT
 62
    96
 10
95.242503
 20
-41.279985
 11
95.842503
 21
-42.779985
  0
LINE
  8
別途部材
  6
DOT
 62
    96
 10
95.242503
 20
-41.279985
 11
70.242503
 21
-41.279985
  0
LINE
  8
別途部材
  6
DOT
 10
95.842503
 20
-42.779985
 11
70.242503
 21
-42.779985
  0
ARC
  8
別途部材
  6
DOT
 10
70.242503
 20
-55.279986
 40
26.5
 50
31.890792
 51
148.109208
  0
INSERT
  2
*GRP_0046
  8
別途部材
  6
DOT
 10
0.0
 20
0.0
  0
INSERT
  2
*GRP_0047
  8
別途部材
  6
DOT
 10
0.0
 20
0.0
  0
LINE
  8
鉄骨等
  6
DOT
 62
    47
 10
43.597502
 20
-46.330165
 11
43.597502
 21
-44.580165
  0
LINE
  8
鉄骨等
  6
DOT
 62
    47
 10
43.597502
 20
-44.580165
 11
45.70228
 21
-42.855165
  0
LINE
  8
鉄骨等
  6
DOT
 62
    47
 10
45.70228
 20
-42.855165
 11
45.70228
 21
-42.779985
  0
LINE
  8
鉄骨等
  6
DOT
 62
    47
 10
96.887502
 20
-46.330165
 11
96.887502
 21
-44.580165
  0
LINE
  8
鉄骨等
  6
DOT
 62
    47
 10
96.887502
 20
-44.580165
 11
94.782725
 21
-42.855165
  0
LINE
  8
鉄骨等
  6
DOT
 62
    47
 10
94.782725
 20
-42.855165
 11
94.782725
 21
-42.779985
  0
ENDBLK
  0
BLOCK
  2
*GRP_0046
 70
    65
 10
0.0
 20
0.0
  0
LINE
  8
ボルト／ビス
  6
DOT
 10
46.742503
 20
-41.279987
 11
46.742503
 21
-40.579987
  0
LINE
  8
ボルト／ビス
  6
DOT
 10
46.192503
 20
-41.279987
 11
46.192503
 21
-41.179987
  0
LINE
  8
ボルト／ビス
  6
DOT
 10
46.192503
 20
-41.179987
 11
47.292503
 21
-41.179987
  0
LINE
  8
ボルト／ビス
  6
DOT
 10
47.292503
 20
-41.179987
 11
47.292503
 21
-41.279987
  0
LINE
  8
ボルト／ビス
  6
DOT
 10
46.192503
 20
-41.279987
 11
47.292503
 21
-41.279987
  0
LINE
  8
ボルト／ビス
  6
DOT
 10
46.292503
 20
-41.129987
 11
46.292503
 21
-41.179987
  0
LINE
  8
ボルト／ビス
  6
DOT
 10
46.292503
 20
-41.129987
 11
47.192503
 21
-41.129987
  0
LINE
  8
ボルト／ビス
  6
DOT
 10
47.192503
 20
-41.129987
 11
47.192503
 21
-41.179987
  0
LINE
  8
ボルト／ビス
  6
DOT
 62
    64
 10
46.50194
 20
-40.829987
 11
46.453828
 21
-40.8475
  0
ARC
  8
ボルト／ビス
  6
DOT
 62
    64
 10
46.525995
 20
-40.987459
 40
0.157468
 50
62.721967
 51
90.0
  0
ARC
  8
ボルト／ビス
  6
DOT
 62
    64
 10
46.742501
 20
-41.433595
 40
0.603603
 50
76.165002
 51
103.834985
  0
LINE
  8
ボルト／ビス
  6
DOT
 62
    64
 10
46.983065
 20
-40.829987
 11
47.031178
 21
-40.8475
  0
ARC
  8
ボルト／ビス
  6
DOT
 62
    64
 10
46.959007
 20
-40.987459
 40
0.157468
 50
90.0
 51
117.278033
  0
LINE
  8
ボルト／ビス
  6
DOT
 62
    64
 10
46.50194
 20
-40.829987
 11
46.983065
 21
-40.829987
  0
LINE
  8
ボルト／ビス
  6
DOT
 62
    64
 10
47.031178
 20
-40.8475
 11
47.031178
 21
-41.029987
  0
LINE
  8
ボルト／ビス
  6
DOT
 62
    64
 10
46.88684
 20
-40.8475
 11
46.88684
 21
-41.029987
  0
LINE
  8
ボルト／ビス
  6
DOT
 62
    64
 10
46.453828
 20
-40.8475
 11
46.453828
 21
-41.029987
  0
LINE
  8
ボルト／ビス
  6
DOT
 62
    64
 10
46.598165
 20
-40.8475
 11
46.598165
 21
-41.029987
  0
LINE
  8
ボルト／ビス
  6
DOT
 10
46.453828
 20
-41.029987
 11
47.031178
 21
-41.029987
  0
LINE
  8
ボルト／ビス
  6
DOT
 10
46.442503
 20
-41.029987
 11
46.442503
 21
-41.129987
  0
LINE
  8
ボルト／ビス
  6
DOT
 10
46.442503
 20
-41.029987
 11
47.042503
 21
-41.029987
  0
LINE
  8
ボルト／ビス
  6
DOT
 10
47.042503
 20
-41.029987
 11
47.042503
 21
-41.129987
  0
ENDBLK
  0
BLOCK
  2
*GRP_0047
 70
    65
 10
0.0
 20
0.0
  0
LINE
  8
ボルト／ビス
  6
DOT
 10
93.742503
 20
-41.279987
 11
93.742503
 21
-40.579987
  0
LINE
  8
ボルト／ビス
  6
DOT
 10
93.192503
 20
-41.279987
 11
93.192503
 21
-41.179987
  0
LINE
  8
ボルト／ビス
  6
DOT
 10
93.192503
 20
-41.179987
 11
94.292503
 21
-41.179987
  0
LINE
  8
ボルト／ビス
  6
DOT
 10
94.292503
 20
-41.179987
 11
94.292503
 21
-41.279987
  0
LINE
  8
ボルト／ビス
  6
DOT
 10
93.192503
 20
-41.279987
 11
94.292503
 21
-41.279987
  0
LINE
  8
ボルト／ビス
  6
DOT
 10
93.292503
 20
-41.129987
 11
93.292503
 21
-41.179987
  0
LINE
  8
ボルト／ビス
  6
DOT
 10
93.292503
 20
-41.129987
 11
94.192503
 21
-41.129987
  0
LINE
  8
ボルト／ビス
  6
DOT
 10
94.192503
 20
-41.129987
 11
94.192503
 21
-41.179987
  0
LINE
  8
ボルト／ビス
  6
DOT
 62
    64
 10
93.50194
 20
-40.829987
 11
93.453828
 21
-40.8475
  0
ARC
  8
ボルト／ビス
  6
DOT
 62
    64
 10
93.525994
 20
-40.98746
 40
0.157468
 50
62.721967
 51
90.0
  0
ARC
  8
ボルト／ビス
  6
DOT
 62
    64
 10
93.742501
 20
-41.433596
 40
0.603603
 50
76.165002
 51
103.834985
  0
LINE
  8
ボルト／ビス
  6
DOT
 62
    64
 10
93.983065
 20
-40.829987
 11
94.031178
 21
-40.8475
  0
ARC
  8
ボルト／ビス
  6
DOT
 62
    64
 10
93.959007
 20
-40.98746
 40
0.157468
 50
90.0
 51
117.278033
  0
LINE
  8
ボルト／ビス
  6
DOT
 62
    64
 10
93.50194
 20
-40.829987
 11
93.983065
 21
-40.829987
  0
LINE
  8
ボルト／ビス
  6
DOT
 62
    64
 10
94.031178
 20
-40.8475
 11
94.031178
 21
-41.029987
  0
LINE
  8
ボルト／ビス
  6
DOT
 62
    64
 10
93.88684
 20
-40.8475
 11
93.88684
 21
-41.029987
  0
LINE
  8
ボルト／ビス
  6
DOT
 62
    64
 10
93.453828
 20
-40.8475
 11
93.453828
 21
-41.029987
  0
LINE
  8
ボルト／ビス
  6
DOT
 62
    64
 10
93.598165
 20
-40.8475
 11
93.598165
 21
-41.029987
  0
LINE
  8
ボルト／ビス
  6
DOT
 10
93.453828
 20
-41.029987
 11
94.031178
 21
-41.029987
  0
LINE
  8
ボルト／ビス
  6
DOT
 10
93.442503
 20
-41.029987
 11
93.442503
 21
-41.129987
  0
LINE
  8
ボルト／ビス
  6
DOT
 10
93.442503
 20
-41.029987
 11
94.042503
 21
-41.029987
  0
LINE
  8
ボルト／ビス
  6
DOT
 10
94.042503
 20
-41.029987
 11
94.042503
 21
-41.129987
  0
ENDBLK
  0
BLOCK
  2
*DIM_0048
 70
    65
 10
0.0
 20
0.0
  0
LINE
  8
寸法
  6
CONTINUOUS
 10
-39.935405
 20
-52.279985
 11
-25.043632
 21
-52.279985
  0
LINE
  8
寸法
  6
CONTINUOUS
 10
-38.290402
 20
-63.529993
 11
-25.043632
 21
-63.529993
  0
LINE
  8
寸法
  6
CONTINUOUS
 10
-25.043632
 20
-52.279985
 11
-25.043632
 21
-63.529993
  0
POINT
  8
寸法
 10
-25.043632
 20
-52.279985
  0
POINT
  8
寸法
 10
-25.043632
 20
-63.529993
  0
TEXT
  7
TextStyle03
  8
寸法
  6
CONTINUOUS
 10
-25.425
 20
-60.3625
  1
225
 40
3.0
 50
90.0
 72
     5
 11
-25.425
 21
-55.4875
  0
ENDBLK
  0
BLOCK
  2
*DIM_0049
 70
    65
 10
0.0
 20
0.0
  0
LINE
  8
寸法
  6
BYBLOCK
 62
     0
 10
99.632343
 20
-57.330165
 11
107.13218
 21
-57.330165
  0
LINE
  8
寸法
  6
BYBLOCK
 62
     0
 10
99.632343
 20
-46.330165
 11
107.13218
 21
-46.330165
  0
LINE
  8
寸法
  6
BYBLOCK
 62
     0
 10
107.13218
 20
-57.330165
 11
107.13218
 21
-46.330165
  0
POINT
  8
寸法
 62
     0
 10
107.13218
 20
-57.330165
  0
POINT
  8
寸法
 62
     0
 10
107.13218
 20
-46.330165
  0
TEXT
  7
TextStyle03
  8
寸法
  6
CONTINUOUS
 62
     0
 10
111.225
 20
-61.2125
  1
上昇高さ220
 40
3.0
 50
90.0
 72
     5
 11
111.225
 21
-42.8375
  0
ENDBLK
  0
ENDSEC
  0
SECTION
  2
ENTITIES
  0
POLYLINE
  8
通り芯
  6
CONTINUOUS
 66
     1
 70
     1
  0
VERTEX
  8
通り芯
 10
-210.0
 20
-148.5
  0
VERTEX
  8
通り芯
 10
210.0
 20
-148.5
  0
VERTEX
  8
通り芯
 10
210.0
 20
148.5
  0
VERTEX
  8
通り芯
 10
-210.0
 20
148.5
  0
SEQEND
  0
INSERT
  2
*GRP_0001
  8
型材断面
  6
CONTINUOUS
 10
0.0
 20
0.0
  0
LINE
  8
型材断面
  6
DASHDOT
 10
-69.935405
 20
-67.794
 11
-69.935405
 21
56.66027
  0
LINE
  8
型材断面
  6
DASHDOT
 10
-92.435405
 20
-67.794
 11
-92.435405
 21
56.66027
  0
LINE
  8
型材断面
  6
DASHDOT
 10
-47.435405
 20
-67.794
 11
-47.435405
 21
56.66027
  0
LINE
  8
型材断面
  6
DASHDOT
 10
-92.435405
 20
56.66027
 11
-47.435405
 21
56.66027
  0
LINE
  8
型材断面
  6
DASHDOT
 10
-92.435405
 20
34.16027
 11
-47.435405
 21
34.16027
  0
LINE
  8
型材断面
  6
DASHDOT
 10
-92.435405
 20
11.66027
 11
-47.435405
 21
11.66027
  0
LINE
  8
型材断面
  6
CONTINUOUS
 10
-100.45928
 20
17.210268
 11
-104.34504
 21
18.104352
  0
LINE
  8
型材断面
  6
CONTINUOUS
 10
-100.45928
 20
17.210268
 11
-104.34504
 21
16.316182
  0
LINE
  8
型材断面
  6
CONTINUOUS
 10
-104.34504
 20
16.316182
 11
-104.34504
 21
18.104352
  0
LINE
  8
型材断面
  6
DOT
 10
-51.53765
 20
56.66027
 11
-51.53765
 21
11.66027
  0
LINE
  8
型材断面
  6
DOT
 10
-49.53765
 20
56.66027
 11
-49.53765
 21
11.66027
  0
LINE
  8
型材断面
  6
CONTINUOUS
 10
-100.45928
 20
51.110273
 11
-104.34504
 21
50.216187
  0
LINE
  8
型材断面
  6
CONTINUOUS
 10
-100.45928
 20
51.110273
 11
-104.34504
 21
52.004357
  0
LINE
  8
型材断面
  6
CONTINUOUS
 10
-104.34504
 20
52.004357
 11
-104.34504
 21
50.216187
  0
LINE
  8
型材断面
  6
CONTINUOUS
 10
-39.41153
 20
17.210268
 11
-35.52577
 21
18.104352
  0
LINE
  8
型材断面
  6
CONTINUOUS
 10
-39.41153
 20
17.210268
 11
-35.52577
 21
16.316182
  0
LINE
  8
型材断面
  6
CONTINUOUS
 10
-35.52577
 20
16.316182
 11
-35.52577
 21
18.104352
  0
LINE
  8
型材断面
  6
CONTINUOUS
 10
-39.41153
 20
51.110273
 11
-35.52577
 21
50.216187
  0
LINE
  8
型材断面
  6
CONTINUOUS
 10
-39.41153
 20
51.110273
 11
-35.52577
 21
52.004357
  0
LINE
  8
型材断面
  6
CONTINUOUS
 10
-35.52577
 20
52.004357
 11
-35.52577
 21
50.216187
  0
LINE
  8
型材断面
  6
CONTINUOUS
 10
-69.935405
 20
64.684145
 11
-72.17885
 21
68.569905
  0
LINE
  8
型材断面
  6
CONTINUOUS
 10
-69.935405
 20
64.684145
 11
-67.69196
 21
68.569905
  0
LINE
  8
型材断面
  6
CONTINUOUS
 10
-67.69196
 20
68.569905
 11
-72.17885
 21
68.569905
  0
LINE
  8
型材断面
  6
CONTINUOUS
 10
-69.935405
 20
3.636395
 11
-72.17885
 21
-0.249365
  0
LINE
  8
型材断面
  6
CONTINUOUS
 10
-69.935405
 20
3.636395
 11
-67.69196
 21
-0.249365
  0
LINE
  8
型材断面
  6
CONTINUOUS
 10
-67.69196
 20
-0.249365
 11
-72.17885
 21
-0.249365
  0
LINE
  8
型材断面
  6
CONTINUOUS
 10
-39.41153
 20
34.16027
 11
-35.52577
 21
36.403715
  0
LINE
  8
型材断面
  6
CONTINUOUS
 10
-39.41153
 20
34.16027
 11
-35.52577
 21
31.916825
  0
LINE
  8
型材断面
  6
CONTINUOUS
 10
-35.52577
 20
31.916825
 11
-35.52577
 21
36.403715
  0
LINE
  8
型材断面
  6
CONTINUOUS
 10
-100.45928
 20
34.16027
 11
-104.34504
 21
36.403715
  0
LINE
  8
型材断面
  6
CONTINUOUS
 10
-100.45928
 20
34.16027
 11
-104.34504
 21
31.916825
  0
LINE
  8
型材断面
  6
CONTINUOUS
 10
-104.34504
 20
31.916825
 11
-104.34504
 21
36.403715
  0
LINE
  8
型材断面
  6
CONTINUOUS
 10
-7.342083
 20
5.196457
 11
-9.585527
 21
1.310698
  0
LINE
  8
型材断面
  6
CONTINUOUS
 10
-7.342083
 20
5.196457
 11
-5.098638
 21
1.310698
  0
LINE
  8
型材断面
  6
CONTINUOUS
 10
-5.098638
 20
1.310698
 11
-9.585527
 21
1.310698
  0
LINE
  8
型材断面
  6
CONTINUOUS
 10
-7.342083
 20
-2.49309
 11
-6.447998
 21
-6.37885
  0
LINE
  8
型材断面
  6
CONTINUOUS
 10
-7.342083
 20
-2.49309
 11
-8.236168
 21
-6.37885
  0
LINE
  8
型材断面
  6
CONTINUOUS
 10
-8.236168
 20
-6.37885
 11
-6.447998
 21
-6.37885
  0
LINE
  8
型材断面
  6
CONTINUOUS
 10
-16.375962
 20
-0.097195
 11
36.280717
 21
-0.097195
  0
LINE
  8
型材断面
  6
CONTINUOUS
 10
-16.375962
 20
-11.297188
 11
36.280717
 21
-11.297188
  0
LINE
  8
型材断面
  6
CONTINUOUS
 10
-16.375962
 20
-18.137133
 11
36.280717
 21
-18.137133
  0
INSERT
  2
*GRP_0034
  8
型材断面
  6
CONTINUOUS
 10
0.0
 20
0.0
  0
INSERT
  2
*GRP_0035
  8
型材断面
  6
CONTINUOUS
 10
0.0
 20
0.0
  0
POLYLINE
  8
型材断面
  6
CONTINUOUS
 66
     1
 70
     1
  0
VERTEX
  8
型材断面
 10
-60.841143
 20
-1.541482
  0
VERTEX
  8
型材断面
 10
-79.396355
 20
-1.541482
  0
VERTEX
  8
型材断面
 10
-79.396355
 20
-6.333518
  0
VERTEX
  8
型材断面
 10
-60.841143
 20
-6.333518
  0
SEQEND
  0
POLYLINE
  8
型材断面
  6
CONTINUOUS
 66
     1
 70
     1
  0
VERTEX
  8
型材断面
 10
-60.841143
 20
74.239768
  0
VERTEX
  8
型材断面
 10
-79.396355
 20
74.239768
  0
VERTEX
  8
型材断面
 10
-79.396355
 20
69.447732
  0
VERTEX
  8
型材断面
 10
-60.841143
 20
69.447732
  0
SEQEND
  0
LINE
  8
型材断面
  6
CONTINUOUS
 10
-16.375962
 20
-24.977077
 11
36.280717
 21
-24.977077
  0
LINE
  8
型材断面
  6
CONTINUOUS
 10
-69.935405
 20
-53.855167
 11
-94.475627
 21
-53.855167
  0
LINE
  8
型材断面
  6
CONTINUOUS
 10
-69.935405
 20
-55.580167
 11
-96.580405
 21
-55.580167
  0
LINE
  8
型材断面
  6
CONTINUOUS
 10
-69.935405
 20
-57.330167
 11
-96.580405
 21
-57.330167
  0
LINE
  8
型材断面
  6
CONTINUOUS
 10
-69.935405
 20
-53.855167
 11
-45.395183
 21
-53.855167
  0
LINE
  8
型材断面
  6
CONTINUOUS
 10
-69.935405
 20
-55.580167
 11
-43.290405
 21
-55.580167
  0
LINE
  8
型材断面
  6
CONTINUOUS
 10
-69.935405
 20
-57.330167
 11
-43.290405
 21
-57.330167
  0
LINE
  8
型材断面
  6
CONTINUOUS
 10
-95.535405
 20
59.76027
 11
-96.580405
 21
60.80527
  0
LINE
  8
型材断面
  6
CONTINUOUS
 10
-96.580405
 20
60.80527
 11
-43.290405
 21
60.80527
  0
LINE
  8
型材断面
  6
CONTINUOUS
 10
-44.335405
 20
59.76027
 11
-43.290405
 21
60.80527
  0
LINE
  8
型材断面
  6
CONTINUOUS
 10
-43.290405
 20
60.80527
 11
-43.290405
 21
7.51527
  0
LINE
  8
型材断面
  6
CONTINUOUS
 10
-44.335405
 20
8.56027
 11
-43.290405
 21
7.51527
  0
LINE
  8
型材断面
  6
CONTINUOUS
 10
-43.290405
 20
7.51527
 11
-96.580405
 21
7.51527
  0
LINE
  8
型材断面
  6
CONTINUOUS
 10
-96.580405
 20
60.80527
 11
-96.580405
 21
7.51527
  0
LINE
  8
型材断面
  6
CONTINUOUS
 10
-95.535405
 20
8.56027
 11
-96.580405
 21
7.51527
  0
LINE
  8
型材断面
  6
CONTINUOUS
 10
70.242503
 20
-53.855165
 11
45.70228
 21
-53.855165
  0
LINE
  8
型材断面
  6
CONTINUOUS
 10
70.242503
 20
-55.580165
 11
43.597502
 21
-55.580165
  0
LINE
  8
型材断面
  6
CONTINUOUS
 10
70.242503
 20
-57.330165
 11
43.597502
 21
-57.330165
  0
LINE
  8
型材断面
  6
CONTINUOUS
 10
70.242503
 20
-53.855165
 11
94.782725
 21
-53.855165
  0
LINE
  8
型材断面
  6
CONTINUOUS
 10
70.242503
 20
-55.580165
 11
96.887502
 21
-55.580165
  0
LINE
  8
型材断面
  6
CONTINUOUS
 10
70.242503
 20
-57.330165
 11
96.887502
 21
-57.330165
  0
LINE
  8
型材断面
  6
CONTINUOUS
 10
-95.830408
 20
-63.529993
 11
-95.830408
 21
-64.03499
  0
LINE
  8
型材断面
  6
CONTINUOUS
 10
-96.580408
 20
-63.529993
 11
-95.830408
 21
-63.529993
  0
LINE
  8
型材断面
  6
CONTINUOUS
 10
-96.580405
 20
-57.68017
 11
-96.28547
 21
-57.385235
  0
LINE
  8
型材断面
  6
CONTINUOUS
 10
-96.580405
 20
-57.68017
 11
-96.580408
 21
-63.529993
  0
LINE
  8
型材断面
  6
CONTINUOUS
 10
-96.580408
 20
-63.529993
 11
-69.935405
 21
-63.529993
  0
LINE
  8
型材断面
  6
CONTINUOUS
 10
-95.830408
 20
-64.03499
 11
-69.935405
 21
-64.03499
  0
LINE
  8
型材断面
  6
CONTINUOUS
 10
-96.580405
 20
-57.68017
 11
-69.935405
 21
-57.68017
  0
LINE
  8
型材断面
  6
CONTINUOUS
 62
    47
 10
-96.28547
 20
-57.385235
 11
-69.935405
 21
-57.385235
  0
LINE
  8
型材断面
  6
CONTINUOUS
 10
-44.040402
 20
-63.529993
 11
-44.040402
 21
-64.03499
  0
LINE
  8
型材断面
  6
CONTINUOUS
 10
-43.290402
 20
-63.529993
 11
-44.040402
 21
-63.529993
  0
LINE
  8
型材断面
  6
CONTINUOUS
 10
-43.290405
 20
-57.68017
 11
-43.58534
 21
-57.385235
  0
LINE
  8
型材断面
  6
CONTINUOUS
 10
-43.290405
 20
-57.68017
 11
-43.290402
 21
-63.529993
  0
LINE
  8
型材断面
  6
CONTINUOUS
 10
-43.290402
 20
-63.529993
 11
-69.935405
 21
-63.529993
  0
LINE
  8
型材断面
  6
CONTINUOUS
 10
-44.040402
 20
-64.03499
 11
-69.935405
 21
-64.03499
  0
LINE
  8
型材断面
  6
CONTINUOUS
 10
-43.290405
 20
-57.68017
 11
-69.935405
 21
-57.68017
  0
LINE
  8
型材断面
  6
CONTINUOUS
 62
    47
 10
-43.58534
 20
-57.385235
 11
-69.935405
 21
-57.385235
  0
LINE
  8
型材断面
  6
CONTINUOUS
 10
44.3475
 20
-63.52999
 11
44.3475
 21
-64.034987
  0
LINE
  8
型材断面
  6
CONTINUOUS
 10
43.5975
 20
-63.52999
 11
44.3475
 21
-63.52999
  0
LINE
  8
型材断面
  6
CONTINUOUS
 10
43.597502
 20
-57.680167
 11
43.892438
 21
-57.385232
  0
LINE
  8
型材断面
  6
CONTINUOUS
 10
43.597502
 20
-57.680167
 11
43.5975
 21
-63.52999
  0
LINE
  8
型材断面
  6
CONTINUOUS
 10
43.5975
 20
-63.52999
 11
70.242503
 21
-63.52999
  0
LINE
  8
型材断面
  6
CONTINUOUS
 10
44.3475
 20
-64.034987
 11
70.242503
 21
-64.034987
  0
LINE
  8
型材断面
  6
CONTINUOUS
 10
43.597502
 20
-57.680167
 11
70.242503
 21
-57.680167
  0
LINE
  8
型材断面
  6
CONTINUOUS
 62
    47
 10
43.892438
 20
-57.385232
 11
70.242503
 21
-57.385232
  0
LINE
  8
型材断面
  6
CONTINUOUS
 10
96.137505
 20
-63.52999
 11
96.137505
 21
-64.034987
  0
LINE
  8
型材断面
  6
CONTINUOUS
 10
96.887505
 20
-63.52999
 11
96.137505
 21
-63.52999
  0
LINE
  8
型材断面
  6
CONTINUOUS
 10
96.887502
 20
-57.680167
 11
96.592568
 21
-57.385232
  0
LINE
  8
型材断面
  6
CONTINUOUS
 10
96.887502
 20
-57.680167
 11
96.887505
 21
-63.52999
  0
LINE
  8
型材断面
  6
CONTINUOUS
 10
96.887505
 20
-63.52999
 11
70.242503
 21
-63.52999
  0
LINE
  8
型材断面
  6
CONTINUOUS
 10
96.137505
 20
-64.034987
 11
70.242503
 21
-64.034987
  0
LINE
  8
型材断面
  6
CONTINUOUS
 10
96.887502
 20
-57.680167
 11
70.242503
 21
-57.680167
  0
LINE
  8
型材断面
  6
CONTINUOUS
 62
    47
 10
96.592568
 20
-57.385232
 11
70.242503
 21
-57.385232
  0
CIRCLE
  8
ボルト／ビス
  6
CONTINUOUS
 10
-84.935405
 20
10.66027
 40
0.288675
  0
CIRCLE
  8
ボルト／ビス
  6
CONTINUOUS
 10
-84.935405
 20
10.66027
 40
0.455885
  0
CIRCLE
  8
ボルト／ビス
  6
CONTINUOUS
 10
-69.935405
 20
10.66027
 40
0.288675
  0
CIRCLE
  8
ボルト／ビス
  6
CONTINUOUS
 10
-69.935405
 20
10.66027
 40
0.455885
  0
CIRCLE
  8
ボルト／ビス
  6
CONTINUOUS
 10
-93.435405
 20
19.16027
 40
0.288675
  0
CIRCLE
  8
ボルト／ビス
  6
CONTINUOUS
 10
-93.435405
 20
19.16027
 40
0.455885
  0
CIRCLE
  8
ボルト／ビス
  6
CONTINUOUS
 10
-93.435405
 20
34.16027
 40
0.288675
  0
CIRCLE
  8
ボルト／ビス
  6
CONTINUOUS
 10
-93.435405
 20
34.16027
 40
0.455885
  0
CIRCLE
  8
ボルト／ビス
  6
CONTINUOUS
 10
-54.935405
 20
10.66027
 40
0.288675
  0
CIRCLE
  8
ボルト／ビス
  6
CONTINUOUS
 10
-54.935405
 20
10.66027
 40
0.455885
  0
CIRCLE
  8
ボルト／ビス
  6
CONTINUOUS
 10
-46.435405
 20
19.16027
 40
0.288675
  0
CIRCLE
  8
ボルト／ビス
  6
CONTINUOUS
 10
-46.435405
 20
19.16027
 40
0.455885
  0
CIRCLE
  8
ボルト／ビス
  6
CONTINUOUS
 10
-46.435405
 20
34.16027
 40
0.288675
  0
CIRCLE
  8
ボルト／ビス
  6
CONTINUOUS
 10
-46.435405
 20
34.16027
 40
0.455885
  0
CIRCLE
  8
ボルト／ビス
  6
CONTINUOUS
 10
-84.935405
 20
57.66027
 40
0.288675
  0
CIRCLE
  8
ボルト／ビス
  6
CONTINUOUS
 10
-84.935405
 20
57.66027
 40
0.455885
  0
CIRCLE
  8
ボルト／ビス
  6
CONTINUOUS
 10
-69.935405
 20
57.66027
 40
0.288675
  0
CIRCLE
  8
ボルト／ビス
  6
CONTINUOUS
 10
-69.935405
 20
57.66027
 40
0.455885
  0
CIRCLE
  8
ボルト／ビス
  6
CONTINUOUS
 10
-93.435405
 20
49.16027
 40
0.288675
  0
CIRCLE
  8
ボルト／ビス
  6
CONTINUOUS
 10
-93.435405
 20
49.16027
 40
0.455885
  0
CIRCLE
  8
ボルト／ビス
  6
CONTINUOUS
 10
-54.935405
 20
57.66027
 40
0.288675
  0
CIRCLE
  8
ボルト／ビス
  6
CONTINUOUS
 10
-54.935405
 20
57.66027
 40
0.455885
  0
CIRCLE
  8
ボルト／ビス
  6
CONTINUOUS
 10
-46.435405
 20
49.16027
 40
0.288675
  0
CIRCLE
  8
ボルト／ビス
  6
CONTINUOUS
 10
-46.435405
 20
49.16027
 40
0.455885
  0
INSERT
  2
*GRP_0002
  8
文字
  6
CONTINUOUS
 10
0.0
 20
0.0
  0
INSERT
  2
*GRP_0003
  8
文字
  6
CONTINUOUS
 10
0.0
 20
0.0
  0
INSERT
  2
*GRP_0004
  8
文字
  6
CONTINUOUS
 10
0.0
 20
0.0
  0
INSERT
  2
*GRP_0005
  8
文字
  6
CONTINUOUS
 10
0.0
 20
0.0
  0
INSERT
  2
*GRP_0006
  8
文字
  6
CONTINUOUS
 10
0.0
 20
0.0
  0
INSERT
  2
*GRP_0007
  8
文字
  6
CONTINUOUS
 10
0.0
 20
0.0
  0
INSERT
  2
*GRP_0008
  8
文字
  6
CONTINUOUS
 10
0.0
 20
0.0
  0
INSERT
  2
*GRP_0009
  8
文字
  6
CONTINUOUS
 10
0.0
 20
0.0
  0
INSERT
  2
*GRP_0010
  8
文字
  6
CONTINUOUS
 10
0.0
 20
0.0
  0
INSERT
  2
*GRP_0011
  8
文字
  6
CONTINUOUS
 10
0.0
 20
0.0
  0
INSERT
  2
*GRP_0012
  8
文字
  6
CONTINUOUS
 10
0.0
 20
0.0
  0
INSERT
  2
*GRP_0013
  8
文字
  6
CONTINUOUS
 10
0.0
 20
0.0
  0
TEXT
  7
TextStyle03
  8
文字
  6
CONTINUOUS
 10
-22.275
 20
19.025
  1
ﾊﾞﾗﾝｽｽﾃｰ
 40
3.0
 72
     5
 11
-8.9625
 21
19.025
  0
TEXT
  7
TextStyle03
  8
文字
  6
CONTINUOUS
 10
-98.85
 20
79.85
  1
アンカーピッチ
 40
3.0
 72
     5
 11
-75.6
 21
79.85
  0
TEXT
  7
TextStyle03
  8
文字
  6
CONTINUOUS
 10
-122.5
 20
1.75
  1
アンカーピッチ
 40
3.0
 50
90.0
 72
     5
 11
-122.5
 21
25.0
  0
TEXT
  7
TextStyle03
  8
文字
  6
CONTINUOUS
 10
-3.075
 20
1.625
  1
は排水穴位置を示す
 40
3.0
 72
     5
 11
26.925
 21
1.625
  0
TEXT
  7
TextStyle03
  8
文字
  6
CONTINUOUS
 10
-3.075
 20
-6.225
  1
はケーシング位置を示す
 40
3.0
 72
     5
 11
33.675
 21
-6.225
  0
TEXT
  7
TextStyle03
  8
文字
  6
CONTINUOUS
 10
-3.075
 20
-9.6
  1
４ヶ所中1ヶ所に設定
 40
3.0
 72
     5
 11
28.6125
 21
-9.6
  0
TEXT
  7
TextStyle03
  8
文字
  6
CONTINUOUS
 10
-8.675
 20
-16.75
  1
アンカー数量　６ヶ所
 40
3.0
 72
     5
 11
24.7
 21
-16.75
  0
TEXT
  7
TextStyle03
  8
文字
  6
CONTINUOUS
 10
-78.425
 20
-5.35
  1
可動装置側
 40
3.0
 72
     5
 11
-61.925
 21
-5.35
  0
TEXT
  7
TextStyle03
  8
文字
  6
CONTINUOUS
 10
-78.425
 20
70.425
  1
可動装置側
 40
3.0
 72
     5
 11
-61.925
 21
70.425
  0
TEXT
  7
TextStyle03
  8
文字
  6
CONTINUOUS
 10
85.55
 20
98.025
  1
ＮＳコード：ＮＳＤ
 40
5.0
 72
     5
 11
135.55
 21
98.025
  0
TEXT
  7
TextStyle03
  8
文字
  6
CONTINUOUS
 10
-8.725
 20
-23.575
  1
アームユニット数　２ヶ所
 40
3.0
 72
     5
 11
31.4
 21
-23.575
  0
LINE
  8
文字
  6
CONTINUOUS
 10
-43.290405
 20
-16.126177
 11
-43.290405
 21
-53.759648
  0
LINE
  8
文字
  6
CONTINUOUS
 10
-96.580405
 20
-16.126177
 11
-96.580405
 21
-53.84803
  0
TEXT
  7
TextStyle03
  8
文字
  6
CONTINUOUS
 10
136.2
 20
26.0
  1
網入り6.8t
 40
3.0
 72
     5
 11
152.8875
 21
26.0
  0
TEXT
  7
TextStyle03
  8
文字
  6
CONTINUOUS
 10
142.825
 20
20.75
  1
×１枚
 40
3.0
 72
     5
 11
152.575
 21
20.75
  0
TEXT
  7
TextStyle03
  8
文字
  6
CONTINUOUS
 10
85.85
 20
118.325
  1
シリーズ：ＴＤ１
 40
5.0
 72
     5
 11
130.225
 21
118.325
  0
TEXT
  7
TextStyle03
  8
文字
  6
CONTINUOUS
 10
85.85
 20
112.7
  1
　　　　　（上下可動）900×900タイプ
 40
5.0
 72
     5
 11
186.475
 21
112.7
  0
TEXT
  7
TextStyle03
  8
文字
  6
CONTINUOUS
 10
85.85
 20
107.075
  1
図面名　：外観姿図
 40
5.0
 72
     5
 11
135.85
 21
107.075
  0
TEXT
  7
TextStyle03
  8
文字
  6
CONTINUOUS
 10
85.85
 20
101.45
  1
　　　　　　
 40
5.0
 72
     5
 11
118.975
 21
101.45
  0
INSERT
  2
*DIM_0014
  8
寸法
  6
CONTINUOUS
 10
0.0
 20
0.0
  0
INSERT
  2
*DIM_0015
  8
寸法
  6
CONTINUOUS
 10
0.0
 20
0.0
  0
INSERT
  2
*GRP_0016
  8
寸法
  6
CONTINUOUS
 10
0.0
 20
0.0
  0
INSERT
  2
*DIM_0017
  8
寸法
  6
CONTINUOUS
 10
0.0
 20
0.0
  0
INSERT
  2
*DIM_0018
  8
寸法
  6
CONTINUOUS
 10
0.0
 20
0.0
  0
INSERT
  2
*DIM_0019
  8
寸法
  6
CONTINUOUS
 10
0.0
 20
0.0
  0
INSERT
  2
*DIM_0020
  8
寸法
  6
CONTINUOUS
 10
0.0
 20
0.0
  0
INSERT
  2
*DIM_0021
  8
寸法
  6
CONTINUOUS
 10
0.0
 20
0.0
  0
CIRCLE
  8
寸法
  6
CONTINUOUS
 10
-111.453763
 20
34.16027
 40
1.73792
  0
INSERT
  2
*DIM_0036
  8
寸法
  6
CONTINUOUS
 10
0.0
 20
0.0
  0
INSERT
  2
*DIM_0037
  8
寸法
  6
CONTINUOUS
 10
0.0
 20
0.0
  0
INSERT
  2
*DIM_0039
  8
寸法
  6
CONTINUOUS
 10
0.0
 20
0.0
  0
INSERT
  2
*DIM_0040
  8
寸法
  6
CONTINUOUS
 10
0.0
 20
0.0
  0
INSERT
  2
*DIM_0048
  8
寸法
  6
CONTINUOUS
 10
0.0
 20
0.0
  0
INSERT
  2
*DIM_0049
  8
寸法
  6
CONTINUOUS
 10
0.0
 20
0.0
  0
LINE
  8
別途部材
  6
CONTINUOUS
 10
-95.535405
 20
8.56027
 11
-94.935405
 21
9.16027
  0
LINE
  8
別途部材
  6
CONTINUOUS
 10
-92.435405
 20
11.66027
 11
-80.34652
 21
23.749155
  0
LINE
  8
別途部材
  6
CONTINUOUS
 62
    96
 10
-94.935405
 20
-52.279985
 11
-95.535405
 21
-53.779985
  0
LINE
  8
別途部材
  6
CONTINUOUS
 62
    96
 10
-94.935405
 20
-52.279985
 11
-69.935405
 21
-52.279985
  0
LINE
  8
別途部材
  6
CONTINUOUS
 10
-95.535405
 20
-53.779985
 11
-69.935405
 21
-53.779985
  0
LINE
  8
別途部材
  6
CONTINUOUS
 62
    96
 10
-44.935405
 20
-52.279985
 11
-44.335405
 21
-53.779985
  0
LINE
  8
別途部材
  6
CONTINUOUS
 62
    96
 10
-44.935405
 20
-52.279985
 11
-69.935405
 21
-52.279985
  0
LINE
  8
別途部材
  6
CONTINUOUS
 10
-44.335405
 20
-53.779985
 11
-69.935405
 21
-53.779985
  0
ARC
  8
別途部材
  6
CONTINUOUS
 10
-69.935404
 20
-66.279985
 40
26.5
 50
31.890792
 51
148.109208
  0
LINE
  8
別途部材
  6
CONTINUOUS
 10
-94.935405
 20
9.16027
 11
-69.935405
 21
9.16027
  0
LINE
  8
別途部材
  6
CONTINUOUS
 10
-95.535405
 20
8.56027
 11
-69.935405
 21
8.56027
  0
LINE
  8
別途部材
  6
CONTINUOUS
 10
-95.535405
 20
8.56027
 11
-95.535405
 21
34.16027
  0
LINE
  8
別途部材
  6
CONTINUOUS
 10
-94.935405
 20
9.16027
 11
-94.935405
 21
34.16027
  0
LINE
  8
別途部材
  6
CONTINUOUS
 10
-44.335405
 20
8.56027
 11
-44.935405
 21
9.16027
  0
LINE
  8
別途部材
  6
CONTINUOUS
 10
-47.435405
 20
11.66027
 11
-59.52429
 21
23.749155
  0
LINE
  8
別途部材
  6
CONTINUOUS
 10
-44.935405
 20
9.16027
 11
-69.935405
 21
9.16027
  0
LINE
  8
別途部材
  6
CONTINUOUS
 10
-44.335405
 20
8.56027
 11
-69.935405
 21
8.56027
  0
LINE
  8
別途部材
  6
CONTINUOUS
 10
-44.335405
 20
8.56027
 11
-44.335405
 21
34.16027
  0
LINE
  8
別途部材
  6
CONTINUOUS
 10
-44.935405
 20
9.16027
 11
-44.935405
 21
34.16027
  0
LINE
  8
別途部材
  6
CONTINUOUS
 10
-95.535405
 20
59.76027
 11
-94.935405
 21
59.16027
  0
LINE
  8
別途部材
  6
CONTINUOUS
 10
-92.435405
 20
56.66027
 11
-80.34652
 21
44.571385
  0
LINE
  8
別途部材
  6
CONTINUOUS
 10
-94.935405
 20
59.16027
 11
-69.935405
 21
59.16027
  0
LINE
  8
別途部材
  6
CONTINUOUS
 10
-95.535405
 20
59.76027
 11
-69.935405
 21
59.76027
  0
LINE
  8
別途部材
  6
CONTINUOUS
 10
-95.535405
 20
59.76027
 11
-95.535405
 21
34.16027
  0
LINE
  8
別途部材
  6
CONTINUOUS
 10
-94.935405
 20
59.16027
 11
-94.935405
 21
34.16027
  0
LINE
  8
別途部材
  6
CONTINUOUS
 10
-44.335405
 20
59.76027
 11
-44.935405
 21
59.16027
  0
LINE
  8
別途部材
  6
CONTINUOUS
 10
-47.435405
 20
56.66027
 11
-59.52429
 21
44.571385
  0
LINE
  8
別途部材
  6
CONTINUOUS
 10
-44.935405
 20
59.16027
 11
-69.935405
 21
59.16027
  0
LINE
  8
別途部材
  6
CONTINUOUS
 10
-44.335405
 20
59.76027
 11
-69.935405
 21
59.76027
  0
LINE
  8
別途部材
  6
CONTINUOUS
 10
-44.335405
 20
59.76027
 11
-44.335405
 21
34.16027
  0
LINE
  8
別途部材
  6
CONTINUOUS
 10
-44.935405
 20
59.16027
 11
-44.935405
 21
34.16027
  0
LINE
  8
別途部材
  6
CONTINUOUS
 62
    96
 10
45.242503
 20
-52.279985
 11
44.642503
 21
-53.779985
  0
LINE
  8
別途部材
  6
CONTINUOUS
 62
    96
 10
45.242503
 20
-52.279985
 11
70.242503
 21
-52.279985
  0
LINE
  8
別途部材
  6
CONTINUOUS
 10
44.642503
 20
-53.779985
 11
70.242503
 21
-53.779985
  0
LINE
  8
別途部材
  6
CONTINUOUS
 62
    96
 10
95.242503
 20
-52.279985
 11
95.842503
 21
-53.779985
  0
LINE
  8
別途部材
  6
CONTINUOUS
 62
    96
 10
95.242503
 20
-52.279985
 11
70.242503
 21
-52.279985
  0
LINE
  8
別途部材
  6
CONTINUOUS
 10
95.842503
 20
-53.779985
 11
70.242503
 21
-53.779985
  0
ARC
  8
別途部材
  6
CONTINUOUS
 10
70.242503
 20
-66.279985
 40
26.5
 50
31.890792
 51
148.109208
  0
INSERT
  2
*GRP_0041
  8
別途部材
  6
DOT
 10
0.0
 20
0.0
  0
INSERT
  2
*GRP_0042
  8
別途部材
  6
DOT
 10
0.0
 20
0.0
  0
INSERT
  2
*GRP_0043
  8
別途部材
  6
DOT
 10
0.0
 20
0.0
  0
INSERT
  2
*GRP_0044
  8
別途部材
  6
DOT
 10
0.0
 20
0.0
  0
POLYLINE
  8
曲げ物
  6
CONTINUOUS
 66
     1
 70
     1
  0
VERTEX
  8
曲げ物
 10
155.738655
 20
62.66633
  0
VERTEX
  8
曲げ物
 10
110.738655
 20
62.66633
  0
VERTEX
  8
曲げ物
 10
110.738655
 20
17.66633
  0
VERTEX
  8
曲げ物
 10
155.738655
 20
17.66633
  0
SEQEND
  0
INSERT
  2
*GRP_0045
  8
曲げ物
  6
DOT
 10
0.0
 20
0.0
  0
LINE
  8
鉄骨等
  6
CONTINUOUS
 62
    47
 10
-96.580405
 20
-57.330167
 11
-96.580405
 21
-55.580167
  0
LINE
  8
鉄骨等
  6
CONTINUOUS
 62
    47
 10
-96.580405
 20
-55.580167
 11
-94.475627
 21
-53.855167
  0
LINE
  8
鉄骨等
  6
CONTINUOUS
 62
    47
 10
-94.475627
 20
-53.855167
 11
-94.475627
 21
-53.779987
  0
LINE
  8
鉄骨等
  6
CONTINUOUS
 62
    47
 10
-43.290405
 20
-57.330167
 11
-43.290405
 21
-55.580167
  0
LINE
  8
鉄骨等
  6
CONTINUOUS
 62
    47
 10
-43.290405
 20
-55.580167
 11
-45.395183
 21
-53.855167
  0
LINE
  8
鉄骨等
  6
CONTINUOUS
 62
    47
 10
-45.395183
 20
-53.855167
 11
-45.395183
 21
-53.779987
  0
LINE
  8
鉄骨等
  6
CONTINUOUS
 62
    47
 10
43.597502
 20
-57.330165
 11
43.597502
 21
-55.580165
  0
LINE
  8
鉄骨等
  6
CONTINUOUS
 62
    47
 10
43.597502
 20
-55.580165
 11
45.70228
 21
-53.855165
  0
LINE
  8
鉄骨等
  6
CONTINUOUS
 62
    47
 10
45.70228
 20
-53.855165
 11
45.70228
 21
-53.779985
  0
LINE
  8
鉄骨等
  6
CONTINUOUS
 62
    47
 10
96.887502
 20
-57.330165
 11
96.887502
 21
-55.580165
  0
LINE
  8
鉄骨等
  6
CONTINUOUS
 62
    47
 10
96.887502
 20
-55.580165
 11
94.782725
 21
-53.855165
  0
LINE
  8
鉄骨等
  6
CONTINUOUS
 62
    47
 10
94.782725
 20
-53.855165
 11
94.782725
 21
-53.779985
  0
ENDSEC
  0
EOF
