  0
SECTION
  2
HEADER
  9
$EXTMIN
 10
-210.0
 20
-148.5
  9
$EXTMAX
 10
210.0
 20
148.5
  9
$PDMODE
 70
    32
  9
$PDSIZE
 40
1.5
  9
$LTSCALE
 40
10.0
  0
ENDSEC
  0
SECTION
  2
TABLES
  0
TABLE
  2
LTYPE
 70
    15
  0
LTYPE
  2
CONTINUOUS
 70
    64
  3
実線
 72
    65
 73
     0
 40
0.0
  0
LTYPE
  2
DASHED
 70
    64
  3
破線A
 72
    65
 73
     2
 40
0.6
 49
0.4
 49
-0.2
  0
LTYPE
  2
DASHEDX2
 70
    64
  3
破線B
 72
    65
 73
     2
 40
1.3
 49
0.9
 49
-0.4
  0
LTYPE
  2
DASHDOT
 70
    64
  3
１点鎖線A
 72
    65
 73
     4
 40
0.5375
 49
0.375
 49
-0.05
 49
0.0625
 49
-0.05
  0
LTYPE
  2
DASHDOTX2
 70
    64
  3
１点鎖線B
 72
    65
 73
     4
 40
1.075
 49
0.75
 49
-0.1
 49
0.125
 49
-0.1
  0
LTYPE
  2
DIVIDE2
 70
    64
  3
２点鎖線A
 72
    65
 73
     6
 40
0.5125
 49
0.3
 49
-0.0375
 49
0.05
 49
-0.0375
 49
0.05
 49
-0.0375
  0
LTYPE
  2
DIVIDE
 70
    64
  3
２点鎖線B
 72
    65
 73
     6
 40
1.05
 49
0.55
 49
-0.1
 49
0.1
 49
-0.1
 49
0.1
 49
-0.1
  0
LTYPE
  2
DOT
 70
    64
  3
点線A
 72
    65
 73
     2
 40
0.1125
 49
0.0625
 49
-0.05
  0
LTYPE
  2
DOTX2
 70
    64
  3
点線B
 72
    65
 73
     2
 40
0.275
 49
0.15
 49
-0.125
  0
LTYPE
  2
CONTINUOUS
 70
    64
  3
実線
 72
    65
 73
     0
 40
0.0
  0
LTYPE
  2
CONTINUOUS
 70
    64
  3
実線
 72
    65
 73
     0
 40
0.0
  0
LTYPE
  2
CONTINUOUS
 70
    64
  3
実線
 72
    65
 73
     0
 40
0.0
  0
LTYPE
  2
CONTINUOUS
 70
    64
  3
実線
 72
    65
 73
     0
 40
0.0
  0
LTYPE
  2
CONTINUOUS
 70
    64
  3
実線
 72
    65
 73
     0
 40
0.0
  0
LTYPE
  2
CONTINUOUS
 70
    64
  3
実線
 72
    65
 73
     0
 40
0.0
  0
ENDTAB
  0
TABLE
  2
LAYER
 70
    34
  0
LAYER
  2
通り芯
 70
     0
 62
    15
  6
CONTINUOUS
  0
LAYER
  2
補助線
 70
     0
 62
    16
  6
DOT
  0
LAYER
  2
躯体
 70
     0
 62
    31
  6
CONTINUOUS
  0
LAYER
  2
型材
 70
     0
 62
    32
  6
CONTINUOUS
  0
LAYER
  2
型材断面
 70
     0
 62
    47
  6
CONTINUOUS
  0
LAYER
  2
ガラス
 70
     0
 62
    48
  6
CONTINUOUS
  0
LAYER
  2
ゴム等
 70
     0
 62
    63
  6
CONTINUOUS
  0
LAYER
  2
ボルト／ビス
 70
     0
 62
    64
  6
CONTINUOUS
  0
LAYER
  2
文字
 70
     0
 62
    79
  6
CONTINUOUS
  0
LAYER
  2
寸法
 70
     0
 62
    80
  6
CONTINUOUS
  0
LAYER
  2
ﾊｯﾁﾝｸﾞ
 70
     0
 62
    95
  6
CONTINUOUS
  0
LAYER
  2
別途部材
 70
     0
 62
    96
  6
CONTINUOUS
  0
LAYER
  2
曲げ物
 70
     0
 62
   111
  6
CONTINUOUS
  0
LAYER
  2
鉄骨等
 70
     0
 62
   112
  6
CONTINUOUS
  0
LAYER
  2
St
 70
     0
 62
   127
  6
CONTINUOUS
  0
LAYER
  2
その他部品等
 70
     0
 62
   128
  6
CONTINUOUS
  0
LAYER
  2
ｶﾞｽｹｯﾄ
 70
     0
 62
   143
  6
CONTINUOUS
  0
LAYER
  2
ｽｹｯﾁ
 70
     0
 62
    14
  6
CONTINUOUS
  0
LAYER
  2
0
 70
     0
 62
    17
  6
CONTINUOUS
  0
LAYER
  2
1
 70
     0
 62
    30
  6
CONTINUOUS
  0
LAYER
  2
4
 70
     0
 62
    33
  6
CONTINUOUS
  0
LAYER
  2
ﾚｲﾔ3
 70
     0
 62
    46
  6
CONTINUOUS
  0
LAYER
  2
外形線
 70
     0
 62
    49
  6
CONTINUOUS
  0
LAYER
  2
部品
 70
     0
 62
    14
  6
CONTINUOUS
  0
LAYER
  2
サッシ芯
 70
     0
 62
    17
  6
DASHDOTX2
  0
LAYER
  2
寸法線
 70
     0
 62
    62
  6
CONTINUOUS
  0
LAYER
  2
姿図外形線
 70
     0
 62
    65
  6
CONTINUOUS
  0
LAYER
  2
姿補助線
 70
     0
 62
    30
  6
CONTINUOUS
  0
LAYER
  2
透視線
 70
     0
 62
    78
  6
DOT
  0
LAYER
  2
用紙
 70
     0
 62
    81
  6
CONTINUOUS
  0
LAYER
  2
実線図枠
 70
     0
 62
    94
  6
CONTINUOUS
  0
LAYER
  2
補助図枠
 70
     0
 62
    97
  6
CONTINUOUS
  0
LAYER
  2
建具記号
 70
     0
 62
   110
  6
CONTINUOUS
  0
LAYER
  2
補助文字
 70
     0
 62
   113
  6
CONTINUOUS
  0
ENDTAB
  0
TABLE
  2
STYLE
 70
    10
  0
STYLE
  2
STANDARD
 70
     0
 40
1.0
 41
1.0
 42
1.0
 50
0.0
 71
     0
  3
TXT
  4
BIGFONT
  0
STYLE
  2
TATE
 70
     4
 40
1.0
 41
1.0
 42
1.0
 50
0.0
 71
     0
  3
TXT
  4
BIGFONT
  0
STYLE
  2
TextStyle03
 70
     0
 40
1.0
 41
1.0
 42
1.0
 50
0.0
 71
     0
  3
MONOTXT
  4
BIGFONT
  0
STYLE
  2
TextStyle04
 70
     0
 40
1.0
 41
1.0
 42
1.0
 50
0.0
 71
     0
  3
MONOTXT
  4
BIGFONT
  0
STYLE
  2
TextStyle05
 70
     0
 40
1.0
 41
1.0
 42
1.0
 50
0.0
 71
     0
  3
MONOTXT
  4
BIGFONT
  0
STYLE
  2
TextStyle06
 70
     0
 40
1.0
 41
1.0
 42
1.0
 50
0.0
 71
     0
  3
MONOTXT
  4
BIGFONT
  0
STYLE
  2
TextStyle07
 70
     0
 40
1.0
 41
1.0
 42
1.0
 50
0.0
 71
     0
  3
MONOTXT
  4
BIGFONT
  0
STYLE
  2
TextStyle08
 70
     0
 40
1.0
 41
1.0
 42
1.0
 50
0.0
 71
     0
  3
MONOTXT
  4
BIGFONT
  0
STYLE
  2
TextStyle09
 70
     0
 40
1.0
 41
1.0
 42
1.0
 50
0.0
 71
     0
  3
MONOTXT
  4
BIGFONT
  0
STYLE
  2
TextStyle10
 70
     0
 40
1.0
 41
1.0
 42
1.0
 50
0.0
 71
     0
  3
MONOTXT
  4
BIGFONT
  0
ENDTAB
  0
ENDSEC
  0
SECTION
  2
BLOCKS
  0
BLOCK
  2
*GRP_0001
 70
    65
 10
0.0
 20
0.0
  0
LINE
  8
型材断面
  6
CONTINUOUS
 10
195.0
 20
133.5
 11
195.0
 21
-133.5
  0
LINE
  8
型材断面
  6
CONTINUOUS
 10
195.0
 20
-133.5
 11
-185.0
 21
-133.5
  0
LINE
  8
型材断面
  6
CONTINUOUS
 10
-185.0
 20
-133.5
 11
-185.0
 21
133.5
  0
LINE
  8
型材断面
  6
CONTINUOUS
 10
195.0
 20
133.5
 11
-185.0
 21
133.5
  0
LINE
  8
型材断面
  6
CONTINUOUS
 10
145.0
 20
-133.5
 11
145.0
 21
-118.5
  0
LINE
  8
型材断面
  6
CONTINUOUS
 10
195.0
 20
-118.5
 11
145.0
 21
-118.5
  0
ENDBLK
  0
BLOCK
  2
*GRP_0002
 70
    65
 10
0.0
 20
0.0
  0
INSERT
  2
*GRP_0016
  8
補助線
  6
CONTINUOUS
 10
0.0
 20
0.0
  0
LINE
  8
ボルト／ビス
  6
CONTINUOUS
 10
-84.935405
 20
0.403315
 11
-84.685405
 21
0.547653
  0
LINE
  8
ボルト／ビス
  6
CONTINUOUS
 10
-84.935405
 20
0.403315
 11
-85.185405
 21
0.547653
  0
LINE
  8
ボルト／ビス
  6
CONTINUOUS
 10
-84.685405
 20
0.836327
 11
-84.935405
 21
0.980665
  0
LINE
  8
ボルト／ビス
  6
CONTINUOUS
 10
-85.185405
 20
0.836327
 11
-84.935405
 21
0.980665
  0
CIRCLE
  8
ボルト／ビス
  6
CONTINUOUS
 10
-84.935405
 20
0.69199
 40
0.25
  0
LINE
  8
ボルト／ビス
  6
CONTINUOUS
 10
-85.185405
 20
0.547653
 11
-85.185405
 21
0.836327
  0
LINE
  8
ボルト／ビス
  6
CONTINUOUS
 10
-84.685405
 20
0.836327
 11
-84.685405
 21
0.547653
  0
ENDBLK
  0
BLOCK
  2
*GRP_0003
 70
    65
 10
0.0
 20
0.0
  0
INSERT
  2
*GRP_0017
  8
補助線
  6
CONTINUOUS
 10
0.0
 20
0.0
  0
LINE
  8
ボルト／ビス
  6
CONTINUOUS
 10
-93.72408
 20
9.19199
 11
-93.579742
 21
9.44199
  0
LINE
  8
ボルト／ビス
  6
CONTINUOUS
 10
-93.72408
 20
9.19199
 11
-93.579742
 21
8.94199
  0
LINE
  8
ボルト／ビス
  6
CONTINUOUS
 10
-93.291068
 20
9.44199
 11
-93.14673
 21
9.19199
  0
LINE
  8
ボルト／ビス
  6
CONTINUOUS
 10
-93.291068
 20
8.94199
 11
-93.14673
 21
9.19199
  0
CIRCLE
  8
ボルト／ビス
  6
CONTINUOUS
 10
-93.435405
 20
9.19199
 40
0.25
  0
LINE
  8
ボルト／ビス
  6
CONTINUOUS
 10
-93.579742
 20
8.94199
 11
-93.291068
 21
8.94199
  0
LINE
  8
ボルト／ビス
  6
CONTINUOUS
 10
-93.291068
 20
9.44199
 11
-93.579742
 21
9.44199
  0
ENDBLK
  0
BLOCK
  2
*GRP_0004
 70
    65
 10
0.0
 20
0.0
  0
INSERT
  2
*GRP_0018
  8
補助線
  6
CONTINUOUS
 10
0.0
 20
0.0
  0
LINE
  8
ボルト／ビス
  6
CONTINUOUS
 10
-69.935405
 20
0.403315
 11
-70.185405
 21
0.547653
  0
LINE
  8
ボルト／ビス
  6
CONTINUOUS
 10
-69.935405
 20
0.403315
 11
-69.685405
 21
0.547653
  0
LINE
  8
ボルト／ビス
  6
CONTINUOUS
 10
-70.185405
 20
0.836327
 11
-69.935405
 21
0.980665
  0
LINE
  8
ボルト／ビス
  6
CONTINUOUS
 10
-69.685405
 20
0.836327
 11
-69.935405
 21
0.980665
  0
CIRCLE
  8
ボルト／ビス
  6
CONTINUOUS
 10
-69.935405
 20
0.69199
 40
0.25
  0
LINE
  8
ボルト／ビス
  6
CONTINUOUS
 10
-69.685405
 20
0.547653
 11
-69.685405
 21
0.836327
  0
LINE
  8
ボルト／ビス
  6
CONTINUOUS
 10
-70.185405
 20
0.836327
 11
-70.185405
 21
0.547653
  0
ENDBLK
  0
BLOCK
  2
*GRP_0005
 70
    65
 10
0.0
 20
0.0
  0
INSERT
  2
*GRP_0019
  8
補助線
  6
CONTINUOUS
 10
0.0
 20
0.0
  0
LINE
  8
ボルト／ビス
  6
CONTINUOUS
 10
-61.14673
 20
9.19199
 11
-61.291068
 21
9.44199
  0
LINE
  8
ボルト／ビス
  6
CONTINUOUS
 10
-61.14673
 20
9.19199
 11
-61.291068
 21
8.94199
  0
LINE
  8
ボルト／ビス
  6
CONTINUOUS
 10
-61.579742
 20
9.44199
 11
-61.72408
 21
9.19199
  0
LINE
  8
ボルト／ビス
  6
CONTINUOUS
 10
-61.579742
 20
8.94199
 11
-61.72408
 21
9.19199
  0
CIRCLE
  8
ボルト／ビス
  6
CONTINUOUS
 10
-61.435405
 20
9.19199
 40
0.25
  0
LINE
  8
ボルト／ビス
  6
CONTINUOUS
 10
-61.291068
 20
8.94199
 11
-61.579742
 21
8.94199
  0
LINE
  8
ボルト／ビス
  6
CONTINUOUS
 10
-61.579742
 20
9.44199
 11
-61.291068
 21
9.44199
  0
ENDBLK
  0
BLOCK
  2
*GRP_0006
 70
    65
 10
0.0
 20
0.0
  0
INSERT
  2
*GRP_0020
  8
補助線
  6
CONTINUOUS
 10
0.0
 20
0.0
  0
LINE
  8
ボルト／ビス
  6
CONTINUOUS
 10
-69.935405
 20
32.980665
 11
-70.185405
 21
32.836327
  0
LINE
  8
ボルト／ビス
  6
CONTINUOUS
 10
-69.935405
 20
32.980665
 11
-69.685405
 21
32.836327
  0
LINE
  8
ボルト／ビス
  6
CONTINUOUS
 10
-70.185405
 20
32.547653
 11
-69.935405
 21
32.403315
  0
LINE
  8
ボルト／ビス
  6
CONTINUOUS
 10
-69.685405
 20
32.547653
 11
-69.935405
 21
32.403315
  0
CIRCLE
  8
ボルト／ビス
  6
CONTINUOUS
 10
-69.935405
 20
32.69199
 40
0.25
  0
LINE
  8
ボルト／ビス
  6
CONTINUOUS
 10
-69.685405
 20
32.836327
 11
-69.685405
 21
32.547653
  0
LINE
  8
ボルト／ビス
  6
CONTINUOUS
 10
-70.185405
 20
32.547653
 11
-70.185405
 21
32.836327
  0
ENDBLK
  0
BLOCK
  2
*GRP_0007
 70
    65
 10
0.0
 20
0.0
  0
INSERT
  2
*GRP_0021
  8
補助線
  6
CONTINUOUS
 10
0.0
 20
0.0
  0
LINE
  8
ボルト／ビス
  6
CONTINUOUS
 10
-61.14673
 20
24.19199
 11
-61.291068
 21
23.94199
  0
LINE
  8
ボルト／ビス
  6
CONTINUOUS
 10
-61.14673
 20
24.19199
 11
-61.291068
 21
24.44199
  0
LINE
  8
ボルト／ビス
  6
CONTINUOUS
 10
-61.579742
 20
23.94199
 11
-61.72408
 21
24.19199
  0
LINE
  8
ボルト／ビス
  6
CONTINUOUS
 10
-61.579742
 20
24.44199
 11
-61.72408
 21
24.19199
  0
CIRCLE
  8
ボルト／ビス
  6
CONTINUOUS
 10
-61.435405
 20
24.19199
 40
0.25
  0
LINE
  8
ボルト／ビス
  6
CONTINUOUS
 10
-61.291068
 20
24.44199
 11
-61.579742
 21
24.44199
  0
LINE
  8
ボルト／ビス
  6
CONTINUOUS
 10
-61.579742
 20
23.94199
 11
-61.291068
 21
23.94199
  0
ENDBLK
  0
BLOCK
  2
*GRP_0008
 70
    65
 10
0.0
 20
0.0
  0
INSERT
  2
*GRP_0022
  8
補助線
  6
CONTINUOUS
 10
0.0
 20
0.0
  0
LINE
  8
ボルト／ビス
  6
CONTINUOUS
 10
-84.935405
 20
32.980665
 11
-84.685405
 21
32.836327
  0
LINE
  8
ボルト／ビス
  6
CONTINUOUS
 10
-84.935405
 20
32.980665
 11
-85.185405
 21
32.836327
  0
LINE
  8
ボルト／ビス
  6
CONTINUOUS
 10
-84.685405
 20
32.547653
 11
-84.935405
 21
32.403315
  0
LINE
  8
ボルト／ビス
  6
CONTINUOUS
 10
-85.185405
 20
32.547653
 11
-84.935405
 21
32.403315
  0
CIRCLE
  8
ボルト／ビス
  6
CONTINUOUS
 10
-84.935405
 20
32.69199
 40
0.25
  0
LINE
  8
ボルト／ビス
  6
CONTINUOUS
 10
-85.185405
 20
32.836327
 11
-85.185405
 21
32.547653
  0
LINE
  8
ボルト／ビス
  6
CONTINUOUS
 10
-84.685405
 20
32.547653
 11
-84.685405
 21
32.836327
  0
ENDBLK
  0
BLOCK
  2
*GRP_0009
 70
    65
 10
0.0
 20
0.0
  0
INSERT
  2
*GRP_0023
  8
補助線
  6
CONTINUOUS
 10
0.0
 20
0.0
  0
LINE
  8
ボルト／ビス
  6
CONTINUOUS
 10
-93.72408
 20
24.19199
 11
-93.579742
 21
23.94199
  0
LINE
  8
ボルト／ビス
  6
CONTINUOUS
 10
-93.72408
 20
24.19199
 11
-93.579742
 21
24.44199
  0
LINE
  8
ボルト／ビス
  6
CONTINUOUS
 10
-93.291068
 20
23.94199
 11
-93.14673
 21
24.19199
  0
LINE
  8
ボルト／ビス
  6
CONTINUOUS
 10
-93.291068
 20
24.44199
 11
-93.14673
 21
24.19199
  0
CIRCLE
  8
ボルト／ビス
  6
CONTINUOUS
 10
-93.435405
 20
24.19199
 40
0.25
  0
LINE
  8
ボルト／ビス
  6
CONTINUOUS
 10
-93.579742
 20
24.44199
 11
-93.291068
 21
24.44199
  0
LINE
  8
ボルト／ビス
  6
CONTINUOUS
 10
-93.291068
 20
23.94199
 11
-93.579742
 21
23.94199
  0
ENDBLK
  0
BLOCK
  2
*DIM_0010
 70
    65
 10
0.0
 20
0.0
  0
LINE
  8
寸法
  6
BYBLOCK
 62
     0
 10
-76.435405
 20
-54.248265
 11
-41.30588
 21
-54.248265
  0
LINE
  8
寸法
  6
BYBLOCK
 62
     0
 10
-41.30588
 20
-62.248265
 11
-41.30588
 21
-54.248265
  0
POINT
  8
寸法
 62
     0
 10
-41.30588
 20
-62.248265
  0
POINT
  8
寸法
 62
     0
 10
-41.30588
 20
-54.248265
  0
TEXT
  7
TextStyle03
  8
寸法
  6
CONTINUOUS
 62
     0
 10
-41.7
 20
-60.6875
  1
160
 40
3.0
 50
90.0
 72
     5
 11
-41.7
 21
-55.8125
  0
ENDBLK
  0
BLOCK
  2
*DIM_0011
 70
    65
 10
0.0
 20
0.0
  0
LINE
  8
寸法
  6
BYBLOCK
 62
     0
 10
-92.435405
 20
-26.094458
 11
-62.435405
 21
-26.094458
  0
POINT
  8
寸法
 62
     0
 10
-92.435405
 20
-26.094458
  0
POINT
  8
寸法
 62
     0
 10
-62.435405
 20
-26.094458
  0
TEXT
  7
TextStyle03
  8
寸法
  6
CONTINUOUS
 62
     0
 10
-88.325
 20
-25.725
  1
呼称寸法　600
 40
3.0
 72
     5
 11
-66.575
 21
-25.725
  0
ENDBLK
  0
BLOCK
  2
*DIM_0012
 70
    65
 10
0.0
 20
0.0
  0
LINE
  8
寸法
  6
BYBLOCK
 62
     0
 10
-61.435402
 20
1.691987
 11
-40.885975
 21
1.691987
  0
LINE
  8
寸法
  6
BYBLOCK
 62
     0
 10
-53.411528
 20
7.241987
 11
-40.885975
 21
7.241987
  0
LINE
  8
寸法
  6
BYBLOCK
 62
     0
 10
-40.885975
 20
1.691987
 11
-40.885975
 21
7.241987
  0
POINT
  8
寸法
 62
     0
 10
-40.885975
 20
1.691987
  0
POINT
  8
寸法
 62
     0
 10
-40.885975
 20
7.241987
  0
TEXT
  7
TextStyle03
  8
寸法
  6
CONTINUOUS
 62
     0
 10
-41.3
 20
2.0125
  1
111
 40
3.0
 50
90.0
 72
     5
 11
-41.3
 21
6.8875
  0
ENDBLK
  0
BLOCK
  2
*DIM_0013
 70
    65
 10
0.0
 20
0.0
  0
LINE
  8
寸法
  6
BYBLOCK
 62
     0
 10
-61.435402
 20
31.691993
 11
-40.885975
 21
31.691993
  0
LINE
  8
寸法
  6
BYBLOCK
 62
     0
 10
-53.411528
 20
26.141993
 11
-40.885975
 21
26.141993
  0
LINE
  8
寸法
  6
BYBLOCK
 62
     0
 10
-40.885975
 20
31.691993
 11
-40.885975
 21
26.141993
  0
POINT
  8
寸法
 62
     0
 10
-40.885975
 20
31.691993
  0
POINT
  8
寸法
 62
     0
 10
-40.885975
 20
26.141993
  0
TEXT
  7
TextStyle03
  8
寸法
  6
CONTINUOUS
 62
     0
 10
-41.3
 20
26.4625
  1
111
 40
3.0
 50
90.0
 72
     5
 11
-41.3
 21
31.3375
  0
ENDBLK
  0
BLOCK
  2
*DIM_0014
 70
    65
 10
0.0
 20
0.0
  0
LINE
  8
寸法
  6
CONTINUOUS
 62
     0
 10
-67.435405
 20
32.691987
 11
-67.435405
 21
52.642592
  0
LINE
  8
寸法
  6
CONTINUOUS
 62
     0
 10
-87.435405
 20
32.691987
 11
-87.435405
 21
52.642592
  0
LINE
  8
寸法
  6
CONTINUOUS
 62
     0
 10
-67.435405
 20
52.642592
 11
-87.435405
 21
52.642592
  0
POINT
  8
寸法
 62
     0
 10
-67.435405
 20
52.642592
 50
-270.0
  0
POINT
  8
寸法
 62
     0
 10
-87.435405
 20
52.642592
 50
-270.0
  0
TEXT
  7
TextStyle03
  8
寸法
  6
CONTINUOUS
 62
     0
 10
-79.9125
 20
53.05
  1
400
 40
3.0
 72
     5
 11
-75.0375
 21
53.05
  0
ENDBLK
  0
BLOCK
  2
*GRP_0015
 70
    65
 10
0.0
 20
0.0
  0
POLYLINE
  8
寸法
  6
CONTINUOUS
 62
     0
 66
     1
  0
VERTEX
  8
寸法
 10
-64.771885
 20
14.188283
  0
VERTEX
  8
寸法
 10
-61.09069
 20
10.507087
  0
VERTEX
  8
寸法
 10
-38.248113
 20
10.507087
  0
SEQEND
  0
ENDBLK
  0
BLOCK
  2
*GRP_0016
 70
    65
 10
0.0
 20
0.0
  0
LINE
  8
補助線
  6
BYBLOCK
 62
     0
 10
-85.060405
 20
0.69199
 11
-84.810405
 21
0.69199
  0
LINE
  8
補助線
  6
BYBLOCK
 62
     0
 10
-84.935405
 20
0.56699
 11
-84.935405
 21
0.81699
  0
ENDBLK
  0
BLOCK
  2
*GRP_0017
 70
    65
 10
0.0
 20
0.0
  0
LINE
  8
補助線
  6
BYBLOCK
 62
     0
 10
-93.435405
 20
9.06699
 11
-93.435405
 21
9.31699
  0
LINE
  8
補助線
  6
BYBLOCK
 62
     0
 10
-93.560405
 20
9.19199
 11
-93.310405
 21
9.19199
  0
ENDBLK
  0
BLOCK
  2
*GRP_0018
 70
    65
 10
0.0
 20
0.0
  0
LINE
  8
補助線
  6
BYBLOCK
 62
     0
 10
-69.810405
 20
0.69199
 11
-70.060405
 21
0.69199
  0
LINE
  8
補助線
  6
BYBLOCK
 62
     0
 10
-69.935405
 20
0.56699
 11
-69.935405
 21
0.81699
  0
ENDBLK
  0
BLOCK
  2
*GRP_0019
 70
    65
 10
0.0
 20
0.0
  0
LINE
  8
補助線
  6
BYBLOCK
 62
     0
 10
-61.435405
 20
9.06699
 11
-61.435405
 21
9.31699
  0
LINE
  8
補助線
  6
BYBLOCK
 62
     0
 10
-61.310405
 20
9.19199
 11
-61.560405
 21
9.19199
  0
ENDBLK
  0
BLOCK
  2
*GRP_0020
 70
    65
 10
0.0
 20
0.0
  0
LINE
  8
補助線
  6
BYBLOCK
 62
     0
 10
-69.810405
 20
32.69199
 11
-70.060405
 21
32.69199
  0
LINE
  8
補助線
  6
BYBLOCK
 62
     0
 10
-69.935405
 20
32.81699
 11
-69.935405
 21
32.56699
  0
ENDBLK
  0
BLOCK
  2
*GRP_0021
 70
    65
 10
0.0
 20
0.0
  0
LINE
  8
補助線
  6
BYBLOCK
 62
     0
 10
-61.435405
 20
24.31699
 11
-61.435405
 21
24.06699
  0
LINE
  8
補助線
  6
BYBLOCK
 62
     0
 10
-61.310405
 20
24.19199
 11
-61.560405
 21
24.19199
  0
ENDBLK
  0
BLOCK
  2
*GRP_0022
 70
    65
 10
0.0
 20
0.0
  0
LINE
  8
補助線
  6
BYBLOCK
 62
     0
 10
-85.060405
 20
32.69199
 11
-84.810405
 21
32.69199
  0
LINE
  8
補助線
  6
BYBLOCK
 62
     0
 10
-84.935405
 20
32.81699
 11
-84.935405
 21
32.56699
  0
ENDBLK
  0
BLOCK
  2
*GRP_0023
 70
    65
 10
0.0
 20
0.0
  0
LINE
  8
補助線
  6
BYBLOCK
 62
     0
 10
-93.435405
 20
24.31699
 11
-93.435405
 21
24.06699
  0
LINE
  8
補助線
  6
BYBLOCK
 62
     0
 10
-93.560405
 20
24.19199
 11
-93.310405
 21
24.19199
  0
ENDBLK
  0
BLOCK
  2
*GRP_0024
 70
    65
 10
0.0
 20
0.0
  0
LINE
  8
補助線
  6
BYBLOCK
 62
    64
 10
50.36855
 20
-69.616947
 11
50.573525
 21
-69.760073
  0
LINE
  8
補助線
  6
BYBLOCK
 62
    64
 10
50.5426
 20
-69.586023
 11
50.399475
 21
-69.790997
  0
LINE
  8
補助線
  6
BYBLOCK
 62
    64
 10
42.37443
 20
-64.035145
 11
42.169453
 21
-63.89202
  0
LINE
  8
補助線
  6
BYBLOCK
 62
    64
 10
42.343503
 20
-63.861092
 11
42.20038
 21
-64.06607
  0
LINE
  8
補助線
  6
BYBLOCK
 62
    64
 10
34.175327
 20
-58.310222
 11
33.97035
 21
-58.1671
  0
LINE
  8
補助線
  6
BYBLOCK
 62
    64
 10
34.1444
 20
-58.136172
 11
34.001277
 21
-58.34115
  0
LINE
  8
型材断面
  6
CONTINUOUS
 10
51.59661
 20
-68.94987
 11
51.78217
 21
-69.99417
  0
LINE
  8
型材断面
  6
CONTINUOUS
 10
51.78217
 20
-69.99417
 11
51.209677
 21
-70.814083
  0
LINE
  8
型材断面
  6
CONTINUOUS
 10
51.209677
 20
-70.814083
 11
50.165378
 21
-70.999643
  0
LINE
  8
型材断面
  6
CONTINUOUS
 10
42.558185
 20
-63.553633
 11
41.98569
 21
-64.373542
  0
LINE
  8
型材断面
  6
CONTINUOUS
 10
34.378498
 20
-56.927527
 11
33.334197
 21
-57.11309
  0
LINE
  8
型材断面
  6
CONTINUOUS
 10
33.334197
 20
-57.11309
 11
32.761705
 21
-57.933
  0
LINE
  8
型材断面
  6
CONTINUOUS
 10
32.761705
 20
-57.933
 11
32.94727
 21
-58.977303
  0
LINE
  8
型材断面
  6
CONTINUOUS
 10
51.59661
 20
-68.94987
 11
34.378513
 21
-56.927525
  0
LINE
  8
型材断面
  6
CONTINUOUS
 10
50.165378
 20
-70.999643
 11
32.947265
 21
-58.977293
  0
LINE
  8
ボルト／ビス
  6
CONTINUOUS
 62
    64
 10
50.73546
 20
-69.30981
 11
50.931213
 21
-69.728157
  0
LINE
  8
ボルト／ビス
  6
CONTINUOUS
 62
    64
 10
50.73546
 20
-69.30981
 11
50.275285
 21
-69.270165
  0
LINE
  8
ボルト／ビス
  6
CONTINUOUS
 62
    64
 10
50.206615
 20
-70.06721
 11
50.66679
 21
-70.106855
  0
LINE
  8
ボルト／ビス
  6
CONTINUOUS
 62
    64
 10
50.206615
 20
-70.06721
 11
50.010863
 21
-69.648862
  0
CIRCLE
  8
ボルト／ビス
  6
CONTINUOUS
 62
    64
 10
50.471038
 20
-69.68851
 40
0.4
  0
LINE
  8
ボルト／ビス
  6
CONTINUOUS
 62
    64
 10
50.275285
 20
-69.270165
 11
50.010863
 21
-69.648862
  0
LINE
  8
ボルト／ビス
  6
CONTINUOUS
 62
    64
 10
50.931213
 20
-69.728157
 11
50.66679
 21
-70.106855
  0
LINE
  8
ボルト／ビス
  6
CONTINUOUS
 62
    64
 10
42.536365
 20
-63.584883
 11
42.076188
 21
-63.545235
  0
LINE
  8
ボルト／ビス
  6
CONTINUOUS
 62
    64
 10
42.536365
 20
-63.584883
 11
42.732117
 21
-64.003227
  0
LINE
  8
ボルト／ビス
  6
CONTINUOUS
 62
    64
 10
42.007517
 20
-64.34228
 11
41.811765
 21
-63.923935
  0
LINE
  8
ボルト／ビス
  6
CONTINUOUS
 62
    64
 10
42.007517
 20
-64.34228
 11
42.467692
 21
-64.381927
  0
CIRCLE
  8
ボルト／ビス
  6
CONTINUOUS
 62
    64
 10
42.27194
 20
-63.963583
 40
0.4
  0
LINE
  8
ボルト／ビス
  6
CONTINUOUS
 62
    64
 10
42.732117
 20
-64.003227
 11
42.467692
 21
-64.381927
  0
LINE
  8
ボルト／ビス
  6
CONTINUOUS
 62
    64
 10
42.076188
 20
-63.545235
 11
41.811765
 21
-63.923935
  0
LINE
  8
ボルト／ビス
  6
CONTINUOUS
 62
    64
 10
34.33726
 20
-57.859962
 11
33.877085
 21
-57.820315
  0
LINE
  8
ボルト／ビス
  6
CONTINUOUS
 62
    64
 10
34.33726
 20
-57.859962
 11
34.533013
 21
-58.27831
  0
LINE
  8
ボルト／ビス
  6
CONTINUOUS
 62
    64
 10
33.808417
 20
-58.617363
 11
33.612665
 21
-58.199015
  0
LINE
  8
ボルト／ビス
  6
CONTINUOUS
 62
    64
 10
33.808417
 20
-58.617363
 11
34.268592
 21
-58.657007
  0
CIRCLE
  8
ボルト／ビス
  6
CONTINUOUS
 62
    64
 10
34.072838
 20
-58.238663
 40
0.4
  0
LINE
  8
ボルト／ビス
  6
CONTINUOUS
 62
    64
 10
34.533013
 20
-58.27831
 11
34.268592
 21
-58.657007
  0
LINE
  8
ボルト／ビス
  6
CONTINUOUS
 62
    64
 10
33.877085
 20
-57.820315
 11
33.612665
 21
-58.199015
  0
ENDBLK
  0
BLOCK
  2
*GRP_0025
 70
    65
 10
0.0
 20
0.0
  0
LINE
  8
補助線
  6
BYBLOCK
 62
    64
 10
34.17533
 20
-69.616947
 11
33.970355
 21
-69.760073
  0
LINE
  8
補助線
  6
BYBLOCK
 62
    64
 10
34.00128
 20
-69.586023
 11
34.144405
 21
-69.790997
  0
LINE
  8
補助線
  6
BYBLOCK
 62
    64
 10
42.16945
 20
-64.035145
 11
42.374427
 21
-63.89202
  0
LINE
  8
補助線
  6
BYBLOCK
 62
    64
 10
42.200377
 20
-63.861092
 11
42.3435
 21
-64.06607
  0
LINE
  8
補助線
  6
BYBLOCK
 62
    64
 10
50.368553
 20
-58.310222
 11
50.57353
 21
-58.1671
  0
LINE
  8
補助線
  6
BYBLOCK
 62
    64
 10
50.39948
 20
-58.136172
 11
50.542603
 21
-58.34115
  0
LINE
  8
型材断面
  6
CONTINUOUS
 10
32.94727
 20
-68.94987
 11
32.76171
 21
-69.99417
  0
LINE
  8
型材断面
  6
CONTINUOUS
 10
32.76171
 20
-69.99417
 11
33.334202
 21
-70.814083
  0
LINE
  8
型材断面
  6
CONTINUOUS
 10
33.334202
 20
-70.814083
 11
34.378502
 21
-70.999643
  0
LINE
  8
型材断面
  6
CONTINUOUS
 10
41.985695
 20
-63.553633
 11
42.55819
 21
-64.373542
  0
LINE
  8
型材断面
  6
CONTINUOUS
 10
50.165382
 20
-56.927527
 11
51.209683
 21
-57.11309
  0
LINE
  8
型材断面
  6
CONTINUOUS
 10
51.209683
 20
-57.11309
 11
51.782175
 21
-57.933
  0
LINE
  8
型材断面
  6
CONTINUOUS
 10
51.782175
 20
-57.933
 11
51.59661
 21
-58.977303
  0
LINE
  8
型材断面
  6
CONTINUOUS
 10
32.94727
 20
-68.94987
 11
50.165367
 21
-56.927525
  0
LINE
  8
型材断面
  6
CONTINUOUS
 10
34.378502
 20
-70.999643
 11
51.596615
 21
-58.977293
  0
LINE
  8
ボルト／ビス
  6
CONTINUOUS
 62
    64
 10
33.80842
 20
-69.30981
 11
33.612667
 21
-69.728157
  0
LINE
  8
ボルト／ビス
  6
CONTINUOUS
 62
    64
 10
33.80842
 20
-69.30981
 11
34.268595
 21
-69.270165
  0
LINE
  8
ボルト／ビス
  6
CONTINUOUS
 62
    64
 10
34.337265
 20
-70.06721
 11
33.87709
 21
-70.106855
  0
LINE
  8
ボルト／ビス
  6
CONTINUOUS
 62
    64
 10
34.337265
 20
-70.06721
 11
34.533017
 21
-69.648862
  0
CIRCLE
  8
ボルト／ビス
  6
CONTINUOUS
 62
    64
 10
34.072842
 20
-69.68851
 40
0.4
  0
LINE
  8
ボルト／ビス
  6
CONTINUOUS
 62
    64
 10
34.268595
 20
-69.270165
 11
34.533017
 21
-69.648862
  0
LINE
  8
ボルト／ビス
  6
CONTINUOUS
 62
    64
 10
33.612667
 20
-69.728157
 11
33.87709
 21
-70.106855
  0
LINE
  8
ボルト／ビス
  6
CONTINUOUS
 62
    64
 10
42.007515
 20
-63.584883
 11
42.467692
 21
-63.545235
  0
LINE
  8
ボルト／ビス
  6
CONTINUOUS
 62
    64
 10
42.007515
 20
-63.584883
 11
41.811763
 21
-64.003227
  0
LINE
  8
ボルト／ビス
  6
CONTINUOUS
 62
    64
 10
42.536362
 20
-64.34228
 11
42.732115
 21
-63.923935
  0
LINE
  8
ボルト／ビス
  6
CONTINUOUS
 62
    64
 10
42.536362
 20
-64.34228
 11
42.076188
 21
-64.381927
  0
CIRCLE
  8
ボルト／ビス
  6
CONTINUOUS
 62
    64
 10
42.27194
 20
-63.963583
 40
0.4
  0
LINE
  8
ボルト／ビス
  6
CONTINUOUS
 62
    64
 10
41.811763
 20
-64.003227
 11
42.076188
 21
-64.381927
  0
LINE
  8
ボルト／ビス
  6
CONTINUOUS
 62
    64
 10
42.467692
 20
-63.545235
 11
42.732115
 21
-63.923935
  0
LINE
  8
ボルト／ビス
  6
CONTINUOUS
 62
    64
 10
50.20662
 20
-57.859962
 11
50.666795
 21
-57.820315
  0
LINE
  8
ボルト／ビス
  6
CONTINUOUS
 62
    64
 10
50.20662
 20
-57.859962
 11
50.010867
 21
-58.27831
  0
LINE
  8
ボルト／ビス
  6
CONTINUOUS
 62
    64
 10
50.735462
 20
-58.617363
 11
50.931215
 21
-58.199015
  0
LINE
  8
ボルト／ビス
  6
CONTINUOUS
 62
    64
 10
50.735462
 20
-58.617363
 11
50.275288
 21
-58.657007
  0
CIRCLE
  8
ボルト／ビス
  6
CONTINUOUS
 62
    64
 10
50.471042
 20
-58.238663
 40
0.4
  0
LINE
  8
ボルト／ビス
  6
CONTINUOUS
 62
    64
 10
50.010867
 20
-58.27831
 11
50.275288
 21
-58.657007
  0
LINE
  8
ボルト／ビス
  6
CONTINUOUS
 62
    64
 10
50.666795
 20
-57.820315
 11
50.931215
 21
-58.199015
  0
ENDBLK
  0
BLOCK
  2
*DIM_0026
 70
    65
 10
0.0
 20
0.0
  0
LINE
  8
寸法
  6
CONTINUOUS
 10
-62.435405
 20
-26.094458
 11
-58.290405
 21
-26.094458
  0
POINT
  8
寸法
 10
-62.435405
 20
-26.094458
  0
POINT
  8
寸法
 10
-58.290405
 20
-26.094458
  0
TEXT
  7
TextStyle03
  8
寸法
  6
CONTINUOUS
 10
-60.90625
 20
-25.15
  1
82.9
 40
3.0
 72
     5
 11
-54.34375
 21
-25.15
  0
ENDBLK
  0
BLOCK
  2
*DIM_0027
 70
    65
 10
0.0
 20
0.0
  0
LINE
  8
寸法
  6
CONTINUOUS
 10
-92.435405
 20
-26.094458
 11
-96.580403
 21
-26.094458
  0
POINT
  8
寸法
 10
-92.435405
 20
-26.094458
  0
POINT
  8
寸法
 10
-96.580403
 20
-26.094458
  0
TEXT
  7
TextStyle03
  8
寸法
  6
CONTINUOUS
 10
-100.73125
 20
-24.8
  1
82.9
 40
3.0
 72
     5
 11
-94.16875
 21
-24.8
  0
ENDBLK
  0
BLOCK
  2
*DIM_0029
 70
    65
 10
0.0
 20
0.0
  0
LINE
  8
寸法
  6
CONTINUOUS
 10
166.126015
 20
67.8435
 11
173.929565
 21
67.8435
  0
LINE
  8
寸法
  6
CONTINUOUS
 10
166.126015
 20
37.8435
 11
173.929565
 21
37.8435
  0
LINE
  8
寸法
  6
CONTINUOUS
 10
173.929565
 20
67.8435
 11
173.929565
 21
37.8435
  0
POINT
  8
寸法
 10
173.929565
 20
67.8435
  0
POINT
  8
寸法
 10
173.929565
 20
37.8435
  0
TEXT
  7
TextStyle03
  8
寸法
  6
CONTINUOUS
 10
173.55
 20
50.3875
  1
600
 40
3.0
 50
90.0
 72
     5
 11
173.55
 21
55.2625
  0
ENDBLK
  0
BLOCK
  2
*DIM_0030
 70
    65
 10
0.0
 20
0.0
  0
LINE
  8
寸法
  6
CONTINUOUS
 10
131.126015
 20
72.8435
 11
131.126015
 21
77.630365
  0
LINE
  8
寸法
  6
CONTINUOUS
 10
161.126015
 20
72.8435
 11
161.126015
 21
77.630365
  0
LINE
  8
寸法
  6
CONTINUOUS
 10
131.126015
 20
77.630365
 11
161.126015
 21
77.630365
  0
POINT
  8
寸法
 10
131.126015
 20
77.630365
  0
POINT
  8
寸法
 10
161.126015
 20
77.630365
  0
TEXT
  7
TextStyle03
  8
寸法
  6
CONTINUOUS
 10
143.6875
 20
78.0
  1
600
 40
3.0
 72
     5
 11
148.5625
 21
78.0
  0
ENDBLK
  0
BLOCK
  2
*GRP_0031
 70
    65
 10
0.0
 20
0.0
  0
LINE
  8
ボルト／ビス
  6
CONTINUOUS
 10
-93.435405
 20
-62.248265
 11
-93.435405
 21
-61.548265
  0
LINE
  8
ボルト／ビス
  6
CONTINUOUS
 10
-93.985405
 20
-62.248265
 11
-93.985405
 21
-62.148265
  0
LINE
  8
ボルト／ビス
  6
CONTINUOUS
 10
-93.985405
 20
-62.148265
 11
-92.885405
 21
-62.148265
  0
LINE
  8
ボルト／ビス
  6
CONTINUOUS
 10
-92.885405
 20
-62.148265
 11
-92.885405
 21
-62.248265
  0
LINE
  8
ボルト／ビス
  6
CONTINUOUS
 10
-93.985405
 20
-62.248265
 11
-92.885405
 21
-62.248265
  0
LINE
  8
ボルト／ビス
  6
CONTINUOUS
 10
-93.885405
 20
-62.098265
 11
-93.885405
 21
-62.148265
  0
LINE
  8
ボルト／ビス
  6
CONTINUOUS
 10
-93.885405
 20
-62.098265
 11
-92.985405
 21
-62.098265
  0
LINE
  8
ボルト／ビス
  6
CONTINUOUS
 10
-92.985405
 20
-62.098265
 11
-92.985405
 21
-62.148265
  0
LINE
  8
ボルト／ビス
  6
CONTINUOUS
 62
    64
 10
-93.675968
 20
-61.798265
 11
-93.72408
 21
-61.815777
  0
ARC
  8
ボルト／ビス
  6
CONTINUOUS
 62
    64
 10
-93.651911
 20
-61.955733
 40
0.157468
 50
62.721967
 51
90.0
  0
ARC
  8
ボルト／ビス
  6
CONTINUOUS
 62
    64
 10
-93.435405
 20
-62.401869
 40
0.603603
 50
76.165002
 51
103.834985
  0
LINE
  8
ボルト／ビス
  6
CONTINUOUS
 62
    64
 10
-93.194842
 20
-61.798265
 11
-93.14673
 21
-61.815777
  0
ARC
  8
ボルト／ビス
  6
CONTINUOUS
 62
    64
 10
-93.218899
 20
-61.955733
 40
0.157468
 50
90.0
 51
117.278033
  0
LINE
  8
ボルト／ビス
  6
CONTINUOUS
 62
    64
 10
-93.675968
 20
-61.798265
 11
-93.194842
 21
-61.798265
  0
LINE
  8
ボルト／ビス
  6
CONTINUOUS
 62
    64
 10
-93.14673
 20
-61.815777
 11
-93.14673
 21
-61.998265
  0
LINE
  8
ボルト／ビス
  6
CONTINUOUS
 62
    64
 10
-93.291068
 20
-61.815777
 11
-93.291068
 21
-61.998265
  0
LINE
  8
ボルト／ビス
  6
CONTINUOUS
 62
    64
 10
-93.72408
 20
-61.815777
 11
-93.72408
 21
-61.998265
  0
LINE
  8
ボルト／ビス
  6
CONTINUOUS
 62
    64
 10
-93.579742
 20
-61.815777
 11
-93.579742
 21
-61.998265
  0
LINE
  8
ボルト／ビス
  6
CONTINUOUS
 10
-93.72408
 20
-61.998265
 11
-93.14673
 21
-61.998265
  0
LINE
  8
ボルト／ビス
  6
CONTINUOUS
 10
-93.735405
 20
-61.998265
 11
-93.735405
 21
-62.098265
  0
LINE
  8
ボルト／ビス
  6
CONTINUOUS
 10
-93.735405
 20
-61.998265
 11
-93.135405
 21
-61.998265
  0
LINE
  8
ボルト／ビス
  6
CONTINUOUS
 10
-93.135405
 20
-61.998265
 11
-93.135405
 21
-62.098265
  0
ENDBLK
  0
BLOCK
  2
*GRP_0032
 70
    65
 10
0.0
 20
0.0
  0
LINE
  8
ボルト／ビス
  6
CONTINUOUS
 10
-61.435402
 20
-62.248265
 11
-61.435402
 21
-61.548265
  0
LINE
  8
ボルト／ビス
  6
CONTINUOUS
 10
-61.985402
 20
-62.248265
 11
-61.985402
 21
-62.148265
  0
LINE
  8
ボルト／ビス
  6
CONTINUOUS
 10
-61.985402
 20
-62.148265
 11
-60.885402
 21
-62.148265
  0
LINE
  8
ボルト／ビス
  6
CONTINUOUS
 10
-60.885402
 20
-62.148265
 11
-60.885402
 21
-62.248265
  0
LINE
  8
ボルト／ビス
  6
CONTINUOUS
 10
-61.985402
 20
-62.248265
 11
-60.885402
 21
-62.248265
  0
LINE
  8
ボルト／ビス
  6
CONTINUOUS
 10
-61.885402
 20
-62.098265
 11
-61.885402
 21
-62.148265
  0
LINE
  8
ボルト／ビス
  6
CONTINUOUS
 10
-61.885402
 20
-62.098265
 11
-60.985402
 21
-62.098265
  0
LINE
  8
ボルト／ビス
  6
CONTINUOUS
 10
-60.985402
 20
-62.098265
 11
-60.985402
 21
-62.148265
  0
LINE
  8
ボルト／ビス
  6
CONTINUOUS
 62
    64
 10
-61.675965
 20
-61.798265
 11
-61.724078
 21
-61.815777
  0
ARC
  8
ボルト／ビス
  6
CONTINUOUS
 62
    64
 10
-61.65191
 20
-61.955733
 40
0.157468
 50
62.721967
 51
90.0
  0
ARC
  8
ボルト／ビス
  6
CONTINUOUS
 62
    64
 10
-61.435403
 20
-62.401869
 40
0.603603
 50
76.165002
 51
103.834985
  0
LINE
  8
ボルト／ビス
  6
CONTINUOUS
 62
    64
 10
-61.19484
 20
-61.798265
 11
-61.146727
 21
-61.815777
  0
ARC
  8
ボルト／ビス
  6
CONTINUOUS
 62
    64
 10
-61.218897
 20
-61.955733
 40
0.157468
 50
90.0
 51
117.278033
  0
LINE
  8
ボルト／ビス
  6
CONTINUOUS
 62
    64
 10
-61.675965
 20
-61.798265
 11
-61.19484
 21
-61.798265
  0
LINE
  8
ボルト／ビス
  6
CONTINUOUS
 62
    64
 10
-61.146727
 20
-61.815777
 11
-61.146727
 21
-61.998265
  0
LINE
  8
ボルト／ビス
  6
CONTINUOUS
 62
    64
 10
-61.291065
 20
-61.815777
 11
-61.291065
 21
-61.998265
  0
LINE
  8
ボルト／ビス
  6
CONTINUOUS
 62
    64
 10
-61.724078
 20
-61.815777
 11
-61.724078
 21
-61.998265
  0
LINE
  8
ボルト／ビス
  6
CONTINUOUS
 62
    64
 10
-61.57974
 20
-61.815777
 11
-61.57974
 21
-61.998265
  0
LINE
  8
ボルト／ビス
  6
CONTINUOUS
 10
-61.724078
 20
-61.998265
 11
-61.146727
 21
-61.998265
  0
LINE
  8
ボルト／ビス
  6
CONTINUOUS
 10
-61.735402
 20
-61.998265
 11
-61.735402
 21
-62.098265
  0
LINE
  8
ボルト／ビス
  6
CONTINUOUS
 10
-61.735402
 20
-61.998265
 11
-61.135402
 21
-61.998265
  0
LINE
  8
ボルト／ビス
  6
CONTINUOUS
 10
-61.135402
 20
-61.998265
 11
-61.135402
 21
-62.098265
  0
ENDBLK
  0
BLOCK
  2
*GRP_0033
 70
    65
 10
0.0
 20
0.0
  0
LINE
  8
ボルト／ビス
  6
CONTINUOUS
 10
24.471035
 20
-62.248265
 11
24.471035
 21
-61.548265
  0
LINE
  8
ボルト／ビス
  6
CONTINUOUS
 10
23.921035
 20
-62.248265
 11
23.921035
 21
-62.148265
  0
LINE
  8
ボルト／ビス
  6
CONTINUOUS
 10
23.921035
 20
-62.148265
 11
25.021035
 21
-62.148265
  0
LINE
  8
ボルト／ビス
  6
CONTINUOUS
 10
25.021035
 20
-62.148265
 11
25.021035
 21
-62.248265
  0
LINE
  8
ボルト／ビス
  6
CONTINUOUS
 10
23.921035
 20
-62.248265
 11
25.021035
 21
-62.248265
  0
LINE
  8
ボルト／ビス
  6
CONTINUOUS
 10
24.021035
 20
-62.098265
 11
24.021035
 21
-62.148265
  0
LINE
  8
ボルト／ビス
  6
CONTINUOUS
 10
24.021035
 20
-62.098265
 11
24.921035
 21
-62.098265
  0
LINE
  8
ボルト／ビス
  6
CONTINUOUS
 10
24.921035
 20
-62.098265
 11
24.921035
 21
-62.148265
  0
LINE
  8
ボルト／ビス
  6
CONTINUOUS
 62
    64
 10
24.230472
 20
-61.798265
 11
24.18236
 21
-61.815777
  0
ARC
  8
ボルト／ビス
  6
CONTINUOUS
 62
    64
 10
24.254527
 20
-61.955733
 40
0.157468
 50
62.721967
 51
90.0
  0
ARC
  8
ボルト／ビス
  6
CONTINUOUS
 62
    64
 10
24.471034
 20
-62.401869
 40
0.603603
 50
76.165002
 51
103.834985
  0
LINE
  8
ボルト／ビス
  6
CONTINUOUS
 62
    64
 10
24.711598
 20
-61.798265
 11
24.75971
 21
-61.815777
  0
ARC
  8
ボルト／ビス
  6
CONTINUOUS
 62
    64
 10
24.68754
 20
-61.955733
 40
0.157468
 50
90.0
 51
117.278033
  0
LINE
  8
ボルト／ビス
  6
CONTINUOUS
 62
    64
 10
24.230472
 20
-61.798265
 11
24.711598
 21
-61.798265
  0
LINE
  8
ボルト／ビス
  6
CONTINUOUS
 62
    64
 10
24.75971
 20
-61.815777
 11
24.75971
 21
-61.998265
  0
LINE
  8
ボルト／ビス
  6
CONTINUOUS
 62
    64
 10
24.615373
 20
-61.815777
 11
24.615373
 21
-61.998265
  0
LINE
  8
ボルト／ビス
  6
CONTINUOUS
 62
    64
 10
24.18236
 20
-61.815777
 11
24.18236
 21
-61.998265
  0
LINE
  8
ボルト／ビス
  6
CONTINUOUS
 62
    64
 10
24.326698
 20
-61.815777
 11
24.326698
 21
-61.998265
  0
LINE
  8
ボルト／ビス
  6
CONTINUOUS
 10
24.18236
 20
-61.998265
 11
24.75971
 21
-61.998265
  0
LINE
  8
ボルト／ビス
  6
CONTINUOUS
 10
24.171035
 20
-61.998265
 11
24.171035
 21
-62.098265
  0
LINE
  8
ボルト／ビス
  6
CONTINUOUS
 10
24.171035
 20
-61.998265
 11
24.771035
 21
-61.998265
  0
LINE
  8
ボルト／ビス
  6
CONTINUOUS
 10
24.771035
 20
-61.998265
 11
24.771035
 21
-62.098265
  0
ENDBLK
  0
BLOCK
  2
*GRP_0034
 70
    65
 10
0.0
 20
0.0
  0
LINE
  8
ボルト／ビス
  6
CONTINUOUS
 10
56.471038
 20
-62.248265
 11
56.471038
 21
-61.548265
  0
LINE
  8
ボルト／ビス
  6
CONTINUOUS
 10
55.921038
 20
-62.248265
 11
55.921038
 21
-62.148265
  0
LINE
  8
ボルト／ビス
  6
CONTINUOUS
 10
55.921038
 20
-62.148265
 11
57.021038
 21
-62.148265
  0
LINE
  8
ボルト／ビス
  6
CONTINUOUS
 10
57.021038
 20
-62.148265
 11
57.021038
 21
-62.248265
  0
LINE
  8
ボルト／ビス
  6
CONTINUOUS
 10
55.921038
 20
-62.248265
 11
57.021038
 21
-62.248265
  0
LINE
  8
ボルト／ビス
  6
CONTINUOUS
 10
56.021038
 20
-62.098265
 11
56.021038
 21
-62.148265
  0
LINE
  8
ボルト／ビス
  6
CONTINUOUS
 10
56.021038
 20
-62.098265
 11
56.921038
 21
-62.098265
  0
LINE
  8
ボルト／ビス
  6
CONTINUOUS
 10
56.921038
 20
-62.098265
 11
56.921038
 21
-62.148265
  0
LINE
  8
ボルト／ビス
  6
CONTINUOUS
 62
    64
 10
56.230475
 20
-61.798265
 11
56.182363
 21
-61.815777
  0
ARC
  8
ボルト／ビス
  6
CONTINUOUS
 62
    64
 10
56.254529
 20
-61.955734
 40
0.157468
 50
62.721967
 51
90.0
  0
ARC
  8
ボルト／ビス
  6
CONTINUOUS
 62
    64
 10
56.471036
 20
-62.401869
 40
0.603603
 50
76.165002
 51
103.834985
  0
LINE
  8
ボルト／ビス
  6
CONTINUOUS
 62
    64
 10
56.7116
 20
-61.798265
 11
56.759713
 21
-61.815777
  0
ARC
  8
ボルト／ビス
  6
CONTINUOUS
 62
    64
 10
56.687542
 20
-61.955734
 40
0.157468
 50
90.0
 51
117.278033
  0
LINE
  8
ボルト／ビス
  6
CONTINUOUS
 62
    64
 10
56.230475
 20
-61.798265
 11
56.7116
 21
-61.798265
  0
LINE
  8
ボルト／ビス
  6
CONTINUOUS
 62
    64
 10
56.759713
 20
-61.815777
 11
56.759713
 21
-61.998265
  0
LINE
  8
ボルト／ビス
  6
CONTINUOUS
 62
    64
 10
56.615375
 20
-61.815777
 11
56.615375
 21
-61.998265
  0
LINE
  8
ボルト／ビス
  6
CONTINUOUS
 62
    64
 10
56.182363
 20
-61.815777
 11
56.182363
 21
-61.998265
  0
LINE
  8
ボルト／ビス
  6
CONTINUOUS
 62
    64
 10
56.3267
 20
-61.815777
 11
56.3267
 21
-61.998265
  0
LINE
  8
ボルト／ビス
  6
CONTINUOUS
 10
56.182363
 20
-61.998265
 11
56.759713
 21
-61.998265
  0
LINE
  8
ボルト／ビス
  6
CONTINUOUS
 10
56.171038
 20
-61.998265
 11
56.171038
 21
-62.098265
  0
LINE
  8
ボルト／ビス
  6
CONTINUOUS
 10
56.171038
 20
-61.998265
 11
56.771038
 21
-61.998265
  0
LINE
  8
ボルト／ビス
  6
CONTINUOUS
 10
56.771038
 20
-61.998265
 11
56.771038
 21
-62.098265
  0
ENDBLK
  0
BLOCK
  2
*GRP_0035
 70
    65
 10
0.0
 20
0.0
  0
LINE
  8
型材断面
  6
DOT
 10
40.471035
 20
-56.32345
 11
23.430815
 21
-56.32345
  0
LINE
  8
型材断面
  6
DOT
 10
40.471035
 20
-58.04845
 11
21.326037
 21
-58.04845
  0
LINE
  8
型材断面
  6
DOT
 10
40.471035
 20
-59.79845
 11
21.326037
 21
-59.79845
  0
LINE
  8
型材断面
  6
DOT
 10
40.471035
 20
-56.32345
 11
57.511257
 21
-56.32345
  0
LINE
  8
型材断面
  6
DOT
 10
40.471035
 20
-58.04845
 11
59.616035
 21
-58.04845
  0
LINE
  8
型材断面
  6
DOT
 10
40.471035
 20
-59.79845
 11
59.616035
 21
-59.79845
  0
LINE
  8
別途部材
  6
DOT
 62
    96
 10
22.971035
 20
-54.748265
 11
22.371035
 21
-56.248265
  0
LINE
  8
別途部材
  6
DOT
 62
    96
 10
22.971035
 20
-54.748265
 11
40.471035
 21
-54.748265
  0
LINE
  8
別途部材
  6
DOT
 10
22.371035
 20
-56.248265
 11
40.471035
 21
-56.248265
  0
LINE
  8
別途部材
  6
DOT
 62
    96
 10
57.971038
 20
-54.748265
 11
58.571038
 21
-56.248265
  0
LINE
  8
別途部材
  6
DOT
 62
    96
 10
57.971038
 20
-54.748265
 11
40.471035
 21
-54.748265
  0
LINE
  8
別途部材
  6
DOT
 10
58.571038
 20
-56.248265
 11
40.471035
 21
-56.248265
  0
ARC
  8
別途部材
  6
DOT
 10
40.471035
 20
-64.810769
 40
18.062501
 50
33.855033
 51
146.144967
  0
INSERT
  2
*GRP_0036
  8
別途部材
  6
DOT
 10
0.0
 20
0.0
  0
INSERT
  2
*GRP_0037
  8
別途部材
  6
DOT
 10
0.0
 20
0.0
  0
LINE
  8
鉄骨等
  6
DOT
 62
    47
 10
21.326037
 20
-59.79845
 11
21.326037
 21
-58.04845
  0
LINE
  8
鉄骨等
  6
DOT
 62
    47
 10
21.326037
 20
-58.04845
 11
23.430815
 21
-56.32345
  0
LINE
  8
鉄骨等
  6
DOT
 62
    47
 10
23.430815
 20
-56.32345
 11
23.430815
 21
-56.24827
  0
LINE
  8
鉄骨等
  6
DOT
 62
    47
 10
59.616035
 20
-59.79845
 11
59.616035
 21
-58.04845
  0
LINE
  8
鉄骨等
  6
DOT
 62
    47
 10
59.616035
 20
-58.04845
 11
57.511257
 21
-56.32345
  0
LINE
  8
鉄骨等
  6
DOT
 62
    47
 10
57.511257
 20
-56.32345
 11
57.511257
 21
-56.24827
  0
ENDBLK
  0
BLOCK
  2
*GRP_0036
 70
    65
 10
0.0
 20
0.0
  0
LINE
  8
ボルト／ビス
  6
DOT
 10
24.471035
 20
-54.748265
 11
24.471035
 21
-54.048265
  0
LINE
  8
ボルト／ビス
  6
DOT
 10
23.921035
 20
-54.748265
 11
23.921035
 21
-54.648265
  0
LINE
  8
ボルト／ビス
  6
DOT
 10
23.921035
 20
-54.648265
 11
25.021035
 21
-54.648265
  0
LINE
  8
ボルト／ビス
  6
DOT
 10
25.021035
 20
-54.648265
 11
25.021035
 21
-54.748265
  0
LINE
  8
ボルト／ビス
  6
DOT
 10
23.921035
 20
-54.748265
 11
25.021035
 21
-54.748265
  0
LINE
  8
ボルト／ビス
  6
DOT
 10
24.021035
 20
-54.598265
 11
24.021035
 21
-54.648265
  0
LINE
  8
ボルト／ビス
  6
DOT
 10
24.021035
 20
-54.598265
 11
24.921035
 21
-54.598265
  0
LINE
  8
ボルト／ビス
  6
DOT
 10
24.921035
 20
-54.598265
 11
24.921035
 21
-54.648265
  0
LINE
  8
ボルト／ビス
  6
DOT
 62
    64
 10
24.230472
 20
-54.298265
 11
24.18236
 21
-54.315777
  0
ARC
  8
ボルト／ビス
  6
DOT
 62
    64
 10
24.254527
 20
-54.455734
 40
0.157468
 50
62.721967
 51
90.0
  0
ARC
  8
ボルト／ビス
  6
DOT
 62
    64
 10
24.471034
 20
-54.901869
 40
0.603603
 50
76.165002
 51
103.834985
  0
LINE
  8
ボルト／ビス
  6
DOT
 62
    64
 10
24.711598
 20
-54.298265
 11
24.75971
 21
-54.315777
  0
ARC
  8
ボルト／ビス
  6
DOT
 62
    64
 10
24.68754
 20
-54.455734
 40
0.157468
 50
90.0
 51
117.278033
  0
LINE
  8
ボルト／ビス
  6
DOT
 62
    64
 10
24.230472
 20
-54.298265
 11
24.711598
 21
-54.298265
  0
LINE
  8
ボルト／ビス
  6
DOT
 62
    64
 10
24.75971
 20
-54.315777
 11
24.75971
 21
-54.498265
  0
LINE
  8
ボルト／ビス
  6
DOT
 62
    64
 10
24.615373
 20
-54.315777
 11
24.615373
 21
-54.498265
  0
LINE
  8
ボルト／ビス
  6
DOT
 62
    64
 10
24.18236
 20
-54.315777
 11
24.18236
 21
-54.498265
  0
LINE
  8
ボルト／ビス
  6
DOT
 62
    64
 10
24.326698
 20
-54.315777
 11
24.326698
 21
-54.498265
  0
LINE
  8
ボルト／ビス
  6
DOT
 10
24.18236
 20
-54.498265
 11
24.75971
 21
-54.498265
  0
LINE
  8
ボルト／ビス
  6
DOT
 10
24.171035
 20
-54.498265
 11
24.171035
 21
-54.598265
  0
LINE
  8
ボルト／ビス
  6
DOT
 10
24.171035
 20
-54.498265
 11
24.771035
 21
-54.498265
  0
LINE
  8
ボルト／ビス
  6
DOT
 10
24.771035
 20
-54.498265
 11
24.771035
 21
-54.598265
  0
ENDBLK
  0
BLOCK
  2
*GRP_0037
 70
    65
 10
0.0
 20
0.0
  0
LINE
  8
ボルト／ビス
  6
DOT
 10
56.471038
 20
-54.748265
 11
56.471038
 21
-54.048265
  0
LINE
  8
ボルト／ビス
  6
DOT
 10
55.921038
 20
-54.748265
 11
55.921038
 21
-54.648265
  0
LINE
  8
ボルト／ビス
  6
DOT
 10
55.921038
 20
-54.648265
 11
57.021038
 21
-54.648265
  0
LINE
  8
ボルト／ビス
  6
DOT
 10
57.021038
 20
-54.648265
 11
57.021038
 21
-54.748265
  0
LINE
  8
ボルト／ビス
  6
DOT
 10
55.921038
 20
-54.748265
 11
57.021038
 21
-54.748265
  0
LINE
  8
ボルト／ビス
  6
DOT
 10
56.021038
 20
-54.598265
 11
56.021038
 21
-54.648265
  0
LINE
  8
ボルト／ビス
  6
DOT
 10
56.021038
 20
-54.598265
 11
56.921038
 21
-54.598265
  0
LINE
  8
ボルト／ビス
  6
DOT
 10
56.921038
 20
-54.598265
 11
56.921038
 21
-54.648265
  0
LINE
  8
ボルト／ビス
  6
DOT
 62
    64
 10
56.230475
 20
-54.298265
 11
56.182363
 21
-54.315777
  0
ARC
  8
ボルト／ビス
  6
DOT
 62
    64
 10
56.254529
 20
-54.455734
 40
0.157468
 50
62.721967
 51
90.0
  0
ARC
  8
ボルト／ビス
  6
DOT
 62
    64
 10
56.471036
 20
-54.90187
 40
0.603603
 50
76.165002
 51
103.834985
  0
LINE
  8
ボルト／ビス
  6
DOT
 62
    64
 10
56.7116
 20
-54.298265
 11
56.759713
 21
-54.315777
  0
ARC
  8
ボルト／ビス
  6
DOT
 62
    64
 10
56.687542
 20
-54.455734
 40
0.157468
 50
90.0
 51
117.278033
  0
LINE
  8
ボルト／ビス
  6
DOT
 62
    64
 10
56.230475
 20
-54.298265
 11
56.7116
 21
-54.298265
  0
LINE
  8
ボルト／ビス
  6
DOT
 62
    64
 10
56.759713
 20
-54.315777
 11
56.759713
 21
-54.498265
  0
LINE
  8
ボルト／ビス
  6
DOT
 62
    64
 10
56.615375
 20
-54.315777
 11
56.615375
 21
-54.498265
  0
LINE
  8
ボルト／ビス
  6
DOT
 62
    64
 10
56.182363
 20
-54.315777
 11
56.182363
 21
-54.498265
  0
LINE
  8
ボルト／ビス
  6
DOT
 62
    64
 10
56.3267
 20
-54.315777
 11
56.3267
 21
-54.498265
  0
LINE
  8
ボルト／ビス
  6
DOT
 10
56.182363
 20
-54.498265
 11
56.759713
 21
-54.498265
  0
LINE
  8
ボルト／ビス
  6
DOT
 10
56.171038
 20
-54.498265
 11
56.171038
 21
-54.598265
  0
LINE
  8
ボルト／ビス
  6
DOT
 10
56.171038
 20
-54.498265
 11
56.771038
 21
-54.498265
  0
LINE
  8
ボルト／ビス
  6
DOT
 10
56.771038
 20
-54.498265
 11
56.771038
 21
-54.598265
  0
ENDBLK
  0
BLOCK
  2
*DIM_0038
 70
    65
 10
0.0
 20
0.0
  0
LINE
  8
寸法
  6
CONTINUOUS
 10
-54.935402
 20
-62.248265
 11
-41.30588
 21
-62.248265
  0
LINE
  8
寸法
  6
CONTINUOUS
 10
-53.290405
 20
-73.498275
 11
-41.30588
 21
-73.498275
  0
LINE
  8
寸法
  6
CONTINUOUS
 10
-41.30588
 20
-62.248265
 11
-41.30588
 21
-73.498275
  0
POINT
  8
寸法
 10
-41.30588
 20
-62.248265
  0
POINT
  8
寸法
 10
-41.30588
 20
-73.498275
  0
TEXT
  7
TextStyle03
  8
寸法
  6
CONTINUOUS
 10
-41.7
 20
-70.3125
  1
225
 40
3.0
 50
90.0
 72
     5
 11
-41.7
 21
-65.4375
  0
ENDBLK
  0
BLOCK
  2
*DIM_0039
 70
    65
 10
0.0
 20
0.0
  0
LINE
  8
寸法
  6
BYBLOCK
 62
     0
 10
62.432952
 20
-59.79845
 11
69.93279
 21
-59.79845
  0
LINE
  8
寸法
  6
BYBLOCK
 62
     0
 10
62.432952
 20
-67.29845
 11
69.93279
 21
-67.29845
  0
LINE
  8
寸法
  6
BYBLOCK
 62
     0
 10
69.93279
 20
-59.79845
 11
69.93279
 21
-67.29845
  0
POINT
  8
寸法
 62
     0
 10
69.93279
 20
-59.79845
  0
POINT
  8
寸法
 62
     0
 10
69.93279
 20
-67.29845
  0
TEXT
  7
TextStyle03
  8
寸法
  6
CONTINUOUS
 62
     0
 10
74.5
 20
-73.2375
  1
上昇高さ150
 40
3.0
 50
90.0
 72
     5
 11
74.5
 21
-54.8625
  0
ENDBLK
  0
ENDSEC
  0
SECTION
  2
ENTITIES
  0
POLYLINE
  8
通り芯
  6
CONTINUOUS
 66
     1
 70
     1
  0
VERTEX
  8
通り芯
 10
-210.0
 20
-148.5
  0
VERTEX
  8
通り芯
 10
210.0
 20
-148.5
  0
VERTEX
  8
通り芯
 10
210.0
 20
148.5
  0
VERTEX
  8
通り芯
 10
-210.0
 20
148.5
  0
SEQEND
  0
INSERT
  2
*GRP_0001
  8
型材断面
  6
CONTINUOUS
 10
0.0
 20
0.0
  0
LINE
  8
型材断面
  6
DASHDOT
 10
-92.435405
 20
1.69199
 11
-62.435405
 21
1.69199
  0
LINE
  8
型材断面
  6
DASHDOT
 10
-92.435405
 20
-77.76228
 11
-92.435405
 21
31.69199
  0
LINE
  8
型材断面
  6
DASHDOT
 10
-77.435405
 20
-77.76228
 11
-77.435405
 21
31.69199
  0
LINE
  8
型材断面
  6
DASHDOT
 10
-62.435405
 20
-77.76228
 11
-62.435405
 21
31.69199
  0
LINE
  8
型材断面
  6
DASHDOT
 10
-92.435405
 20
16.69199
 11
-62.435405
 21
16.69199
  0
LINE
  8
型材断面
  6
DASHDOT
 10
-92.435405
 20
31.69199
 11
-62.435405
 21
31.69199
  0
LINE
  8
型材断面
  6
CONTINUOUS
 10
-100.459278
 20
7.241987
 11
-104.345038
 21
8.136073
  0
LINE
  8
型材断面
  6
CONTINUOUS
 10
-100.459278
 20
7.241987
 11
-104.345038
 21
6.347903
  0
LINE
  8
型材断面
  6
CONTINUOUS
 10
-104.345038
 20
6.347903
 11
-104.345038
 21
8.136073
  0
LINE
  8
型材断面
  6
CONTINUOUS
 10
-100.459278
 20
16.69199
 11
-104.345038
 21
14.448545
  0
LINE
  8
型材断面
  6
CONTINUOUS
 10
-100.459278
 20
16.69199
 11
-104.345038
 21
18.935435
  0
LINE
  8
型材断面
  6
CONTINUOUS
 10
-104.345038
 20
18.935435
 11
-104.345038
 21
14.448545
  0
LINE
  8
型材断面
  6
CONTINUOUS
 10
-100.459278
 20
26.141993
 11
-104.345038
 21
25.247907
  0
LINE
  8
型材断面
  6
CONTINUOUS
 10
-100.459278
 20
26.141993
 11
-104.345038
 21
27.036077
  0
LINE
  8
型材断面
  6
CONTINUOUS
 10
-104.345038
 20
27.036077
 11
-104.345038
 21
25.247907
  0
LINE
  8
型材断面
  6
CONTINUOUS
 10
-54.411528
 20
7.241987
 11
-50.525767
 21
8.136073
  0
LINE
  8
型材断面
  6
CONTINUOUS
 10
-54.411528
 20
7.241987
 11
-50.525767
 21
6.347903
  0
LINE
  8
型材断面
  6
CONTINUOUS
 10
-50.525767
 20
6.347903
 11
-50.525767
 21
8.136073
  0
LINE
  8
型材断面
  6
CONTINUOUS
 10
-54.411528
 20
16.69199
 11
-50.525767
 21
14.448545
  0
LINE
  8
型材断面
  6
CONTINUOUS
 10
-54.411528
 20
16.69199
 11
-50.525767
 21
18.935435
  0
LINE
  8
型材断面
  6
CONTINUOUS
 10
-50.525767
 20
18.935435
 11
-50.525767
 21
14.448545
  0
LINE
  8
型材断面
  6
CONTINUOUS
 10
-54.411528
 20
26.141993
 11
-50.525767
 21
25.247907
  0
LINE
  8
型材断面
  6
CONTINUOUS
 10
-54.411528
 20
26.141993
 11
-50.525767
 21
27.036077
  0
LINE
  8
型材断面
  6
CONTINUOUS
 10
-50.525767
 20
27.036077
 11
-50.525767
 21
25.247907
  0
LINE
  8
型材断面
  6
CONTINUOUS
 10
-77.435405
 20
39.715863
 11
-79.67885
 21
43.601622
  0
LINE
  8
型材断面
  6
CONTINUOUS
 10
-77.435405
 20
39.715863
 11
-75.19196
 21
43.601622
  0
LINE
  8
型材断面
  6
CONTINUOUS
 10
-75.19196
 20
43.601622
 11
-79.67885
 21
43.601622
  0
LINE
  8
型材断面
  6
CONTINUOUS
 10
-77.435405
 20
-6.331887
 11
-79.67885
 21
-10.217648
  0
LINE
  8
型材断面
  6
CONTINUOUS
 10
-77.435405
 20
-6.331887
 11
-75.19196
 21
-10.217648
  0
LINE
  8
型材断面
  6
CONTINUOUS
 10
-75.19196
 20
-10.217648
 11
-79.67885
 21
-10.217648
  0
LINE
  8
型材断面
  6
DOT
 10
-66.771885
 20
1.69199
 11
-66.771885
 21
31.691993
  0
LINE
  8
型材断面
  6
DOT
 10
-64.771885
 20
1.69199
 11
-64.771885
 21
31.691993
  0
LINE
  8
型材断面
  6
CONTINUOUS
 10
-35.48472
 20
-6.182028
 11
-37.728165
 21
-10.067788
  0
LINE
  8
型材断面
  6
CONTINUOUS
 10
-35.48472
 20
-6.182028
 11
-33.241275
 21
-10.067788
  0
LINE
  8
型材断面
  6
CONTINUOUS
 10
-33.241275
 20
-10.067788
 11
-37.728165
 21
-10.067788
  0
LINE
  8
型材断面
  6
CONTINUOUS
 10
-35.48472
 20
-13.871575
 11
-34.590635
 21
-17.757335
  0
LINE
  8
型材断面
  6
CONTINUOUS
 10
-35.48472
 20
-13.871575
 11
-36.378805
 21
-17.757335
  0
LINE
  8
型材断面
  6
CONTINUOUS
 10
-36.378805
 20
-17.757335
 11
-34.590635
 21
-17.757335
  0
LINE
  8
型材断面
  6
CONTINUOUS
 10
-44.5186
 20
-11.47568
 11
8.13808
 21
-11.47568
  0
LINE
  8
型材断面
  6
CONTINUOUS
 10
-44.5186
 20
-22.675673
 11
8.13808
 21
-22.675673
  0
LINE
  8
型材断面
  6
CONTINUOUS
 10
-44.5186
 20
-29.515618
 11
8.13808
 21
-29.515618
  0
POLYLINE
  8
型材断面
  6
CONTINUOUS
 66
     1
 70
     1
  0
VERTEX
  8
型材断面
 10
-68.075518
 20
-11.538357
  0
VERTEX
  8
型材断面
 10
-86.63073
 20
-11.538357
  0
VERTEX
  8
型材断面
 10
-86.63073
 20
-16.330393
  0
VERTEX
  8
型材断面
 10
-68.075518
 20
-16.330393
  0
SEQEND
  0
POLYLINE
  8
型材断面
  6
CONTINUOUS
 66
     1
 70
     1
  0
VERTEX
  8
型材断面
 10
-68.075518
 20
49.54706
  0
VERTEX
  8
型材断面
 10
-86.63073
 20
49.54706
  0
VERTEX
  8
型材断面
 10
-86.63073
 20
44.755025
  0
VERTEX
  8
型材断面
 10
-68.075518
 20
44.755025
  0
SEQEND
  0
LINE
  8
型材断面
  6
CONTINUOUS
 10
-44.5186
 20
-36.355562
 11
8.13808
 21
-36.355562
  0
LINE
  8
型材断面
  6
CONTINUOUS
 10
40.471035
 20
-63.82345
 11
23.430815
 21
-63.82345
  0
LINE
  8
型材断面
  6
CONTINUOUS
 10
40.471035
 20
-65.54845
 11
21.326037
 21
-65.54845
  0
LINE
  8
型材断面
  6
CONTINUOUS
 10
40.471035
 20
-67.29845
 11
21.326037
 21
-67.29845
  0
LINE
  8
型材断面
  6
CONTINUOUS
 10
40.471035
 20
-63.82345
 11
57.511257
 21
-63.82345
  0
LINE
  8
型材断面
  6
CONTINUOUS
 10
40.471035
 20
-65.54845
 11
59.616035
 21
-65.54845
  0
LINE
  8
型材断面
  6
CONTINUOUS
 10
40.471035
 20
-67.29845
 11
59.616035
 21
-67.29845
  0
INSERT
  2
*GRP_0024
  8
型材断面
  6
CONTINUOUS
 10
0.0
 20
0.0
  0
INSERT
  2
*GRP_0025
  8
型材断面
  6
CONTINUOUS
 10
0.0
 20
0.0
  0
LINE
  8
型材断面
  6
CONTINUOUS
 10
-77.435405
 20
-63.82345
 11
-94.475625
 21
-63.82345
  0
LINE
  8
型材断面
  6
CONTINUOUS
 10
-77.435405
 20
-65.54845
 11
-96.580403
 21
-65.54845
  0
LINE
  8
型材断面
  6
CONTINUOUS
 10
-77.435405
 20
-67.29845
 11
-96.580403
 21
-67.29845
  0
LINE
  8
型材断面
  6
CONTINUOUS
 10
-77.435405
 20
-63.82345
 11
-60.395183
 21
-63.82345
  0
LINE
  8
型材断面
  6
CONTINUOUS
 10
-77.435405
 20
-65.54845
 11
-58.290405
 21
-65.54845
  0
LINE
  8
型材断面
  6
CONTINUOUS
 10
-77.435405
 20
-67.29845
 11
-58.290405
 21
-67.29845
  0
LINE
  8
型材断面
  6
CONTINUOUS
 10
-96.580403
 20
-2.453007
 11
-58.290405
 21
-2.453007
  0
LINE
  8
型材断面
  6
CONTINUOUS
 10
-58.290405
 20
-2.453007
 11
-58.290405
 21
35.83699
  0
LINE
  8
型材断面
  6
CONTINUOUS
 10
-96.580403
 20
-2.453007
 11
-96.580403
 21
35.83699
  0
LINE
  8
型材断面
  6
CONTINUOUS
 10
-58.290405
 20
35.83699
 11
-96.580403
 21
35.83699
  0
LINE
  8
型材断面
  6
CONTINUOUS
 10
-95.535405
 20
34.79199
 11
-96.580405
 21
35.83699
  0
LINE
  8
型材断面
  6
CONTINUOUS
 10
-59.335405
 20
34.79199
 11
-58.290405
 21
35.83699
  0
LINE
  8
型材断面
  6
CONTINUOUS
 10
-59.335405
 20
-1.40801
 11
-58.290405
 21
-2.45301
  0
LINE
  8
型材断面
  6
CONTINUOUS
 10
-95.535405
 20
-1.40801
 11
-96.580403
 21
-2.453007
  0
LINE
  8
型材断面
  6
CONTINUOUS
 10
-95.830405
 20
-73.498275
 11
-95.830405
 21
-74.003273
  0
LINE
  8
型材断面
  6
CONTINUOUS
 10
-96.580405
 20
-73.498275
 11
-95.830405
 21
-73.498275
  0
LINE
  8
型材断面
  6
CONTINUOUS
 10
-96.580403
 20
-67.648452
 11
-96.285467
 21
-67.353517
  0
LINE
  8
型材断面
  6
CONTINUOUS
 10
-96.580403
 20
-67.648452
 11
-96.580405
 21
-73.498275
  0
LINE
  8
型材断面
  6
CONTINUOUS
 62
    47
 10
-96.285467
 20
-67.353517
 11
-77.435405
 21
-67.353517
  0
LINE
  8
型材断面
  6
CONTINUOUS
 10
-96.580403
 20
-67.648452
 11
-77.435405
 21
-67.648452
  0
LINE
  8
型材断面
  6
CONTINUOUS
 10
-95.830405
 20
-74.003273
 11
-77.435405
 21
-74.003273
  0
LINE
  8
型材断面
  6
CONTINUOUS
 10
-96.580405
 20
-73.498275
 11
-77.435405
 21
-73.498275
  0
LINE
  8
型材断面
  6
CONTINUOUS
 10
-59.040405
 20
-73.498275
 11
-59.040405
 21
-74.003273
  0
LINE
  8
型材断面
  6
CONTINUOUS
 10
-58.290405
 20
-73.498275
 11
-59.040405
 21
-73.498275
  0
LINE
  8
型材断面
  6
CONTINUOUS
 10
-58.290408
 20
-67.648452
 11
-58.585343
 21
-67.353517
  0
LINE
  8
型材断面
  6
CONTINUOUS
 10
-58.290408
 20
-67.648452
 11
-58.290405
 21
-73.498275
  0
LINE
  8
型材断面
  6
CONTINUOUS
 62
    47
 10
-58.585343
 20
-67.353517
 11
-77.435405
 21
-67.353517
  0
LINE
  8
型材断面
  6
CONTINUOUS
 10
-58.290408
 20
-67.648452
 11
-77.435405
 21
-67.648452
  0
LINE
  8
型材断面
  6
CONTINUOUS
 10
-59.040405
 20
-74.003273
 11
-77.435405
 21
-74.003273
  0
LINE
  8
型材断面
  6
CONTINUOUS
 10
-58.290405
 20
-73.498275
 11
-77.435405
 21
-73.498275
  0
LINE
  8
型材断面
  6
CONTINUOUS
 10
22.076035
 20
-73.498275
 11
22.076035
 21
-74.003273
  0
LINE
  8
型材断面
  6
CONTINUOUS
 10
21.326035
 20
-73.498275
 11
22.076035
 21
-73.498275
  0
LINE
  8
型材断面
  6
CONTINUOUS
 10
21.326037
 20
-67.648452
 11
21.620973
 21
-67.353517
  0
LINE
  8
型材断面
  6
CONTINUOUS
 10
21.326037
 20
-67.648452
 11
21.326035
 21
-73.498275
  0
LINE
  8
型材断面
  6
CONTINUOUS
 62
    47
 10
21.620973
 20
-67.353517
 11
40.471035
 21
-67.353517
  0
LINE
  8
型材断面
  6
CONTINUOUS
 10
21.326037
 20
-67.648452
 11
40.471035
 21
-67.648452
  0
LINE
  8
型材断面
  6
CONTINUOUS
 10
22.076035
 20
-74.003273
 11
40.471035
 21
-74.003273
  0
LINE
  8
型材断面
  6
CONTINUOUS
 10
21.326035
 20
-73.498275
 11
40.471035
 21
-73.498275
  0
LINE
  8
型材断面
  6
CONTINUOUS
 10
58.866035
 20
-73.498275
 11
58.866035
 21
-74.003273
  0
LINE
  8
型材断面
  6
CONTINUOUS
 10
59.616035
 20
-73.498275
 11
58.866035
 21
-73.498275
  0
LINE
  8
型材断面
  6
CONTINUOUS
 10
59.616033
 20
-67.648452
 11
59.321097
 21
-67.353517
  0
LINE
  8
型材断面
  6
CONTINUOUS
 10
59.616033
 20
-67.648452
 11
59.616035
 21
-73.498275
  0
LINE
  8
型材断面
  6
CONTINUOUS
 62
    47
 10
59.321097
 20
-67.353517
 11
40.471035
 21
-67.353517
  0
LINE
  8
型材断面
  6
CONTINUOUS
 10
59.616033
 20
-67.648452
 11
40.471035
 21
-67.648452
  0
LINE
  8
型材断面
  6
CONTINUOUS
 10
58.866035
 20
-74.003273
 11
40.471035
 21
-74.003273
  0
LINE
  8
型材断面
  6
CONTINUOUS
 10
59.616035
 20
-73.498275
 11
40.471035
 21
-73.498275
  0
CIRCLE
  8
ボルト／ビス
  6
CONTINUOUS
 10
-84.935405
 20
0.69199
 40
0.288675
  0
CIRCLE
  8
ボルト／ビス
  6
CONTINUOUS
 10
-84.935405
 20
0.69199
 40
0.455885
  0
CIRCLE
  8
ボルト／ビス
  6
CONTINUOUS
 10
-93.435405
 20
9.19199
 40
0.288675
  0
CIRCLE
  8
ボルト／ビス
  6
CONTINUOUS
 10
-93.435405
 20
9.19199
 40
0.455885
  0
CIRCLE
  8
ボルト／ビス
  6
CONTINUOUS
 10
-69.935405
 20
0.69199
 40
0.288675
  0
CIRCLE
  8
ボルト／ビス
  6
CONTINUOUS
 10
-69.935405
 20
0.69199
 40
0.455885
  0
CIRCLE
  8
ボルト／ビス
  6
CONTINUOUS
 10
-61.435405
 20
9.19199
 40
0.288675
  0
CIRCLE
  8
ボルト／ビス
  6
CONTINUOUS
 10
-61.435405
 20
9.19199
 40
0.455885
  0
CIRCLE
  8
ボルト／ビス
  6
CONTINUOUS
 10
-69.935405
 20
32.69199
 40
0.288675
  0
CIRCLE
  8
ボルト／ビス
  6
CONTINUOUS
 10
-69.935405
 20
32.69199
 40
0.455885
  0
CIRCLE
  8
ボルト／ビス
  6
CONTINUOUS
 10
-61.435405
 20
24.19199
 40
0.288675
  0
CIRCLE
  8
ボルト／ビス
  6
CONTINUOUS
 10
-61.435405
 20
24.19199
 40
0.455885
  0
CIRCLE
  8
ボルト／ビス
  6
CONTINUOUS
 10
-84.935405
 20
32.69199
 40
0.288675
  0
CIRCLE
  8
ボルト／ビス
  6
CONTINUOUS
 10
-84.935405
 20
32.69199
 40
0.455885
  0
CIRCLE
  8
ボルト／ビス
  6
CONTINUOUS
 10
-93.435405
 20
24.19199
 40
0.288675
  0
CIRCLE
  8
ボルト／ビス
  6
CONTINUOUS
 10
-93.435405
 20
24.19199
 40
0.455885
  0
INSERT
  2
*GRP_0002
  8
文字
  6
CONTINUOUS
 10
0.0
 20
0.0
  0
INSERT
  2
*GRP_0003
  8
文字
  6
CONTINUOUS
 10
0.0
 20
0.0
  0
INSERT
  2
*GRP_0004
  8
文字
  6
CONTINUOUS
 10
0.0
 20
0.0
  0
INSERT
  2
*GRP_0005
  8
文字
  6
CONTINUOUS
 10
0.0
 20
0.0
  0
INSERT
  2
*GRP_0006
  8
文字
  6
CONTINUOUS
 10
0.0
 20
0.0
  0
INSERT
  2
*GRP_0007
  8
文字
  6
CONTINUOUS
 10
0.0
 20
0.0
  0
INSERT
  2
*GRP_0008
  8
文字
  6
CONTINUOUS
 10
0.0
 20
0.0
  0
INSERT
  2
*GRP_0009
  8
文字
  6
CONTINUOUS
 10
0.0
 20
0.0
  0
TEXT
  7
TextStyle03
  8
文字
  6
CONTINUOUS
 10
-98.825
 20
58.075
  1
アンカーピッチ
 40
3.0
 72
     5
 11
-75.575
 21
58.075
  0
TEXT
  7
TextStyle03
  8
文字
  6
CONTINUOUS
 10
-37.5
 20
9.075
  1
ﾊﾞﾗﾝｽｽﾃｰ
 40
3.0
 72
     5
 11
-24.1875
 21
9.075
  0
TEXT
  7
TextStyle03
  8
文字
  6
CONTINUOUS
 10
-31.2
 20
-9.725
  1
は排水穴位置を示す
 40
3.0
 72
     5
 11
-1.2
 21
-9.725
  0
TEXT
  7
TextStyle03
  8
文字
  6
CONTINUOUS
 10
-31.2
 20
-17.575
  1
はケーシング位置を示す
 40
3.0
 72
     5
 11
5.55
 21
-17.575
  0
TEXT
  7
TextStyle03
  8
文字
  6
CONTINUOUS
 10
-31.2
 20
-20.95
  1
４ヶ所中1ヶ所に設定
 40
3.0
 72
     5
 11
0.4875
 21
-20.95
  0
TEXT
  7
TextStyle03
  8
文字
  6
CONTINUOUS
 10
-36.8
 20
-28.1
  1
アンカー数量　４ヶ所
 40
3.0
 72
     5
 11
-3.425
 21
-28.1
  0
TEXT
  7
TextStyle03
  8
文字
  6
CONTINUOUS
 10
-85.65
 20
-15.325
  1
可動装置側
 40
3.0
 72
     5
 11
-69.15
 21
-15.325
  0
TEXT
  7
TextStyle03
  8
文字
  6
CONTINUOUS
 10
-85.65
 20
45.75
  1
可動装置側
 40
3.0
 72
     5
 11
-69.15
 21
45.75
  0
TEXT
  7
TextStyle03
  8
文字
  6
CONTINUOUS
 10
85.55
 20
99.05
  1
ＮＳコード：ＮＳＤ
 40
5.0
 72
     5
 11
135.55
 21
99.05
  0
TEXT
  7
TextStyle03
  8
文字
  6
CONTINUOUS
 10
-36.85
 20
-34.95
  1
アームユニット数　２ヶ所
 40
3.0
 72
     5
 11
3.275
 21
-34.95
  0
LINE
  8
文字
  6
CONTINUOUS
 10
-96.580403
 20
-26.094458
 11
-96.580403
 21
-63.801563
  0
LINE
  8
文字
  6
CONTINUOUS
 10
-58.290405
 20
-26.094458
 11
-58.290405
 21
-63.80985
  0
TEXT
  7
TextStyle03
  8
文字
  6
CONTINUOUS
 10
142.55
 20
45.725
  1
網入り6.8t
 40
3.0
 72
     5
 11
159.2375
 21
45.725
  0
TEXT
  7
TextStyle03
  8
文字
  6
CONTINUOUS
 10
149.175
 20
40.475
  1
×１枚
 40
3.0
 72
     5
 11
158.925
 21
40.475
  0
TEXT
  7
TextStyle03
  8
文字
  6
CONTINUOUS
 10
85.85
 20
120.1
  1
シリーズ：ＴＤ１
 40
5.0
 72
     5
 11
130.225
 21
120.1
  0
TEXT
  7
TextStyle03
  8
文字
  6
CONTINUOUS
 10
85.85
 20
114.475
  1
　　　　　（上下可動）600×600タイプ
 40
5.0
 72
     5
 11
186.475
 21
114.475
  0
TEXT
  7
TextStyle03
  8
文字
  6
CONTINUOUS
 10
85.85
 20
108.85
  1
図面名　：外観姿図
 40
5.0
 72
     5
 11
135.85
 21
108.85
  0
TEXT
  7
TextStyle03
  8
文字
  6
CONTINUOUS
 10
85.85
 20
103.225
  1
　　　　　　
 40
5.0
 72
     5
 11
118.975
 21
103.225
  0
INSERT
  2
*DIM_0010
  8
寸法
  6
CONTINUOUS
 10
0.0
 20
0.0
  0
INSERT
  2
*DIM_0011
  8
寸法
  6
CONTINUOUS
 10
0.0
 20
0.0
  0
INSERT
  2
*DIM_0012
  8
寸法
  6
CONTINUOUS
 10
0.0
 20
0.0
  0
INSERT
  2
*DIM_0013
  8
寸法
  6
CONTINUOUS
 10
0.0
 20
0.0
  0
INSERT
  2
*DIM_0014
  8
寸法
  6
CONTINUOUS
 10
0.0
 20
0.0
  0
INSERT
  2
*GRP_0015
  8
寸法
  6
CONTINUOUS
 10
0.0
 20
0.0
  0
INSERT
  2
*DIM_0026
  8
寸法
  6
CONTINUOUS
 10
0.0
 20
0.0
  0
INSERT
  2
*DIM_0027
  8
寸法
  6
CONTINUOUS
 10
0.0
 20
0.0
  0
INSERT
  2
*DIM_0029
  8
寸法
  6
CONTINUOUS
 10
0.0
 20
0.0
  0
INSERT
  2
*DIM_0030
  8
寸法
  6
CONTINUOUS
 10
0.0
 20
0.0
  0
INSERT
  2
*DIM_0038
  8
寸法
  6
CONTINUOUS
 10
0.0
 20
0.0
  0
INSERT
  2
*DIM_0039
  8
寸法
  6
CONTINUOUS
 10
0.0
 20
0.0
  0
LINE
  8
別途部材
  6
CONTINUOUS
 10
-95.535405
 20
-1.40801
 11
-94.935405
 21
-0.80801
  0
LINE
  8
別途部材
  6
CONTINUOUS
 10
-95.535405
 20
-1.40801
 11
-95.535405
 21
16.69199
  0
LINE
  8
別途部材
  6
CONTINUOUS
 10
-94.935405
 20
-0.80801
 11
-94.935405
 21
16.69199
  0
LINE
  8
別途部材
  6
CONTINUOUS
 10
-94.935405
 20
-0.80801
 11
-77.435405
 21
-0.80801
  0
LINE
  8
別途部材
  6
CONTINUOUS
 10
-95.535405
 20
-1.40801
 11
-77.435405
 21
-1.40801
  0
LINE
  8
別途部材
  6
CONTINUOUS
 10
-59.335405
 20
-1.40801
 11
-59.935405
 21
-0.80801
  0
LINE
  8
別途部材
  6
CONTINUOUS
 10
-59.335405
 20
-1.40801
 11
-59.335405
 21
16.69199
  0
LINE
  8
別途部材
  6
CONTINUOUS
 10
-59.935405
 20
-0.80801
 11
-59.935405
 21
16.69199
  0
LINE
  8
別途部材
  6
CONTINUOUS
 10
-59.935405
 20
-0.80801
 11
-77.435405
 21
-0.80801
  0
LINE
  8
別途部材
  6
CONTINUOUS
 10
-59.335405
 20
-1.40801
 11
-77.435405
 21
-1.40801
  0
LINE
  8
別途部材
  6
CONTINUOUS
 10
-59.335405
 20
34.79199
 11
-59.935405
 21
34.19199
  0
LINE
  8
別途部材
  6
CONTINUOUS
 10
-59.335405
 20
34.79199
 11
-59.335405
 21
16.69199
  0
LINE
  8
別途部材
  6
CONTINUOUS
 10
-59.935405
 20
34.19199
 11
-59.935405
 21
16.69199
  0
LINE
  8
別途部材
  6
CONTINUOUS
 10
-59.935405
 20
34.19199
 11
-77.435405
 21
34.19199
  0
LINE
  8
別途部材
  6
CONTINUOUS
 10
-59.335405
 20
34.79199
 11
-77.435405
 21
34.79199
  0
LINE
  8
別途部材
  6
CONTINUOUS
 10
-95.535405
 20
34.79199
 11
-94.935405
 21
34.19199
  0
LINE
  8
別途部材
  6
CONTINUOUS
 10
-95.535405
 20
34.79199
 11
-95.535405
 21
16.69199
  0
LINE
  8
別途部材
  6
CONTINUOUS
 10
-94.935405
 20
34.19199
 11
-94.935405
 21
16.69199
  0
LINE
  8
別途部材
  6
CONTINUOUS
 10
-94.935405
 20
34.19199
 11
-77.435405
 21
34.19199
  0
LINE
  8
別途部材
  6
CONTINUOUS
 10
-95.535405
 20
34.79199
 11
-77.435405
 21
34.79199
  0
LINE
  8
別途部材
  6
CONTINUOUS
 10
-92.435405
 20
1.69199
 11
-88.025072
 21
6.102323
  0
LINE
  8
別途部材
  6
CONTINUOUS
 10
-62.435405
 20
1.69199
 11
-66.845737
 21
6.102323
  0
LINE
  8
別途部材
  6
CONTINUOUS
 62
    96
 10
22.971035
 20
-62.248265
 11
22.371035
 21
-63.748265
  0
LINE
  8
別途部材
  6
CONTINUOUS
 62
    96
 10
22.971035
 20
-62.248265
 11
40.471035
 21
-62.248265
  0
LINE
  8
別途部材
  6
CONTINUOUS
 10
22.371035
 20
-63.748265
 11
40.471035
 21
-63.748265
  0
LINE
  8
別途部材
  6
CONTINUOUS
 62
    96
 10
57.971038
 20
-62.248265
 11
58.571038
 21
-63.748265
  0
LINE
  8
別途部材
  6
CONTINUOUS
 62
    96
 10
57.971038
 20
-62.248265
 11
40.471035
 21
-62.248265
  0
LINE
  8
別途部材
  6
CONTINUOUS
 10
58.571038
 20
-63.748265
 11
40.471035
 21
-63.748265
  0
ARC
  8
別途部材
  6
CONTINUOUS
 10
40.471035
 20
-72.310769
 40
18.062501
 50
33.855033
 51
146.144967
  0
LINE
  8
別途部材
  6
CONTINUOUS
 62
    96
 10
-94.935405
 20
-62.248265
 11
-95.535405
 21
-63.748265
  0
LINE
  8
別途部材
  6
CONTINUOUS
 62
    96
 10
-94.935405
 20
-62.248265
 11
-77.435405
 21
-62.248265
  0
LINE
  8
別途部材
  6
CONTINUOUS
 10
-95.535405
 20
-63.748265
 11
-77.435405
 21
-63.748265
  0
LINE
  8
別途部材
  6
CONTINUOUS
 62
    96
 10
-59.935402
 20
-62.248265
 11
-59.335402
 21
-63.748265
  0
LINE
  8
別途部材
  6
CONTINUOUS
 62
    96
 10
-59.935402
 20
-62.248265
 11
-77.435405
 21
-62.248265
  0
LINE
  8
別途部材
  6
CONTINUOUS
 10
-59.335402
 20
-63.748265
 11
-77.435405
 21
-63.748265
  0
ARC
  8
別途部材
  6
CONTINUOUS
 10
-77.435405
 20
-72.310769
 40
18.062501
 50
33.855033
 51
146.144967
  0
INSERT
  2
*GRP_0031
  8
別途部材
  6
DOT
 10
0.0
 20
0.0
  0
INSERT
  2
*GRP_0032
  8
別途部材
  6
DOT
 10
0.0
 20
0.0
  0
INSERT
  2
*GRP_0033
  8
別途部材
  6
DOT
 10
0.0
 20
0.0
  0
INSERT
  2
*GRP_0034
  8
別途部材
  6
DOT
 10
0.0
 20
0.0
  0
POLYLINE
  8
曲げ物
  6
CONTINUOUS
 66
     1
 70
     1
  0
VERTEX
  8
曲げ物
 10
161.126015
 20
67.8435
  0
VERTEX
  8
曲げ物
 10
131.126015
 20
67.8435
  0
VERTEX
  8
曲げ物
 10
131.126015
 20
37.8435
  0
VERTEX
  8
曲げ物
 10
161.126015
 20
37.8435
  0
SEQEND
  0
INSERT
  2
*GRP_0035
  8
曲げ物
  6
DOT
 10
0.0
 20
0.0
  0
LINE
  8
鉄骨等
  6
CONTINUOUS
 62
    47
 10
21.326037
 20
-67.29845
 11
21.326037
 21
-65.54845
  0
LINE
  8
鉄骨等
  6
CONTINUOUS
 62
    47
 10
21.326037
 20
-65.54845
 11
23.430815
 21
-63.82345
  0
LINE
  8
鉄骨等
  6
CONTINUOUS
 62
    47
 10
23.430815
 20
-63.82345
 11
23.430815
 21
-63.74827
  0
LINE
  8
鉄骨等
  6
CONTINUOUS
 62
    47
 10
59.616035
 20
-67.29845
 11
59.616035
 21
-65.54845
  0
LINE
  8
鉄骨等
  6
CONTINUOUS
 62
    47
 10
59.616035
 20
-65.54845
 11
57.511257
 21
-63.82345
  0
LINE
  8
鉄骨等
  6
CONTINUOUS
 62
    47
 10
57.511257
 20
-63.82345
 11
57.511257
 21
-63.74827
  0
LINE
  8
鉄骨等
  6
CONTINUOUS
 62
    47
 10
-96.580403
 20
-67.29845
 11
-96.580403
 21
-65.54845
  0
LINE
  8
鉄骨等
  6
CONTINUOUS
 62
    47
 10
-96.580403
 20
-65.54845
 11
-94.475625
 21
-63.82345
  0
LINE
  8
鉄骨等
  6
CONTINUOUS
 62
    47
 10
-94.475625
 20
-63.82345
 11
-94.475625
 21
-63.74827
  0
LINE
  8
鉄骨等
  6
CONTINUOUS
 62
    47
 10
-58.290405
 20
-67.29845
 11
-58.290405
 21
-65.54845
  0
LINE
  8
鉄骨等
  6
CONTINUOUS
 62
    47
 10
-58.290405
 20
-65.54845
 11
-60.395183
 21
-63.82345
  0
LINE
  8
鉄骨等
  6
CONTINUOUS
 62
    47
 10
-60.395183
 20
-63.82345
 11
-60.395183
 21
-63.74827
  0
ENDSEC
  0
EOF
