  0
SECTION
  2
HEADER
  9
$EXTMIN
 10
-210.0
 20
-148.5
  9
$EXTMAX
 10
210.0
 20
148.5
  9
$PDMODE
 70
    32
  9
$PDSIZE
 40
1.5
  9
$LTSCALE
 40
10.0
  0
ENDSEC
  0
SECTION
  2
TABLES
  0
TABLE
  2
LTYPE
 70
    15
  0
LTYPE
  2
CONTINUOUS
 70
    64
  3
実線
 72
    65
 73
     0
 40
0.0
  0
LTYPE
  2
DASHED
 70
    64
  3
破線A
 72
    65
 73
     2
 40
0.6
 49
0.4
 49
-0.2
  0
LTYPE
  2
DASHEDX2
 70
    64
  3
破線B
 72
    65
 73
     2
 40
1.3
 49
0.9
 49
-0.4
  0
LTYPE
  2
DASHDOT
 70
    64
  3
１点鎖線A
 72
    65
 73
     4
 40
0.5375
 49
0.375
 49
-0.05
 49
0.0625
 49
-0.05
  0
LTYPE
  2
DASHDOTX2
 70
    64
  3
１点鎖線B
 72
    65
 73
     4
 40
1.075
 49
0.75
 49
-0.1
 49
0.125
 49
-0.1
  0
LTYPE
  2
DIVIDE2
 70
    64
  3
２点鎖線A
 72
    65
 73
     6
 40
0.5125
 49
0.3
 49
-0.0375
 49
0.05
 49
-0.0375
 49
0.05
 49
-0.0375
  0
LTYPE
  2
DIVIDE
 70
    64
  3
２点鎖線B
 72
    65
 73
     6
 40
1.05
 49
0.55
 49
-0.1
 49
0.1
 49
-0.1
 49
0.1
 49
-0.1
  0
LTYPE
  2
DOT
 70
    64
  3
点線A
 72
    65
 73
     2
 40
0.1125
 49
0.0625
 49
-0.05
  0
LTYPE
  2
DOTX2
 70
    64
  3
点線B
 72
    65
 73
     2
 40
0.275
 49
0.15
 49
-0.125
  0
LTYPE
  2
CONTINUOUS
 70
    64
  3
実線
 72
    65
 73
     0
 40
0.0
  0
LTYPE
  2
CONTINUOUS
 70
    64
  3
実線
 72
    65
 73
     0
 40
0.0
  0
LTYPE
  2
CONTINUOUS
 70
    64
  3
実線
 72
    65
 73
     0
 40
0.0
  0
LTYPE
  2
CONTINUOUS
 70
    64
  3
実線
 72
    65
 73
     0
 40
0.0
  0
LTYPE
  2
CONTINUOUS
 70
    64
  3
実線
 72
    65
 73
     0
 40
0.0
  0
LTYPE
  2
CONTINUOUS
 70
    64
  3
実線
 72
    65
 73
     0
 40
0.0
  0
ENDTAB
  0
TABLE
  2
LAYER
 70
    34
  0
LAYER
  2
通り芯
 70
     0
 62
    15
  6
CONTINUOUS
  0
LAYER
  2
補助線
 70
     0
 62
    16
  6
DOT
  0
LAYER
  2
躯体
 70
     0
 62
    31
  6
CONTINUOUS
  0
LAYER
  2
型材
 70
     0
 62
    32
  6
CONTINUOUS
  0
LAYER
  2
型材断面
 70
     0
 62
    47
  6
CONTINUOUS
  0
LAYER
  2
ガラス
 70
     0
 62
    48
  6
CONTINUOUS
  0
LAYER
  2
ゴム等
 70
     0
 62
    63
  6
CONTINUOUS
  0
LAYER
  2
ボルト／ビス
 70
     0
 62
    64
  6
CONTINUOUS
  0
LAYER
  2
文字
 70
     0
 62
    79
  6
CONTINUOUS
  0
LAYER
  2
寸法
 70
     0
 62
    80
  6
CONTINUOUS
  0
LAYER
  2
ﾊｯﾁﾝｸﾞ
 70
     0
 62
    95
  6
CONTINUOUS
  0
LAYER
  2
別途部材
 70
     0
 62
    96
  6
CONTINUOUS
  0
LAYER
  2
曲げ物
 70
     0
 62
   111
  6
CONTINUOUS
  0
LAYER
  2
鉄骨等
 70
     0
 62
   112
  6
CONTINUOUS
  0
LAYER
  2
St
 70
     0
 62
   127
  6
CONTINUOUS
  0
LAYER
  2
その他部品等
 70
     0
 62
   128
  6
CONTINUOUS
  0
LAYER
  2
ｶﾞｽｹｯﾄ
 70
     0
 62
   143
  6
CONTINUOUS
  0
LAYER
  2
ｽｹｯﾁ
 70
     0
 62
    14
  6
CONTINUOUS
  0
LAYER
  2
0
 70
     0
 62
    17
  6
CONTINUOUS
  0
LAYER
  2
1
 70
     0
 62
    30
  6
CONTINUOUS
  0
LAYER
  2
4
 70
     0
 62
    33
  6
CONTINUOUS
  0
LAYER
  2
ﾚｲﾔ3
 70
     0
 62
    46
  6
CONTINUOUS
  0
LAYER
  2
外形線
 70
     0
 62
    49
  6
CONTINUOUS
  0
LAYER
  2
部品
 70
     0
 62
    14
  6
CONTINUOUS
  0
LAYER
  2
サッシ芯
 70
     0
 62
    17
  6
DASHDOTX2
  0
LAYER
  2
寸法線
 70
     0
 62
    62
  6
CONTINUOUS
  0
LAYER
  2
姿図外形線
 70
     0
 62
    65
  6
CONTINUOUS
  0
LAYER
  2
姿補助線
 70
     0
 62
    30
  6
CONTINUOUS
  0
LAYER
  2
透視線
 70
     0
 62
    78
  6
DOT
  0
LAYER
  2
用紙
 70
     0
 62
    81
  6
CONTINUOUS
  0
LAYER
  2
実線図枠
 70
     0
 62
    94
  6
CONTINUOUS
  0
LAYER
  2
補助図枠
 70
     0
 62
    97
  6
CONTINUOUS
  0
LAYER
  2
建具記号
 70
     0
 62
   110
  6
CONTINUOUS
  0
LAYER
  2
補助文字
 70
     0
 62
   113
  6
CONTINUOUS
  0
ENDTAB
  0
TABLE
  2
STYLE
 70
    10
  0
STYLE
  2
STANDARD
 70
     0
 40
1.0
 41
1.0
 42
1.0
 50
0.0
 71
     0
  3
TXT
  4
BIGFONT
  0
STYLE
  2
TATE
 70
     4
 40
1.0
 41
1.0
 42
1.0
 50
0.0
 71
     0
  3
TXT
  4
BIGFONT
  0
STYLE
  2
TextStyle03
 70
     0
 40
1.0
 41
1.0
 42
1.0
 50
0.0
 71
     0
  3
MONOTXT
  4
BIGFONT
  0
STYLE
  2
TextStyle04
 70
     0
 40
1.0
 41
1.0
 42
1.0
 50
0.0
 71
     0
  3
MONOTXT
  4
BIGFONT
  0
STYLE
  2
TextStyle05
 70
     0
 40
1.0
 41
1.0
 42
1.0
 50
0.0
 71
     0
  3
MONOTXT
  4
BIGFONT
  0
STYLE
  2
TextStyle06
 70
     0
 40
1.0
 41
1.0
 42
1.0
 50
0.0
 71
     0
  3
MONOTXT
  4
BIGFONT
  0
STYLE
  2
TextStyle07
 70
     0
 40
1.0
 41
1.0
 42
1.0
 50
0.0
 71
     0
  3
MONOTXT
  4
BIGFONT
  0
STYLE
  2
TextStyle08
 70
     0
 40
1.0
 41
1.0
 42
1.0
 50
0.0
 71
     0
  3
MONOTXT
  4
BIGFONT
  0
STYLE
  2
TextStyle09
 70
     0
 40
1.0
 41
1.0
 42
1.0
 50
0.0
 71
     0
  3
MONOTXT
  4
BIGFONT
  0
STYLE
  2
TextStyle10
 70
     0
 40
1.0
 41
1.0
 42
1.0
 50
0.0
 71
     0
  3
MONOTXT
  4
BIGFONT
  0
ENDTAB
  0
ENDSEC
  0
SECTION
  2
BLOCKS
  0
BLOCK
  2
*GRP_0001
 70
    65
 10
0.0
 20
0.0
  0
LINE
  8
型材断面
  6
CONTINUOUS
 10
195.0
 20
133.5
 11
195.0
 21
-133.5
  0
LINE
  8
型材断面
  6
CONTINUOUS
 10
195.0
 20
-133.5
 11
-185.0
 21
-133.5
  0
LINE
  8
型材断面
  6
CONTINUOUS
 10
-185.0
 20
-133.5
 11
-185.0
 21
133.5
  0
LINE
  8
型材断面
  6
CONTINUOUS
 10
195.0
 20
133.5
 11
-185.0
 21
133.5
  0
LINE
  8
型材断面
  6
CONTINUOUS
 10
145.0
 20
-133.5
 11
145.0
 21
-118.5
  0
LINE
  8
型材断面
  6
CONTINUOUS
 10
195.0
 20
-118.5
 11
145.0
 21
-118.5
  0
ENDBLK
  0
BLOCK
  2
*DIM_0002
 70
    65
 10
0.0
 20
0.0
  0
LINE
  8
寸法
  6
BYBLOCK
 62
     0
 10
-139.38576
 20
-44.812283
 11
-39.38576
 21
-44.812283
  0
POINT
  8
寸法
 62
     0
 10
-139.38576
 20
-44.812283
  0
POINT
  8
寸法
 62
     0
 10
-39.38576
 20
-44.812283
  0
TEXT
  7
TextStyle03
  8
寸法
  6
CONTINUOUS
 62
     0
 10
-101.11875
 20
-44.45
  1
呼称寸法　2000
 40
3.0
 72
     5
 11
-77.68125
 21
-44.45
  0
ENDBLK
  0
BLOCK
  2
*DIM_0003
 70
    65
 10
0.0
 20
0.0
  0
LINE
  8
寸法
  6
BYBLOCK
 62
     0
 10
-39.070005
 20
82.974167
 11
-18.520578
 21
82.974167
  0
LINE
  8
寸法
  6
BYBLOCK
 62
     0
 10
-31.04613
 20
77.424167
 11
-18.520578
 21
77.424167
  0
LINE
  8
寸法
  6
BYBLOCK
 62
     0
 10
-18.520578
 20
82.974167
 11
-18.520578
 21
77.424167
  0
POINT
  8
寸法
 62
     0
 10
-18.520578
 20
82.974167
  0
POINT
  8
寸法
 62
     0
 10
-18.520578
 20
77.424167
  0
TEXT
  7
TextStyle03
  8
寸法
  6
CONTINUOUS
 62
     0
 10
-18.95
 20
77.7375
  1
111
 40
3.0
 50
90.0
 72
     5
 11
-18.95
 21
82.6125
  0
ENDBLK
  0
BLOCK
  2
*DIM_0004
 70
    65
 10
0.0
 20
0.0
  0
LINE
  8
寸法
  6
BYBLOCK
 62
     0
 10
-39.070005
 20
-17.025838
 11
-18.520578
 21
-17.025838
  0
LINE
  8
寸法
  6
BYBLOCK
 62
     0
 10
-31.04613
 20
-11.475838
 11
-18.520578
 21
-11.475838
  0
LINE
  8
寸法
  6
BYBLOCK
 62
     0
 10
-18.520578
 20
-17.025838
 11
-18.520578
 21
-11.475838
  0
POINT
  8
寸法
 62
     0
 10
-18.520578
 20
-17.025838
  0
POINT
  8
寸法
 62
     0
 10
-18.520578
 20
-11.475838
  0
TEXT
  7
TextStyle03
  8
寸法
  6
CONTINUOUS
 62
     0
 10
-18.925
 20
-16.7125
  1
111
 40
3.0
 50
90.0
 72
     5
 11
-18.925
 21
-11.8375
  0
ENDBLK
  0
BLOCK
  2
*GRP_0005
 70
    65
 10
0.0
 20
0.0
  0
POLYLINE
  8
寸法
  6
BYBLOCK
 62
     0
 66
     1
  0
VERTEX
  8
寸法
 10
-42.6251
 20
9.258137
  0
VERTEX
  8
寸法
 10
-36.208597
 20
2.841635
  0
VERTEX
  8
寸法
 10
-30.30147
 20
2.841635
  0
SEQEND
  0
ENDBLK
  0
BLOCK
  2
*DIM_0006
 70
    65
 10
0.0
 20
0.0
  0
LINE
  8
寸法
  6
BYBLOCK
 62
     0
 10
-124.38576
 20
108.229165
 11
-124.38576
 21
119.15992
  0
LINE
  8
寸法
  6
BYBLOCK
 62
     0
 10
-89.38576
 20
108.229165
 11
-89.38576
 21
119.15992
  0
LINE
  8
寸法
  6
BYBLOCK
 62
     0
 10
-124.38576
 20
119.15992
 11
-89.38576
 21
119.15992
  0
POINT
  8
寸法
 62
     0
 10
-124.38576
 20
119.15992
  0
POINT
  8
寸法
 62
     0
 10
-89.38576
 20
119.15992
  0
TEXT
  7
TextStyle03
  8
寸法
  6
CONTINUOUS
 62
     0
 10
-109.3375
 20
119.55
  1
700
 40
3.0
 72
     5
 11
-104.4625
 21
119.55
  0
ENDBLK
  0
BLOCK
  2
*DIM_0007
 70
    65
 10
0.0
 20
0.0
  0
LINE
  8
寸法
  6
BYBLOCK
 62
     0
 10
-54.38576
 20
108.229165
 11
-54.38576
 21
119.15992
  0
LINE
  8
寸法
  6
BYBLOCK
 62
     0
 10
-89.38576
 20
119.15992
 11
-54.38576
 21
119.15992
  0
POINT
  8
寸法
 62
     0
 10
-54.38576
 20
119.15992
  0
TEXT
  7
TextStyle03
  8
寸法
  6
CONTINUOUS
 62
     0
 10
-74.3375
 20
119.55
  1
700
 40
3.0
 72
     5
 11
-69.4625
 21
119.55
  0
ENDBLK
  0
BLOCK
  2
*DIM_0008
 70
    65
 10
0.0
 20
0.0
  0
LINE
  8
寸法
  6
BYBLOCK
 62
     0
 10
-164.64076
 20
67.974165
 11
-175.571515
 21
67.974167
  0
LINE
  8
寸法
  6
BYBLOCK
 62
     0
 10
-164.640762
 20
32.974165
 11
-175.571518
 21
32.974167
  0
LINE
  8
寸法
  6
BYBLOCK
 62
     0
 10
-175.571515
 20
67.974167
 11
-175.571518
 21
32.974167
  0
POINT
  8
寸法
 62
     0
 10
-175.571515
 20
67.974167
  0
POINT
  8
寸法
 62
     0
 10
-175.571518
 20
32.974167
  0
TEXT
  7
TextStyle03
  8
寸法
  6
CONTINUOUS
 62
     0
 10
-175.95
 20
48.0375
  1
700
 40
3.0
 50
90.0
 72
     5
 11
-175.95
 21
52.9125
  0
ENDBLK
  0
BLOCK
  2
*DIM_0009
 70
    65
 10
0.0
 20
0.0
  0
LINE
  8
寸法
  6
BYBLOCK
 62
     0
 10
-164.640762
 20
32.974165
 11
-175.571518
 21
32.97417
  0
LINE
  8
寸法
  6
BYBLOCK
 62
     0
 10
-164.640765
 20
-2.025835
 11
-175.57152
 21
-2.02583
  0
LINE
  8
寸法
  6
BYBLOCK
 62
     0
 10
-175.571518
 20
32.97417
 11
-175.57152
 21
-2.02583
  0
POINT
  8
寸法
 62
     0
 10
-175.57152
 20
-2.02583
  0
TEXT
  7
TextStyle03
  8
寸法
  6
CONTINUOUS
 62
     0
 10
-175.95
 20
13.0375
  1
700
 40
3.0
 50
90.0
 72
     5
 11
-175.95
 21
17.9125
  0
ENDBLK
  0
BLOCK
  2
*GRP_0010
 70
    65
 10
0.0
 20
0.0
  0
POLYLINE
  8
寸法
  6
BYBLOCK
 62
     0
 66
     1
  0
VERTEX
  8
寸法
 10
-136.14641
 20
67.41518
  0
VERTEX
  8
寸法
 10
-142.562907
 20
73.831685
  0
VERTEX
  8
寸法
 10
-148.470035
 20
73.831688
  0
SEQEND
  0
ENDBLK
  0
BLOCK
  2
*DIM_0011
 70
    65
 10
0.0
 20
0.0
  0
LINE
  8
寸法
  6
CONTINUOUS
 10
-143.530765
 20
-79.49145
 11
-143.530765
 21
-44.812283
  0
LINE
  8
寸法
  6
CONTINUOUS
 10
-139.38576
 20
-44.812283
 11
-143.530765
 21
-44.812283
  0
POINT
  8
寸法
 10
-139.38576
 20
-44.812283
  0
POINT
  8
寸法
 10
-143.530765
 20
-44.812283
  0
TEXT
  7
TextStyle03
  8
寸法
  6
CONTINUOUS
 10
-144.75625
 20
-44.45
  1
82.9
 40
3.0
 72
     5
 11
-138.19375
 21
-44.45
  0
ENDBLK
  0
BLOCK
  2
*DIM_0012
 70
    65
 10
0.0
 20
0.0
  0
LINE
  8
寸法
  6
CONTINUOUS
 10
-35.240755
 20
-79.49145
 11
-35.240755
 21
-44.812283
  0
LINE
  8
寸法
  6
CONTINUOUS
 10
-39.38576
 20
-44.812283
 11
-35.240755
 21
-44.812283
  0
POINT
  8
寸法
 10
-39.38576
 20
-44.812283
  0
POINT
  8
寸法
 10
-35.240755
 20
-44.812283
  0
TEXT
  7
TextStyle03
  8
寸法
  6
CONTINUOUS
 10
-40.60625
 20
-44.45
  1
82.9
 40
3.0
 72
     5
 11
-34.04375
 21
-44.45
  0
ENDBLK
  0
BLOCK
  2
*DIM_0013
 70
    65
 10
0.0
 20
0.0
  0
LINE
  8
寸法
  6
CONTINUOUS
 10
81.53811
 20
70.93513
 11
81.53811
 21
80.331092
  0
LINE
  8
寸法
  6
CONTINUOUS
 10
130.73811
 20
70.93513
 11
130.73811
 21
80.331092
  0
LINE
  8
寸法
  6
CONTINUOUS
 10
81.53811
 20
80.331092
 11
130.73811
 21
80.331092
  0
POINT
  8
寸法
 10
81.53811
 20
80.331092
  0
POINT
  8
寸法
 10
130.73811
 20
80.331092
  0
TEXT
  7
TextStyle03
  8
寸法
  6
CONTINUOUS
 10
103.7125
 20
80.7
  1
984
 40
3.0
 72
     5
 11
108.5875
 21
80.7
  0
ENDBLK
  0
BLOCK
  2
*DIM_0014
 70
    65
 10
0.0
 20
0.0
  0
LINE
  8
寸法
  6
CONTINUOUS
 10
135.73811
 20
65.93513
 11
149.634562
 21
65.93513
  0
LINE
  8
寸法
  6
CONTINUOUS
 10
135.73811
 20
16.73513
 11
149.634562
 21
16.73513
  0
LINE
  8
寸法
  6
CONTINUOUS
 10
149.634562
 20
65.93513
 11
149.634562
 21
16.73513
  0
POINT
  8
寸法
 10
149.634562
 20
65.93513
  0
POINT
  8
寸法
 10
149.634562
 20
16.73513
  0
TEXT
  7
TextStyle03
  8
寸法
  6
CONTINUOUS
 10
149.275
 20
38.8875
  1
984
 40
3.0
 50
90.0
 72
     5
 11
149.275
 21
43.7625
  0
ENDBLK
  0
BLOCK
  2
*GRP_0015
 70
    65
 10
0.0
 20
0.0
  0
INSERT
  2
*GRP_0021
  8
補助線
  6
CONTINUOUS
 10
0.0
 20
0.0
  0
LINE
  8
ボルト／ビス
  6
CONTINUOUS
 10
-38.097085
 20
-4.525835
 11
-38.241423
 21
-4.275835
  0
LINE
  8
ボルト／ビス
  6
CONTINUOUS
 10
-38.097085
 20
-4.525835
 11
-38.241423
 21
-4.775835
  0
LINE
  8
ボルト／ビス
  6
CONTINUOUS
 10
-38.530098
 20
-4.275835
 11
-38.674435
 21
-4.525835
  0
LINE
  8
ボルト／ビス
  6
CONTINUOUS
 10
-38.530098
 20
-4.775835
 11
-38.674435
 21
-4.525835
  0
CIRCLE
  8
ボルト／ビス
  6
CONTINUOUS
 10
-38.38576
 20
-4.525835
 40
0.25
  0
LINE
  8
ボルト／ビス
  6
CONTINUOUS
 10
-38.241423
 20
-4.775835
 11
-38.530098
 21
-4.775835
  0
LINE
  8
ボルト／ビス
  6
CONTINUOUS
 10
-38.530098
 20
-4.275835
 11
-38.241423
 21
-4.275835
  0
ENDBLK
  0
BLOCK
  2
*GRP_0016
 70
    65
 10
0.0
 20
0.0
  0
INSERT
  2
*GRP_0022
  8
補助線
  6
CONTINUOUS
 10
0.0
 20
0.0
  0
LINE
  8
ボルト／ビス
  6
CONTINUOUS
 10
-38.097085
 20
10.474165
 11
-38.241423
 21
10.724165
  0
LINE
  8
ボルト／ビス
  6
CONTINUOUS
 10
-38.097085
 20
10.474165
 11
-38.241423
 21
10.224165
  0
LINE
  8
ボルト／ビス
  6
CONTINUOUS
 10
-38.530098
 20
10.724165
 11
-38.674435
 21
10.474165
  0
LINE
  8
ボルト／ビス
  6
CONTINUOUS
 10
-38.530098
 20
10.224165
 11
-38.674435
 21
10.474165
  0
CIRCLE
  8
ボルト／ビス
  6
CONTINUOUS
 10
-38.38576
 20
10.474165
 40
0.25
  0
LINE
  8
ボルト／ビス
  6
CONTINUOUS
 10
-38.241423
 20
10.224165
 11
-38.530098
 21
10.224165
  0
LINE
  8
ボルト／ビス
  6
CONTINUOUS
 10
-38.530098
 20
10.724165
 11
-38.241423
 21
10.724165
  0
ENDBLK
  0
BLOCK
  2
*GRP_0017
 70
    65
 10
0.0
 20
0.0
  0
INSERT
  2
*GRP_0023
  8
補助線
  6
CONTINUOUS
 10
0.0
 20
0.0
  0
LINE
  8
ボルト／ビス
  6
CONTINUOUS
 10
-38.097085
 20
25.474165
 11
-38.241423
 21
25.724165
  0
LINE
  8
ボルト／ビス
  6
CONTINUOUS
 10
-38.097085
 20
25.474165
 11
-38.241423
 21
25.224165
  0
LINE
  8
ボルト／ビス
  6
CONTINUOUS
 10
-38.530098
 20
25.724165
 11
-38.674435
 21
25.474165
  0
LINE
  8
ボルト／ビス
  6
CONTINUOUS
 10
-38.530098
 20
25.224165
 11
-38.674435
 21
25.474165
  0
CIRCLE
  8
ボルト／ビス
  6
CONTINUOUS
 10
-38.38576
 20
25.474165
 40
0.25
  0
LINE
  8
ボルト／ビス
  6
CONTINUOUS
 10
-38.241423
 20
25.224165
 11
-38.530098
 21
25.224165
  0
LINE
  8
ボルト／ビス
  6
CONTINUOUS
 10
-38.530098
 20
25.724165
 11
-38.241423
 21
25.724165
  0
ENDBLK
  0
BLOCK
  2
*GRP_0018
 70
    65
 10
0.0
 20
0.0
  0
INSERT
  2
*GRP_0024
  8
補助線
  6
CONTINUOUS
 10
0.0
 20
0.0
  0
LINE
  8
ボルト／ビス
  6
CONTINUOUS
 10
-38.097085
 20
40.474165
 11
-38.241423
 21
40.724165
  0
LINE
  8
ボルト／ビス
  6
CONTINUOUS
 10
-38.097085
 20
40.474165
 11
-38.241423
 21
40.224165
  0
LINE
  8
ボルト／ビス
  6
CONTINUOUS
 10
-38.530098
 20
40.724165
 11
-38.674435
 21
40.474165
  0
LINE
  8
ボルト／ビス
  6
CONTINUOUS
 10
-38.530098
 20
40.224165
 11
-38.674435
 21
40.474165
  0
CIRCLE
  8
ボルト／ビス
  6
CONTINUOUS
 10
-38.38576
 20
40.474165
 40
0.25
  0
LINE
  8
ボルト／ビス
  6
CONTINUOUS
 10
-38.241423
 20
40.224165
 11
-38.530098
 21
40.224165
  0
LINE
  8
ボルト／ビス
  6
CONTINUOUS
 10
-38.530098
 20
40.724165
 11
-38.241423
 21
40.724165
  0
ENDBLK
  0
BLOCK
  2
*GRP_0019
 70
    65
 10
0.0
 20
0.0
  0
INSERT
  2
*GRP_0025
  8
補助線
  6
CONTINUOUS
 10
0.0
 20
0.0
  0
LINE
  8
ボルト／ビス
  6
CONTINUOUS
 10
-38.097085
 20
70.474165
 11
-38.241423
 21
70.224165
  0
LINE
  8
ボルト／ビス
  6
CONTINUOUS
 10
-38.097085
 20
70.474165
 11
-38.241423
 21
70.724165
  0
LINE
  8
ボルト／ビス
  6
CONTINUOUS
 10
-38.530098
 20
70.224165
 11
-38.674435
 21
70.474165
  0
LINE
  8
ボルト／ビス
  6
CONTINUOUS
 10
-38.530098
 20
70.724165
 11
-38.674435
 21
70.474165
  0
CIRCLE
  8
ボルト／ビス
  6
CONTINUOUS
 10
-38.38576
 20
70.474165
 40
0.25
  0
LINE
  8
ボルト／ビス
  6
CONTINUOUS
 10
-38.241423
 20
70.724165
 11
-38.530098
 21
70.724165
  0
LINE
  8
ボルト／ビス
  6
CONTINUOUS
 10
-38.530098
 20
70.224165
 11
-38.241423
 21
70.224165
  0
ENDBLK
  0
BLOCK
  2
*GRP_0020
 70
    65
 10
0.0
 20
0.0
  0
INSERT
  2
*GRP_0026
  8
補助線
  6
CONTINUOUS
 10
0.0
 20
0.0
  0
LINE
  8
ボルト／ビス
  6
CONTINUOUS
 10
-38.097085
 20
55.474165
 11
-38.241423
 21
55.224165
  0
LINE
  8
ボルト／ビス
  6
CONTINUOUS
 10
-38.097085
 20
55.474165
 11
-38.241423
 21
55.724165
  0
LINE
  8
ボルト／ビス
  6
CONTINUOUS
 10
-38.530098
 20
55.224165
 11
-38.674435
 21
55.474165
  0
LINE
  8
ボルト／ビス
  6
CONTINUOUS
 10
-38.530098
 20
55.724165
 11
-38.674435
 21
55.474165
  0
CIRCLE
  8
ボルト／ビス
  6
CONTINUOUS
 10
-38.38576
 20
55.474165
 40
0.25
  0
LINE
  8
ボルト／ビス
  6
CONTINUOUS
 10
-38.241423
 20
55.724165
 11
-38.530098
 21
55.724165
  0
LINE
  8
ボルト／ビス
  6
CONTINUOUS
 10
-38.530098
 20
55.224165
 11
-38.241423
 21
55.224165
  0
ENDBLK
  0
BLOCK
  2
*GRP_0021
 70
    65
 10
0.0
 20
0.0
  0
LINE
  8
補助線
  6
BYBLOCK
 62
     0
 10
-38.38576
 20
-4.650835
 11
-38.38576
 21
-4.400835
  0
LINE
  8
補助線
  6
BYBLOCK
 62
     0
 10
-38.26076
 20
-4.525835
 11
-38.51076
 21
-4.525835
  0
ENDBLK
  0
BLOCK
  2
*GRP_0022
 70
    65
 10
0.0
 20
0.0
  0
LINE
  8
補助線
  6
BYBLOCK
 62
     0
 10
-38.38576
 20
10.349165
 11
-38.38576
 21
10.599165
  0
LINE
  8
補助線
  6
BYBLOCK
 62
     0
 10
-38.26076
 20
10.474165
 11
-38.51076
 21
10.474165
  0
ENDBLK
  0
BLOCK
  2
*GRP_0023
 70
    65
 10
0.0
 20
0.0
  0
LINE
  8
補助線
  6
BYBLOCK
 62
     0
 10
-38.38576
 20
25.349165
 11
-38.38576
 21
25.599165
  0
LINE
  8
補助線
  6
BYBLOCK
 62
     0
 10
-38.26076
 20
25.474165
 11
-38.51076
 21
25.474165
  0
ENDBLK
  0
BLOCK
  2
*GRP_0024
 70
    65
 10
0.0
 20
0.0
  0
LINE
  8
補助線
  6
BYBLOCK
 62
     0
 10
-38.38576
 20
40.349165
 11
-38.38576
 21
40.599165
  0
LINE
  8
補助線
  6
BYBLOCK
 62
     0
 10
-38.26076
 20
40.474165
 11
-38.51076
 21
40.474165
  0
ENDBLK
  0
BLOCK
  2
*GRP_0025
 70
    65
 10
0.0
 20
0.0
  0
LINE
  8
補助線
  6
BYBLOCK
 62
     0
 10
-38.38576
 20
70.599165
 11
-38.38576
 21
70.349165
  0
LINE
  8
補助線
  6
BYBLOCK
 62
     0
 10
-38.26076
 20
70.474165
 11
-38.51076
 21
70.474165
  0
ENDBLK
  0
BLOCK
  2
*GRP_0026
 70
    65
 10
0.0
 20
0.0
  0
LINE
  8
補助線
  6
BYBLOCK
 62
     0
 10
-38.38576
 20
55.599165
 11
-38.38576
 21
55.349165
  0
LINE
  8
補助線
  6
BYBLOCK
 62
     0
 10
-38.26076
 20
55.474165
 11
-38.51076
 21
55.474165
  0
ENDBLK
  0
BLOCK
  2
*GRP_0027
 70
    65
 10
0.0
 20
0.0
  0
INSERT
  2
*GRP_0033
  8
補助線
  6
CONTINUOUS
 10
0.0
 20
0.0
  0
LINE
  8
ボルト／ビス
  6
CONTINUOUS
 10
-126.88576
 20
84.26284
 11
-126.63576
 21
84.118503
  0
LINE
  8
ボルト／ビス
  6
CONTINUOUS
 10
-126.88576
 20
84.26284
 11
-127.13576
 21
84.118503
  0
LINE
  8
ボルト／ビス
  6
CONTINUOUS
 10
-126.63576
 20
83.829827
 11
-126.88576
 21
83.68549
  0
LINE
  8
ボルト／ビス
  6
CONTINUOUS
 10
-127.13576
 20
83.829827
 11
-126.88576
 21
83.68549
  0
CIRCLE
  8
ボルト／ビス
  6
CONTINUOUS
 10
-126.88576
 20
83.974165
 40
0.25
  0
LINE
  8
ボルト／ビス
  6
CONTINUOUS
 10
-127.13576
 20
84.118503
 11
-127.13576
 21
83.829827
  0
LINE
  8
ボルト／ビス
  6
CONTINUOUS
 10
-126.63576
 20
83.829827
 11
-126.63576
 21
84.118503
  0
ENDBLK
  0
BLOCK
  2
*GRP_0028
 70
    65
 10
0.0
 20
0.0
  0
INSERT
  2
*GRP_0034
  8
補助線
  6
CONTINUOUS
 10
0.0
 20
0.0
  0
LINE
  8
ボルト／ビス
  6
CONTINUOUS
 10
-111.88576
 20
84.26284
 11
-111.63576
 21
84.118503
  0
LINE
  8
ボルト／ビス
  6
CONTINUOUS
 10
-111.88576
 20
84.26284
 11
-112.13576
 21
84.118503
  0
LINE
  8
ボルト／ビス
  6
CONTINUOUS
 10
-111.63576
 20
83.829827
 11
-111.88576
 21
83.68549
  0
LINE
  8
ボルト／ビス
  6
CONTINUOUS
 10
-112.13576
 20
83.829827
 11
-111.88576
 21
83.68549
  0
CIRCLE
  8
ボルト／ビス
  6
CONTINUOUS
 10
-111.88576
 20
83.974165
 40
0.25
  0
LINE
  8
ボルト／ビス
  6
CONTINUOUS
 10
-112.13576
 20
84.118503
 11
-112.13576
 21
83.829827
  0
LINE
  8
ボルト／ビス
  6
CONTINUOUS
 10
-111.63576
 20
83.829827
 11
-111.63576
 21
84.118503
  0
ENDBLK
  0
BLOCK
  2
*GRP_0029
 70
    65
 10
0.0
 20
0.0
  0
INSERT
  2
*GRP_0035
  8
補助線
  6
CONTINUOUS
 10
0.0
 20
0.0
  0
LINE
  8
ボルト／ビス
  6
CONTINUOUS
 10
-96.88576
 20
84.26284
 11
-96.63576
 21
84.118503
  0
LINE
  8
ボルト／ビス
  6
CONTINUOUS
 10
-96.88576
 20
84.26284
 11
-97.13576
 21
84.118503
  0
LINE
  8
ボルト／ビス
  6
CONTINUOUS
 10
-96.63576
 20
83.829827
 11
-96.88576
 21
83.68549
  0
LINE
  8
ボルト／ビス
  6
CONTINUOUS
 10
-97.13576
 20
83.829827
 11
-96.88576
 21
83.68549
  0
CIRCLE
  8
ボルト／ビス
  6
CONTINUOUS
 10
-96.88576
 20
83.974165
 40
0.25
  0
LINE
  8
ボルト／ビス
  6
CONTINUOUS
 10
-97.13576
 20
84.118503
 11
-97.13576
 21
83.829827
  0
LINE
  8
ボルト／ビス
  6
CONTINUOUS
 10
-96.63576
 20
83.829827
 11
-96.63576
 21
84.118503
  0
ENDBLK
  0
BLOCK
  2
*GRP_0030
 70
    65
 10
0.0
 20
0.0
  0
INSERT
  2
*GRP_0036
  8
補助線
  6
CONTINUOUS
 10
0.0
 20
0.0
  0
LINE
  8
ボルト／ビス
  6
CONTINUOUS
 10
-81.88576
 20
84.26284
 11
-81.63576
 21
84.118503
  0
LINE
  8
ボルト／ビス
  6
CONTINUOUS
 10
-81.88576
 20
84.26284
 11
-82.13576
 21
84.118503
  0
LINE
  8
ボルト／ビス
  6
CONTINUOUS
 10
-81.63576
 20
83.829827
 11
-81.88576
 21
83.68549
  0
LINE
  8
ボルト／ビス
  6
CONTINUOUS
 10
-82.13576
 20
83.829827
 11
-81.88576
 21
83.68549
  0
CIRCLE
  8
ボルト／ビス
  6
CONTINUOUS
 10
-81.88576
 20
83.974165
 40
0.25
  0
LINE
  8
ボルト／ビス
  6
CONTINUOUS
 10
-82.13576
 20
84.118503
 11
-82.13576
 21
83.829827
  0
LINE
  8
ボルト／ビス
  6
CONTINUOUS
 10
-81.63576
 20
83.829827
 11
-81.63576
 21
84.118503
  0
ENDBLK
  0
BLOCK
  2
*GRP_0031
 70
    65
 10
0.0
 20
0.0
  0
INSERT
  2
*GRP_0037
  8
補助線
  6
CONTINUOUS
 10
0.0
 20
0.0
  0
LINE
  8
ボルト／ビス
  6
CONTINUOUS
 10
-51.88576
 20
84.26284
 11
-52.13576
 21
84.118503
  0
LINE
  8
ボルト／ビス
  6
CONTINUOUS
 10
-51.88576
 20
84.26284
 11
-51.63576
 21
84.118503
  0
LINE
  8
ボルト／ビス
  6
CONTINUOUS
 10
-52.13576
 20
83.829827
 11
-51.88576
 21
83.68549
  0
LINE
  8
ボルト／ビス
  6
CONTINUOUS
 10
-51.63576
 20
83.829827
 11
-51.88576
 21
83.68549
  0
CIRCLE
  8
ボルト／ビス
  6
CONTINUOUS
 10
-51.88576
 20
83.974165
 40
0.25
  0
LINE
  8
ボルト／ビス
  6
CONTINUOUS
 10
-51.63576
 20
84.118503
 11
-51.63576
 21
83.829827
  0
LINE
  8
ボルト／ビス
  6
CONTINUOUS
 10
-52.13576
 20
83.829827
 11
-52.13576
 21
84.118503
  0
ENDBLK
  0
BLOCK
  2
*GRP_0032
 70
    65
 10
0.0
 20
0.0
  0
INSERT
  2
*GRP_0038
  8
補助線
  6
CONTINUOUS
 10
0.0
 20
0.0
  0
LINE
  8
ボルト／ビス
  6
CONTINUOUS
 10
-66.88576
 20
84.26284
 11
-67.13576
 21
84.118503
  0
LINE
  8
ボルト／ビス
  6
CONTINUOUS
 10
-66.88576
 20
84.26284
 11
-66.63576
 21
84.118503
  0
LINE
  8
ボルト／ビス
  6
CONTINUOUS
 10
-67.13576
 20
83.829827
 11
-66.88576
 21
83.68549
  0
LINE
  8
ボルト／ビス
  6
CONTINUOUS
 10
-66.63576
 20
83.829827
 11
-66.88576
 21
83.68549
  0
CIRCLE
  8
ボルト／ビス
  6
CONTINUOUS
 10
-66.88576
 20
83.974165
 40
0.25
  0
LINE
  8
ボルト／ビス
  6
CONTINUOUS
 10
-66.63576
 20
84.118503
 11
-66.63576
 21
83.829827
  0
LINE
  8
ボルト／ビス
  6
CONTINUOUS
 10
-67.13576
 20
83.829827
 11
-67.13576
 21
84.118503
  0
ENDBLK
  0
BLOCK
  2
*GRP_0033
 70
    65
 10
0.0
 20
0.0
  0
LINE
  8
補助線
  6
BYBLOCK
 62
     0
 10
-127.01076
 20
83.974165
 11
-126.76076
 21
83.974165
  0
LINE
  8
補助線
  6
BYBLOCK
 62
     0
 10
-126.88576
 20
84.099165
 11
-126.88576
 21
83.849165
  0
ENDBLK
  0
BLOCK
  2
*GRP_0034
 70
    65
 10
0.0
 20
0.0
  0
LINE
  8
補助線
  6
BYBLOCK
 62
     0
 10
-112.01076
 20
83.974165
 11
-111.76076
 21
83.974165
  0
LINE
  8
補助線
  6
BYBLOCK
 62
     0
 10
-111.88576
 20
84.099165
 11
-111.88576
 21
83.849165
  0
ENDBLK
  0
BLOCK
  2
*GRP_0035
 70
    65
 10
0.0
 20
0.0
  0
LINE
  8
補助線
  6
BYBLOCK
 62
     0
 10
-97.01076
 20
83.974165
 11
-96.76076
 21
83.974165
  0
LINE
  8
補助線
  6
BYBLOCK
 62
     0
 10
-96.88576
 20
84.099165
 11
-96.88576
 21
83.849165
  0
ENDBLK
  0
BLOCK
  2
*GRP_0036
 70
    65
 10
0.0
 20
0.0
  0
LINE
  8
補助線
  6
BYBLOCK
 62
     0
 10
-82.01076
 20
83.974165
 11
-81.76076
 21
83.974165
  0
LINE
  8
補助線
  6
BYBLOCK
 62
     0
 10
-81.88576
 20
84.099165
 11
-81.88576
 21
83.849165
  0
ENDBLK
  0
BLOCK
  2
*GRP_0037
 70
    65
 10
0.0
 20
0.0
  0
LINE
  8
補助線
  6
BYBLOCK
 62
     0
 10
-51.76076
 20
83.974165
 11
-52.01076
 21
83.974165
  0
LINE
  8
補助線
  6
BYBLOCK
 62
     0
 10
-51.88576
 20
84.099165
 11
-51.88576
 21
83.849165
  0
ENDBLK
  0
BLOCK
  2
*GRP_0038
 70
    65
 10
0.0
 20
0.0
  0
LINE
  8
補助線
  6
BYBLOCK
 62
     0
 10
-66.76076
 20
83.974165
 11
-67.01076
 21
83.974165
  0
LINE
  8
補助線
  6
BYBLOCK
 62
     0
 10
-66.88576
 20
84.099165
 11
-66.88576
 21
83.849165
  0
ENDBLK
  0
BLOCK
  2
*GRP_0039
 70
    65
 10
0.0
 20
0.0
  0
INSERT
  2
*GRP_0045
  8
補助線
  6
CONTINUOUS
 10
0.0
 20
0.0
  0
LINE
  8
ボルト／ビス
  6
CONTINUOUS
 10
-140.674435
 20
70.474165
 11
-140.530098
 21
70.224165
  0
LINE
  8
ボルト／ビス
  6
CONTINUOUS
 10
-140.674435
 20
70.474165
 11
-140.530098
 21
70.724165
  0
LINE
  8
ボルト／ビス
  6
CONTINUOUS
 10
-140.241423
 20
70.224165
 11
-140.097085
 21
70.474165
  0
LINE
  8
ボルト／ビス
  6
CONTINUOUS
 10
-140.241423
 20
70.724165
 11
-140.097085
 21
70.474165
  0
CIRCLE
  8
ボルト／ビス
  6
CONTINUOUS
 10
-140.38576
 20
70.474165
 40
0.25
  0
LINE
  8
ボルト／ビス
  6
CONTINUOUS
 10
-140.530098
 20
70.724165
 11
-140.241423
 21
70.724165
  0
LINE
  8
ボルト／ビス
  6
CONTINUOUS
 10
-140.241423
 20
70.224165
 11
-140.530098
 21
70.224165
  0
ENDBLK
  0
BLOCK
  2
*GRP_0040
 70
    65
 10
0.0
 20
0.0
  0
INSERT
  2
*GRP_0046
  8
補助線
  6
CONTINUOUS
 10
0.0
 20
0.0
  0
LINE
  8
ボルト／ビス
  6
CONTINUOUS
 10
-140.674435
 20
55.474165
 11
-140.530098
 21
55.224165
  0
LINE
  8
ボルト／ビス
  6
CONTINUOUS
 10
-140.674435
 20
55.474165
 11
-140.530098
 21
55.724165
  0
LINE
  8
ボルト／ビス
  6
CONTINUOUS
 10
-140.241423
 20
55.224165
 11
-140.097085
 21
55.474165
  0
LINE
  8
ボルト／ビス
  6
CONTINUOUS
 10
-140.241423
 20
55.724165
 11
-140.097085
 21
55.474165
  0
CIRCLE
  8
ボルト／ビス
  6
CONTINUOUS
 10
-140.38576
 20
55.474165
 40
0.25
  0
LINE
  8
ボルト／ビス
  6
CONTINUOUS
 10
-140.530098
 20
55.724165
 11
-140.241423
 21
55.724165
  0
LINE
  8
ボルト／ビス
  6
CONTINUOUS
 10
-140.241423
 20
55.224165
 11
-140.530098
 21
55.224165
  0
ENDBLK
  0
BLOCK
  2
*GRP_0041
 70
    65
 10
0.0
 20
0.0
  0
INSERT
  2
*GRP_0047
  8
補助線
  6
CONTINUOUS
 10
0.0
 20
0.0
  0
LINE
  8
ボルト／ビス
  6
CONTINUOUS
 10
-140.674435
 20
40.474165
 11
-140.530098
 21
40.224165
  0
LINE
  8
ボルト／ビス
  6
CONTINUOUS
 10
-140.674435
 20
40.474165
 11
-140.530098
 21
40.724165
  0
LINE
  8
ボルト／ビス
  6
CONTINUOUS
 10
-140.241423
 20
40.224165
 11
-140.097085
 21
40.474165
  0
LINE
  8
ボルト／ビス
  6
CONTINUOUS
 10
-140.241423
 20
40.724165
 11
-140.097085
 21
40.474165
  0
CIRCLE
  8
ボルト／ビス
  6
CONTINUOUS
 10
-140.38576
 20
40.474165
 40
0.25
  0
LINE
  8
ボルト／ビス
  6
CONTINUOUS
 10
-140.530098
 20
40.724165
 11
-140.241423
 21
40.724165
  0
LINE
  8
ボルト／ビス
  6
CONTINUOUS
 10
-140.241423
 20
40.224165
 11
-140.530098
 21
40.224165
  0
ENDBLK
  0
BLOCK
  2
*GRP_0042
 70
    65
 10
0.0
 20
0.0
  0
INSERT
  2
*GRP_0048
  8
補助線
  6
CONTINUOUS
 10
0.0
 20
0.0
  0
LINE
  8
ボルト／ビス
  6
CONTINUOUS
 10
-140.674435
 20
25.474165
 11
-140.530098
 21
25.224165
  0
LINE
  8
ボルト／ビス
  6
CONTINUOUS
 10
-140.674435
 20
25.474165
 11
-140.530098
 21
25.724165
  0
LINE
  8
ボルト／ビス
  6
CONTINUOUS
 10
-140.241423
 20
25.224165
 11
-140.097085
 21
25.474165
  0
LINE
  8
ボルト／ビス
  6
CONTINUOUS
 10
-140.241423
 20
25.724165
 11
-140.097085
 21
25.474165
  0
CIRCLE
  8
ボルト／ビス
  6
CONTINUOUS
 10
-140.38576
 20
25.474165
 40
0.25
  0
LINE
  8
ボルト／ビス
  6
CONTINUOUS
 10
-140.530098
 20
25.724165
 11
-140.241423
 21
25.724165
  0
LINE
  8
ボルト／ビス
  6
CONTINUOUS
 10
-140.241423
 20
25.224165
 11
-140.530098
 21
25.224165
  0
ENDBLK
  0
BLOCK
  2
*GRP_0043
 70
    65
 10
0.0
 20
0.0
  0
INSERT
  2
*GRP_0049
  8
補助線
  6
CONTINUOUS
 10
0.0
 20
0.0
  0
LINE
  8
ボルト／ビス
  6
CONTINUOUS
 10
-140.674435
 20
-4.525835
 11
-140.530098
 21
-4.275835
  0
LINE
  8
ボルト／ビス
  6
CONTINUOUS
 10
-140.674435
 20
-4.525835
 11
-140.530098
 21
-4.775835
  0
LINE
  8
ボルト／ビス
  6
CONTINUOUS
 10
-140.241423
 20
-4.275835
 11
-140.097085
 21
-4.525835
  0
LINE
  8
ボルト／ビス
  6
CONTINUOUS
 10
-140.241423
 20
-4.775835
 11
-140.097085
 21
-4.525835
  0
CIRCLE
  8
ボルト／ビス
  6
CONTINUOUS
 10
-140.38576
 20
-4.525835
 40
0.25
  0
LINE
  8
ボルト／ビス
  6
CONTINUOUS
 10
-140.530098
 20
-4.775835
 11
-140.241423
 21
-4.775835
  0
LINE
  8
ボルト／ビス
  6
CONTINUOUS
 10
-140.241423
 20
-4.275835
 11
-140.530098
 21
-4.275835
  0
ENDBLK
  0
BLOCK
  2
*GRP_0044
 70
    65
 10
0.0
 20
0.0
  0
INSERT
  2
*GRP_0050
  8
補助線
  6
CONTINUOUS
 10
0.0
 20
0.0
  0
LINE
  8
ボルト／ビス
  6
CONTINUOUS
 10
-140.674435
 20
10.474165
 11
-140.530098
 21
10.724165
  0
LINE
  8
ボルト／ビス
  6
CONTINUOUS
 10
-140.674435
 20
10.474165
 11
-140.530098
 21
10.224165
  0
LINE
  8
ボルト／ビス
  6
CONTINUOUS
 10
-140.241423
 20
10.724165
 11
-140.097085
 21
10.474165
  0
LINE
  8
ボルト／ビス
  6
CONTINUOUS
 10
-140.241423
 20
10.224165
 11
-140.097085
 21
10.474165
  0
CIRCLE
  8
ボルト／ビス
  6
CONTINUOUS
 10
-140.38576
 20
10.474165
 40
0.25
  0
LINE
  8
ボルト／ビス
  6
CONTINUOUS
 10
-140.530098
 20
10.224165
 11
-140.241423
 21
10.224165
  0
LINE
  8
ボルト／ビス
  6
CONTINUOUS
 10
-140.241423
 20
10.724165
 11
-140.530098
 21
10.724165
  0
ENDBLK
  0
BLOCK
  2
*GRP_0045
 70
    65
 10
0.0
 20
0.0
  0
LINE
  8
補助線
  6
BYBLOCK
 62
     0
 10
-140.38576
 20
70.599165
 11
-140.38576
 21
70.349165
  0
LINE
  8
補助線
  6
BYBLOCK
 62
     0
 10
-140.51076
 20
70.474165
 11
-140.26076
 21
70.474165
  0
ENDBLK
  0
BLOCK
  2
*GRP_0046
 70
    65
 10
0.0
 20
0.0
  0
LINE
  8
補助線
  6
BYBLOCK
 62
     0
 10
-140.38576
 20
55.599165
 11
-140.38576
 21
55.349165
  0
LINE
  8
補助線
  6
BYBLOCK
 62
     0
 10
-140.51076
 20
55.474165
 11
-140.26076
 21
55.474165
  0
ENDBLK
  0
BLOCK
  2
*GRP_0047
 70
    65
 10
0.0
 20
0.0
  0
LINE
  8
補助線
  6
BYBLOCK
 62
     0
 10
-140.38576
 20
40.599165
 11
-140.38576
 21
40.349165
  0
LINE
  8
補助線
  6
BYBLOCK
 62
     0
 10
-140.51076
 20
40.474165
 11
-140.26076
 21
40.474165
  0
ENDBLK
  0
BLOCK
  2
*GRP_0048
 70
    65
 10
0.0
 20
0.0
  0
LINE
  8
補助線
  6
BYBLOCK
 62
     0
 10
-140.38576
 20
25.599165
 11
-140.38576
 21
25.349165
  0
LINE
  8
補助線
  6
BYBLOCK
 62
     0
 10
-140.51076
 20
25.474165
 11
-140.26076
 21
25.474165
  0
ENDBLK
  0
BLOCK
  2
*GRP_0049
 70
    65
 10
0.0
 20
0.0
  0
LINE
  8
補助線
  6
BYBLOCK
 62
     0
 10
-140.38576
 20
-4.650835
 11
-140.38576
 21
-4.400835
  0
LINE
  8
補助線
  6
BYBLOCK
 62
     0
 10
-140.51076
 20
-4.525835
 11
-140.26076
 21
-4.525835
  0
ENDBLK
  0
BLOCK
  2
*GRP_0050
 70
    65
 10
0.0
 20
0.0
  0
LINE
  8
補助線
  6
BYBLOCK
 62
     0
 10
-140.38576
 20
10.349165
 11
-140.38576
 21
10.599165
  0
LINE
  8
補助線
  6
BYBLOCK
 62
     0
 10
-140.51076
 20
10.474165
 11
-140.26076
 21
10.474165
  0
ENDBLK
  0
BLOCK
  2
*GRP_0051
 70
    65
 10
0.0
 20
0.0
  0
INSERT
  2
*GRP_0057
  8
補助線
  6
CONTINUOUS
 10
0.0
 20
0.0
  0
LINE
  8
ボルト／ビス
  6
CONTINUOUS
 10
-51.88576
 20
-18.31451
 11
-52.13576
 21
-18.170172
  0
LINE
  8
ボルト／ビス
  6
CONTINUOUS
 10
-51.88576
 20
-18.31451
 11
-51.63576
 21
-18.170172
  0
LINE
  8
ボルト／ビス
  6
CONTINUOUS
 10
-52.13576
 20
-17.881498
 11
-51.88576
 21
-17.73716
  0
LINE
  8
ボルト／ビス
  6
CONTINUOUS
 10
-51.63576
 20
-17.881498
 11
-51.88576
 21
-17.73716
  0
CIRCLE
  8
ボルト／ビス
  6
CONTINUOUS
 10
-51.88576
 20
-18.025835
 40
0.25
  0
LINE
  8
ボルト／ビス
  6
CONTINUOUS
 10
-51.63576
 20
-18.170172
 11
-51.63576
 21
-17.881498
  0
LINE
  8
ボルト／ビス
  6
CONTINUOUS
 10
-52.13576
 20
-17.881498
 11
-52.13576
 21
-18.170172
  0
ENDBLK
  0
BLOCK
  2
*GRP_0052
 70
    65
 10
0.0
 20
0.0
  0
INSERT
  2
*GRP_0058
  8
補助線
  6
CONTINUOUS
 10
0.0
 20
0.0
  0
LINE
  8
ボルト／ビス
  6
CONTINUOUS
 10
-66.88576
 20
-18.31451
 11
-67.13576
 21
-18.170172
  0
LINE
  8
ボルト／ビス
  6
CONTINUOUS
 10
-66.88576
 20
-18.31451
 11
-66.63576
 21
-18.170172
  0
LINE
  8
ボルト／ビス
  6
CONTINUOUS
 10
-67.13576
 20
-17.881498
 11
-66.88576
 21
-17.73716
  0
LINE
  8
ボルト／ビス
  6
CONTINUOUS
 10
-66.63576
 20
-17.881498
 11
-66.88576
 21
-17.73716
  0
CIRCLE
  8
ボルト／ビス
  6
CONTINUOUS
 10
-66.88576
 20
-18.025835
 40
0.25
  0
LINE
  8
ボルト／ビス
  6
CONTINUOUS
 10
-66.63576
 20
-18.170172
 11
-66.63576
 21
-17.881498
  0
LINE
  8
ボルト／ビス
  6
CONTINUOUS
 10
-67.13576
 20
-17.881498
 11
-67.13576
 21
-18.170172
  0
ENDBLK
  0
BLOCK
  2
*GRP_0053
 70
    65
 10
0.0
 20
0.0
  0
INSERT
  2
*GRP_0059
  8
補助線
  6
CONTINUOUS
 10
0.0
 20
0.0
  0
LINE
  8
ボルト／ビス
  6
CONTINUOUS
 10
-81.88576
 20
-18.31451
 11
-82.13576
 21
-18.170172
  0
LINE
  8
ボルト／ビス
  6
CONTINUOUS
 10
-81.88576
 20
-18.31451
 11
-81.63576
 21
-18.170172
  0
LINE
  8
ボルト／ビス
  6
CONTINUOUS
 10
-82.13576
 20
-17.881498
 11
-81.88576
 21
-17.73716
  0
LINE
  8
ボルト／ビス
  6
CONTINUOUS
 10
-81.63576
 20
-17.881498
 11
-81.88576
 21
-17.73716
  0
CIRCLE
  8
ボルト／ビス
  6
CONTINUOUS
 10
-81.88576
 20
-18.025835
 40
0.25
  0
LINE
  8
ボルト／ビス
  6
CONTINUOUS
 10
-81.63576
 20
-18.170172
 11
-81.63576
 21
-17.881498
  0
LINE
  8
ボルト／ビス
  6
CONTINUOUS
 10
-82.13576
 20
-17.881498
 11
-82.13576
 21
-18.170172
  0
ENDBLK
  0
BLOCK
  2
*GRP_0054
 70
    65
 10
0.0
 20
0.0
  0
INSERT
  2
*GRP_0060
  8
補助線
  6
CONTINUOUS
 10
0.0
 20
0.0
  0
LINE
  8
ボルト／ビス
  6
CONTINUOUS
 10
-96.88576
 20
-18.31451
 11
-97.13576
 21
-18.170172
  0
LINE
  8
ボルト／ビス
  6
CONTINUOUS
 10
-96.88576
 20
-18.31451
 11
-96.63576
 21
-18.170172
  0
LINE
  8
ボルト／ビス
  6
CONTINUOUS
 10
-97.13576
 20
-17.881498
 11
-96.88576
 21
-17.73716
  0
LINE
  8
ボルト／ビス
  6
CONTINUOUS
 10
-96.63576
 20
-17.881498
 11
-96.88576
 21
-17.73716
  0
CIRCLE
  8
ボルト／ビス
  6
CONTINUOUS
 10
-96.88576
 20
-18.025835
 40
0.25
  0
LINE
  8
ボルト／ビス
  6
CONTINUOUS
 10
-96.63576
 20
-18.170172
 11
-96.63576
 21
-17.881498
  0
LINE
  8
ボルト／ビス
  6
CONTINUOUS
 10
-97.13576
 20
-17.881498
 11
-97.13576
 21
-18.170172
  0
ENDBLK
  0
BLOCK
  2
*GRP_0055
 70
    65
 10
0.0
 20
0.0
  0
INSERT
  2
*GRP_0061
  8
補助線
  6
CONTINUOUS
 10
0.0
 20
0.0
  0
LINE
  8
ボルト／ビス
  6
CONTINUOUS
 10
-126.88576
 20
-18.31451
 11
-126.63576
 21
-18.170172
  0
LINE
  8
ボルト／ビス
  6
CONTINUOUS
 10
-126.88576
 20
-18.31451
 11
-127.13576
 21
-18.170172
  0
LINE
  8
ボルト／ビス
  6
CONTINUOUS
 10
-126.63576
 20
-17.881498
 11
-126.88576
 21
-17.73716
  0
LINE
  8
ボルト／ビス
  6
CONTINUOUS
 10
-127.13576
 20
-17.881498
 11
-126.88576
 21
-17.73716
  0
CIRCLE
  8
ボルト／ビス
  6
CONTINUOUS
 10
-126.88576
 20
-18.025835
 40
0.25
  0
LINE
  8
ボルト／ビス
  6
CONTINUOUS
 10
-127.13576
 20
-18.170172
 11
-127.13576
 21
-17.881498
  0
LINE
  8
ボルト／ビス
  6
CONTINUOUS
 10
-126.63576
 20
-17.881498
 11
-126.63576
 21
-18.170172
  0
ENDBLK
  0
BLOCK
  2
*GRP_0056
 70
    65
 10
0.0
 20
0.0
  0
INSERT
  2
*GRP_0062
  8
補助線
  6
CONTINUOUS
 10
0.0
 20
0.0
  0
LINE
  8
ボルト／ビス
  6
CONTINUOUS
 10
-111.88576
 20
-18.31451
 11
-111.63576
 21
-18.170172
  0
LINE
  8
ボルト／ビス
  6
CONTINUOUS
 10
-111.88576
 20
-18.31451
 11
-112.13576
 21
-18.170172
  0
LINE
  8
ボルト／ビス
  6
CONTINUOUS
 10
-111.63576
 20
-17.881498
 11
-111.88576
 21
-17.73716
  0
LINE
  8
ボルト／ビス
  6
CONTINUOUS
 10
-112.13576
 20
-17.881498
 11
-111.88576
 21
-17.73716
  0
CIRCLE
  8
ボルト／ビス
  6
CONTINUOUS
 10
-111.88576
 20
-18.025835
 40
0.25
  0
LINE
  8
ボルト／ビス
  6
CONTINUOUS
 10
-112.13576
 20
-18.170172
 11
-112.13576
 21
-17.881498
  0
LINE
  8
ボルト／ビス
  6
CONTINUOUS
 10
-111.63576
 20
-17.881498
 11
-111.63576
 21
-18.170172
  0
ENDBLK
  0
BLOCK
  2
*GRP_0057
 70
    65
 10
0.0
 20
0.0
  0
LINE
  8
補助線
  6
BYBLOCK
 62
     0
 10
-51.76076
 20
-18.025835
 11
-52.01076
 21
-18.025835
  0
LINE
  8
補助線
  6
BYBLOCK
 62
     0
 10
-51.88576
 20
-18.150835
 11
-51.88576
 21
-17.900835
  0
ENDBLK
  0
BLOCK
  2
*GRP_0058
 70
    65
 10
0.0
 20
0.0
  0
LINE
  8
補助線
  6
BYBLOCK
 62
     0
 10
-66.76076
 20
-18.025835
 11
-67.01076
 21
-18.025835
  0
LINE
  8
補助線
  6
BYBLOCK
 62
     0
 10
-66.88576
 20
-18.150835
 11
-66.88576
 21
-17.900835
  0
ENDBLK
  0
BLOCK
  2
*GRP_0059
 70
    65
 10
0.0
 20
0.0
  0
LINE
  8
補助線
  6
BYBLOCK
 62
     0
 10
-81.76076
 20
-18.025835
 11
-82.01076
 21
-18.025835
  0
LINE
  8
補助線
  6
BYBLOCK
 62
     0
 10
-81.88576
 20
-18.150835
 11
-81.88576
 21
-17.900835
  0
ENDBLK
  0
BLOCK
  2
*GRP_0060
 70
    65
 10
0.0
 20
0.0
  0
LINE
  8
補助線
  6
BYBLOCK
 62
     0
 10
-96.76076
 20
-18.025835
 11
-97.01076
 21
-18.025835
  0
LINE
  8
補助線
  6
BYBLOCK
 62
     0
 10
-96.88576
 20
-18.150835
 11
-96.88576
 21
-17.900835
  0
ENDBLK
  0
BLOCK
  2
*GRP_0061
 70
    65
 10
0.0
 20
0.0
  0
LINE
  8
補助線
  6
BYBLOCK
 62
     0
 10
-127.01076
 20
-18.025835
 11
-126.76076
 21
-18.025835
  0
LINE
  8
補助線
  6
BYBLOCK
 62
     0
 10
-126.88576
 20
-18.150835
 11
-126.88576
 21
-17.900835
  0
ENDBLK
  0
BLOCK
  2
*GRP_0062
 70
    65
 10
0.0
 20
0.0
  0
LINE
  8
補助線
  6
BYBLOCK
 62
     0
 10
-112.01076
 20
-18.025835
 11
-111.76076
 21
-18.025835
  0
LINE
  8
補助線
  6
BYBLOCK
 62
     0
 10
-111.88576
 20
-18.150835
 11
-111.88576
 21
-17.900835
  0
ENDBLK
  0
BLOCK
  2
*DIM_0063
 70
    65
 10
0.0
 20
0.0
  0
LINE
  8
寸法
  6
CONTINUOUS
 10
-31.88576
 20
-80.96609
 11
-14.991043
 21
-80.96609
  0
LINE
  8
寸法
  6
CONTINUOUS
 10
-84.38576
 20
-58.46609
 11
-14.991043
 21
-58.46609
  0
LINE
  8
寸法
  6
CONTINUOUS
 10
-14.991043
 20
-80.96609
 11
-14.991043
 21
-58.46609
  0
POINT
  8
寸法
 10
-14.991043
 20
-80.96609
  0
POINT
  8
寸法
 10
-14.991043
 20
-58.46609
  0
TEXT
  7
TextStyle03
  8
寸法
  6
CONTINUOUS
 10
-15.375
 20
-72.1625
  1
450
 40
3.0
 50
90.0
 72
     5
 11
-15.375
 21
-67.2875
  0
ENDBLK
  0
BLOCK
  2
*GRP_0064
 70
    65
 10
0.0
 20
0.0
  0
LINE
  8
補助線
  6
BYBLOCK
 62
    64
 10
157.605957
 20
-88.322685
 11
157.791718
 21
-88.48999
  0
LINE
  8
補助線
  6
BYBLOCK
 62
    64
 10
157.78249
 20
-88.313457
 11
157.615185
 21
-88.499218
  0
LINE
  8
補助線
  6
BYBLOCK
 62
    64
 10
141.719067
 20
-74.014955
 11
141.5333
 21
-73.84765
  0
LINE
  8
補助線
  6
BYBLOCK
 62
    64
 10
141.709833
 20
-73.838418
 11
141.54253
 21
-74.024187
  0
LINE
  8
補助線
  6
BYBLOCK
 62
    64
 10
125.64621
 20
-59.540138
 11
125.46044
 21
-59.372843
  0
LINE
  8
補助線
  6
BYBLOCK
 62
    64
 10
125.636973
 20
-59.363605
 11
125.46968
 21
-59.549375
  0
LINE
  8
型材断面
  6
CONTINUOUS
 10
158.90689
 20
-87.812103
 11
158.962283
 21
-88.871313
  0
LINE
  8
型材断面
  6
CONTINUOUS
 10
158.962283
 20
-88.871313
 11
158.293073
 21
-89.61439
  0
LINE
  8
型材断面
  6
CONTINUOUS
 10
158.293073
 20
-89.61439
 11
157.233863
 21
-89.669783
  0
LINE
  8
型材断面
  6
CONTINUOUS
 10
126.018285
 20
-58.193035
 11
124.959075
 21
-58.24845
  0
LINE
  8
型材断面
  6
CONTINUOUS
 10
124.959075
 20
-58.24845
 11
124.289872
 21
-58.99153
  0
LINE
  8
型材断面
  6
CONTINUOUS
 10
124.289872
 20
-58.99153
 11
124.345285
 21
-60.05074
  0
LINE
  8
型材断面
  6
CONTINUOUS
 10
158.90689
 20
-87.812103
 11
126.018725
 21
-58.193012
  0
LINE
  8
型材断面
  6
CONTINUOUS
 10
157.233863
 20
-89.669783
 11
124.345262
 21
-60.050315
  0
LINE
  8
ボルト／ビス
  6
CONTINUOUS
 62
    64
 10
158.00793
 20
-88.063125
 11
158.150612
 21
-88.502417
  0
LINE
  8
ボルト／ビス
  6
CONTINUOUS
 62
    64
 10
158.00793
 20
-88.063125
 11
157.556157
 21
-87.96705
  0
LINE
  8
ボルト／ビス
  6
CONTINUOUS
 62
    64
 10
157.389745
 20
-88.74955
 11
157.841518
 21
-88.845625
  0
LINE
  8
ボルト／ビス
  6
CONTINUOUS
 62
    64
 10
157.389745
 20
-88.74955
 11
157.247063
 21
-88.310257
  0
CIRCLE
  8
ボルト／ビス
  6
CONTINUOUS
 62
    64
 10
157.698838
 20
-88.406337
 40
0.4
  0
LINE
  8
ボルト／ビス
  6
CONTINUOUS
 62
    64
 10
157.556157
 20
-87.96705
 11
157.247063
 21
-88.310257
  0
LINE
  8
ボルト／ビス
  6
CONTINUOUS
 62
    64
 10
158.150612
 20
-88.502417
 11
157.841518
 21
-88.845625
  0
LINE
  8
ボルト／ビス
  6
CONTINUOUS
 62
    64
 10
141.93528
 20
-73.588095
 11
141.4835
 21
-73.492012
  0
LINE
  8
ボルト／ビス
  6
CONTINUOUS
 62
    64
 10
141.93528
 20
-73.588095
 11
142.077962
 21
-74.02738
  0
LINE
  8
ボルト／ビス
  6
CONTINUOUS
 62
    64
 10
141.317087
 20
-74.274513
 11
141.174408
 21
-73.835222
  0
LINE
  8
ボルト／ビス
  6
CONTINUOUS
 62
    64
 10
141.317087
 20
-74.274513
 11
141.768863
 21
-74.37059
  0
CIRCLE
  8
ボルト／ビス
  6
CONTINUOUS
 62
    64
 10
141.62618
 20
-73.931303
 40
0.4
  0
LINE
  8
ボルト／ビス
  6
CONTINUOUS
 62
    64
 10
142.077962
 20
-74.02738
 11
141.768863
 21
-74.37059
  0
LINE
  8
ボルト／ビス
  6
CONTINUOUS
 62
    64
 10
141.4835
 20
-73.492012
 11
141.174408
 21
-73.835222
  0
LINE
  8
ボルト／ビス
  6
CONTINUOUS
 62
    64
 10
125.862418
 20
-59.113278
 11
125.410637
 21
-59.017202
  0
LINE
  8
ボルト／ビス
  6
CONTINUOUS
 62
    64
 10
125.862418
 20
-59.113278
 11
126.005098
 21
-59.552563
  0
LINE
  8
ボルト／ビス
  6
CONTINUOUS
 62
    64
 10
125.244233
 20
-59.799705
 11
125.10155
 21
-59.360418
  0
LINE
  8
ボルト／ビス
  6
CONTINUOUS
 62
    64
 10
125.244233
 20
-59.799705
 11
125.696012
 21
-59.895777
  0
CIRCLE
  8
ボルト／ビス
  6
CONTINUOUS
 62
    64
 10
125.553325
 20
-59.45649
 40
0.4
  0
LINE
  8
ボルト／ビス
  6
CONTINUOUS
 62
    64
 10
126.005098
 20
-59.552563
 11
125.696012
 21
-59.895777
  0
LINE
  8
ボルト／ビス
  6
CONTINUOUS
 62
    64
 10
125.410637
 20
-59.017202
 11
125.10155
 21
-59.360418
  0
ENDBLK
  0
BLOCK
  2
*GRP_0065
 70
    65
 10
0.0
 20
0.0
  0
LINE
  8
補助線
  6
BYBLOCK
 62
    64
 10
125.646407
 20
-88.322685
 11
125.460648
 21
-88.48999
  0
LINE
  8
補助線
  6
BYBLOCK
 62
    64
 10
125.469875
 20
-88.313457
 11
125.63718
 21
-88.499218
  0
LINE
  8
補助線
  6
BYBLOCK
 62
    64
 10
141.533297
 20
-74.014955
 11
141.719065
 21
-73.84765
  0
LINE
  8
補助線
  6
BYBLOCK
 62
    64
 10
141.542533
 20
-73.838418
 11
141.709835
 21
-74.024187
  0
LINE
  8
補助線
  6
BYBLOCK
 62
    64
 10
157.606155
 20
-59.540138
 11
157.791925
 21
-59.372843
  0
LINE
  8
補助線
  6
BYBLOCK
 62
    64
 10
157.615393
 20
-59.363605
 11
157.782685
 21
-59.549375
  0
LINE
  8
型材断面
  6
CONTINUOUS
 10
124.345475
 20
-87.812103
 11
124.290083
 21
-88.871313
  0
LINE
  8
型材断面
  6
CONTINUOUS
 10
124.290083
 20
-88.871313
 11
124.959293
 21
-89.61439
  0
LINE
  8
型材断面
  6
CONTINUOUS
 10
124.959293
 20
-89.61439
 11
126.018503
 21
-89.669783
  0
LINE
  8
型材断面
  6
CONTINUOUS
 10
157.23408
 20
-58.193035
 11
158.29329
 21
-58.24845
  0
LINE
  8
型材断面
  6
CONTINUOUS
 10
158.29329
 20
-58.24845
 11
158.962493
 21
-58.99153
  0
LINE
  8
型材断面
  6
CONTINUOUS
 10
158.962493
 20
-58.99153
 11
158.90708
 21
-60.05074
  0
LINE
  8
型材断面
  6
CONTINUOUS
 10
124.345475
 20
-87.812103
 11
157.23364
 21
-58.193012
  0
LINE
  8
型材断面
  6
CONTINUOUS
 10
126.018503
 20
-89.669783
 11
158.907102
 21
-60.050315
  0
LINE
  8
ボルト／ビス
  6
CONTINUOUS
 62
    64
 10
125.244435
 20
-88.063125
 11
125.101752
 21
-88.502417
  0
LINE
  8
ボルト／ビス
  6
CONTINUOUS
 62
    64
 10
125.244435
 20
-88.063125
 11
125.696207
 21
-87.96705
  0
LINE
  8
ボルト／ビス
  6
CONTINUOUS
 62
    64
 10
125.86262
 20
-88.74955
 11
125.410848
 21
-88.845625
  0
LINE
  8
ボルト／ビス
  6
CONTINUOUS
 62
    64
 10
125.86262
 20
-88.74955
 11
126.005302
 21
-88.310257
  0
CIRCLE
  8
ボルト／ビス
  6
CONTINUOUS
 62
    64
 10
125.553528
 20
-88.406337
 40
0.4
  0
LINE
  8
ボルト／ビス
  6
CONTINUOUS
 62
    64
 10
125.696207
 20
-87.96705
 11
126.005302
 21
-88.310257
  0
LINE
  8
ボルト／ビス
  6
CONTINUOUS
 62
    64
 10
125.101752
 20
-88.502417
 11
125.410848
 21
-88.845625
  0
LINE
  8
ボルト／ビス
  6
CONTINUOUS
 62
    64
 10
141.317085
 20
-73.588095
 11
141.768865
 21
-73.492012
  0
LINE
  8
ボルト／ビス
  6
CONTINUOUS
 62
    64
 10
141.317085
 20
-73.588095
 11
141.174402
 21
-74.02738
  0
LINE
  8
ボルト／ビス
  6
CONTINUOUS
 62
    64
 10
141.935277
 20
-74.274513
 11
142.077958
 21
-73.835222
  0
LINE
  8
ボルト／ビス
  6
CONTINUOUS
 62
    64
 10
141.935277
 20
-74.274513
 11
141.483503
 21
-74.37059
  0
CIRCLE
  8
ボルト／ビス
  6
CONTINUOUS
 62
    64
 10
141.626185
 20
-73.931303
 40
0.4
  0
LINE
  8
ボルト／ビス
  6
CONTINUOUS
 62
    64
 10
141.174402
 20
-74.02738
 11
141.483503
 21
-74.37059
  0
LINE
  8
ボルト／ビス
  6
CONTINUOUS
 62
    64
 10
141.768865
 20
-73.492012
 11
142.077958
 21
-73.835222
  0
LINE
  8
ボルト／ビス
  6
CONTINUOUS
 62
    64
 10
157.389948
 20
-59.113278
 11
157.841727
 21
-59.017202
  0
LINE
  8
ボルト／ビス
  6
CONTINUOUS
 62
    64
 10
157.389948
 20
-59.113278
 11
157.247268
 21
-59.552563
  0
LINE
  8
ボルト／ビス
  6
CONTINUOUS
 62
    64
 10
158.008132
 20
-59.799705
 11
158.150815
 21
-59.360418
  0
LINE
  8
ボルト／ビス
  6
CONTINUOUS
 62
    64
 10
158.008132
 20
-59.799705
 11
157.556352
 21
-59.895777
  0
CIRCLE
  8
ボルト／ビス
  6
CONTINUOUS
 62
    64
 10
157.69904
 20
-59.45649
 40
0.4
  0
LINE
  8
ボルト／ビス
  6
CONTINUOUS
 62
    64
 10
157.247268
 20
-59.552563
 11
157.556352
 21
-59.895777
  0
LINE
  8
ボルト／ビス
  6
CONTINUOUS
 62
    64
 10
157.841727
 20
-59.017202
 11
158.150815
 21
-59.360418
  0
ENDBLK
  0
BLOCK
  2
*GRP_0066
 70
    65
 10
0.0
 20
0.0
  0
LINE
  8
補助線
  6
BYBLOCK
 62
    64
 10
61.791837
 20
-88.322685
 11
61.606077
 21
-88.48999
  0
LINE
  8
補助線
  6
BYBLOCK
 62
    64
 10
61.615305
 20
-88.313457
 11
61.78261
 21
-88.499218
  0
LINE
  8
補助線
  6
BYBLOCK
 62
    64
 10
77.678728
 20
-74.014955
 11
77.864495
 21
-73.84765
  0
LINE
  8
補助線
  6
BYBLOCK
 62
    64
 10
77.687962
 20
-73.838418
 11
77.855265
 21
-74.024187
  0
LINE
  8
補助線
  6
BYBLOCK
 62
    64
 10
93.751585
 20
-59.540138
 11
93.937355
 21
-59.372843
  0
LINE
  8
補助線
  6
BYBLOCK
 62
    64
 10
93.760822
 20
-59.363605
 11
93.928115
 21
-59.549375
  0
LINE
  8
型材断面
  6
CONTINUOUS
 10
60.490905
 20
-87.812103
 11
60.435513
 21
-88.871313
  0
LINE
  8
型材断面
  6
CONTINUOUS
 10
60.435513
 20
-88.871313
 11
61.104723
 21
-89.61439
  0
LINE
  8
型材断面
  6
CONTINUOUS
 10
61.104723
 20
-89.61439
 11
62.163933
 21
-89.669783
  0
LINE
  8
型材断面
  6
CONTINUOUS
 10
93.37951
 20
-58.193035
 11
94.43872
 21
-58.24845
  0
LINE
  8
型材断面
  6
CONTINUOUS
 10
94.43872
 20
-58.24845
 11
95.107922
 21
-58.99153
  0
LINE
  8
型材断面
  6
CONTINUOUS
 10
95.107922
 20
-58.99153
 11
95.05251
 21
-60.05074
  0
LINE
  8
型材断面
  6
CONTINUOUS
 10
60.490905
 20
-87.812103
 11
93.37907
 21
-58.193012
  0
LINE
  8
型材断面
  6
CONTINUOUS
 10
62.163933
 20
-89.669783
 11
95.052533
 21
-60.050315
  0
LINE
  8
ボルト／ビス
  6
CONTINUOUS
 62
    64
 10
61.389865
 20
-88.063125
 11
61.247183
 21
-88.502417
  0
LINE
  8
ボルト／ビス
  6
CONTINUOUS
 62
    64
 10
61.389865
 20
-88.063125
 11
61.841638
 21
-87.96705
  0
LINE
  8
ボルト／ビス
  6
CONTINUOUS
 62
    64
 10
62.00805
 20
-88.74955
 11
61.556278
 21
-88.845625
  0
LINE
  8
ボルト／ビス
  6
CONTINUOUS
 62
    64
 10
62.00805
 20
-88.74955
 11
62.150733
 21
-88.310257
  0
CIRCLE
  8
ボルト／ビス
  6
CONTINUOUS
 62
    64
 10
61.698957
 20
-88.406337
 40
0.4
  0
LINE
  8
ボルト／ビス
  6
CONTINUOUS
 62
    64
 10
61.841638
 20
-87.96705
 11
62.150733
 21
-88.310257
  0
LINE
  8
ボルト／ビス
  6
CONTINUOUS
 62
    64
 10
61.247183
 20
-88.502417
 11
61.556278
 21
-88.845625
  0
LINE
  8
ボルト／ビス
  6
CONTINUOUS
 62
    64
 10
77.462515
 20
-73.588095
 11
77.914295
 21
-73.492012
  0
LINE
  8
ボルト／ビス
  6
CONTINUOUS
 62
    64
 10
77.462515
 20
-73.588095
 11
77.319832
 21
-74.02738
  0
LINE
  8
ボルト／ビス
  6
CONTINUOUS
 62
    64
 10
78.080708
 20
-74.274513
 11
78.223387
 21
-73.835222
  0
LINE
  8
ボルト／ビス
  6
CONTINUOUS
 62
    64
 10
78.080708
 20
-74.274513
 11
77.628932
 21
-74.37059
  0
CIRCLE
  8
ボルト／ビス
  6
CONTINUOUS
 62
    64
 10
77.771615
 20
-73.931303
 40
0.4
  0
LINE
  8
ボルト／ビス
  6
CONTINUOUS
 62
    64
 10
77.319832
 20
-74.02738
 11
77.628932
 21
-74.37059
  0
LINE
  8
ボルト／ビス
  6
CONTINUOUS
 62
    64
 10
77.914295
 20
-73.492012
 11
78.223387
 21
-73.835222
  0
LINE
  8
ボルト／ビス
  6
CONTINUOUS
 62
    64
 10
93.535377
 20
-59.113278
 11
93.987157
 21
-59.017202
  0
LINE
  8
ボルト／ビス
  6
CONTINUOUS
 62
    64
 10
93.535377
 20
-59.113278
 11
93.392698
 21
-59.552563
  0
LINE
  8
ボルト／ビス
  6
CONTINUOUS
 62
    64
 10
94.153563
 20
-59.799705
 11
94.296245
 21
-59.360418
  0
LINE
  8
ボルト／ビス
  6
CONTINUOUS
 62
    64
 10
94.153563
 20
-59.799705
 11
93.701783
 21
-59.895777
  0
CIRCLE
  8
ボルト／ビス
  6
CONTINUOUS
 62
    64
 10
93.84447
 20
-59.45649
 40
0.4
  0
LINE
  8
ボルト／ビス
  6
CONTINUOUS
 62
    64
 10
93.392698
 20
-59.552563
 11
93.701783
 21
-59.895777
  0
LINE
  8
ボルト／ビス
  6
CONTINUOUS
 62
    64
 10
93.987157
 20
-59.017202
 11
94.296245
 21
-59.360418
  0
ENDBLK
  0
BLOCK
  2
*GRP_0067
 70
    65
 10
0.0
 20
0.0
  0
LINE
  8
補助線
  6
BYBLOCK
 62
    64
 10
93.751388
 20
-88.322685
 11
93.937147
 21
-88.48999
  0
LINE
  8
補助線
  6
BYBLOCK
 62
    64
 10
93.92792
 20
-88.313457
 11
93.760615
 21
-88.499218
  0
LINE
  8
補助線
  6
BYBLOCK
 62
    64
 10
77.864497
 20
-74.014955
 11
77.67873
 21
-73.84765
  0
LINE
  8
補助線
  6
BYBLOCK
 62
    64
 10
77.855263
 20
-73.838418
 11
77.68796
 21
-74.024187
  0
LINE
  8
補助線
  6
BYBLOCK
 62
    64
 10
61.79164
 20
-59.540138
 11
61.60587
 21
-59.372843
  0
LINE
  8
補助線
  6
BYBLOCK
 62
    64
 10
61.782402
 20
-59.363605
 11
61.61511
 21
-59.549375
  0
LINE
  8
型材断面
  6
CONTINUOUS
 10
95.05232
 20
-87.812103
 11
95.107712
 21
-88.871313
  0
LINE
  8
型材断面
  6
CONTINUOUS
 10
95.107712
 20
-88.871313
 11
94.438502
 21
-89.61439
  0
LINE
  8
型材断面
  6
CONTINUOUS
 10
94.438502
 20
-89.61439
 11
93.379292
 21
-89.669783
  0
LINE
  8
型材断面
  6
CONTINUOUS
 10
62.163715
 20
-58.193035
 11
61.104505
 21
-58.24845
  0
LINE
  8
型材断面
  6
CONTINUOUS
 10
61.104505
 20
-58.24845
 11
60.435303
 21
-58.99153
  0
LINE
  8
型材断面
  6
CONTINUOUS
 10
60.435303
 20
-58.99153
 11
60.490715
 21
-60.05074
  0
LINE
  8
型材断面
  6
CONTINUOUS
 10
95.05232
 20
-87.812103
 11
62.164155
 21
-58.193012
  0
LINE
  8
型材断面
  6
CONTINUOUS
 10
93.379292
 20
-89.669783
 11
60.490692
 21
-60.050315
  0
LINE
  8
ボルト／ビス
  6
CONTINUOUS
 62
    64
 10
94.15336
 20
-88.063125
 11
94.296042
 21
-88.502417
  0
LINE
  8
ボルト／ビス
  6
CONTINUOUS
 62
    64
 10
94.15336
 20
-88.063125
 11
93.701587
 21
-87.96705
  0
LINE
  8
ボルト／ビス
  6
CONTINUOUS
 62
    64
 10
93.535175
 20
-88.74955
 11
93.986947
 21
-88.845625
  0
LINE
  8
ボルト／ビス
  6
CONTINUOUS
 62
    64
 10
93.535175
 20
-88.74955
 11
93.392492
 21
-88.310257
  0
CIRCLE
  8
ボルト／ビス
  6
CONTINUOUS
 62
    64
 10
93.844268
 20
-88.406337
 40
0.4
  0
LINE
  8
ボルト／ビス
  6
CONTINUOUS
 62
    64
 10
93.701587
 20
-87.96705
 11
93.392492
 21
-88.310257
  0
LINE
  8
ボルト／ビス
  6
CONTINUOUS
 62
    64
 10
94.296042
 20
-88.502417
 11
93.986947
 21
-88.845625
  0
LINE
  8
ボルト／ビス
  6
CONTINUOUS
 62
    64
 10
78.08071
 20
-73.588095
 11
77.62893
 21
-73.492012
  0
LINE
  8
ボルト／ビス
  6
CONTINUOUS
 62
    64
 10
78.08071
 20
-73.588095
 11
78.223393
 21
-74.02738
  0
LINE
  8
ボルト／ビス
  6
CONTINUOUS
 62
    64
 10
77.462517
 20
-74.274513
 11
77.319837
 21
-73.835222
  0
LINE
  8
ボルト／ビス
  6
CONTINUOUS
 62
    64
 10
77.462517
 20
-74.274513
 11
77.914293
 21
-74.37059
  0
CIRCLE
  8
ボルト／ビス
  6
CONTINUOUS
 62
    64
 10
77.77161
 20
-73.931303
 40
0.4
  0
LINE
  8
ボルト／ビス
  6
CONTINUOUS
 62
    64
 10
78.223393
 20
-74.02738
 11
77.914293
 21
-74.37059
  0
LINE
  8
ボルト／ビス
  6
CONTINUOUS
 62
    64
 10
77.62893
 20
-73.492012
 11
77.319837
 21
-73.835222
  0
LINE
  8
ボルト／ビス
  6
CONTINUOUS
 62
    64
 10
62.007848
 20
-59.113278
 11
61.556068
 21
-59.017202
  0
LINE
  8
ボルト／ビス
  6
CONTINUOUS
 62
    64
 10
62.007848
 20
-59.113278
 11
62.150527
 21
-59.552563
  0
LINE
  8
ボルト／ビス
  6
CONTINUOUS
 62
    64
 10
61.389662
 20
-59.799705
 11
61.24698
 21
-59.360418
  0
LINE
  8
ボルト／ビス
  6
CONTINUOUS
 62
    64
 10
61.389662
 20
-59.799705
 11
61.841443
 21
-59.895777
  0
CIRCLE
  8
ボルト／ビス
  6
CONTINUOUS
 62
    64
 10
61.698755
 20
-59.45649
 40
0.4
  0
LINE
  8
ボルト／ビス
  6
CONTINUOUS
 62
    64
 10
62.150527
 20
-59.552563
 11
61.841443
 21
-59.895777
  0
LINE
  8
ボルト／ビス
  6
CONTINUOUS
 62
    64
 10
61.556068
 20
-59.017202
 11
61.24698
 21
-59.360418
  0
ENDBLK
  0
BLOCK
  2
*GRP_0069
 70
    65
 10
0.0
 20
0.0
  0
LINE
  8
ボルト／ビス
  6
CONTINUOUS
 10
-140.38576
 20
-80.966093
 11
-140.38576
 21
-80.266093
  0
LINE
  8
ボルト／ビス
  6
CONTINUOUS
 10
-140.93576
 20
-80.966093
 11
-140.93576
 21
-80.866093
  0
LINE
  8
ボルト／ビス
  6
CONTINUOUS
 10
-140.93576
 20
-80.866093
 11
-139.83576
 21
-80.866093
  0
LINE
  8
ボルト／ビス
  6
CONTINUOUS
 10
-139.83576
 20
-80.866093
 11
-139.83576
 21
-80.966093
  0
LINE
  8
ボルト／ビス
  6
CONTINUOUS
 10
-140.93576
 20
-80.966093
 11
-139.83576
 21
-80.966093
  0
LINE
  8
ボルト／ビス
  6
CONTINUOUS
 10
-140.83576
 20
-80.816093
 11
-140.83576
 21
-80.866093
  0
LINE
  8
ボルト／ビス
  6
CONTINUOUS
 10
-140.83576
 20
-80.816093
 11
-139.93576
 21
-80.816093
  0
LINE
  8
ボルト／ビス
  6
CONTINUOUS
 10
-139.93576
 20
-80.816093
 11
-139.93576
 21
-80.866093
  0
LINE
  8
ボルト／ビス
  6
CONTINUOUS
 62
    64
 10
-140.626322
 20
-80.516093
 11
-140.674435
 21
-80.533605
  0
ARC
  8
ボルト／ビス
  6
CONTINUOUS
 62
    64
 10
-140.602263
 20
-80.673562
 40
0.157468
 50
62.721967
 51
90.0
  0
ARC
  8
ボルト／ビス
  6
CONTINUOUS
 62
    64
 10
-140.385757
 20
-81.119698
 40
0.603603
 50
76.165002
 51
103.834985
  0
LINE
  8
ボルト／ビス
  6
CONTINUOUS
 62
    64
 10
-140.145197
 20
-80.516093
 11
-140.097085
 21
-80.533605
  0
ARC
  8
ボルト／ビス
  6
CONTINUOUS
 62
    64
 10
-140.169251
 20
-80.673562
 40
0.157468
 50
90.0
 51
117.278033
  0
LINE
  8
ボルト／ビス
  6
CONTINUOUS
 62
    64
 10
-140.626322
 20
-80.516093
 11
-140.145197
 21
-80.516093
  0
LINE
  8
ボルト／ビス
  6
CONTINUOUS
 62
    64
 10
-140.097085
 20
-80.533605
 11
-140.097085
 21
-80.716093
  0
LINE
  8
ボルト／ビス
  6
CONTINUOUS
 62
    64
 10
-140.241423
 20
-80.533605
 11
-140.241423
 21
-80.716093
  0
LINE
  8
ボルト／ビス
  6
CONTINUOUS
 62
    64
 10
-140.674435
 20
-80.533605
 11
-140.674435
 21
-80.716093
  0
LINE
  8
ボルト／ビス
  6
CONTINUOUS
 62
    64
 10
-140.530098
 20
-80.533605
 11
-140.530098
 21
-80.716093
  0
LINE
  8
ボルト／ビス
  6
CONTINUOUS
 10
-140.674435
 20
-80.716093
 11
-140.097085
 21
-80.716093
  0
LINE
  8
ボルト／ビス
  6
CONTINUOUS
 10
-140.68576
 20
-80.716093
 11
-140.68576
 21
-80.816093
  0
LINE
  8
ボルト／ビス
  6
CONTINUOUS
 10
-140.68576
 20
-80.716093
 11
-140.08576
 21
-80.716093
  0
LINE
  8
ボルト／ビス
  6
CONTINUOUS
 10
-140.08576
 20
-80.716093
 11
-140.08576
 21
-80.816093
  0
ENDBLK
  0
BLOCK
  2
*GRP_0070
 70
    65
 10
0.0
 20
0.0
  0
LINE
  8
ボルト／ビス
  6
CONTINUOUS
 10
-38.38576
 20
-80.966093
 11
-38.38576
 21
-80.266093
  0
LINE
  8
ボルト／ビス
  6
CONTINUOUS
 10
-38.93576
 20
-80.966093
 11
-38.93576
 21
-80.866093
  0
LINE
  8
ボルト／ビス
  6
CONTINUOUS
 10
-38.93576
 20
-80.866093
 11
-37.83576
 21
-80.866093
  0
LINE
  8
ボルト／ビス
  6
CONTINUOUS
 10
-37.83576
 20
-80.866093
 11
-37.83576
 21
-80.966093
  0
LINE
  8
ボルト／ビス
  6
CONTINUOUS
 10
-38.93576
 20
-80.966093
 11
-37.83576
 21
-80.966093
  0
LINE
  8
ボルト／ビス
  6
CONTINUOUS
 10
-38.83576
 20
-80.816093
 11
-38.83576
 21
-80.866093
  0
LINE
  8
ボルト／ビス
  6
CONTINUOUS
 10
-38.83576
 20
-80.816093
 11
-37.93576
 21
-80.816093
  0
LINE
  8
ボルト／ビス
  6
CONTINUOUS
 10
-37.93576
 20
-80.816093
 11
-37.93576
 21
-80.866093
  0
LINE
  8
ボルト／ビス
  6
CONTINUOUS
 62
    64
 10
-38.626322
 20
-80.516093
 11
-38.674435
 21
-80.533605
  0
ARC
  8
ボルト／ビス
  6
CONTINUOUS
 62
    64
 10
-38.602264
 20
-80.673562
 40
0.157468
 50
62.721967
 51
90.0
  0
ARC
  8
ボルト／ビス
  6
CONTINUOUS
 62
    64
 10
-38.385758
 20
-81.119698
 40
0.603603
 50
76.165002
 51
103.834985
  0
LINE
  8
ボルト／ビス
  6
CONTINUOUS
 62
    64
 10
-38.145197
 20
-80.516093
 11
-38.097085
 21
-80.533605
  0
ARC
  8
ボルト／ビス
  6
CONTINUOUS
 62
    64
 10
-38.169252
 20
-80.673562
 40
0.157468
 50
90.0
 51
117.278033
  0
LINE
  8
ボルト／ビス
  6
CONTINUOUS
 62
    64
 10
-38.626322
 20
-80.516093
 11
-38.145197
 21
-80.516093
  0
LINE
  8
ボルト／ビス
  6
CONTINUOUS
 62
    64
 10
-38.097085
 20
-80.533605
 11
-38.097085
 21
-80.716093
  0
LINE
  8
ボルト／ビス
  6
CONTINUOUS
 62
    64
 10
-38.241423
 20
-80.533605
 11
-38.241423
 21
-80.716093
  0
LINE
  8
ボルト／ビス
  6
CONTINUOUS
 62
    64
 10
-38.674435
 20
-80.533605
 11
-38.674435
 21
-80.716093
  0
LINE
  8
ボルト／ビス
  6
CONTINUOUS
 62
    64
 10
-38.530098
 20
-80.533605
 11
-38.530098
 21
-80.716093
  0
LINE
  8
ボルト／ビス
  6
CONTINUOUS
 10
-38.674435
 20
-80.716093
 11
-38.097085
 21
-80.716093
  0
LINE
  8
ボルト／ビス
  6
CONTINUOUS
 10
-38.68576
 20
-80.716093
 11
-38.68576
 21
-80.816093
  0
LINE
  8
ボルト／ビス
  6
CONTINUOUS
 10
-38.68576
 20
-80.716093
 11
-38.08576
 21
-80.716093
  0
LINE
  8
ボルト／ビス
  6
CONTINUOUS
 10
-38.08576
 20
-80.716093
 11
-38.08576
 21
-80.816093
  0
ENDBLK
  0
BLOCK
  2
*GRP_0071
 70
    65
 10
0.0
 20
0.0
  0
LINE
  8
ボルト／ビス
  6
CONTINUOUS
 10
58.698898
 20
-80.966093
 11
58.698898
 21
-80.266093
  0
LINE
  8
ボルト／ビス
  6
CONTINUOUS
 10
58.148898
 20
-80.966093
 11
58.148898
 21
-80.866093
  0
LINE
  8
ボルト／ビス
  6
CONTINUOUS
 10
58.148898
 20
-80.866093
 11
59.248898
 21
-80.866093
  0
LINE
  8
ボルト／ビス
  6
CONTINUOUS
 10
59.248898
 20
-80.866093
 11
59.248898
 21
-80.966093
  0
LINE
  8
ボルト／ビス
  6
CONTINUOUS
 10
58.148898
 20
-80.966093
 11
59.248898
 21
-80.966093
  0
LINE
  8
ボルト／ビス
  6
CONTINUOUS
 10
58.248898
 20
-80.816093
 11
58.248898
 21
-80.866093
  0
LINE
  8
ボルト／ビス
  6
CONTINUOUS
 10
58.248898
 20
-80.816093
 11
59.148898
 21
-80.816093
  0
LINE
  8
ボルト／ビス
  6
CONTINUOUS
 10
59.148898
 20
-80.816093
 11
59.148898
 21
-80.866093
  0
LINE
  8
ボルト／ビス
  6
CONTINUOUS
 62
    64
 10
58.458335
 20
-80.516093
 11
58.410223
 21
-80.533605
  0
ARC
  8
ボルト／ビス
  6
CONTINUOUS
 62
    64
 10
58.482393
 20
-80.673562
 40
0.157468
 50
62.721967
 51
90.0
  0
ARC
  8
ボルト／ビス
  6
CONTINUOUS
 62
    64
 10
58.6989
 20
-81.119698
 40
0.603603
 50
76.165002
 51
103.834985
  0
LINE
  8
ボルト／ビス
  6
CONTINUOUS
 62
    64
 10
58.93946
 20
-80.516093
 11
58.987572
 21
-80.533605
  0
ARC
  8
ボルト／ビス
  6
CONTINUOUS
 62
    64
 10
58.915406
 20
-80.673562
 40
0.157468
 50
90.0
 51
117.278033
  0
LINE
  8
ボルト／ビス
  6
CONTINUOUS
 62
    64
 10
58.458335
 20
-80.516093
 11
58.93946
 21
-80.516093
  0
LINE
  8
ボルト／ビス
  6
CONTINUOUS
 62
    64
 10
58.987572
 20
-80.533605
 11
58.987572
 21
-80.716093
  0
LINE
  8
ボルト／ビス
  6
CONTINUOUS
 62
    64
 10
58.843235
 20
-80.533605
 11
58.843235
 21
-80.716093
  0
LINE
  8
ボルト／ビス
  6
CONTINUOUS
 62
    64
 10
58.410223
 20
-80.533605
 11
58.410223
 21
-80.716093
  0
LINE
  8
ボルト／ビス
  6
CONTINUOUS
 62
    64
 10
58.55456
 20
-80.533605
 11
58.55456
 21
-80.716093
  0
LINE
  8
ボルト／ビス
  6
CONTINUOUS
 10
58.410223
 20
-80.716093
 11
58.987572
 21
-80.716093
  0
LINE
  8
ボルト／ビス
  6
CONTINUOUS
 10
58.398898
 20
-80.716093
 11
58.398898
 21
-80.816093
  0
LINE
  8
ボルト／ビス
  6
CONTINUOUS
 10
58.398898
 20
-80.716093
 11
58.998898
 21
-80.716093
  0
LINE
  8
ボルト／ビス
  6
CONTINUOUS
 10
58.998898
 20
-80.716093
 11
58.998898
 21
-80.816093
  0
ENDBLK
  0
BLOCK
  2
*GRP_0072
 70
    65
 10
0.0
 20
0.0
  0
LINE
  8
ボルト／ビス
  6
CONTINUOUS
 10
160.698898
 20
-80.966093
 11
160.698898
 21
-80.266093
  0
LINE
  8
ボルト／ビス
  6
CONTINUOUS
 10
160.148898
 20
-80.966093
 11
160.148898
 21
-80.866093
  0
LINE
  8
ボルト／ビス
  6
CONTINUOUS
 10
160.148898
 20
-80.866093
 11
161.248898
 21
-80.866093
  0
LINE
  8
ボルト／ビス
  6
CONTINUOUS
 10
161.248898
 20
-80.866093
 11
161.248898
 21
-80.966093
  0
LINE
  8
ボルト／ビス
  6
CONTINUOUS
 10
160.148898
 20
-80.966093
 11
161.248898
 21
-80.966093
  0
LINE
  8
ボルト／ビス
  6
CONTINUOUS
 10
160.248898
 20
-80.816093
 11
160.248898
 21
-80.866093
  0
LINE
  8
ボルト／ビス
  6
CONTINUOUS
 10
160.248898
 20
-80.816093
 11
161.148898
 21
-80.816093
  0
LINE
  8
ボルト／ビス
  6
CONTINUOUS
 10
161.148898
 20
-80.816093
 11
161.148898
 21
-80.866093
  0
LINE
  8
ボルト／ビス
  6
CONTINUOUS
 62
    64
 10
160.458335
 20
-80.516093
 11
160.410223
 21
-80.533605
  0
ARC
  8
ボルト／ビス
  6
CONTINUOUS
 62
    64
 10
160.482393
 20
-80.673563
 40
0.157468
 50
62.721967
 51
90.0
  0
ARC
  8
ボルト／ビス
  6
CONTINUOUS
 62
    64
 10
160.698899
 20
-81.119699
 40
0.603603
 50
76.165002
 51
103.834985
  0
LINE
  8
ボルト／ビス
  6
CONTINUOUS
 62
    64
 10
160.93946
 20
-80.516093
 11
160.987573
 21
-80.533605
  0
ARC
  8
ボルト／ビス
  6
CONTINUOUS
 62
    64
 10
160.915406
 20
-80.673563
 40
0.157468
 50
90.0
 51
117.278033
  0
LINE
  8
ボルト／ビス
  6
CONTINUOUS
 62
    64
 10
160.458335
 20
-80.516093
 11
160.93946
 21
-80.516093
  0
LINE
  8
ボルト／ビス
  6
CONTINUOUS
 62
    64
 10
160.987573
 20
-80.533605
 11
160.987573
 21
-80.716093
  0
LINE
  8
ボルト／ビス
  6
CONTINUOUS
 62
    64
 10
160.843235
 20
-80.533605
 11
160.843235
 21
-80.716093
  0
LINE
  8
ボルト／ビス
  6
CONTINUOUS
 62
    64
 10
160.410223
 20
-80.533605
 11
160.410223
 21
-80.716093
  0
LINE
  8
ボルト／ビス
  6
CONTINUOUS
 62
    64
 10
160.55456
 20
-80.533605
 11
160.55456
 21
-80.716093
  0
LINE
  8
ボルト／ビス
  6
CONTINUOUS
 10
160.410223
 20
-80.716093
 11
160.987573
 21
-80.716093
  0
LINE
  8
ボルト／ビス
  6
CONTINUOUS
 10
160.398898
 20
-80.716093
 11
160.398898
 21
-80.816093
  0
LINE
  8
ボルト／ビス
  6
CONTINUOUS
 10
160.398898
 20
-80.716093
 11
160.998898
 21
-80.716093
  0
LINE
  8
ボルト／ビス
  6
CONTINUOUS
 10
160.998898
 20
-80.716093
 11
160.998898
 21
-80.816093
  0
ENDBLK
  0
BLOCK
  2
*GRP_0073
 70
    65
 10
0.0
 20
0.0
  0
LINE
  8
型材断面
  6
DOT
 10
55.553903
 20
-61.016273
 11
109.698907
 21
-61.016273
  0
LINE
  8
型材断面
  6
DOT
 10
55.553903
 20
-59.26627
 11
109.698907
 21
-59.26627
  0
LINE
  8
型材断面
  6
DOT
 10
109.698903
 20
-57.54127
 11
57.65868
 21
-57.54127
  0
LINE
  8
型材断面
  6
DOT
 10
163.843893
 20
-61.016273
 11
109.698887
 21
-61.016273
  0
LINE
  8
型材断面
  6
DOT
 10
163.843893
 20
-59.26627
 11
109.698887
 21
-59.26627
  0
LINE
  8
型材断面
  6
DOT
 10
109.698892
 20
-57.54127
 11
161.739115
 21
-57.54127
  0
LINE
  8
別途部材
  6
DOT
 62
    96
 10
57.198898
 20
-55.96609
 11
56.598898
 21
-57.46609
  0
LINE
  8
別途部材
  6
DOT
 62
    96
 10
57.198898
 20
-55.96609
 11
109.698898
 21
-55.96609
  0
LINE
  8
別途部材
  6
DOT
 10
56.598898
 20
-57.46609
 11
109.698898
 21
-57.46609
  0
LINE
  8
別途部材
  6
DOT
 62
    96
 10
162.198898
 20
-55.96609
 11
162.798898
 21
-57.46609
  0
LINE
  8
別途部材
  6
DOT
 62
    96
 10
162.198898
 20
-55.96609
 11
109.698898
 21
-55.96609
  0
LINE
  8
別途部材
  6
DOT
 10
162.798898
 20
-57.46609
 11
109.698898
 21
-57.46609
  0
LINE
  8
別途部材
  6
DOT
 10
162.798898
 20
-57.46609
 11
109.698898
 21
-57.46609
  0
ARC
  8
別途部材
  6
DOT
 10
109.698896
 20
-100.271646
 40
66.805556
 50
41.544509
 51
138.455491
  0
INSERT
  2
*GRP_0074
  8
別途部材
  6
DOT
 10
0.0
 20
0.0
  0
INSERT
  2
*GRP_0075
  8
別途部材
  6
DOT
 10
0.0
 20
0.0
  0
LINE
  8
鉄骨等
  6
DOT
 62
    47
 10
55.553903
 20
-61.016273
 11
55.553903
 21
-59.26627
  0
LINE
  8
鉄骨等
  6
DOT
 62
    47
 10
55.553903
 20
-59.26627
 11
57.65868
 21
-57.54127
  0
LINE
  8
鉄骨等
  6
DOT
 62
    47
 10
57.65868
 20
-57.54127
 11
57.65868
 21
-57.46609
  0
LINE
  8
鉄骨等
  6
DOT
 62
    47
 10
163.843893
 20
-61.016273
 11
163.843893
 21
-59.26627
  0
LINE
  8
鉄骨等
  6
DOT
 62
    47
 10
163.843893
 20
-59.26627
 11
161.739115
 21
-57.54127
  0
LINE
  8
鉄骨等
  6
DOT
 62
    47
 10
161.739115
 20
-57.54127
 11
161.739115
 21
-57.46609
  0
ENDBLK
  0
BLOCK
  2
*GRP_0074
 70
    65
 10
0.0
 20
0.0
  0
LINE
  8
ボルト／ビス
  6
DOT
 10
58.698898
 20
-55.966093
 11
58.698898
 21
-55.266093
  0
LINE
  8
ボルト／ビス
  6
DOT
 10
58.148898
 20
-55.966093
 11
58.148898
 21
-55.866093
  0
LINE
  8
ボルト／ビス
  6
DOT
 10
58.148898
 20
-55.866093
 11
59.248898
 21
-55.866093
  0
LINE
  8
ボルト／ビス
  6
DOT
 10
59.248898
 20
-55.866093
 11
59.248898
 21
-55.966093
  0
LINE
  8
ボルト／ビス
  6
DOT
 10
58.148898
 20
-55.966093
 11
59.248898
 21
-55.966093
  0
LINE
  8
ボルト／ビス
  6
DOT
 10
58.248898
 20
-55.816093
 11
58.248898
 21
-55.866093
  0
LINE
  8
ボルト／ビス
  6
DOT
 10
58.248898
 20
-55.816093
 11
59.148898
 21
-55.816093
  0
LINE
  8
ボルト／ビス
  6
DOT
 10
59.148898
 20
-55.816093
 11
59.148898
 21
-55.866093
  0
LINE
  8
ボルト／ビス
  6
DOT
 62
    64
 10
58.458335
 20
-55.516093
 11
58.410223
 21
-55.533605
  0
ARC
  8
ボルト／ビス
  6
DOT
 62
    64
 10
58.482393
 20
-55.673562
 40
0.157468
 50
62.721967
 51
90.0
  0
ARC
  8
ボルト／ビス
  6
DOT
 62
    64
 10
58.6989
 20
-56.119698
 40
0.603603
 50
76.165002
 51
103.834985
  0
LINE
  8
ボルト／ビス
  6
DOT
 62
    64
 10
58.93946
 20
-55.516093
 11
58.987572
 21
-55.533605
  0
ARC
  8
ボルト／ビス
  6
DOT
 62
    64
 10
58.915406
 20
-55.673562
 40
0.157468
 50
90.0
 51
117.278033
  0
LINE
  8
ボルト／ビス
  6
DOT
 62
    64
 10
58.458335
 20
-55.516093
 11
58.93946
 21
-55.516093
  0
LINE
  8
ボルト／ビス
  6
DOT
 62
    64
 10
58.987572
 20
-55.533605
 11
58.987572
 21
-55.716093
  0
LINE
  8
ボルト／ビス
  6
DOT
 62
    64
 10
58.843235
 20
-55.533605
 11
58.843235
 21
-55.716093
  0
LINE
  8
ボルト／ビス
  6
DOT
 62
    64
 10
58.410223
 20
-55.533605
 11
58.410223
 21
-55.716093
  0
LINE
  8
ボルト／ビス
  6
DOT
 62
    64
 10
58.55456
 20
-55.533605
 11
58.55456
 21
-55.716093
  0
LINE
  8
ボルト／ビス
  6
DOT
 10
58.410223
 20
-55.716093
 11
58.987572
 21
-55.716093
  0
LINE
  8
ボルト／ビス
  6
DOT
 10
58.398898
 20
-55.716093
 11
58.398898
 21
-55.816093
  0
LINE
  8
ボルト／ビス
  6
DOT
 10
58.398898
 20
-55.716093
 11
58.998898
 21
-55.716093
  0
LINE
  8
ボルト／ビス
  6
DOT
 10
58.998898
 20
-55.716093
 11
58.998898
 21
-55.816093
  0
ENDBLK
  0
BLOCK
  2
*GRP_0075
 70
    65
 10
0.0
 20
0.0
  0
LINE
  8
ボルト／ビス
  6
DOT
 10
160.698898
 20
-55.966093
 11
160.698898
 21
-55.266093
  0
LINE
  8
ボルト／ビス
  6
DOT
 10
160.148898
 20
-55.966093
 11
160.148898
 21
-55.866093
  0
LINE
  8
ボルト／ビス
  6
DOT
 10
160.148898
 20
-55.866093
 11
161.248898
 21
-55.866093
  0
LINE
  8
ボルト／ビス
  6
DOT
 10
161.248898
 20
-55.866093
 11
161.248898
 21
-55.966093
  0
LINE
  8
ボルト／ビス
  6
DOT
 10
160.148898
 20
-55.966093
 11
161.248898
 21
-55.966093
  0
LINE
  8
ボルト／ビス
  6
DOT
 10
160.248898
 20
-55.816093
 11
160.248898
 21
-55.866093
  0
LINE
  8
ボルト／ビス
  6
DOT
 10
160.248898
 20
-55.816093
 11
161.148898
 21
-55.816093
  0
LINE
  8
ボルト／ビス
  6
DOT
 10
161.148898
 20
-55.816093
 11
161.148898
 21
-55.866093
  0
LINE
  8
ボルト／ビス
  6
DOT
 62
    64
 10
160.458335
 20
-55.516093
 11
160.410223
 21
-55.533605
  0
ARC
  8
ボルト／ビス
  6
DOT
 62
    64
 10
160.482393
 20
-55.673563
 40
0.157468
 50
62.721967
 51
90.0
  0
ARC
  8
ボルト／ビス
  6
DOT
 62
    64
 10
160.698899
 20
-56.119699
 40
0.603603
 50
76.165002
 51
103.834985
  0
LINE
  8
ボルト／ビス
  6
DOT
 62
    64
 10
160.93946
 20
-55.516093
 11
160.987573
 21
-55.533605
  0
ARC
  8
ボルト／ビス
  6
DOT
 62
    64
 10
160.915406
 20
-55.673563
 40
0.157468
 50
90.0
 51
117.278033
  0
LINE
  8
ボルト／ビス
  6
DOT
 62
    64
 10
160.458335
 20
-55.516093
 11
160.93946
 21
-55.516093
  0
LINE
  8
ボルト／ビス
  6
DOT
 62
    64
 10
160.987573
 20
-55.533605
 11
160.987573
 21
-55.716093
  0
LINE
  8
ボルト／ビス
  6
DOT
 62
    64
 10
160.843235
 20
-55.533605
 11
160.843235
 21
-55.716093
  0
LINE
  8
ボルト／ビス
  6
DOT
 62
    64
 10
160.410223
 20
-55.533605
 11
160.410223
 21
-55.716093
  0
LINE
  8
ボルト／ビス
  6
DOT
 62
    64
 10
160.55456
 20
-55.533605
 11
160.55456
 21
-55.716093
  0
LINE
  8
ボルト／ビス
  6
DOT
 10
160.410223
 20
-55.716093
 11
160.987573
 21
-55.716093
  0
LINE
  8
ボルト／ビス
  6
DOT
 10
160.398898
 20
-55.716093
 11
160.398898
 21
-55.816093
  0
LINE
  8
ボルト／ビス
  6
DOT
 10
160.398898
 20
-55.716093
 11
160.998898
 21
-55.716093
  0
LINE
  8
ボルト／ビス
  6
DOT
 10
160.998898
 20
-55.716093
 11
160.998898
 21
-55.816093
  0
ENDBLK
  0
BLOCK
  2
*DIM_0076
 70
    65
 10
0.0
 20
0.0
  0
LINE
  8
寸法
  6
CONTINUOUS
 10
-31.88576
 20
-80.96609
 11
-14.991043
 21
-80.96609
  0
LINE
  8
寸法
  6
CONTINUOUS
 10
-30.240762
 20
-92.216097
 11
-14.991043
 21
-92.216097
  0
LINE
  8
寸法
  6
CONTINUOUS
 10
-14.991043
 20
-80.96609
 11
-14.991043
 21
-92.216097
  0
POINT
  8
寸法
 10
-14.991043
 20
-80.96609
  0
POINT
  8
寸法
 10
-14.991043
 20
-92.216097
  0
TEXT
  7
TextStyle03
  8
寸法
  6
CONTINUOUS
 10
-15.375
 20
-89.0375
  1
225
 40
3.0
 50
90.0
 72
     5
 11
-15.375
 21
-84.1625
  0
ENDBLK
  0
BLOCK
  2
*DIM_0077
 70
    65
 10
0.0
 20
0.0
  0
LINE
  8
寸法
  6
BYBLOCK
 62
     0
 10
168.843893
 20
-86.016273
 11
185.313797
 21
-86.016273
  0
LINE
  8
寸法
  6
BYBLOCK
 62
     0
 10
168.843893
 20
-61.016273
 11
185.313797
 21
-61.016273
  0
LINE
  8
寸法
  6
BYBLOCK
 62
     0
 10
185.313797
 20
-86.016273
 11
185.313797
 21
-61.016273
  0
POINT
  8
寸法
 62
     0
 10
185.313797
 20
-86.016273
  0
POINT
  8
寸法
 62
     0
 10
185.313797
 20
-61.016273
  0
TEXT
  7
TextStyle03
  8
寸法
  6
CONTINUOUS
 62
     0
 10
184.925
 20
-82.7125
  1
上昇高さ500
 40
3.0
 50
90.0
 72
     5
 11
184.925
 21
-64.3375
  0
ENDBLK
  0
ENDSEC
  0
SECTION
  2
ENTITIES
  0
POLYLINE
  8
通り芯
  6
CONTINUOUS
 66
     1
 70
     1
  0
VERTEX
  8
通り芯
 10
-210.0
 20
-148.5
  0
VERTEX
  8
通り芯
 10
210.0
 20
-148.5
  0
VERTEX
  8
通り芯
 10
210.0
 20
148.5
  0
VERTEX
  8
通り芯
 10
-210.0
 20
148.5
  0
SEQEND
  0
INSERT
  2
*GRP_0001
  8
型材断面
  6
CONTINUOUS
 10
0.0
 20
0.0
  0
LINE
  8
型材断面
  6
DASHDOT
 10
-139.38576
 20
-17.025835
 11
-39.38576
 21
-17.025835
  0
LINE
  8
型材断面
  6
DASHDOT
 10
-139.38576
 20
-96.480105
 11
-139.38576
 21
82.974165
  0
LINE
  8
型材断面
  6
DASHDOT
 10
-39.38576
 20
-96.480105
 11
-39.38576
 21
82.974165
  0
LINE
  8
型材断面
  6
DASHDOT
 10
-139.38576
 20
82.974165
 11
-39.38576
 21
82.974165
  0
LINE
  8
型材断面
  6
CONTINUOUS
 10
-147.409635
 20
-11.475838
 11
-151.295395
 21
-10.581753
  0
LINE
  8
型材断面
  6
CONTINUOUS
 10
-147.409635
 20
-11.475838
 11
-151.295395
 21
-12.369923
  0
LINE
  8
型材断面
  6
CONTINUOUS
 10
-151.295395
 20
-12.369923
 11
-151.295395
 21
-10.581753
  0
LINE
  8
型材断面
  6
CONTINUOUS
 10
-89.38576
 20
-25.04971
 11
-91.629205
 21
-28.93547
  0
LINE
  8
型材断面
  6
CONTINUOUS
 10
-89.38576
 20
-25.04971
 11
-87.142315
 21
-28.93547
  0
LINE
  8
型材断面
  6
CONTINUOUS
 10
-87.142315
 20
-28.93547
 11
-91.629205
 21
-28.93547
  0
LINE
  8
型材断面
  6
CONTINUOUS
 10
-147.409638
 20
32.974165
 11
-151.295398
 21
30.73072
  0
LINE
  8
型材断面
  6
CONTINUOUS
 10
-147.409638
 20
32.974165
 11
-151.295398
 21
35.21761
  0
LINE
  8
型材断面
  6
CONTINUOUS
 10
-151.295398
 20
35.21761
 11
-151.295398
 21
30.73072
  0
LINE
  8
型材断面
  6
CONTINUOUS
 10
-147.409635
 20
77.424167
 11
-151.295395
 21
76.530083
  0
LINE
  8
型材断面
  6
CONTINUOUS
 10
-147.409635
 20
77.424167
 11
-151.295395
 21
78.318253
  0
LINE
  8
型材断面
  6
CONTINUOUS
 10
-151.295395
 20
78.318253
 11
-151.295395
 21
76.530083
  0
LINE
  8
型材断面
  6
CONTINUOUS
 10
-89.38576
 20
90.99804
 11
-91.629205
 21
94.8838
  0
LINE
  8
型材断面
  6
CONTINUOUS
 10
-89.38576
 20
90.99804
 11
-87.142315
 21
94.8838
  0
LINE
  8
型材断面
  6
CONTINUOUS
 10
-87.142315
 20
94.8838
 11
-91.629205
 21
94.8838
  0
LINE
  8
型材断面
  6
CONTINUOUS
 10
-31.361885
 20
-11.475838
 11
-27.476125
 21
-10.581753
  0
LINE
  8
型材断面
  6
CONTINUOUS
 10
-31.361885
 20
-11.475838
 11
-27.476125
 21
-12.369923
  0
LINE
  8
型材断面
  6
CONTINUOUS
 10
-27.476125
 20
-12.369923
 11
-27.476125
 21
-10.581753
  0
LINE
  8
型材断面
  6
CONTINUOUS
 10
-31.361882
 20
32.974165
 11
-27.476123
 21
30.73072
  0
LINE
  8
型材断面
  6
CONTINUOUS
 10
-31.361882
 20
32.974165
 11
-27.476123
 21
35.21761
  0
LINE
  8
型材断面
  6
CONTINUOUS
 10
-27.476123
 20
35.21761
 11
-27.476123
 21
30.73072
  0
LINE
  8
型材断面
  6
CONTINUOUS
 10
-31.361885
 20
77.424167
 11
-27.476125
 21
76.530083
  0
LINE
  8
型材断面
  6
CONTINUOUS
 10
-31.361885
 20
77.424167
 11
-27.476125
 21
78.318253
  0
LINE
  8
型材断面
  6
CONTINUOUS
 10
-27.476125
 20
78.318253
 11
-27.476125
 21
76.530083
  0
LINE
  8
型材断面
  6
DOT
 10
-44.401998
 20
82.974165
 11
-44.401998
 21
-17.025835
  0
LINE
  8
型材断面
  6
DOT
 10
-42.401998
 20
82.974165
 11
-42.401998
 21
-17.025835
  0
LINE
  8
型材断面
  6
DOT
 10
-134.369523
 20
82.974165
 11
-134.369523
 21
-17.025835
  0
LINE
  8
型材断面
  6
DOT
 10
-136.369523
 20
82.974165
 11
-136.369523
 21
-17.025835
  0
LINE
  8
型材断面
  6
CONTINUOUS
 10
-1.119228
 20
-11.256877
 11
-3.362673
 21
-15.142638
  0
LINE
  8
型材断面
  6
CONTINUOUS
 10
-1.119228
 20
-11.256877
 11
1.124217
 21
-15.142638
  0
LINE
  8
型材断面
  6
CONTINUOUS
 10
1.124217
 20
-15.142638
 11
-3.362673
 21
-15.142638
  0
LINE
  8
型材断面
  6
CONTINUOUS
 10
-1.119228
 20
-18.946425
 11
-0.225143
 21
-22.832185
  0
LINE
  8
型材断面
  6
CONTINUOUS
 10
-1.119228
 20
-18.946425
 11
-2.013313
 21
-22.832185
  0
LINE
  8
型材断面
  6
CONTINUOUS
 10
-2.013313
 20
-22.832185
 11
-0.225143
 21
-22.832185
  0
LINE
  8
型材断面
  6
CONTINUOUS
 10
-10.153107
 20
-16.55053
 11
42.503572
 21
-16.55053
  0
LINE
  8
型材断面
  6
CONTINUOUS
 10
-10.153107
 20
-27.750522
 11
42.503572
 21
-27.750522
  0
LINE
  8
型材断面
  6
CONTINUOUS
 10
-10.153107
 20
-34.590467
 11
42.503572
 21
-34.590467
  0
POLYLINE
  8
型材断面
  6
CONTINUOUS
 66
     1
 70
     1
  0
VERTEX
  8
型材断面
 10
-79.903643
 20
-30.263357
  0
VERTEX
  8
型材断面
 10
-98.458855
 20
-30.263357
  0
VERTEX
  8
型材断面
 10
-98.458855
 20
-35.055393
  0
VERTEX
  8
型材断面
 10
-79.903643
 20
-35.055393
  0
SEQEND
  0
POLYLINE
  8
型材断面
  6
CONTINUOUS
 66
     1
 70
     1
  0
VERTEX
  8
型材断面
 10
-79.903643
 20
101.00222
  0
VERTEX
  8
型材断面
 10
-98.458855
 20
101.00222
  0
VERTEX
  8
型材断面
 10
-98.458855
 20
96.210185
  0
VERTEX
  8
型材断面
 10
-79.903643
 20
96.210185
  0
SEQEND
  0
LINE
  8
型材断面
  6
CONTINUOUS
 10
-10.153107
 20
-41.430412
 11
42.503572
 21
-41.430412
  0
LINE
  8
型材断面
  6
CONTINUOUS
 10
-142.48576
 20
-20.125835
 11
-143.530765
 21
-21.17084
  0
LINE
  8
型材断面
  6
CONTINUOUS
 10
-142.48576
 20
86.074165
 11
-143.530765
 21
87.11917
  0
LINE
  8
型材断面
  6
CONTINUOUS
 10
-36.28576
 20
86.074165
 11
-35.240755
 21
87.11917
  0
LINE
  8
型材断面
  6
CONTINUOUS
 10
-36.28576
 20
-20.125835
 11
-35.240755
 21
-21.17084
  0
LINE
  8
型材断面
  6
CONTINUOUS
 10
-35.240755
 20
87.11917
 11
-89.38576
 21
87.11917
  0
LINE
  8
型材断面
  6
CONTINUOUS
 10
-143.530765
 20
87.11917
 11
-89.38576
 21
87.11917
  0
LINE
  8
型材断面
  6
DASHDOT
 10
-139.38576
 20
32.974165
 11
-89.38576
 21
32.974165
  0
LINE
  8
型材断面
  6
CONTINUOUS
 10
-143.530765
 20
87.11917
 11
-143.530765
 21
32.974165
  0
LINE
  8
型材断面
  6
CONTINUOUS
 10
-143.530765
 20
-21.17084
 11
-143.530765
 21
32.974165
  0
LINE
  8
型材断面
  6
CONTINUOUS
 10
-35.240755
 20
87.11917
 11
-35.240755
 21
32.974165
  0
LINE
  8
型材断面
  6
CONTINUOUS
 10
-35.240755
 20
-21.17084
 11
-35.240755
 21
32.974165
  0
LINE
  8
型材断面
  6
CONTINUOUS
 10
-35.240755
 20
-21.17084
 11
-89.38576
 21
-21.17084
  0
LINE
  8
型材断面
  6
CONTINUOUS
 10
-143.530765
 20
-21.17084
 11
-89.38576
 21
-21.17084
  0
LINE
  8
型材断面
  6
CONTINUOUS
 10
-143.530755
 20
-86.016273
 11
-89.38575
 21
-86.016273
  0
LINE
  8
型材断面
  6
CONTINUOUS
 10
-143.530755
 20
-84.26627
 11
-89.38575
 21
-84.26627
  0
LINE
  8
型材断面
  6
CONTINUOUS
 10
-89.385755
 20
-82.54127
 11
-141.425978
 21
-82.54127
  0
LINE
  8
型材断面
  6
CONTINUOUS
 10
-35.240765
 20
-86.016273
 11
-89.38577
 21
-86.016273
  0
LINE
  8
型材断面
  6
CONTINUOUS
 10
-35.240765
 20
-84.26627
 11
-89.38577
 21
-84.26627
  0
LINE
  8
型材断面
  6
CONTINUOUS
 10
-89.385765
 20
-82.54127
 11
-37.345543
 21
-82.54127
  0
LINE
  8
型材断面
  6
DASHDOT
 10
-89.38576
 20
-96.480105
 11
-89.38576
 21
82.974165
  0
LINE
  8
型材断面
  6
DASHDOT
 10
-39.38576
 20
32.974165
 11
-89.38576
 21
32.974165
  0
LINE
  8
型材断面
  6
CONTINUOUS
 10
55.553903
 20
-86.016273
 11
109.698907
 21
-86.016273
  0
LINE
  8
型材断面
  6
CONTINUOUS
 10
55.553903
 20
-84.26627
 11
109.698907
 21
-84.26627
  0
LINE
  8
型材断面
  6
CONTINUOUS
 10
109.698903
 20
-82.54127
 11
57.65868
 21
-82.54127
  0
LINE
  8
型材断面
  6
CONTINUOUS
 10
163.843893
 20
-86.016273
 11
109.698887
 21
-86.016273
  0
LINE
  8
型材断面
  6
CONTINUOUS
 10
163.843893
 20
-84.26627
 11
109.698887
 21
-84.26627
  0
LINE
  8
型材断面
  6
CONTINUOUS
 10
109.698892
 20
-82.54127
 11
161.739115
 21
-82.54127
  0
INSERT
  2
*GRP_0064
  8
型材断面
  6
CONTINUOUS
 10
0.0
 20
0.0
  0
INSERT
  2
*GRP_0065
  8
型材断面
  6
CONTINUOUS
 10
0.0
 20
0.0
  0
INSERT
  2
*GRP_0066
  8
型材断面
  6
CONTINUOUS
 10
0.0
 20
0.0
  0
INSERT
  2
*GRP_0067
  8
型材断面
  6
CONTINUOUS
 10
0.0
 20
0.0
  0
LINE
  8
型材断面
  6
DOT
 10
-87.51076
 20
-17.025835
 11
-87.51076
 21
32.974165
  0
LINE
  8
型材断面
  6
DOT
 10
-91.26076
 20
-17.025835
 11
-91.26076
 21
32.974165
  0
LINE
  8
型材断面
  6
DOT
 10
-87.51076
 20
82.974165
 11
-87.51076
 21
32.974165
  0
LINE
  8
型材断面
  6
DOT
 10
-91.26076
 20
82.974165
 11
-91.26076
 21
32.974165
  0
LINE
  8
型材断面
  6
DOT
 10
-139.38576
 20
31.099165
 11
-91.26076
 21
31.099165
  0
LINE
  8
型材断面
  6
DOT
 10
-87.51076
 20
31.099165
 11
-39.38576
 21
31.099165
  0
LINE
  8
型材断面
  6
DOT
 10
-139.38576
 20
34.849165
 11
-91.26076
 21
34.849165
  0
LINE
  8
型材断面
  6
DOT
 10
-87.51076
 20
34.849165
 11
-39.38576
 21
34.849165
  0
LINE
  8
型材断面
  6
CONTINUOUS
 10
-89.38576
 20
-86.366275
 11
-143.530755
 21
-86.366275
  0
LINE
  8
型材断面
  6
CONTINUOUS
 10
-89.38576
 20
-92.721095
 11
-142.780757
 21
-92.721095
  0
LINE
  8
型材断面
  6
CONTINUOUS
 10
-142.780757
 20
-92.216097
 11
-142.780757
 21
-92.721095
  0
LINE
  8
型材断面
  6
CONTINUOUS
 10
-143.530757
 20
-92.216097
 11
-142.780757
 21
-92.216097
  0
LINE
  8
型材断面
  6
CONTINUOUS
 10
-143.530755
 20
-86.366275
 11
-143.23582
 21
-86.07134
  0
LINE
  8
型材断面
  6
CONTINUOUS
 62
    47
 10
-89.38576
 20
-86.07134
 11
-143.23582
 21
-86.07134
  0
LINE
  8
型材断面
  6
CONTINUOUS
 10
-89.38576
 20
-92.216097
 11
-143.530757
 21
-92.216097
  0
LINE
  8
型材断面
  6
CONTINUOUS
 10
-143.530755
 20
-86.366275
 11
-143.530757
 21
-92.216097
  0
LINE
  8
型材断面
  6
CONTINUOUS
 10
-89.38576
 20
-86.366275
 11
-35.240765
 21
-86.366275
  0
LINE
  8
型材断面
  6
CONTINUOUS
 10
-89.38576
 20
-92.721095
 11
-35.990762
 21
-92.721095
  0
LINE
  8
型材断面
  6
CONTINUOUS
 10
-35.990762
 20
-92.216097
 11
-35.990762
 21
-92.721095
  0
LINE
  8
型材断面
  6
CONTINUOUS
 10
-35.240762
 20
-92.216097
 11
-35.990762
 21
-92.216097
  0
LINE
  8
型材断面
  6
CONTINUOUS
 10
-35.240765
 20
-86.366275
 11
-35.5357
 21
-86.07134
  0
LINE
  8
型材断面
  6
CONTINUOUS
 62
    47
 10
-89.38576
 20
-86.07134
 11
-35.5357
 21
-86.07134
  0
LINE
  8
型材断面
  6
CONTINUOUS
 10
-89.38576
 20
-92.216097
 11
-35.240762
 21
-92.216097
  0
LINE
  8
型材断面
  6
CONTINUOUS
 10
-35.240765
 20
-86.366275
 11
-35.240762
 21
-92.216097
  0
LINE
  8
型材断面
  6
CONTINUOUS
 10
109.698898
 20
-86.366275
 11
55.553903
 21
-86.366275
  0
LINE
  8
型材断面
  6
CONTINUOUS
 10
109.698898
 20
-92.721095
 11
56.3039
 21
-92.721095
  0
LINE
  8
型材断面
  6
CONTINUOUS
 10
56.3039
 20
-92.216097
 11
56.3039
 21
-92.721095
  0
LINE
  8
型材断面
  6
CONTINUOUS
 10
55.5539
 20
-92.216097
 11
56.3039
 21
-92.216097
  0
LINE
  8
型材断面
  6
CONTINUOUS
 10
55.553903
 20
-86.366275
 11
55.848838
 21
-86.07134
  0
LINE
  8
型材断面
  6
CONTINUOUS
 62
    47
 10
109.698898
 20
-86.07134
 11
55.848838
 21
-86.07134
  0
LINE
  8
型材断面
  6
CONTINUOUS
 10
109.698898
 20
-92.216097
 11
55.5539
 21
-92.216097
  0
LINE
  8
型材断面
  6
CONTINUOUS
 10
55.553903
 20
-86.366275
 11
55.5539
 21
-92.216097
  0
LINE
  8
型材断面
  6
CONTINUOUS
 10
109.698898
 20
-86.366275
 11
163.843893
 21
-86.366275
  0
LINE
  8
型材断面
  6
CONTINUOUS
 10
109.698898
 20
-92.721095
 11
163.093895
 21
-92.721095
  0
LINE
  8
型材断面
  6
CONTINUOUS
 10
163.093895
 20
-92.216097
 11
163.093895
 21
-92.721095
  0
LINE
  8
型材断面
  6
CONTINUOUS
 10
163.843895
 20
-92.216097
 11
163.093895
 21
-92.216097
  0
LINE
  8
型材断面
  6
CONTINUOUS
 10
163.843893
 20
-86.366275
 11
163.548957
 21
-86.07134
  0
LINE
  8
型材断面
  6
CONTINUOUS
 62
    47
 10
109.698898
 20
-86.07134
 11
163.548957
 21
-86.07134
  0
LINE
  8
型材断面
  6
CONTINUOUS
 10
109.698898
 20
-92.216097
 11
163.843895
 21
-92.216097
  0
LINE
  8
型材断面
  6
CONTINUOUS
 10
163.843893
 20
-86.366275
 11
163.843895
 21
-92.216097
  0
CIRCLE
  8
ボルト／ビス
  6
CONTINUOUS
 10
-38.38576
 20
-4.525835
 40
0.288675
  0
CIRCLE
  8
ボルト／ビス
  6
CONTINUOUS
 10
-38.38576
 20
-4.525835
 40
0.455885
  0
CIRCLE
  8
ボルト／ビス
  6
CONTINUOUS
 10
-38.38576
 20
10.474165
 40
0.288675
  0
CIRCLE
  8
ボルト／ビス
  6
CONTINUOUS
 10
-38.38576
 20
10.474165
 40
0.455885
  0
CIRCLE
  8
ボルト／ビス
  6
CONTINUOUS
 10
-38.38576
 20
25.474165
 40
0.288675
  0
CIRCLE
  8
ボルト／ビス
  6
CONTINUOUS
 10
-38.38576
 20
25.474165
 40
0.455885
  0
CIRCLE
  8
ボルト／ビス
  6
CONTINUOUS
 10
-38.38576
 20
40.474165
 40
0.288675
  0
CIRCLE
  8
ボルト／ビス
  6
CONTINUOUS
 10
-38.38576
 20
40.474165
 40
0.455885
  0
CIRCLE
  8
ボルト／ビス
  6
CONTINUOUS
 10
-38.38576
 20
70.474165
 40
0.288675
  0
CIRCLE
  8
ボルト／ビス
  6
CONTINUOUS
 10
-38.38576
 20
70.474165
 40
0.455885
  0
CIRCLE
  8
ボルト／ビス
  6
CONTINUOUS
 10
-38.38576
 20
55.474165
 40
0.288675
  0
CIRCLE
  8
ボルト／ビス
  6
CONTINUOUS
 10
-38.38576
 20
55.474165
 40
0.455885
  0
CIRCLE
  8
ボルト／ビス
  6
CONTINUOUS
 10
-126.88576
 20
83.974165
 40
0.288675
  0
CIRCLE
  8
ボルト／ビス
  6
CONTINUOUS
 10
-126.88576
 20
83.974165
 40
0.455885
  0
CIRCLE
  8
ボルト／ビス
  6
CONTINUOUS
 10
-111.88576
 20
83.974165
 40
0.288675
  0
CIRCLE
  8
ボルト／ビス
  6
CONTINUOUS
 10
-111.88576
 20
83.974165
 40
0.455885
  0
CIRCLE
  8
ボルト／ビス
  6
CONTINUOUS
 10
-96.88576
 20
83.974165
 40
0.288675
  0
CIRCLE
  8
ボルト／ビス
  6
CONTINUOUS
 10
-96.88576
 20
83.974165
 40
0.455885
  0
CIRCLE
  8
ボルト／ビス
  6
CONTINUOUS
 10
-81.88576
 20
83.974165
 40
0.288675
  0
CIRCLE
  8
ボルト／ビス
  6
CONTINUOUS
 10
-81.88576
 20
83.974165
 40
0.455885
  0
CIRCLE
  8
ボルト／ビス
  6
CONTINUOUS
 10
-51.88576
 20
83.974165
 40
0.288675
  0
CIRCLE
  8
ボルト／ビス
  6
CONTINUOUS
 10
-51.88576
 20
83.974165
 40
0.455885
  0
CIRCLE
  8
ボルト／ビス
  6
CONTINUOUS
 10
-66.88576
 20
83.974165
 40
0.288675
  0
CIRCLE
  8
ボルト／ビス
  6
CONTINUOUS
 10
-66.88576
 20
83.974165
 40
0.455885
  0
CIRCLE
  8
ボルト／ビス
  6
CONTINUOUS
 10
-140.38576
 20
70.474165
 40
0.288675
  0
CIRCLE
  8
ボルト／ビス
  6
CONTINUOUS
 10
-140.38576
 20
70.474165
 40
0.455885
  0
CIRCLE
  8
ボルト／ビス
  6
CONTINUOUS
 10
-140.38576
 20
55.474165
 40
0.288675
  0
CIRCLE
  8
ボルト／ビス
  6
CONTINUOUS
 10
-140.38576
 20
55.474165
 40
0.455885
  0
CIRCLE
  8
ボルト／ビス
  6
CONTINUOUS
 10
-140.38576
 20
40.474165
 40
0.288675
  0
CIRCLE
  8
ボルト／ビス
  6
CONTINUOUS
 10
-140.38576
 20
40.474165
 40
0.455885
  0
CIRCLE
  8
ボルト／ビス
  6
CONTINUOUS
 10
-140.38576
 20
25.474165
 40
0.288675
  0
CIRCLE
  8
ボルト／ビス
  6
CONTINUOUS
 10
-140.38576
 20
25.474165
 40
0.455885
  0
CIRCLE
  8
ボルト／ビス
  6
CONTINUOUS
 10
-140.38576
 20
-4.525835
 40
0.288675
  0
CIRCLE
  8
ボルト／ビス
  6
CONTINUOUS
 10
-140.38576
 20
-4.525835
 40
0.455885
  0
CIRCLE
  8
ボルト／ビス
  6
CONTINUOUS
 10
-140.38576
 20
10.474165
 40
0.288675
  0
CIRCLE
  8
ボルト／ビス
  6
CONTINUOUS
 10
-140.38576
 20
10.474165
 40
0.455885
  0
CIRCLE
  8
ボルト／ビス
  6
CONTINUOUS
 10
-51.88576
 20
-18.025835
 40
0.288675
  0
CIRCLE
  8
ボルト／ビス
  6
CONTINUOUS
 10
-51.88576
 20
-18.025835
 40
0.455885
  0
CIRCLE
  8
ボルト／ビス
  6
CONTINUOUS
 10
-66.88576
 20
-18.025835
 40
0.288675
  0
CIRCLE
  8
ボルト／ビス
  6
CONTINUOUS
 10
-66.88576
 20
-18.025835
 40
0.455885
  0
CIRCLE
  8
ボルト／ビス
  6
CONTINUOUS
 10
-81.88576
 20
-18.025835
 40
0.288675
  0
CIRCLE
  8
ボルト／ビス
  6
CONTINUOUS
 10
-81.88576
 20
-18.025835
 40
0.455885
  0
CIRCLE
  8
ボルト／ビス
  6
CONTINUOUS
 10
-96.88576
 20
-18.025835
 40
0.288675
  0
CIRCLE
  8
ボルト／ビス
  6
CONTINUOUS
 10
-96.88576
 20
-18.025835
 40
0.455885
  0
CIRCLE
  8
ボルト／ビス
  6
CONTINUOUS
 10
-126.88576
 20
-18.025835
 40
0.288675
  0
CIRCLE
  8
ボルト／ビス
  6
CONTINUOUS
 10
-126.88576
 20
-18.025835
 40
0.455885
  0
CIRCLE
  8
ボルト／ビス
  6
CONTINUOUS
 10
-111.88576
 20
-18.025835
 40
0.288675
  0
CIRCLE
  8
ボルト／ビス
  6
CONTINUOUS
 10
-111.88576
 20
-18.025835
 40
0.455885
  0
TEXT
  7
TextStyle03
  8
文字
  6
CONTINUOUS
 10
-29.8
 20
1.7
  1
ﾊﾞﾗﾝｽｽﾃｰ
 40
3.0
 72
     5
 11
-16.4875
 21
1.7
  0
TEXT
  7
TextStyle03
  8
文字
  6
CONTINUOUS
 10
3.175
 20
-14.8
  1
は排水穴位置を示す
 40
3.0
 72
     5
 11
33.175
 21
-14.8
  0
TEXT
  7
TextStyle03
  8
文字
  6
CONTINUOUS
 10
3.175
 20
-22.65
  1
はケーシング位置を示す
 40
3.0
 72
     5
 11
39.925
 21
-22.65
  0
TEXT
  7
TextStyle03
  8
文字
  6
CONTINUOUS
 10
3.175
 20
-26.025
  1
４ヶ所中1ヶ所に設定
 40
3.0
 72
     5
 11
34.8625
 21
-26.025
  0
TEXT
  7
TextStyle03
  8
文字
  6
CONTINUOUS
 10
-125.55
 20
35.55
  1
中桟
 40
3.0
 72
     5
 11
-119.175
 21
35.55
  0
TEXT
  7
TextStyle03
  8
文字
  6
CONTINUOUS
 10
-86.825
 20
70.7
  1
中桟
 40
3.0
 50
270.0
 72
     5
 11
-86.825
 21
64.325
  0
TEXT
  7
TextStyle03
  8
文字
  6
CONTINUOUS
 10
-97.5
 20
-34.075
  1
可動装置側
 40
3.0
 72
     5
 11
-81.0
 21
-34.075
  0
TEXT
  7
TextStyle03
  8
文字
  6
CONTINUOUS
 10
-97.5
 20
97.175
  1
可動装置側
 40
3.0
 72
     5
 11
-81.0
 21
97.175
  0
TEXT
  7
TextStyle03
  8
文字
  6
CONTINUOUS
 10
-162.3125
 20
71.975
  1
ﾊﾞﾗﾝｽｽﾃｰ
 40
3.0
 50
360.0
 72
     5
 11
-149.0
 21
71.975
  0
TEXT
  7
TextStyle03
  8
文字
  6
CONTINUOUS
 10
87.425
 20
104.9
  1
ＮＳコード：ＮＳＤ
 40
5.0
 72
     5
 11
137.425
 21
104.9
  0
TEXT
  7
TextStyle03
  8
文字
  6
CONTINUOUS
 10
-151.625
 20
114.75
  1
アンカーピッチ
 40
3.0
 72
     5
 11
-128.375
 21
114.75
  0
TEXT
  7
TextStyle03
  8
文字
  6
CONTINUOUS
 10
-172.35
 20
-26.75
  1
アンカーピッチ
 40
3.0
 50
90.0
 72
     5
 11
-172.35
 21
-3.5
  0
TEXT
  7
TextStyle03
  8
文字
  6
CONTINUOUS
 10
-2.425
 20
-33.175
  1
アンカー数量　１２ヶ所
 40
3.0
 72
     5
 11
34.325
 21
-33.175
  0
TEXT
  7
TextStyle03
  8
文字
  6
CONTINUOUS
 10
-2.525
 20
-40.0
  1
アームユニット数　４ヶ所
 40
3.0
 72
     5
 11
37.6
 21
-40.0
  0
LINE
  8
文字
  6
CONTINUOUS
 10
-14.991043
 20
-80.96609
 11
-34.587
 21
-80.96609
  0
TEXT
  7
TextStyle03
  8
文字
  6
CONTINUOUS
 10
111.275
 20
23.55
  1
網入り6.8t
 40
3.0
 72
     5
 11
127.9625
 21
23.55
  0
TEXT
  7
TextStyle03
  8
文字
  6
CONTINUOUS
 10
118.425
 20
19.525
  1
×４枚
 40
3.0
 72
     5
 11
128.175
 21
19.525
  0
TEXT
  7
TextStyle03
  8
文字
  6
CONTINUOUS
 10
87.6
 20
126.05
  1
シリーズ：ＴＤ１
 40
5.0
 72
     5
 11
131.975
 21
126.05
  0
TEXT
  7
TextStyle03
  8
文字
  6
CONTINUOUS
 10
87.6
 20
120.425
  1
　　　　　（上下可動）2000×2000タイプ
 40
5.0
 72
     5
 11
193.85
 21
120.425
  0
TEXT
  7
TextStyle03
  8
文字
  6
CONTINUOUS
 10
87.6
 20
114.8
  1
図面名　：外観姿図
 40
5.0
 72
     5
 11
137.6
 21
114.8
  0
TEXT
  7
TextStyle03
  8
文字
  6
CONTINUOUS
 10
87.6
 20
109.175
  1
　　　　　　
 40
5.0
 72
     5
 11
120.725
 21
109.175
  0
INSERT
  2
*GRP_0015
  8
文字
  6
CONTINUOUS
 10
0.0
 20
0.0
  0
INSERT
  2
*GRP_0016
  8
文字
  6
CONTINUOUS
 10
0.0
 20
0.0
  0
INSERT
  2
*GRP_0017
  8
文字
  6
CONTINUOUS
 10
0.0
 20
0.0
  0
INSERT
  2
*GRP_0018
  8
文字
  6
CONTINUOUS
 10
0.0
 20
0.0
  0
INSERT
  2
*GRP_0019
  8
文字
  6
CONTINUOUS
 10
0.0
 20
0.0
  0
INSERT
  2
*GRP_0020
  8
文字
  6
CONTINUOUS
 10
0.0
 20
0.0
  0
INSERT
  2
*GRP_0027
  8
文字
  6
CONTINUOUS
 10
0.0
 20
0.0
  0
INSERT
  2
*GRP_0028
  8
文字
  6
CONTINUOUS
 10
0.0
 20
0.0
  0
INSERT
  2
*GRP_0029
  8
文字
  6
CONTINUOUS
 10
0.0
 20
0.0
  0
INSERT
  2
*GRP_0030
  8
文字
  6
CONTINUOUS
 10
0.0
 20
0.0
  0
INSERT
  2
*GRP_0031
  8
文字
  6
CONTINUOUS
 10
0.0
 20
0.0
  0
INSERT
  2
*GRP_0032
  8
文字
  6
CONTINUOUS
 10
0.0
 20
0.0
  0
INSERT
  2
*GRP_0039
  8
文字
  6
CONTINUOUS
 10
0.0
 20
0.0
  0
INSERT
  2
*GRP_0040
  8
文字
  6
CONTINUOUS
 10
0.0
 20
0.0
  0
INSERT
  2
*GRP_0041
  8
文字
  6
CONTINUOUS
 10
0.0
 20
0.0
  0
INSERT
  2
*GRP_0042
  8
文字
  6
CONTINUOUS
 10
0.0
 20
0.0
  0
INSERT
  2
*GRP_0043
  8
文字
  6
CONTINUOUS
 10
0.0
 20
0.0
  0
INSERT
  2
*GRP_0044
  8
文字
  6
CONTINUOUS
 10
0.0
 20
0.0
  0
INSERT
  2
*GRP_0051
  8
文字
  6
CONTINUOUS
 10
0.0
 20
0.0
  0
INSERT
  2
*GRP_0052
  8
文字
  6
CONTINUOUS
 10
0.0
 20
0.0
  0
INSERT
  2
*GRP_0053
  8
文字
  6
CONTINUOUS
 10
0.0
 20
0.0
  0
INSERT
  2
*GRP_0054
  8
文字
  6
CONTINUOUS
 10
0.0
 20
0.0
  0
INSERT
  2
*GRP_0055
  8
文字
  6
CONTINUOUS
 10
0.0
 20
0.0
  0
INSERT
  2
*GRP_0056
  8
文字
  6
CONTINUOUS
 10
0.0
 20
0.0
  0
INSERT
  2
*DIM_0002
  8
寸法
  6
CONTINUOUS
 10
0.0
 20
0.0
  0
INSERT
  2
*DIM_0003
  8
寸法
  6
CONTINUOUS
 10
0.0
 20
0.0
  0
INSERT
  2
*DIM_0004
  8
寸法
  6
CONTINUOUS
 10
0.0
 20
0.0
  0
INSERT
  2
*GRP_0005
  8
寸法
  6
CONTINUOUS
 10
0.0
 20
0.0
  0
INSERT
  2
*DIM_0006
  8
寸法
  6
CONTINUOUS
 10
0.0
 20
0.0
  0
INSERT
  2
*DIM_0007
  8
寸法
  6
CONTINUOUS
 10
0.0
 20
0.0
  0
INSERT
  2
*DIM_0008
  8
寸法
  6
CONTINUOUS
 10
0.0
 20
0.0
  0
INSERT
  2
*DIM_0009
  8
寸法
  6
CONTINUOUS
 10
0.0
 20
0.0
  0
INSERT
  2
*GRP_0010
  8
寸法
  6
CONTINUOUS
 10
0.0
 20
0.0
  0
INSERT
  2
*DIM_0011
  8
寸法
  6
CONTINUOUS
 10
0.0
 20
0.0
  0
INSERT
  2
*DIM_0012
  8
寸法
  6
CONTINUOUS
 10
0.0
 20
0.0
  0
INSERT
  2
*DIM_0013
  8
寸法
  6
CONTINUOUS
 10
0.0
 20
0.0
  0
INSERT
  2
*DIM_0014
  8
寸法
  6
CONTINUOUS
 10
0.0
 20
0.0
  0
INSERT
  2
*DIM_0063
  8
寸法
  6
CONTINUOUS
 10
0.0
 20
0.0
  0
INSERT
  2
*DIM_0076
  8
寸法
  6
CONTINUOUS
 10
0.0
 20
0.0
  0
INSERT
  2
*DIM_0077
  8
寸法
  6
CONTINUOUS
 10
0.0
 20
0.0
  0
LINE
  8
別途部材
  6
CONTINUOUS
 62
    96
 10
-141.88576
 20
-80.96609
 11
-142.48576
 21
-82.46609
  0
LINE
  8
別途部材
  6
CONTINUOUS
 62
    96
 10
-141.88576
 20
-80.96609
 11
-89.38576
 21
-80.96609
  0
LINE
  8
別途部材
  6
CONTINUOUS
 10
-142.48576
 20
-82.46609
 11
-89.38576
 21
-82.46609
  0
LINE
  8
別途部材
  6
CONTINUOUS
 62
    96
 10
-36.88576
 20
-80.96609
 11
-36.28576
 21
-82.46609
  0
LINE
  8
別途部材
  6
CONTINUOUS
 62
    96
 10
-36.88576
 20
-80.96609
 11
-89.38576
 21
-80.96609
  0
LINE
  8
別途部材
  6
CONTINUOUS
 10
-36.28576
 20
-82.46609
 11
-89.38576
 21
-82.46609
  0
LINE
  8
別途部材
  6
CONTINUOUS
 10
-36.28576
 20
-20.125835
 11
-36.88576
 21
-19.525835
  0
LINE
  8
別途部材
  6
CONTINUOUS
 10
-39.38576
 20
-17.025835
 11
-51.474645
 21
-4.93695
  0
LINE
  8
別途部材
  6
CONTINUOUS
 10
-36.28576
 20
-20.125835
 11
-36.28576
 21
32.974165
  0
LINE
  8
別途部材
  6
CONTINUOUS
 10
-36.88576
 20
-19.525835
 11
-36.88576
 21
32.974165
  0
LINE
  8
別途部材
  6
CONTINUOUS
 10
-36.88576
 20
-19.525835
 11
-89.38576
 21
-19.525835
  0
LINE
  8
別途部材
  6
CONTINUOUS
 10
-36.28576
 20
-20.125835
 11
-89.38576
 21
-20.125835
  0
LINE
  8
別途部材
  6
CONTINUOUS
 10
-36.28576
 20
86.074165
 11
-36.88576
 21
85.474165
  0
LINE
  8
別途部材
  6
CONTINUOUS
 10
-39.38576
 20
82.974165
 11
-51.474645
 21
70.88528
  0
LINE
  8
別途部材
  6
CONTINUOUS
 10
-36.28576
 20
86.074165
 11
-36.28576
 21
32.974165
  0
LINE
  8
別途部材
  6
CONTINUOUS
 10
-36.88576
 20
85.474165
 11
-36.88576
 21
32.974165
  0
LINE
  8
別途部材
  6
CONTINUOUS
 10
-36.88576
 20
85.474165
 11
-89.38576
 21
85.474165
  0
LINE
  8
別途部材
  6
CONTINUOUS
 10
-36.28576
 20
86.074165
 11
-89.38576
 21
86.074165
  0
LINE
  8
別途部材
  6
CONTINUOUS
 10
-142.48576
 20
-20.125835
 11
-141.88576
 21
-19.525835
  0
LINE
  8
別途部材
  6
CONTINUOUS
 10
-139.38576
 20
-17.025835
 11
-127.296875
 21
-4.93695
  0
LINE
  8
別途部材
  6
CONTINUOUS
 10
-142.48576
 20
-20.125835
 11
-142.48576
 21
32.974165
  0
LINE
  8
別途部材
  6
CONTINUOUS
 10
-141.88576
 20
-19.525835
 11
-141.88576
 21
32.974165
  0
LINE
  8
別途部材
  6
CONTINUOUS
 10
-141.88576
 20
-19.525835
 11
-89.38576
 21
-19.525835
  0
LINE
  8
別途部材
  6
CONTINUOUS
 10
-142.48576
 20
-20.125835
 11
-89.38576
 21
-20.125835
  0
LINE
  8
別途部材
  6
CONTINUOUS
 10
-142.48576
 20
86.074165
 11
-141.88576
 21
85.474165
  0
LINE
  8
別途部材
  6
CONTINUOUS
 10
-139.38576
 20
82.974165
 11
-127.296875
 21
70.88528
  0
LINE
  8
別途部材
  6
CONTINUOUS
 10
-142.48576
 20
86.074165
 11
-142.48576
 21
32.974165
  0
LINE
  8
別途部材
  6
CONTINUOUS
 10
-141.88576
 20
85.474165
 11
-141.88576
 21
32.974165
  0
LINE
  8
別途部材
  6
CONTINUOUS
 10
-141.88576
 20
85.474165
 11
-89.38576
 21
85.474165
  0
LINE
  8
別途部材
  6
CONTINUOUS
 10
-142.48576
 20
86.074165
 11
-89.38576
 21
86.074165
  0
LINE
  8
別途部材
  6
CONTINUOUS
 10
-36.28576
 20
-82.46609
 11
-89.38576
 21
-82.46609
  0
ARC
  8
別途部材
  6
CONTINUOUS
 10
-89.38576
 20
-125.271646
 40
66.805556
 50
41.544509
 51
138.455491
  0
LINE
  8
別途部材
  6
CONTINUOUS
 62
    96
 10
57.198898
 20
-80.96609
 11
56.598898
 21
-82.46609
  0
LINE
  8
別途部材
  6
CONTINUOUS
 62
    96
 10
57.198898
 20
-80.96609
 11
109.698898
 21
-80.96609
  0
LINE
  8
別途部材
  6
CONTINUOUS
 10
56.598898
 20
-82.46609
 11
109.698898
 21
-82.46609
  0
LINE
  8
別途部材
  6
CONTINUOUS
 62
    96
 10
162.198898
 20
-80.96609
 11
162.798898
 21
-82.46609
  0
LINE
  8
別途部材
  6
CONTINUOUS
 62
    96
 10
162.198898
 20
-80.96609
 11
109.698898
 21
-80.96609
  0
LINE
  8
別途部材
  6
CONTINUOUS
 10
162.798898
 20
-82.46609
 11
109.698898
 21
-82.46609
  0
LINE
  8
別途部材
  6
CONTINUOUS
 10
162.798898
 20
-82.46609
 11
109.698898
 21
-82.46609
  0
ARC
  8
別途部材
  6
CONTINUOUS
 10
109.698896
 20
-125.271646
 40
66.805556
 50
41.544509
 51
138.455491
  0
INSERT
  2
*GRP_0069
  8
別途部材
  6
DOT
 10
0.0
 20
0.0
  0
INSERT
  2
*GRP_0070
  8
別途部材
  6
DOT
 10
0.0
 20
0.0
  0
INSERT
  2
*GRP_0071
  8
別途部材
  6
DOT
 10
0.0
 20
0.0
  0
INSERT
  2
*GRP_0072
  8
別途部材
  6
DOT
 10
0.0
 20
0.0
  0
INSERT
  2
*GRP_0073
  8
別途部材
  6
DOT
 10
0.0
 20
0.0
  0
POLYLINE
  8
曲げ物
  6
CONTINUOUS
 66
     1
 70
     1
  0
VERTEX
  8
曲げ物
 10
130.73811
 20
65.93513
  0
VERTEX
  8
曲げ物
 10
81.53811
 20
65.93513
  0
VERTEX
  8
曲げ物
 10
81.53811
 20
16.73513
  0
VERTEX
  8
曲げ物
 10
130.73811
 20
16.73513
  0
SEQEND
  0
LINE
  8
鉄骨等
  6
CONTINUOUS
 62
    47
 10
-143.530755
 20
-86.016273
 11
-143.530755
 21
-84.26627
  0
LINE
  8
鉄骨等
  6
CONTINUOUS
 62
    47
 10
-143.530755
 20
-84.26627
 11
-141.425978
 21
-82.54127
  0
LINE
  8
鉄骨等
  6
CONTINUOUS
 62
    47
 10
-141.425978
 20
-82.54127
 11
-141.425978
 21
-82.46609
  0
LINE
  8
鉄骨等
  6
CONTINUOUS
 62
    47
 10
-35.240765
 20
-86.016273
 11
-35.240765
 21
-84.26627
  0
LINE
  8
鉄骨等
  6
CONTINUOUS
 62
    47
 10
-35.240765
 20
-84.26627
 11
-37.345543
 21
-82.54127
  0
LINE
  8
鉄骨等
  6
CONTINUOUS
 62
    47
 10
-37.345543
 20
-82.54127
 11
-37.345543
 21
-82.46609
  0
LINE
  8
鉄骨等
  6
CONTINUOUS
 62
    47
 10
55.553903
 20
-86.016273
 11
55.553903
 21
-84.26627
  0
LINE
  8
鉄骨等
  6
CONTINUOUS
 62
    47
 10
55.553903
 20
-84.26627
 11
57.65868
 21
-82.54127
  0
LINE
  8
鉄骨等
  6
CONTINUOUS
 62
    47
 10
57.65868
 20
-82.54127
 11
57.65868
 21
-82.46609
  0
LINE
  8
鉄骨等
  6
CONTINUOUS
 62
    47
 10
163.843893
 20
-86.016273
 11
163.843893
 21
-84.26627
  0
LINE
  8
鉄骨等
  6
CONTINUOUS
 62
    47
 10
163.843893
 20
-84.26627
 11
161.739115
 21
-82.54127
  0
LINE
  8
鉄骨等
  6
CONTINUOUS
 62
    47
 10
161.739115
 20
-82.54127
 11
161.739115
 21
-82.46609
  0
ENDSEC
  0
EOF
