  0
SECTION
  2
HEADER
  9
$EXTMIN
 10
-210.0
 20
-148.5
  9
$EXTMAX
 10
210.0
 20
148.5
  9
$PDMODE
 70
    32
  9
$PDSIZE
 40
1.5
  9
$LTSCALE
 40
10.0
  0
ENDSEC
  0
SECTION
  2
TABLES
  0
TABLE
  2
LTYPE
 70
    15
  0
LTYPE
  2
CONTINUOUS
 70
    64
  3
実線
 72
    65
 73
     0
 40
0.0
  0
LTYPE
  2
DASHED
 70
    64
  3
破線A
 72
    65
 73
     2
 40
0.6
 49
0.4
 49
-0.2
  0
LTYPE
  2
DASHEDX2
 70
    64
  3
破線B
 72
    65
 73
     2
 40
1.3
 49
0.9
 49
-0.4
  0
LTYPE
  2
DASHDOT
 70
    64
  3
１点鎖線A
 72
    65
 73
     4
 40
0.5375
 49
0.375
 49
-0.05
 49
0.0625
 49
-0.05
  0
LTYPE
  2
DASHDOTX2
 70
    64
  3
１点鎖線B
 72
    65
 73
     4
 40
1.075
 49
0.75
 49
-0.1
 49
0.125
 49
-0.1
  0
LTYPE
  2
DIVIDE2
 70
    64
  3
２点鎖線A
 72
    65
 73
     6
 40
0.5125
 49
0.3
 49
-0.0375
 49
0.05
 49
-0.0375
 49
0.05
 49
-0.0375
  0
LTYPE
  2
DIVIDE
 70
    64
  3
２点鎖線B
 72
    65
 73
     6
 40
1.05
 49
0.55
 49
-0.1
 49
0.1
 49
-0.1
 49
0.1
 49
-0.1
  0
LTYPE
  2
DOT
 70
    64
  3
点線A
 72
    65
 73
     2
 40
0.1125
 49
0.0625
 49
-0.05
  0
LTYPE
  2
DOTX2
 70
    64
  3
点線B
 72
    65
 73
     2
 40
0.275
 49
0.15
 49
-0.125
  0
LTYPE
  2
CONTINUOUS
 70
    64
  3
実線
 72
    65
 73
     0
 40
0.0
  0
LTYPE
  2
CONTINUOUS
 70
    64
  3
実線
 72
    65
 73
     0
 40
0.0
  0
LTYPE
  2
CONTINUOUS
 70
    64
  3
実線
 72
    65
 73
     0
 40
0.0
  0
LTYPE
  2
CONTINUOUS
 70
    64
  3
実線
 72
    65
 73
     0
 40
0.0
  0
LTYPE
  2
CONTINUOUS
 70
    64
  3
実線
 72
    65
 73
     0
 40
0.0
  0
LTYPE
  2
CONTINUOUS
 70
    64
  3
実線
 72
    65
 73
     0
 40
0.0
  0
ENDTAB
  0
TABLE
  2
LAYER
 70
    34
  0
LAYER
  2
通り芯
 70
     0
 62
    15
  6
CONTINUOUS
  0
LAYER
  2
補助線
 70
     0
 62
    16
  6
DOT
  0
LAYER
  2
躯体
 70
     0
 62
    31
  6
CONTINUOUS
  0
LAYER
  2
型材
 70
     0
 62
    32
  6
CONTINUOUS
  0
LAYER
  2
型材断面
 70
     0
 62
    47
  6
CONTINUOUS
  0
LAYER
  2
ガラス
 70
     0
 62
    48
  6
CONTINUOUS
  0
LAYER
  2
ゴム等
 70
     0
 62
    63
  6
CONTINUOUS
  0
LAYER
  2
ボルト／ビス
 70
     0
 62
    64
  6
CONTINUOUS
  0
LAYER
  2
文字
 70
     0
 62
    79
  6
CONTINUOUS
  0
LAYER
  2
寸法
 70
     0
 62
    80
  6
CONTINUOUS
  0
LAYER
  2
ﾊｯﾁﾝｸﾞ
 70
     0
 62
    95
  6
CONTINUOUS
  0
LAYER
  2
別途部材
 70
     0
 62
    96
  6
CONTINUOUS
  0
LAYER
  2
曲げ物
 70
     0
 62
   111
  6
CONTINUOUS
  0
LAYER
  2
鉄骨等
 70
     0
 62
   112
  6
CONTINUOUS
  0
LAYER
  2
St
 70
     0
 62
   127
  6
CONTINUOUS
  0
LAYER
  2
その他部品等
 70
     0
 62
   128
  6
CONTINUOUS
  0
LAYER
  2
ｶﾞｽｹｯﾄ
 70
     0
 62
   143
  6
CONTINUOUS
  0
LAYER
  2
ｽｹｯﾁ
 70
     0
 62
    14
  6
CONTINUOUS
  0
LAYER
  2
0
 70
     0
 62
    17
  6
CONTINUOUS
  0
LAYER
  2
1
 70
     0
 62
    30
  6
CONTINUOUS
  0
LAYER
  2
4
 70
     0
 62
    33
  6
CONTINUOUS
  0
LAYER
  2
ﾚｲﾔ3
 70
     0
 62
    46
  6
CONTINUOUS
  0
LAYER
  2
外形線
 70
     0
 62
    49
  6
CONTINUOUS
  0
LAYER
  2
部品
 70
     0
 62
    14
  6
CONTINUOUS
  0
LAYER
  2
サッシ芯
 70
     0
 62
    17
  6
DASHDOTX2
  0
LAYER
  2
寸法線
 70
     0
 62
    62
  6
CONTINUOUS
  0
LAYER
  2
姿図外形線
 70
     0
 62
    65
  6
CONTINUOUS
  0
LAYER
  2
姿補助線
 70
     0
 62
    30
  6
CONTINUOUS
  0
LAYER
  2
透視線
 70
     0
 62
    78
  6
DOT
  0
LAYER
  2
用紙
 70
     0
 62
    81
  6
CONTINUOUS
  0
LAYER
  2
実線図枠
 70
     0
 62
    94
  6
CONTINUOUS
  0
LAYER
  2
補助図枠
 70
     0
 62
    97
  6
CONTINUOUS
  0
LAYER
  2
建具記号
 70
     0
 62
   110
  6
CONTINUOUS
  0
LAYER
  2
補助文字
 70
     0
 62
   113
  6
CONTINUOUS
  0
ENDTAB
  0
TABLE
  2
STYLE
 70
    10
  0
STYLE
  2
STANDARD
 70
     0
 40
1.0
 41
1.0
 42
1.0
 50
0.0
 71
     0
  3
TXT
  4
BIGFONT
  0
STYLE
  2
TATE
 70
     4
 40
1.0
 41
1.0
 42
1.0
 50
0.0
 71
     0
  3
TXT
  4
BIGFONT
  0
STYLE
  2
TextStyle03
 70
     0
 40
1.0
 41
1.0
 42
1.0
 50
0.0
 71
     0
  3
MONOTXT
  4
BIGFONT
  0
STYLE
  2
TextStyle04
 70
     0
 40
1.0
 41
1.0
 42
1.0
 50
0.0
 71
     0
  3
MONOTXT
  4
BIGFONT
  0
STYLE
  2
TextStyle05
 70
     0
 40
1.0
 41
1.0
 42
1.0
 50
0.0
 71
     0
  3
MONOTXT
  4
BIGFONT
  0
STYLE
  2
TextStyle06
 70
     0
 40
1.0
 41
1.0
 42
1.0
 50
0.0
 71
     0
  3
MONOTXT
  4
BIGFONT
  0
STYLE
  2
TextStyle07
 70
     0
 40
1.0
 41
1.0
 42
1.0
 50
0.0
 71
     0
  3
MONOTXT
  4
BIGFONT
  0
STYLE
  2
TextStyle08
 70
     0
 40
1.0
 41
1.0
 42
1.0
 50
0.0
 71
     0
  3
MONOTXT
  4
BIGFONT
  0
STYLE
  2
TextStyle09
 70
     0
 40
1.0
 41
1.0
 42
1.0
 50
0.0
 71
     0
  3
MONOTXT
  4
BIGFONT
  0
STYLE
  2
TextStyle10
 70
     0
 40
1.0
 41
1.0
 42
1.0
 50
0.0
 71
     0
  3
MONOTXT
  4
BIGFONT
  0
ENDTAB
  0
ENDSEC
  0
SECTION
  2
BLOCKS
  0
BLOCK
  2
*GRP_0001
 70
    65
 10
0.0
 20
0.0
  0
LINE
  8
型材断面
  6
CONTINUOUS
 10
195.0
 20
133.5
 11
195.0
 21
-133.5
  0
LINE
  8
型材断面
  6
CONTINUOUS
 10
195.0
 20
-133.5
 11
-185.0
 21
-133.5
  0
LINE
  8
型材断面
  6
CONTINUOUS
 10
-185.0
 20
-133.5
 11
-185.0
 21
133.5
  0
LINE
  8
型材断面
  6
CONTINUOUS
 10
195.0
 20
133.5
 11
-185.0
 21
133.5
  0
LINE
  8
型材断面
  6
CONTINUOUS
 10
145.0
 20
-133.5
 11
145.0
 21
-118.5
  0
LINE
  8
型材断面
  6
CONTINUOUS
 10
195.0
 20
-118.5
 11
145.0
 21
-118.5
  0
ENDBLK
  0
BLOCK
  2
*GRP_0002
 70
    65
 10
0.0
 20
0.0
  0
INSERT
  2
M8横
  8
ゴム等
  6
CONTINUOUS
 10
163.336003
 20
66.029685
 50
270.0
 41
0.033333
 42
-0.033333
  0
LINE
  8
ボルト／ビス
  6
CONTINUOUS
 10
163.126005
 20
65.896352
 11
163.109338
 21
65.91302
  0
LINE
  8
ボルト／ビス
  6
CONTINUOUS
 10
163.109338
 20
66.146352
 11
163.126005
 21
66.16302
  0
LINE
  8
ボルト／ビス
  6
CONTINUOUS
 10
163.126005
 20
66.16302
 11
163.126005
 21
65.896352
  0
LINE
  8
ボルト／ビス
  6
CONTINUOUS
 10
163.109338
 20
66.146352
 11
163.109338
 21
65.91302
  0
LINE
  8
ボルト／ビス
  6
CONTINUOUS
 10
163.109338
 20
65.91302
 11
163.15267
 21
65.91302
  0
LINE
  8
ボルト／ビス
  6
CONTINUOUS
 10
163.126005
 20
65.896352
 11
163.15267
 21
65.896352
  0
LINE
  8
ボルト／ビス
  6
CONTINUOUS
 10
163.126005
 20
66.16302
 11
163.15267
 21
66.16302
  0
LINE
  8
ボルト／ビス
  6
CONTINUOUS
 10
163.109338
 20
66.146352
 11
163.15267
 21
66.146352
  0
LINE
  8
ボルト／ビス
  6
CONTINUOUS
 10
163.336003
 20
66.396352
 11
163.336003
 21
65.66302
  0
LINE
  8
ボルト／ビス
  6
CONTINUOUS
 10
163.376002
 20
65.61302
 11
163.459335
 21
65.61302
  0
LINE
  8
ボルト／ビス
  6
CONTINUOUS
 10
163.459335
 20
65.61302
 11
163.459335
 21
66.446352
  0
LINE
  8
ボルト／ビス
  6
CONTINUOUS
 10
163.459335
 20
66.446352
 11
163.376002
 21
66.446352
  0
LINE
  8
ボルト／ビス
  6
CONTINUOUS
 10
163.376002
 20
65.61302
 11
163.376002
 21
66.446352
  0
LINE
  8
ボルト／ビス
  6
CONTINUOUS
 10
163.336003
 20
66.396352
 11
163.376002
 21
66.396352
  0
LINE
  8
ボルト／ビス
  6
CONTINUOUS
 10
163.336003
 20
65.66302
 11
163.376002
 21
65.66302
  0
LINE
  8
ボルト／ビス
  6
CONTINUOUS
 10
163.386002
 20
66.029685
 11
163.336003
 21
66.029685
  0
ENDBLK
  0
BLOCK
  2
*GRP_0003
 70
    65
 10
0.0
 20
0.0
  0
LINE
  8
ボルト／ビス
  6
CONTINUOUS
 10
162.47617
 20
66.236355
 11
162.409503
 21
66.236355
  0
LINE
  8
ボルト／ビス
  6
CONTINUOUS
 10
162.409503
 20
66.236355
 11
162.409503
 21
65.50302
  0
LINE
  8
ボルト／ビス
  6
CONTINUOUS
 10
162.409503
 20
65.50302
 11
162.47617
 21
65.50302
  0
LINE
  8
ボルト／ビス
  6
CONTINUOUS
 10
162.47617
 20
66.236355
 11
162.47617
 21
65.50302
  0
LINE
  8
ボルト／ビス
  6
CONTINUOUS
 10
162.37617
 20
66.169687
 11
162.409503
 21
66.169687
  0
LINE
  8
ボルト／ビス
  6
CONTINUOUS
 10
162.37617
 20
66.169687
 11
162.37617
 21
65.569687
  0
LINE
  8
ボルト／ビス
  6
CONTINUOUS
 10
162.37617
 20
65.569687
 11
162.409503
 21
65.569687
  0
LINE
  8
ボルト／ビス
  6
CONTINUOUS
 62
    64
 10
162.17617
 20
66.030062
 11
162.187845
 21
66.062138
  0
ARC
  8
ボルト／ビス
  6
CONTINUOUS
 62
    64
 10
162.281149
 20
66.014031
 40
0.104978
 50
180.0
 51
207.278033
  0
ARC
  8
ボルト／ビス
  6
CONTINUOUS
 62
    64
 10
162.578573
 20
65.869693
 40
0.402402
 50
166.165015
 51
193.834998
  0
LINE
  8
ボルト／ビス
  6
CONTINUOUS
 62
    64
 10
162.17617
 20
65.709312
 11
162.187845
 21
65.677238
  0
ARC
  8
ボルト／ビス
  6
CONTINUOUS
 62
    64
 10
162.281149
 20
65.725355
 40
0.104978
 50
152.721967
 51
180.0
  0
LINE
  8
ボルト／ビス
  6
CONTINUOUS
 62
    64
 10
162.17617
 20
66.030062
 11
162.17617
 21
65.709312
  0
LINE
  8
ボルト／ビス
  6
CONTINUOUS
 62
    64
 10
162.187845
 20
65.677238
 11
162.309503
 21
65.677238
  0
LINE
  8
ボルト／ビス
  6
CONTINUOUS
 62
    64
 10
162.187845
 20
65.773462
 11
162.309503
 21
65.773462
  0
LINE
  8
ボルト／ビス
  6
CONTINUOUS
 62
    64
 10
162.187845
 20
66.062138
 11
162.309503
 21
66.062138
  0
LINE
  8
ボルト／ビス
  6
CONTINUOUS
 62
    64
 10
162.187845
 20
65.965913
 11
162.309503
 21
65.965913
  0
LINE
  8
ボルト／ビス
  6
CONTINUOUS
 10
162.309503
 20
66.062138
 11
162.309503
 21
65.677238
  0
LINE
  8
ボルト／ビス
  6
CONTINUOUS
 10
162.309503
 20
66.069687
 11
162.37617
 21
66.069687
  0
LINE
  8
ボルト／ビス
  6
CONTINUOUS
 10
162.309503
 20
66.069687
 11
162.309503
 21
65.669687
  0
LINE
  8
ボルト／ビス
  6
CONTINUOUS
 10
162.309503
 20
65.669687
 11
162.37617
 21
65.669687
  0
ENDBLK
  0
BLOCK
  2
*GRP_0004
 70
    65
 10
0.0
 20
0.0
  0
INSERT
  2
M8横
  8
ゴム等
  6
CONTINUOUS
 10
163.336003
 20
34.376965
 50
90.0
 41
0.033333
 42
0.033333
  0
LINE
  8
ボルト／ビス
  6
CONTINUOUS
 10
163.126005
 20
34.5103
 11
163.109338
 21
34.493633
  0
LINE
  8
ボルト／ビス
  6
CONTINUOUS
 10
163.109338
 20
34.2603
 11
163.126005
 21
34.243633
  0
LINE
  8
ボルト／ビス
  6
CONTINUOUS
 10
163.126005
 20
34.243633
 11
163.126005
 21
34.5103
  0
LINE
  8
ボルト／ビス
  6
CONTINUOUS
 10
163.109338
 20
34.2603
 11
163.109338
 21
34.493633
  0
LINE
  8
ボルト／ビス
  6
CONTINUOUS
 10
163.109338
 20
34.493633
 11
163.15267
 21
34.493633
  0
LINE
  8
ボルト／ビス
  6
CONTINUOUS
 10
163.126005
 20
34.5103
 11
163.15267
 21
34.5103
  0
LINE
  8
ボルト／ビス
  6
CONTINUOUS
 10
163.126005
 20
34.243633
 11
163.15267
 21
34.243633
  0
LINE
  8
ボルト／ビス
  6
CONTINUOUS
 10
163.109338
 20
34.2603
 11
163.15267
 21
34.2603
  0
LINE
  8
ボルト／ビス
  6
CONTINUOUS
 10
163.336003
 20
34.0103
 11
163.336003
 21
34.743633
  0
LINE
  8
ボルト／ビス
  6
CONTINUOUS
 10
163.376002
 20
34.793633
 11
163.459335
 21
34.793633
  0
LINE
  8
ボルト／ビス
  6
CONTINUOUS
 10
163.459335
 20
34.793633
 11
163.459335
 21
33.9603
  0
LINE
  8
ボルト／ビス
  6
CONTINUOUS
 10
163.459335
 20
33.9603
 11
163.376002
 21
33.9603
  0
LINE
  8
ボルト／ビス
  6
CONTINUOUS
 10
163.376002
 20
34.793633
 11
163.376002
 21
33.9603
  0
LINE
  8
ボルト／ビス
  6
CONTINUOUS
 10
163.336003
 20
34.0103
 11
163.376002
 21
34.0103
  0
LINE
  8
ボルト／ビス
  6
CONTINUOUS
 10
163.336003
 20
34.743633
 11
163.376002
 21
34.743633
  0
LINE
  8
ボルト／ビス
  6
CONTINUOUS
 10
163.386002
 20
34.376965
 11
163.336003
 21
34.376965
  0
ENDBLK
  0
BLOCK
  2
*GRP_0005
 70
    65
 10
0.0
 20
0.0
  0
LINE
  8
ボルト／ビス
  6
CONTINUOUS
 10
162.47617
 20
34.170298
 11
162.409503
 21
34.170298
  0
LINE
  8
ボルト／ビス
  6
CONTINUOUS
 10
162.409503
 20
34.170298
 11
162.409503
 21
34.90363
  0
LINE
  8
ボルト／ビス
  6
CONTINUOUS
 10
162.409503
 20
34.90363
 11
162.47617
 21
34.90363
  0
LINE
  8
ボルト／ビス
  6
CONTINUOUS
 10
162.47617
 20
34.170298
 11
162.47617
 21
34.90363
  0
LINE
  8
ボルト／ビス
  6
CONTINUOUS
 10
162.37617
 20
34.236965
 11
162.409503
 21
34.236965
  0
LINE
  8
ボルト／ビス
  6
CONTINUOUS
 10
162.37617
 20
34.236965
 11
162.37617
 21
34.836965
  0
LINE
  8
ボルト／ビス
  6
CONTINUOUS
 10
162.37617
 20
34.836965
 11
162.409503
 21
34.836965
  0
LINE
  8
ボルト／ビス
  6
CONTINUOUS
 62
    64
 10
162.17617
 20
34.37659
 11
162.187845
 21
34.344515
  0
ARC
  8
ボルト／ビス
  6
CONTINUOUS
 62
    64
 10
162.281149
 20
34.392632
 40
0.104978
 50
152.721967
 51
180.0
  0
ARC
  8
ボルト／ビス
  6
CONTINUOUS
 62
    64
 10
162.578573
 20
34.536969
 40
0.402402
 50
166.165002
 51
193.834985
  0
LINE
  8
ボルト／ビス
  6
CONTINUOUS
 62
    64
 10
162.17617
 20
34.69734
 11
162.187845
 21
34.729415
  0
ARC
  8
ボルト／ビス
  6
CONTINUOUS
 62
    64
 10
162.281149
 20
34.681307
 40
0.104978
 50
180.0
 51
207.278033
  0
LINE
  8
ボルト／ビス
  6
CONTINUOUS
 62
    64
 10
162.17617
 20
34.37659
 11
162.17617
 21
34.69734
  0
LINE
  8
ボルト／ビス
  6
CONTINUOUS
 62
    64
 10
162.187845
 20
34.729415
 11
162.309503
 21
34.729415
  0
LINE
  8
ボルト／ビス
  6
CONTINUOUS
 62
    64
 10
162.187845
 20
34.63319
 11
162.309503
 21
34.63319
  0
LINE
  8
ボルト／ビス
  6
CONTINUOUS
 62
    64
 10
162.187845
 20
34.344515
 11
162.309503
 21
34.344515
  0
LINE
  8
ボルト／ビス
  6
CONTINUOUS
 62
    64
 10
162.187845
 20
34.44074
 11
162.309503
 21
34.44074
  0
LINE
  8
ボルト／ビス
  6
CONTINUOUS
 10
162.309503
 20
34.344515
 11
162.309503
 21
34.729415
  0
LINE
  8
ボルト／ビス
  6
CONTINUOUS
 10
162.309503
 20
34.336965
 11
162.37617
 21
34.336965
  0
LINE
  8
ボルト／ビス
  6
CONTINUOUS
 10
162.309503
 20
34.336965
 11
162.309503
 21
34.736965
  0
LINE
  8
ボルト／ビス
  6
CONTINUOUS
 10
162.309503
 20
34.736965
 11
162.37617
 21
34.736965
  0
ENDBLK
  0
BLOCK
  2
*DIM_0006
 70
    65
 10
0.0
 20
0.0
  0
LINE
  8
寸法
  6
CONTINUOUS
 10
161.248695
 20
32.92363
 11
142.14273
 21
32.92363
  0
LINE
  8
寸法
  6
CONTINUOUS
 10
142.14273
 20
35.203325
 11
142.14273
 21
32.92363
  0
POINT
  8
寸法
 10
142.14273
 20
35.203325
  0
POINT
  8
寸法
 10
142.14273
 20
32.92363
  0
TEXT
  7
TextStyle03
  8
寸法
  6
CONTINUOUS
 10
141.75
 20
24.01875
  1
68.4
 40
3.0
 50
90.0
 72
     5
 11
141.75
 21
30.58125
  0
ENDBLK
  0
BLOCK
  2
*DIM_0007
 70
    65
 10
0.0
 20
0.0
  0
LINE
  8
寸法
  6
CONTINUOUS
 10
142.14273
 20
65.203325
 11
142.14273
 21
35.203325
  0
POINT
  8
寸法
 10
142.14273
 20
65.203325
  0
POINT
  8
寸法
 10
142.14273
 20
35.203325
  0
TEXT
  7
TextStyle03
  8
寸法
  6
CONTINUOUS
 10
141.75
 20
39.325
  1
呼称寸法　900
 40
3.0
 50
90.0
 72
     5
 11
141.75
 21
61.075
  0
ENDBLK
  0
BLOCK
  2
*DIM_0008
 70
    65
 10
0.0
 20
0.0
  0
LINE
  8
寸法
  6
CONTINUOUS
 10
161.248695
 20
67.48302
 11
142.14273
 21
67.48302
  0
LINE
  8
寸法
  6
CONTINUOUS
 10
142.14273
 20
65.203325
 11
142.14273
 21
67.48302
  0
POINT
  8
寸法
 10
142.14273
 20
65.203325
  0
POINT
  8
寸法
 10
142.14273
 20
67.48302
  0
TEXT
  7
TextStyle03
  8
寸法
  6
CONTINUOUS
 10
141.75
 20
69.79375
  1
68.4
 40
3.0
 50
90.0
 72
     5
 11
141.75
 21
76.35625
  0
ENDBLK
  0
BLOCK
  2
*DIM_0009
 70
    65
 10
0.0
 20
0.0
  0
LINE
  8
寸法
  6
CONTINUOUS
 10
169.209335
 20
28.236965
 11
169.209335
 21
20.327945
  0
LINE
  8
寸法
  6
CONTINUOUS
 10
161.742835
 20
30.203325
 11
161.742835
 21
20.327945
  0
LINE
  8
寸法
  6
CONTINUOUS
 10
169.209335
 20
20.327945
 11
161.742835
 21
20.327945
  0
POINT
  8
寸法
 10
169.209335
 20
20.327945
  0
POINT
  8
寸法
 10
161.742835
 20
20.327945
  0
TEXT
  7
TextStyle03
  8
寸法
  6
CONTINUOUS
 10
163.0375
 20
20.7
  1
224
 40
3.0
 72
     5
 11
167.9125
 21
20.7
  0
ENDBLK
  0
BLOCK
  2
*GRP_0010
 70
    65
 10
0.0
 20
0.0
  0
INSERT
  2
M8横
  8
ゴム等
  6
CONTINUOUS
 10
79.896522
 20
-70.297288
 50
180.0
 41
0.033333
 42
-0.033333
  0
LINE
  8
ボルト／ビス
  6
CONTINUOUS
 10
79.76319
 20
-70.087288
 11
79.779855
 21
-70.070622
  0
LINE
  8
ボルト／ビス
  6
CONTINUOUS
 10
80.01319
 20
-70.070622
 11
80.029855
 21
-70.087288
  0
LINE
  8
ボルト／ビス
  6
CONTINUOUS
 10
80.029855
 20
-70.087288
 11
79.76319
 21
-70.087288
  0
LINE
  8
ボルト／ビス
  6
CONTINUOUS
 10
80.01319
 20
-70.070622
 11
79.779855
 21
-70.070622
  0
LINE
  8
ボルト／ビス
  6
CONTINUOUS
 10
79.779855
 20
-70.070622
 11
79.779855
 21
-70.113952
  0
LINE
  8
ボルト／ビス
  6
CONTINUOUS
 10
79.76319
 20
-70.087288
 11
79.76319
 21
-70.113952
  0
LINE
  8
ボルト／ビス
  6
CONTINUOUS
 10
80.029855
 20
-70.087288
 11
80.029855
 21
-70.113952
  0
LINE
  8
ボルト／ビス
  6
CONTINUOUS
 10
80.01319
 20
-70.070622
 11
80.01319
 21
-70.113952
  0
LINE
  8
ボルト／ビス
  6
CONTINUOUS
 10
80.26319
 20
-70.297288
 11
79.529855
 21
-70.297288
  0
LINE
  8
ボルト／ビス
  6
CONTINUOUS
 10
79.479855
 20
-70.337288
 11
79.479855
 21
-70.42062
  0
LINE
  8
ボルト／ビス
  6
CONTINUOUS
 10
79.479855
 20
-70.42062
 11
80.31319
 21
-70.42062
  0
LINE
  8
ボルト／ビス
  6
CONTINUOUS
 10
80.31319
 20
-70.42062
 11
80.31319
 21
-70.337288
  0
LINE
  8
ボルト／ビス
  6
CONTINUOUS
 10
79.479855
 20
-70.337288
 11
80.31319
 21
-70.337288
  0
LINE
  8
ボルト／ビス
  6
CONTINUOUS
 10
80.26319
 20
-70.297288
 11
80.26319
 21
-70.337288
  0
LINE
  8
ボルト／ビス
  6
CONTINUOUS
 10
79.529855
 20
-70.297288
 11
79.529855
 21
-70.337288
  0
LINE
  8
ボルト／ビス
  6
CONTINUOUS
 10
79.896522
 20
-70.347288
 11
79.896522
 21
-70.297288
  0
ENDBLK
  0
BLOCK
  2
*GRP_0011
 70
    65
 10
0.0
 20
0.0
  0
LINE
  8
ボルト／ビス
  6
CONTINUOUS
 10
80.10319
 20
-69.437453
 11
80.10319
 21
-69.370788
  0
LINE
  8
ボルト／ビス
  6
CONTINUOUS
 10
80.10319
 20
-69.370788
 11
79.369858
 21
-69.370788
  0
LINE
  8
ボルト／ビス
  6
CONTINUOUS
 10
79.369858
 20
-69.370788
 11
79.369858
 21
-69.437453
  0
LINE
  8
ボルト／ビス
  6
CONTINUOUS
 10
80.10319
 20
-69.437453
 11
79.369858
 21
-69.437453
  0
LINE
  8
ボルト／ビス
  6
CONTINUOUS
 10
80.036525
 20
-69.337453
 11
80.036525
 21
-69.370788
  0
LINE
  8
ボルト／ビス
  6
CONTINUOUS
 10
80.036525
 20
-69.337453
 11
79.436525
 21
-69.337453
  0
LINE
  8
ボルト／ビス
  6
CONTINUOUS
 10
79.436525
 20
-69.337453
 11
79.436525
 21
-69.370788
  0
LINE
  8
ボルト／ビス
  6
CONTINUOUS
 62
    64
 10
79.8969
 20
-69.137453
 11
79.928975
 21
-69.149128
  0
ARC
  8
ボルト／ビス
  6
CONTINUOUS
 62
    64
 10
79.88086
 20
-69.242431
 40
0.104978
 50
90.0
 51
117.278033
  0
ARC
  8
ボルト／ビス
  6
CONTINUOUS
 62
    64
 10
79.736523
 20
-69.539855
 40
0.402402
 50
76.165015
 51
103.834998
  0
LINE
  8
ボルト／ビス
  6
CONTINUOUS
 62
    64
 10
79.57615
 20
-69.137453
 11
79.544075
 21
-69.149128
  0
ARC
  8
ボルト／ビス
  6
CONTINUOUS
 62
    64
 10
79.592185
 20
-69.242431
 40
0.104978
 50
62.721967
 51
90.0
  0
LINE
  8
ボルト／ビス
  6
CONTINUOUS
 62
    64
 10
79.8969
 20
-69.137453
 11
79.57615
 21
-69.137453
  0
LINE
  8
ボルト／ビス
  6
CONTINUOUS
 62
    64
 10
79.544075
 20
-69.149128
 11
79.544075
 21
-69.270788
  0
LINE
  8
ボルト／ビス
  6
CONTINUOUS
 62
    64
 10
79.6403
 20
-69.149128
 11
79.6403
 21
-69.270788
  0
LINE
  8
ボルト／ビス
  6
CONTINUOUS
 62
    64
 10
79.928975
 20
-69.149128
 11
79.928975
 21
-69.270788
  0
LINE
  8
ボルト／ビス
  6
CONTINUOUS
 62
    64
 10
79.83275
 20
-69.149128
 11
79.83275
 21
-69.270788
  0
LINE
  8
ボルト／ビス
  6
CONTINUOUS
 10
79.928975
 20
-69.270788
 11
79.544075
 21
-69.270788
  0
LINE
  8
ボルト／ビス
  6
CONTINUOUS
 10
79.936525
 20
-69.270788
 11
79.936525
 21
-69.337453
  0
LINE
  8
ボルト／ビス
  6
CONTINUOUS
 10
79.936525
 20
-69.270788
 11
79.536525
 21
-69.270788
  0
LINE
  8
ボルト／ビス
  6
CONTINUOUS
 10
79.536525
 20
-69.270788
 11
79.536525
 21
-69.337453
  0
ENDBLK
  0
BLOCK
  2
*GRP_0012
 70
    65
 10
0.0
 20
0.0
  0
INSERT
  2
M8横
  8
ゴム等
  6
CONTINUOUS
 10
-121.756182
 20
-70.297288
 41
0.033333
 42
0.033333
  0
LINE
  8
ボルト／ビス
  6
CONTINUOUS
 10
-121.62285
 20
-70.087288
 11
-121.639515
 21
-70.070622
  0
LINE
  8
ボルト／ビス
  6
CONTINUOUS
 10
-121.87285
 20
-70.070622
 11
-121.889515
 21
-70.087288
  0
LINE
  8
ボルト／ビス
  6
CONTINUOUS
 10
-121.889515
 20
-70.087288
 11
-121.62285
 21
-70.087288
  0
LINE
  8
ボルト／ビス
  6
CONTINUOUS
 10
-121.87285
 20
-70.070622
 11
-121.639515
 21
-70.070622
  0
LINE
  8
ボルト／ビス
  6
CONTINUOUS
 10
-121.639515
 20
-70.070622
 11
-121.639515
 21
-70.113952
  0
LINE
  8
ボルト／ビス
  6
CONTINUOUS
 10
-121.62285
 20
-70.087288
 11
-121.62285
 21
-70.113952
  0
LINE
  8
ボルト／ビス
  6
CONTINUOUS
 10
-121.889515
 20
-70.087288
 11
-121.889515
 21
-70.113952
  0
LINE
  8
ボルト／ビス
  6
CONTINUOUS
 10
-121.87285
 20
-70.070622
 11
-121.87285
 21
-70.113952
  0
LINE
  8
ボルト／ビス
  6
CONTINUOUS
 10
-122.12285
 20
-70.297288
 11
-121.389515
 21
-70.297288
  0
LINE
  8
ボルト／ビス
  6
CONTINUOUS
 10
-121.339515
 20
-70.337288
 11
-121.339515
 21
-70.42062
  0
LINE
  8
ボルト／ビス
  6
CONTINUOUS
 10
-121.339515
 20
-70.42062
 11
-122.17285
 21
-70.42062
  0
LINE
  8
ボルト／ビス
  6
CONTINUOUS
 10
-122.17285
 20
-70.42062
 11
-122.17285
 21
-70.337288
  0
LINE
  8
ボルト／ビス
  6
CONTINUOUS
 10
-121.339515
 20
-70.337288
 11
-122.17285
 21
-70.337288
  0
LINE
  8
ボルト／ビス
  6
CONTINUOUS
 10
-122.12285
 20
-70.297288
 11
-122.12285
 21
-70.337288
  0
LINE
  8
ボルト／ビス
  6
CONTINUOUS
 10
-121.389515
 20
-70.297288
 11
-121.389515
 21
-70.337288
  0
LINE
  8
ボルト／ビス
  6
CONTINUOUS
 10
-121.756182
 20
-70.347288
 11
-121.756182
 21
-70.297288
  0
ENDBLK
  0
BLOCK
  2
*GRP_0013
 70
    65
 10
0.0
 20
0.0
  0
LINE
  8
ボルト／ビス
  6
CONTINUOUS
 10
-121.96285
 20
-69.437453
 11
-121.96285
 21
-69.370788
  0
LINE
  8
ボルト／ビス
  6
CONTINUOUS
 10
-121.96285
 20
-69.370788
 11
-121.229518
 21
-69.370788
  0
LINE
  8
ボルト／ビス
  6
CONTINUOUS
 10
-121.229518
 20
-69.370788
 11
-121.229518
 21
-69.437453
  0
LINE
  8
ボルト／ビス
  6
CONTINUOUS
 10
-121.96285
 20
-69.437453
 11
-121.229518
 21
-69.437453
  0
LINE
  8
ボルト／ビス
  6
CONTINUOUS
 10
-121.896185
 20
-69.337453
 11
-121.896185
 21
-69.370788
  0
LINE
  8
ボルト／ビス
  6
CONTINUOUS
 10
-121.896185
 20
-69.337453
 11
-121.296185
 21
-69.337453
  0
LINE
  8
ボルト／ビス
  6
CONTINUOUS
 10
-121.296185
 20
-69.337453
 11
-121.296185
 21
-69.370788
  0
LINE
  8
ボルト／ビス
  6
CONTINUOUS
 62
    64
 10
-121.75656
 20
-69.137453
 11
-121.788635
 21
-69.149128
  0
ARC
  8
ボルト／ビス
  6
CONTINUOUS
 62
    64
 10
-121.740524
 20
-69.242431
 40
0.104978
 50
62.721967
 51
90.0
  0
ARC
  8
ボルト／ビス
  6
CONTINUOUS
 62
    64
 10
-121.596186
 20
-69.539855
 40
0.402402
 50
76.165002
 51
103.834985
  0
LINE
  8
ボルト／ビス
  6
CONTINUOUS
 62
    64
 10
-121.43581
 20
-69.137453
 11
-121.403735
 21
-69.149128
  0
ARC
  8
ボルト／ビス
  6
CONTINUOUS
 62
    64
 10
-121.451849
 20
-69.242431
 40
0.104978
 50
90.0
 51
117.278033
  0
LINE
  8
ボルト／ビス
  6
CONTINUOUS
 62
    64
 10
-121.75656
 20
-69.137453
 11
-121.43581
 21
-69.137453
  0
LINE
  8
ボルト／ビス
  6
CONTINUOUS
 62
    64
 10
-121.403735
 20
-69.149128
 11
-121.403735
 21
-69.270788
  0
LINE
  8
ボルト／ビス
  6
CONTINUOUS
 62
    64
 10
-121.49996
 20
-69.149128
 11
-121.49996
 21
-69.270788
  0
LINE
  8
ボルト／ビス
  6
CONTINUOUS
 62
    64
 10
-121.788635
 20
-69.149128
 11
-121.788635
 21
-69.270788
  0
LINE
  8
ボルト／ビス
  6
CONTINUOUS
 62
    64
 10
-121.69241
 20
-69.149128
 11
-121.69241
 21
-69.270788
  0
LINE
  8
ボルト／ビス
  6
CONTINUOUS
 10
-121.788635
 20
-69.270788
 11
-121.403735
 21
-69.270788
  0
LINE
  8
ボルト／ビス
  6
CONTINUOUS
 10
-121.796185
 20
-69.270788
 11
-121.796185
 21
-69.337453
  0
LINE
  8
ボルト／ビス
  6
CONTINUOUS
 10
-121.796185
 20
-69.270788
 11
-121.396185
 21
-69.270788
  0
LINE
  8
ボルト／ビス
  6
CONTINUOUS
 10
-121.396185
 20
-69.270788
 11
-121.396185
 21
-69.337453
  0
ENDBLK
  0
BLOCK
  2
*DIM_0014
 70
    65
 10
0.0
 20
0.0
  0
LINE
  8
寸法
  6
CONTINUOUS
 10
84.070162
 20
-68.70412
 11
102.688635
 21
-68.70412
  0
LINE
  8
寸法
  6
CONTINUOUS
 10
86.036525
 20
-76.17062
 11
102.688635
 21
-76.17062
  0
LINE
  8
寸法
  6
CONTINUOUS
 10
102.688635
 20
-68.70412
 11
102.688635
 21
-76.17062
  0
POINT
  8
寸法
 10
102.688635
 20
-68.70412
  0
POINT
  8
寸法
 10
102.688635
 20
-76.17062
  0
TEXT
  7
TextStyle03
  8
寸法
  6
CONTINUOUS
 10
102.275
 20
-74.8875
  1
224
 40
3.0
 50
90.0
 72
     5
 11
102.275
 21
-70.0125
  0
ENDBLK
  0
BLOCK
  2
*DIM_0015
 70
    65
 10
0.0
 20
0.0
  0
LINE
  8
寸法
  6
BYBLOCK
 62
     0
 10
-104.263162
 20
31.573195
 11
-104.263162
 21
26.572697
  0
LINE
  8
寸法
  6
BYBLOCK
 62
     0
 10
-20.92983
 20
31.573198
 11
-20.92983
 21
26.572697
  0
LINE
  8
寸法
  6
BYBLOCK
 62
     0
 10
-104.263162
 20
26.572697
 11
-20.92983
 21
26.572697
  0
POINT
  8
寸法
 62
     0
 10
-104.263162
 20
26.572697
  0
POINT
  8
寸法
 62
     0
 10
-20.92983
 20
26.572697
  0
TEXT
  7
TextStyle03
  8
寸法
  6
CONTINUOUS
 62
     0
 10
-65.90625
 20
26.925
  1
2500
 40
3.0
 72
     5
 11
-59.34375
 21
26.925
  0
ENDBLK
  0
BLOCK
  2
*DIM_0016
 70
    65
 10
0.0
 20
0.0
  0
LINE
  8
寸法
  6
BYBLOCK
 62
     0
 10
62.403502
 20
31.573195
 11
62.403502
 21
26.572697
  0
LINE
  8
寸法
  6
BYBLOCK
 62
     0
 10
-20.92983
 20
26.572697
 11
62.403502
 21
26.572697
  0
POINT
  8
寸法
 62
     0
 10
62.403502
 20
26.572697
  0
TEXT
  7
TextStyle03
  8
寸法
  6
CONTINUOUS
 62
     0
 10
17.41875
 20
26.925
  1
2500
 40
3.0
 72
     5
 11
23.98125
 21
26.925
  0
ENDBLK
  0
BLOCK
  2
*DIM_0017
 70
    65
 10
0.0
 20
0.0
  0
LINE
  8
寸法
  6
BYBLOCK
 62
     0
 10
82.700297
 20
61.303325
 11
89.47759
 21
61.303325
  0
LINE
  8
寸法
  6
BYBLOCK
 62
     0
 10
89.47759
 20
65.203325
 11
89.47759
 21
61.303325
  0
POINT
  8
寸法
 62
     0
 10
89.47759
 20
65.203325
  0
POINT
  8
寸法
 62
     0
 10
89.47759
 20
61.303325
  0
TEXT
  7
TextStyle03
  8
寸法
  6
CONTINUOUS
 62
     0
 10
89.125
 20
65.8875
  1
117
 40
3.0
 50
90.0
 72
     5
 11
89.125
 21
70.7625
  0
ENDBLK
  0
BLOCK
  2
*DIM_0018
 70
    65
 10
0.0
 20
0.0
  0
LINE
  8
寸法
  6
BYBLOCK
 62
     0
 10
82.700297
 20
39.103325
 11
89.47759
 21
39.103325
  0
LINE
  8
寸法
  6
BYBLOCK
 62
     0
 10
89.47759
 20
35.203325
 11
89.47759
 21
39.103325
  0
POINT
  8
寸法
 62
     0
 10
89.47759
 20
35.203325
  0
POINT
  8
寸法
 62
     0
 10
89.47759
 20
39.103325
  0
TEXT
  7
TextStyle03
  8
寸法
  6
CONTINUOUS
 62
     0
 10
89.5
 20
29.6125
  1
117
 40
3.0
 50
90.0
 72
     5
 11
89.5
 21
34.4875
  0
ENDBLK
  0
BLOCK
  2
*DIM_0019
 70
    65
 10
0.0
 20
0.0
  0
LINE
  8
寸法
  6
BYBLOCK
 62
     0
 10
-123.92983
 20
60.203325
 11
-137.222668
 21
60.203325
  0
LINE
  8
寸法
  6
BYBLOCK
 62
     0
 10
-123.92983
 20
40.203325
 11
-137.222668
 21
40.203325
  0
LINE
  8
寸法
  6
BYBLOCK
 62
     0
 10
-137.222668
 20
60.203325
 11
-137.222668
 21
40.203325
  0
POINT
  8
寸法
 62
     0
 10
-137.222668
 20
60.203325
  0
POINT
  8
寸法
 62
     0
 10
-137.222668
 20
40.203325
  0
TEXT
  7
TextStyle03
  8
寸法
  6
CONTINUOUS
 62
     0
 10
-137.575
 20
47.7625
  1
600
 40
3.0
 50
90.0
 72
     5
 11
-137.575
 21
52.6375
  0
ENDBLK
  0
BLOCK
  2
*DIM_0020
 70
    65
 10
0.0
 20
0.0
  0
LINE
  8
寸法
  6
BYBLOCK
 62
     0
 10
-114.263162
 20
68.203325
 11
-114.263162
 21
97.311398
  0
LINE
  8
寸法
  6
BYBLOCK
 62
     0
 10
-90.92983
 20
68.203325
 11
-90.92983
 21
97.311398
  0
LINE
  8
寸法
  6
BYBLOCK
 62
     0
 10
-114.263162
 20
97.311398
 11
-90.92983
 21
97.311398
  0
POINT
  8
寸法
 62
     0
 10
-114.263162
 20
97.311398
  0
POINT
  8
寸法
 62
     0
 10
-90.92983
 20
97.311398
  0
TEXT
  7
TextStyle03
  8
寸法
  6
CONTINUOUS
 62
     0
 10
-105.0625
 20
97.675
  1
700
 40
3.0
 72
     5
 11
-100.1875
 21
97.675
  0
ENDBLK
  0
BLOCK
  2
*DIM_0021
 70
    65
 10
0.0
 20
0.0
  0
LINE
  8
寸法
  6
BYBLOCK
 62
     0
 10
-67.596497
 20
68.203325
 11
-67.596497
 21
97.311398
  0
LINE
  8
寸法
  6
BYBLOCK
 62
     0
 10
-90.92983
 20
97.311398
 11
-67.596497
 21
97.311398
  0
POINT
  8
寸法
 62
     0
 10
-67.596497
 20
97.311398
  0
TEXT
  7
TextStyle03
  8
寸法
  6
CONTINUOUS
 62
     0
 10
-81.7375
 20
97.675
  1
700
 40
3.0
 72
     5
 11
-76.8625
 21
97.675
  0
ENDBLK
  0
BLOCK
  2
*DIM_0022
 70
    65
 10
0.0
 20
0.0
  0
LINE
  8
寸法
  6
BYBLOCK
 62
     0
 10
-44.263163
 20
68.203325
 11
-44.263163
 21
97.311398
  0
LINE
  8
寸法
  6
BYBLOCK
 62
     0
 10
-67.596497
 20
97.311398
 11
-44.263163
 21
97.311398
  0
POINT
  8
寸法
 62
     0
 10
-44.263163
 20
97.311398
  0
TEXT
  7
TextStyle03
  8
寸法
  6
CONTINUOUS
 62
     0
 10
-58.3875
 20
97.675
  1
700
 40
3.0
 72
     5
 11
-53.5125
 21
97.675
  0
ENDBLK
  0
BLOCK
  2
*DIM_0023
 70
    65
 10
0.0
 20
0.0
  0
LINE
  8
寸法
  6
BYBLOCK
 62
     0
 10
-20.92983
 20
68.203325
 11
-20.92983
 21
97.311398
  0
LINE
  8
寸法
  6
BYBLOCK
 62
     0
 10
-44.263163
 20
97.311398
 11
-20.92983
 21
97.311398
  0
POINT
  8
寸法
 62
     0
 10
-20.92983
 20
97.311398
  0
TEXT
  7
TextStyle03
  8
寸法
  6
CONTINUOUS
 62
     0
 10
-35.0625
 20
97.675
  1
700
 40
3.0
 72
     5
 11
-30.1875
 21
97.675
  0
ENDBLK
  0
BLOCK
  2
*DIM_0024
 70
    65
 10
0.0
 20
0.0
  0
LINE
  8
寸法
  6
BYBLOCK
 62
     0
 10
2.403502
 20
68.203325
 11
2.403502
 21
97.311398
  0
LINE
  8
寸法
  6
BYBLOCK
 62
     0
 10
-20.92983
 20
97.311398
 11
2.403502
 21
97.311398
  0
POINT
  8
寸法
 62
     0
 10
2.403502
 20
97.311398
  0
TEXT
  7
TextStyle03
  8
寸法
  6
CONTINUOUS
 62
     0
 10
-11.7375
 20
97.675
  1
700
 40
3.0
 72
     5
 11
-6.8625
 21
97.675
  0
ENDBLK
  0
BLOCK
  2
*DIM_0025
 70
    65
 10
0.0
 20
0.0
  0
LINE
  8
寸法
  6
BYBLOCK
 62
     0
 10
25.736838
 20
68.203325
 11
25.736838
 21
97.311398
  0
LINE
  8
寸法
  6
BYBLOCK
 62
     0
 10
2.403502
 20
97.311398
 11
25.736838
 21
97.311398
  0
POINT
  8
寸法
 62
     0
 10
25.736838
 20
97.311398
  0
TEXT
  7
TextStyle03
  8
寸法
  6
CONTINUOUS
 62
     0
 10
11.6125
 20
97.675
  1
700
 40
3.0
 72
     5
 11
16.4875
 21
97.675
  0
ENDBLK
  0
BLOCK
  2
*DIM_0026
 70
    65
 10
0.0
 20
0.0
  0
LINE
  8
寸法
  6
BYBLOCK
 62
     0
 10
49.07017
 20
68.203325
 11
49.07017
 21
97.311398
  0
LINE
  8
寸法
  6
BYBLOCK
 62
     0
 10
25.736838
 20
97.311398
 11
49.07017
 21
97.311398
  0
POINT
  8
寸法
 62
     0
 10
49.07017
 20
97.311398
  0
TEXT
  7
TextStyle03
  8
寸法
  6
CONTINUOUS
 62
     0
 10
34.9375
 20
97.675
  1
700
 40
3.0
 72
     5
 11
39.8125
 21
97.675
  0
ENDBLK
  0
BLOCK
  2
*DIM_0027
 70
    65
 10
0.0
 20
0.0
  0
LINE
  8
寸法
  6
BYBLOCK
 62
     0
 10
72.403502
 20
68.203325
 11
72.403502
 21
97.311398
  0
LINE
  8
寸法
  6
BYBLOCK
 62
     0
 10
49.07017
 20
97.311398
 11
72.403502
 21
97.311398
  0
POINT
  8
寸法
 62
     0
 10
72.403502
 20
97.311398
  0
TEXT
  7
TextStyle03
  8
寸法
  6
CONTINUOUS
 62
     0
 10
58.2625
 20
97.675
  1
700
 40
3.0
 72
     5
 11
63.1375
 21
97.675
  0
ENDBLK
  0
BLOCK
  2
*GRP_0028
 70
    65
 10
0.0
 20
0.0
  0
LINE
  8
型材断面
  6
DOT
 10
80.73683
 20
-58.270785
 11
80.68683
 21
-58.270785
  0
LINE
  8
型材断面
  6
DOT
 10
79.070162
 20
-57.770785
 11
79.070162
 21
-57.037453
  0
LINE
  8
型材断面
  6
DOT
 10
79.119858
 20
-58.753953
 11
80.566525
 21
-58.753953
  0
LINE
  8
型材断面
  6
DOT
 10
80.566525
 20
-59.203953
 11
80.566525
 21
-58.753953
  0
LINE
  8
型材断面
  6
DOT
 62
    47
 10
81.299857
 20
-61.876645
 11
81.349857
 21
-61.876645
  0
LINE
  8
型材断面
  6
DOT
 62
    47
 10
81.349857
 20
-61.876645
 11
81.349857
 21
-61.54331
  0
LINE
  8
型材断面
  6
DOT
 62
    47
 10
81.349857
 20
-61.54331
 11
80.566525
 21
-61.44331
  0
LINE
  8
型材断面
  6
DOT
 62
    47
 10
80.566525
 20
-61.037285
 11
80.566525
 21
-61.44331
  0
LINE
  8
型材断面
  6
DOT
 62
    47
 10
81.036525
 20
-61.037285
 11
81.036525
 21
-59.203953
  0
LINE
  8
型材断面
  6
DOT
 10
80.73683
 20
-58.270785
 11
80.73683
 21
-57.770785
  0
LINE
  8
型材断面
  6
DOT
 10
79.119858
 20
-58.753953
 11
79.119858
 21
-58.270785
  0
INSERT
  2
*GRP_0029
  8
型材断面
  6
DOT
 10
0.0
 20
0.0
  0
INSERT
  2
*GRP_0030
  8
型材断面
  6
DOT
 10
0.0
 20
0.0
  0
LINE
  8
型材断面
  6
DOT
 10
81.349857
 20
-61.876645
 11
-20.92983
 21
-61.876645
  0
LINE
  8
型材断面
  6
DOT
 10
81.349857
 20
-61.54331
 11
-20.92983
 21
-61.54331
  0
LINE
  8
型材断面
  6
DOT
 10
80.566525
 20
-61.44331
 11
-20.92983
 21
-61.44331
  0
LINE
  8
型材断面
  6
DOT
 10
81.036525
 20
-61.037285
 11
-20.92983
 21
-61.037285
  0
LINE
  8
型材断面
  6
DOT
 10
80.73683
 20
-58.270785
 11
-20.92983
 21
-58.270785
  0
LINE
  8
型材断面
  6
DOT
 10
79.070162
 20
-57.037453
 11
-20.92983
 21
-57.037453
  0
LINE
  8
型材断面
  6
DOT
 10
80.73683
 20
-57.770785
 11
-20.92983
 21
-57.770785
  0
LINE
  8
型材断面
  6
DOT
 10
80.566525
 20
-58.753953
 11
-20.92983
 21
-58.753953
  0
LINE
  8
型材断面
  6
DOT
 10
81.036525
 20
-59.203953
 11
-20.92983
 21
-59.203953
  0
LINE
  8
型材断面
  6
DOT
 10
-122.59649
 20
-58.270785
 11
-122.54649
 21
-58.270785
  0
LINE
  8
型材断面
  6
DOT
 10
-120.929822
 20
-57.770785
 11
-120.929822
 21
-57.037453
  0
LINE
  8
型材断面
  6
DOT
 10
-120.979518
 20
-58.753953
 11
-122.426185
 21
-58.753953
  0
LINE
  8
型材断面
  6
DOT
 10
-122.426185
 20
-59.203953
 11
-122.426185
 21
-58.753953
  0
LINE
  8
型材断面
  6
DOT
 62
    47
 10
-123.159518
 20
-61.876645
 11
-123.209518
 21
-61.876645
  0
LINE
  8
型材断面
  6
DOT
 62
    47
 10
-123.209518
 20
-61.876645
 11
-123.209518
 21
-61.54331
  0
LINE
  8
型材断面
  6
DOT
 62
    47
 10
-123.209518
 20
-61.54331
 11
-122.426185
 21
-61.44331
  0
LINE
  8
型材断面
  6
DOT
 62
    47
 10
-122.426185
 20
-61.037285
 11
-122.426185
 21
-61.44331
  0
LINE
  8
型材断面
  6
DOT
 62
    47
 10
-122.896185
 20
-61.037285
 11
-122.896185
 21
-59.203953
  0
LINE
  8
型材断面
  6
DOT
 10
-122.59649
 20
-58.270785
 11
-122.59649
 21
-57.770785
  0
LINE
  8
型材断面
  6
DOT
 10
-120.979518
 20
-58.753953
 11
-120.979518
 21
-58.270785
  0
INSERT
  2
*GRP_0031
  8
型材断面
  6
DOT
 10
0.0
 20
0.0
  0
INSERT
  2
*GRP_0032
  8
型材断面
  6
DOT
 10
0.0
 20
0.0
  0
LINE
  8
型材断面
  6
DOT
 10
-123.209518
 20
-61.876645
 11
-20.92983
 21
-61.876645
  0
LINE
  8
型材断面
  6
DOT
 10
-123.209518
 20
-61.54331
 11
-20.92983
 21
-61.54331
  0
LINE
  8
型材断面
  6
DOT
 10
-122.426185
 20
-61.44331
 11
-20.92983
 21
-61.44331
  0
LINE
  8
型材断面
  6
DOT
 10
-122.896185
 20
-61.037285
 11
-20.92983
 21
-61.037285
  0
LINE
  8
型材断面
  6
DOT
 10
-122.59649
 20
-58.270785
 11
-20.92983
 21
-58.270785
  0
LINE
  8
型材断面
  6
DOT
 10
-120.929822
 20
-57.037453
 11
-20.92983
 21
-57.037453
  0
LINE
  8
型材断面
  6
DOT
 10
-122.59649
 20
-57.770785
 11
-20.92983
 21
-57.770785
  0
LINE
  8
型材断面
  6
DOT
 10
-122.426185
 20
-58.753953
 11
-20.92983
 21
-58.753953
  0
LINE
  8
型材断面
  6
DOT
 10
-122.896185
 20
-59.203953
 11
-20.92983
 21
-59.203953
  0
ENDBLK
  0
BLOCK
  2
*GRP_0029
 70
    65
 10
0.0
 20
0.0
  0
INSERT
  2
M8横
  8
ゴム等
  6
DOT
 10
79.896522
 20
-58.63062
 50
180.0
 41
0.033333
 42
-0.033333
  0
LINE
  8
ボルト／ビス
  6
DOT
 10
79.76319
 20
-58.42062
 11
79.779855
 21
-58.403955
  0
LINE
  8
ボルト／ビス
  6
DOT
 10
80.01319
 20
-58.403955
 11
80.029855
 21
-58.42062
  0
LINE
  8
ボルト／ビス
  6
DOT
 10
80.029855
 20
-58.42062
 11
79.76319
 21
-58.42062
  0
LINE
  8
ボルト／ビス
  6
DOT
 10
80.01319
 20
-58.403955
 11
79.779855
 21
-58.403955
  0
LINE
  8
ボルト／ビス
  6
DOT
 10
79.779855
 20
-58.403955
 11
79.779855
 21
-58.447285
  0
LINE
  8
ボルト／ビス
  6
DOT
 10
79.76319
 20
-58.42062
 11
79.76319
 21
-58.447285
  0
LINE
  8
ボルト／ビス
  6
DOT
 10
80.029855
 20
-58.42062
 11
80.029855
 21
-58.447285
  0
LINE
  8
ボルト／ビス
  6
DOT
 10
80.01319
 20
-58.403955
 11
80.01319
 21
-58.447285
  0
LINE
  8
ボルト／ビス
  6
DOT
 10
80.26319
 20
-58.63062
 11
79.529855
 21
-58.63062
  0
LINE
  8
ボルト／ビス
  6
DOT
 10
79.479855
 20
-58.67062
 11
79.479855
 21
-58.753953
  0
LINE
  8
ボルト／ビス
  6
DOT
 10
79.479855
 20
-58.753953
 11
80.31319
 21
-58.753953
  0
LINE
  8
ボルト／ビス
  6
DOT
 10
80.31319
 20
-58.753953
 11
80.31319
 21
-58.67062
  0
LINE
  8
ボルト／ビス
  6
DOT
 10
79.479855
 20
-58.67062
 11
80.31319
 21
-58.67062
  0
LINE
  8
ボルト／ビス
  6
DOT
 10
80.26319
 20
-58.63062
 11
80.26319
 21
-58.67062
  0
LINE
  8
ボルト／ビス
  6
DOT
 10
79.529855
 20
-58.63062
 11
79.529855
 21
-58.67062
  0
LINE
  8
ボルト／ビス
  6
DOT
 10
79.896522
 20
-58.68062
 11
79.896522
 21
-58.63062
  0
ENDBLK
  0
BLOCK
  2
*GRP_0030
 70
    65
 10
0.0
 20
0.0
  0
LINE
  8
ボルト／ビス
  6
DOT
 10
80.10319
 20
-57.770785
 11
80.10319
 21
-57.70412
  0
LINE
  8
ボルト／ビス
  6
DOT
 10
80.10319
 20
-57.70412
 11
79.369858
 21
-57.70412
  0
LINE
  8
ボルト／ビス
  6
DOT
 10
79.369858
 20
-57.70412
 11
79.369858
 21
-57.770785
  0
LINE
  8
ボルト／ビス
  6
DOT
 10
80.10319
 20
-57.770785
 11
79.369858
 21
-57.770785
  0
LINE
  8
ボルト／ビス
  6
DOT
 10
80.036525
 20
-57.670785
 11
80.036525
 21
-57.70412
  0
LINE
  8
ボルト／ビス
  6
DOT
 10
80.036525
 20
-57.670785
 11
79.436525
 21
-57.670785
  0
LINE
  8
ボルト／ビス
  6
DOT
 10
79.436525
 20
-57.670785
 11
79.436525
 21
-57.70412
  0
LINE
  8
ボルト／ビス
  6
DOT
 62
    64
 10
79.8969
 20
-57.470785
 11
79.928975
 21
-57.48246
  0
ARC
  8
ボルト／ビス
  6
DOT
 62
    64
 10
79.88086
 20
-57.575764
 40
0.104978
 50
90.0
 51
117.278033
  0
ARC
  8
ボルト／ビス
  6
DOT
 62
    64
 10
79.736523
 20
-57.873188
 40
0.402402
 50
76.165015
 51
103.834998
  0
LINE
  8
ボルト／ビス
  6
DOT
 62
    64
 10
79.57615
 20
-57.470785
 11
79.544075
 21
-57.48246
  0
ARC
  8
ボルト／ビス
  6
DOT
 62
    64
 10
79.592185
 20
-57.575764
 40
0.104978
 50
62.721967
 51
90.0
  0
LINE
  8
ボルト／ビス
  6
DOT
 62
    64
 10
79.8969
 20
-57.470785
 11
79.57615
 21
-57.470785
  0
LINE
  8
ボルト／ビス
  6
DOT
 62
    64
 10
79.544075
 20
-57.48246
 11
79.544075
 21
-57.60412
  0
LINE
  8
ボルト／ビス
  6
DOT
 62
    64
 10
79.6403
 20
-57.48246
 11
79.6403
 21
-57.60412
  0
LINE
  8
ボルト／ビス
  6
DOT
 62
    64
 10
79.928975
 20
-57.48246
 11
79.928975
 21
-57.60412
  0
LINE
  8
ボルト／ビス
  6
DOT
 62
    64
 10
79.83275
 20
-57.48246
 11
79.83275
 21
-57.60412
  0
LINE
  8
ボルト／ビス
  6
DOT
 10
79.928975
 20
-57.60412
 11
79.544075
 21
-57.60412
  0
LINE
  8
ボルト／ビス
  6
DOT
 10
79.936525
 20
-57.60412
 11
79.936525
 21
-57.670785
  0
LINE
  8
ボルト／ビス
  6
DOT
 10
79.936525
 20
-57.60412
 11
79.536525
 21
-57.60412
  0
LINE
  8
ボルト／ビス
  6
DOT
 10
79.536525
 20
-57.60412
 11
79.536525
 21
-57.670785
  0
ENDBLK
  0
BLOCK
  2
*GRP_0031
 70
    65
 10
0.0
 20
0.0
  0
INSERT
  2
M8横
  8
ゴム等
  6
DOT
 10
-121.756182
 20
-58.63062
 41
0.033333
 42
0.033333
  0
LINE
  8
ボルト／ビス
  6
DOT
 10
-121.62285
 20
-58.42062
 11
-121.639515
 21
-58.403955
  0
LINE
  8
ボルト／ビス
  6
DOT
 10
-121.87285
 20
-58.403955
 11
-121.889515
 21
-58.42062
  0
LINE
  8
ボルト／ビス
  6
DOT
 10
-121.889515
 20
-58.42062
 11
-121.62285
 21
-58.42062
  0
LINE
  8
ボルト／ビス
  6
DOT
 10
-121.87285
 20
-58.403955
 11
-121.639515
 21
-58.403955
  0
LINE
  8
ボルト／ビス
  6
DOT
 10
-121.639515
 20
-58.403955
 11
-121.639515
 21
-58.447285
  0
LINE
  8
ボルト／ビス
  6
DOT
 10
-121.62285
 20
-58.42062
 11
-121.62285
 21
-58.447285
  0
LINE
  8
ボルト／ビス
  6
DOT
 10
-121.889515
 20
-58.42062
 11
-121.889515
 21
-58.447285
  0
LINE
  8
ボルト／ビス
  6
DOT
 10
-121.87285
 20
-58.403955
 11
-121.87285
 21
-58.447285
  0
LINE
  8
ボルト／ビス
  6
DOT
 10
-122.12285
 20
-58.63062
 11
-121.389515
 21
-58.63062
  0
LINE
  8
ボルト／ビス
  6
DOT
 10
-121.339515
 20
-58.67062
 11
-121.339515
 21
-58.753953
  0
LINE
  8
ボルト／ビス
  6
DOT
 10
-121.339515
 20
-58.753953
 11
-122.17285
 21
-58.753953
  0
LINE
  8
ボルト／ビス
  6
DOT
 10
-122.17285
 20
-58.753953
 11
-122.17285
 21
-58.67062
  0
LINE
  8
ボルト／ビス
  6
DOT
 10
-121.339515
 20
-58.67062
 11
-122.17285
 21
-58.67062
  0
LINE
  8
ボルト／ビス
  6
DOT
 10
-122.12285
 20
-58.63062
 11
-122.12285
 21
-58.67062
  0
LINE
  8
ボルト／ビス
  6
DOT
 10
-121.389515
 20
-58.63062
 11
-121.389515
 21
-58.67062
  0
LINE
  8
ボルト／ビス
  6
DOT
 10
-121.756182
 20
-58.68062
 11
-121.756182
 21
-58.63062
  0
ENDBLK
  0
BLOCK
  2
*GRP_0032
 70
    65
 10
0.0
 20
0.0
  0
LINE
  8
ボルト／ビス
  6
DOT
 10
-121.96285
 20
-57.770785
 11
-121.96285
 21
-57.70412
  0
LINE
  8
ボルト／ビス
  6
DOT
 10
-121.96285
 20
-57.70412
 11
-121.229518
 21
-57.70412
  0
LINE
  8
ボルト／ビス
  6
DOT
 10
-121.229518
 20
-57.70412
 11
-121.229518
 21
-57.770785
  0
LINE
  8
ボルト／ビス
  6
DOT
 10
-121.96285
 20
-57.770785
 11
-121.229518
 21
-57.770785
  0
LINE
  8
ボルト／ビス
  6
DOT
 10
-121.896185
 20
-57.670785
 11
-121.896185
 21
-57.70412
  0
LINE
  8
ボルト／ビス
  6
DOT
 10
-121.896185
 20
-57.670785
 11
-121.296185
 21
-57.670785
  0
LINE
  8
ボルト／ビス
  6
DOT
 10
-121.296185
 20
-57.670785
 11
-121.296185
 21
-57.70412
  0
LINE
  8
ボルト／ビス
  6
DOT
 62
    64
 10
-121.75656
 20
-57.470785
 11
-121.788635
 21
-57.48246
  0
ARC
  8
ボルト／ビス
  6
DOT
 62
    64
 10
-121.740524
 20
-57.575764
 40
0.104978
 50
62.721967
 51
90.0
  0
ARC
  8
ボルト／ビス
  6
DOT
 62
    64
 10
-121.596186
 20
-57.873188
 40
0.402402
 50
76.165002
 51
103.834985
  0
LINE
  8
ボルト／ビス
  6
DOT
 62
    64
 10
-121.43581
 20
-57.470785
 11
-121.403735
 21
-57.48246
  0
ARC
  8
ボルト／ビス
  6
DOT
 62
    64
 10
-121.451849
 20
-57.575764
 40
0.104978
 50
90.0
 51
117.278033
  0
LINE
  8
ボルト／ビス
  6
DOT
 62
    64
 10
-121.75656
 20
-57.470785
 11
-121.43581
 21
-57.470785
  0
LINE
  8
ボルト／ビス
  6
DOT
 62
    64
 10
-121.403735
 20
-57.48246
 11
-121.403735
 21
-57.60412
  0
LINE
  8
ボルト／ビス
  6
DOT
 62
    64
 10
-121.49996
 20
-57.48246
 11
-121.49996
 21
-57.60412
  0
LINE
  8
ボルト／ビス
  6
DOT
 62
    64
 10
-121.788635
 20
-57.48246
 11
-121.788635
 21
-57.60412
  0
LINE
  8
ボルト／ビス
  6
DOT
 62
    64
 10
-121.69241
 20
-57.48246
 11
-121.69241
 21
-57.60412
  0
LINE
  8
ボルト／ビス
  6
DOT
 10
-121.788635
 20
-57.60412
 11
-121.403735
 21
-57.60412
  0
LINE
  8
ボルト／ビス
  6
DOT
 10
-121.796185
 20
-57.60412
 11
-121.796185
 21
-57.670785
  0
LINE
  8
ボルト／ビス
  6
DOT
 10
-121.796185
 20
-57.60412
 11
-121.396185
 21
-57.60412
  0
LINE
  8
ボルト／ビス
  6
DOT
 10
-121.396185
 20
-57.60412
 11
-121.396185
 21
-57.670785
  0
ENDBLK
  0
BLOCK
  2
*DIM_0033
 70
    65
 10
0.0
 20
0.0
  0
LINE
  8
寸法
  6
CONTINUOUS
 10
84.070162
 20
-68.70412
 11
102.688635
 21
-68.70412
  0
LINE
  8
寸法
  6
CONTINUOUS
 10
84.070162
 20
-57.037453
 11
102.688635
 21
-57.037453
  0
LINE
  8
寸法
  6
CONTINUOUS
 10
102.688635
 20
-68.70412
 11
102.688635
 21
-57.037453
  0
POINT
  8
寸法
 10
102.688635
 20
-68.70412
  0
POINT
  8
寸法
 10
102.688635
 20
-57.037453
  0
TEXT
  7
TextStyle03
  8
寸法
  6
CONTINUOUS
 10
105.675
 20
-71.96875
  1
上昇330以上
 40
3.0
 50
90.0
 72
     5
 11
105.675
 21
-53.78125
  0
ENDBLK
  0
BLOCK
  2
*GRP_0034
 70
    65
 10
0.0
 20
0.0
  0
LINE
  8
補助線
  6
BYBLOCK
 62
    64
 10
-117.53307
 20
-74.368295
 11
-117.660555
 21
-74.475655
  0
LINE
  8
補助線
  6
BYBLOCK
 62
    64
 10
-117.650493
 20
-74.35823
 11
-117.543132
 21
-74.485718
  0
LINE
  8
補助線
  6
BYBLOCK
 62
    64
 10
-109.042652
 20
-67.218272
 11
-109.170137
 21
-67.325627
  0
LINE
  8
補助線
  6
BYBLOCK
 62
    64
 10
-109.160075
 20
-67.208208
 11
-109.052715
 21
-67.33569
  0
LINE
  8
補助線
  6
BYBLOCK
 62
    64
 10
-100.679717
 20
-60.175602
 11
-100.552235
 21
-60.068245
  0
LINE
  8
補助線
  6
BYBLOCK
 62
    64
 10
-100.669658
 20
-60.05818
 11
-100.562298
 21
-60.185668
  0
LINE
  8
型材断面
  6
CONTINUOUS
 10
-118.388568
 20
-73.999273
 11
-118.448945
 21
-74.703798
  0
LINE
  8
型材断面
  6
CONTINUOUS
 10
-118.448945
 20
-74.703798
 11
-118.019513
 21
-75.213732
  0
LINE
  8
型材断面
  6
CONTINUOUS
 10
-118.019513
 20
-75.213732
 11
-117.314988
 21
-75.27411
  0
LINE
  8
型材断面
  6
CONTINUOUS
 10
-100.8978
 20
-59.269793
 11
-100.193275
 21
-59.33017
  0
LINE
  8
型材断面
  6
CONTINUOUS
 10
-100.193275
 20
-59.33017
 11
-99.763843
 21
-59.840105
  0
LINE
  8
型材断面
  6
CONTINUOUS
 10
-99.763843
 20
-59.840105
 11
-99.82422
 21
-60.54463
  0
LINE
  8
型材断面
  6
CONTINUOUS
 10
-118.388568
 20
-73.999273
 11
-100.8978
 21
-59.269793
  0
LINE
  8
型材断面
  6
CONTINUOUS
 10
-117.314988
 20
-75.27411
 11
-99.82422
 21
-60.54463
  0
CIRCLE
  8
ボルト／ビス
  6
CONTINUOUS
 10
-117.596813
 20
-74.421975
 40
0.250185
  0
CIRCLE
  8
ボルト／ビス
  6
CONTINUOUS
 10
-117.596813
 20
-74.421975
 40
0.301025
  0
LINE
  8
ボルト／ビス
  6
CONTINUOUS
 62
    64
 10
-117.84312
 20
-74.465858
 11
-117.757967
 21
-74.23061
  0
LINE
  8
ボルト／ビス
  6
CONTINUOUS
 62
    64
 10
-117.51166
 20
-74.186725
 11
-117.757967
 21
-74.23061
  0
LINE
  8
ボルト／ビス
  6
CONTINUOUS
 62
    64
 10
-117.681965
 20
-74.657225
 11
-117.435657
 21
-74.61334
  0
LINE
  8
ボルト／ビス
  6
CONTINUOUS
 62
    64
 10
-117.350505
 20
-74.378093
 11
-117.435657
 21
-74.61334
  0
LINE
  8
ボルト／ビス
  6
CONTINUOUS
 62
    64
 10
-117.84312
 20
-74.465858
 11
-117.681965
 21
-74.657225
  0
LINE
  8
ボルト／ビス
  6
CONTINUOUS
 62
    64
 10
-117.51166
 20
-74.186725
 11
-117.350505
 21
-74.378093
  0
CIRCLE
  8
ボルト／ビス
  6
CONTINUOUS
 62
    64
 10
-117.596813
 20
-74.421975
 40
0.216668
  0
CIRCLE
  8
ボルト／ビス
  6
CONTINUOUS
 10
-109.106395
 20
-67.27195
 40
0.250185
  0
CIRCLE
  8
ボルト／ビス
  6
CONTINUOUS
 10
-109.106395
 20
-67.27195
 40
0.301025
  0
LINE
  8
ボルト／ビス
  6
CONTINUOUS
 62
    64
 10
-109.352703
 20
-67.315833
 11
-109.26755
 21
-67.080583
  0
LINE
  8
ボルト／ビス
  6
CONTINUOUS
 62
    64
 10
-109.021242
 20
-67.0367
 11
-109.26755
 21
-67.080583
  0
LINE
  8
ボルト／ビス
  6
CONTINUOUS
 62
    64
 10
-109.191547
 20
-67.5072
 11
-108.945237
 21
-67.463317
  0
LINE
  8
ボルト／ビス
  6
CONTINUOUS
 62
    64
 10
-108.860088
 20
-67.22807
 11
-108.945237
 21
-67.463317
  0
LINE
  8
ボルト／ビス
  6
CONTINUOUS
 62
    64
 10
-109.352703
 20
-67.315833
 11
-109.191547
 21
-67.5072
  0
LINE
  8
ボルト／ビス
  6
CONTINUOUS
 62
    64
 10
-109.021242
 20
-67.0367
 11
-108.860088
 21
-67.22807
  0
CIRCLE
  8
ボルト／ビス
  6
CONTINUOUS
 62
    64
 10
-109.106395
 20
-67.27195
 40
0.216668
  0
CIRCLE
  8
ボルト／ビス
  6
CONTINUOUS
 10
-100.615975
 20
-60.121925
 40
0.250185
  0
CIRCLE
  8
ボルト／ビス
  6
CONTINUOUS
 10
-100.615975
 20
-60.121925
 40
0.301025
  0
LINE
  8
ボルト／ビス
  6
CONTINUOUS
 62
    64
 10
-100.530822
 20
-59.886675
 11
-100.777132
 21
-59.93056
  0
LINE
  8
ボルト／ビス
  6
CONTINUOUS
 62
    64
 10
-100.862285
 20
-60.165808
 11
-100.777132
 21
-59.93056
  0
LINE
  8
ボルト／ビス
  6
CONTINUOUS
 62
    64
 10
-100.36967
 20
-60.078042
 11
-100.45482
 21
-60.31329
  0
LINE
  8
ボルト／ビス
  6
CONTINUOUS
 62
    64
 10
-100.70113
 20
-60.357175
 11
-100.45482
 21
-60.31329
  0
LINE
  8
ボルト／ビス
  6
CONTINUOUS
 62
    64
 10
-100.530822
 20
-59.886675
 11
-100.36967
 21
-60.078042
  0
LINE
  8
ボルト／ビス
  6
CONTINUOUS
 62
    64
 10
-100.862285
 20
-60.165808
 11
-100.70113
 21
-60.357175
  0
CIRCLE
  8
ボルト／ビス
  6
CONTINUOUS
 62
    64
 10
-100.615975
 20
-60.121925
 40
0.216668
  0
ENDBLK
  0
BLOCK
  2
*GRP_0035
 70
    65
 10
0.0
 20
0.0
  0
LINE
  8
補助線
  6
BYBLOCK
 62
    64
 10
-100.67972
 20
-74.368295
 11
-100.552235
 21
-74.475655
  0
LINE
  8
補助線
  6
BYBLOCK
 62
    64
 10
-100.562298
 20
-74.35823
 11
-100.669658
 21
-74.485718
  0
LINE
  8
補助線
  6
BYBLOCK
 62
    64
 10
-109.170137
 20
-67.218272
 11
-109.042652
 21
-67.325627
  0
LINE
  8
補助線
  6
BYBLOCK
 62
    64
 10
-109.052715
 20
-67.208208
 11
-109.160075
 21
-67.33569
  0
LINE
  8
補助線
  6
BYBLOCK
 62
    64
 10
-117.533072
 20
-60.175602
 11
-117.660555
 21
-60.068245
  0
LINE
  8
補助線
  6
BYBLOCK
 62
    64
 10
-117.543132
 20
-60.05818
 11
-117.650493
 21
-60.185668
  0
LINE
  8
型材断面
  6
CONTINUOUS
 10
-99.824222
 20
-73.999273
 11
-99.763845
 21
-74.703798
  0
LINE
  8
型材断面
  6
CONTINUOUS
 10
-99.763845
 20
-74.703798
 11
-100.193278
 21
-75.213732
  0
LINE
  8
型材断面
  6
CONTINUOUS
 10
-100.193278
 20
-75.213732
 11
-100.897803
 21
-75.27411
  0
LINE
  8
型材断面
  6
CONTINUOUS
 10
-117.31499
 20
-59.269793
 11
-118.019515
 21
-59.33017
  0
LINE
  8
型材断面
  6
CONTINUOUS
 10
-118.019515
 20
-59.33017
 11
-118.448948
 21
-59.840105
  0
LINE
  8
型材断面
  6
CONTINUOUS
 10
-118.448948
 20
-59.840105
 11
-118.38857
 21
-60.54463
  0
LINE
  8
型材断面
  6
CONTINUOUS
 10
-99.824222
 20
-73.999273
 11
-117.31499
 21
-59.269793
  0
LINE
  8
型材断面
  6
CONTINUOUS
 10
-100.897803
 20
-75.27411
 11
-118.38857
 21
-60.54463
  0
CIRCLE
  8
ボルト／ビス
  6
CONTINUOUS
 10
-100.615978
 20
-74.421975
 40
0.250185
  0
CIRCLE
  8
ボルト／ビス
  6
CONTINUOUS
 10
-100.615978
 20
-74.421975
 40
0.301025
  0
LINE
  8
ボルト／ビス
  6
CONTINUOUS
 62
    64
 10
-100.36967
 20
-74.465858
 11
-100.454822
 21
-74.23061
  0
LINE
  8
ボルト／ビス
  6
CONTINUOUS
 62
    64
 10
-100.70113
 20
-74.186725
 11
-100.454822
 21
-74.23061
  0
LINE
  8
ボルト／ビス
  6
CONTINUOUS
 62
    64
 10
-100.530825
 20
-74.657225
 11
-100.777132
 21
-74.61334
  0
LINE
  8
ボルト／ビス
  6
CONTINUOUS
 62
    64
 10
-100.862285
 20
-74.378093
 11
-100.777132
 21
-74.61334
  0
LINE
  8
ボルト／ビス
  6
CONTINUOUS
 62
    64
 10
-100.36967
 20
-74.465858
 11
-100.530825
 21
-74.657225
  0
LINE
  8
ボルト／ビス
  6
CONTINUOUS
 62
    64
 10
-100.70113
 20
-74.186725
 11
-100.862285
 21
-74.378093
  0
CIRCLE
  8
ボルト／ビス
  6
CONTINUOUS
 62
    64
 10
-100.615978
 20
-74.421975
 40
0.216668
  0
CIRCLE
  8
ボルト／ビス
  6
CONTINUOUS
 10
-109.106395
 20
-67.27195
 40
0.250185
  0
CIRCLE
  8
ボルト／ビス
  6
CONTINUOUS
 10
-109.106395
 20
-67.27195
 40
0.301025
  0
LINE
  8
ボルト／ビス
  6
CONTINUOUS
 62
    64
 10
-108.860088
 20
-67.315833
 11
-108.94524
 21
-67.080583
  0
LINE
  8
ボルト／ビス
  6
CONTINUOUS
 62
    64
 10
-109.191547
 20
-67.0367
 11
-108.94524
 21
-67.080583
  0
LINE
  8
ボルト／ビス
  6
CONTINUOUS
 62
    64
 10
-109.021242
 20
-67.5072
 11
-109.267552
 21
-67.463317
  0
LINE
  8
ボルト／ビス
  6
CONTINUOUS
 62
    64
 10
-109.352703
 20
-67.22807
 11
-109.267552
 21
-67.463317
  0
LINE
  8
ボルト／ビス
  6
CONTINUOUS
 62
    64
 10
-108.860088
 20
-67.315833
 11
-109.021242
 21
-67.5072
  0
LINE
  8
ボルト／ビス
  6
CONTINUOUS
 62
    64
 10
-109.191547
 20
-67.0367
 11
-109.352703
 21
-67.22807
  0
CIRCLE
  8
ボルト／ビス
  6
CONTINUOUS
 62
    64
 10
-109.106395
 20
-67.27195
 40
0.216668
  0
CIRCLE
  8
ボルト／ビス
  6
CONTINUOUS
 10
-117.596815
 20
-60.121925
 40
0.250185
  0
CIRCLE
  8
ボルト／ビス
  6
CONTINUOUS
 10
-117.596815
 20
-60.121925
 40
0.301025
  0
LINE
  8
ボルト／ビス
  6
CONTINUOUS
 62
    64
 10
-117.681967
 20
-59.886675
 11
-117.435657
 21
-59.93056
  0
LINE
  8
ボルト／ビス
  6
CONTINUOUS
 62
    64
 10
-117.350505
 20
-60.165808
 11
-117.435657
 21
-59.93056
  0
LINE
  8
ボルト／ビス
  6
CONTINUOUS
 62
    64
 10
-117.84312
 20
-60.078042
 11
-117.75797
 21
-60.31329
  0
LINE
  8
ボルト／ビス
  6
CONTINUOUS
 62
    64
 10
-117.51166
 20
-60.357175
 11
-117.75797
 21
-60.31329
  0
LINE
  8
ボルト／ビス
  6
CONTINUOUS
 62
    64
 10
-117.681967
 20
-59.886675
 11
-117.84312
 21
-60.078042
  0
LINE
  8
ボルト／ビス
  6
CONTINUOUS
 62
    64
 10
-117.350505
 20
-60.165808
 11
-117.51166
 21
-60.357175
  0
CIRCLE
  8
ボルト／ビス
  6
CONTINUOUS
 62
    64
 10
-117.596815
 20
-60.121925
 40
0.216668
  0
ENDBLK
  0
BLOCK
  2
*GRP_0036
 70
    65
 10
0.0
 20
0.0
  0
LINE
  8
補助線
  6
BYBLOCK
 62
    64
 10
75.67278
 20
-74.368295
 11
75.800265
 21
-74.475655
  0
LINE
  8
補助線
  6
BYBLOCK
 62
    64
 10
75.790202
 20
-74.35823
 11
75.682842
 21
-74.485718
  0
LINE
  8
補助線
  6
BYBLOCK
 62
    64
 10
67.182363
 20
-67.218272
 11
67.309848
 21
-67.325627
  0
LINE
  8
補助線
  6
BYBLOCK
 62
    64
 10
67.299785
 20
-67.208208
 11
67.192425
 21
-67.33569
  0
LINE
  8
補助線
  6
BYBLOCK
 62
    64
 10
58.819427
 20
-60.175602
 11
58.691945
 21
-60.068245
  0
LINE
  8
補助線
  6
BYBLOCK
 62
    64
 10
58.809368
 20
-60.05818
 11
58.702008
 21
-60.185668
  0
LINE
  8
型材断面
  6
CONTINUOUS
 10
76.528277
 20
-73.999273
 11
76.588655
 21
-74.703798
  0
LINE
  8
型材断面
  6
CONTINUOUS
 10
76.588655
 20
-74.703798
 11
76.159223
 21
-75.213732
  0
LINE
  8
型材断面
  6
CONTINUOUS
 10
76.159223
 20
-75.213732
 11
75.454697
 21
-75.27411
  0
LINE
  8
型材断面
  6
CONTINUOUS
 10
59.03751
 20
-59.269793
 11
58.332985
 21
-59.33017
  0
LINE
  8
型材断面
  6
CONTINUOUS
 10
58.332985
 20
-59.33017
 11
57.903552
 21
-59.840105
  0
LINE
  8
型材断面
  6
CONTINUOUS
 10
57.903552
 20
-59.840105
 11
57.96393
 21
-60.54463
  0
LINE
  8
型材断面
  6
CONTINUOUS
 10
76.528277
 20
-73.999273
 11
59.03751
 21
-59.269793
  0
LINE
  8
型材断面
  6
CONTINUOUS
 10
75.454697
 20
-75.27411
 11
57.96393
 21
-60.54463
  0
CIRCLE
  8
ボルト／ビス
  6
CONTINUOUS
 10
75.736522
 20
-74.421975
 40
0.250185
  0
CIRCLE
  8
ボルト／ビス
  6
CONTINUOUS
 10
75.736522
 20
-74.421975
 40
0.301025
  0
LINE
  8
ボルト／ビス
  6
CONTINUOUS
 62
    64
 10
75.98283
 20
-74.465858
 11
75.897677
 21
-74.23061
  0
LINE
  8
ボルト／ビス
  6
CONTINUOUS
 62
    64
 10
75.65137
 20
-74.186725
 11
75.897677
 21
-74.23061
  0
LINE
  8
ボルト／ビス
  6
CONTINUOUS
 62
    64
 10
75.821675
 20
-74.657225
 11
75.575367
 21
-74.61334
  0
LINE
  8
ボルト／ビス
  6
CONTINUOUS
 62
    64
 10
75.490215
 20
-74.378093
 11
75.575367
 21
-74.61334
  0
LINE
  8
ボルト／ビス
  6
CONTINUOUS
 62
    64
 10
75.98283
 20
-74.465858
 11
75.821675
 21
-74.657225
  0
LINE
  8
ボルト／ビス
  6
CONTINUOUS
 62
    64
 10
75.65137
 20
-74.186725
 11
75.490215
 21
-74.378093
  0
CIRCLE
  8
ボルト／ビス
  6
CONTINUOUS
 62
    64
 10
75.736522
 20
-74.421975
 40
0.216668
  0
CIRCLE
  8
ボルト／ビス
  6
CONTINUOUS
 10
67.246105
 20
-67.27195
 40
0.250185
  0
CIRCLE
  8
ボルト／ビス
  6
CONTINUOUS
 10
67.246105
 20
-67.27195
 40
0.301025
  0
LINE
  8
ボルト／ビス
  6
CONTINUOUS
 62
    64
 10
67.492412
 20
-67.315833
 11
67.40726
 21
-67.080583
  0
LINE
  8
ボルト／ビス
  6
CONTINUOUS
 62
    64
 10
67.160952
 20
-67.0367
 11
67.40726
 21
-67.080583
  0
LINE
  8
ボルト／ビス
  6
CONTINUOUS
 62
    64
 10
67.331257
 20
-67.5072
 11
67.084948
 21
-67.463317
  0
LINE
  8
ボルト／ビス
  6
CONTINUOUS
 62
    64
 10
66.999798
 20
-67.22807
 11
67.084948
 21
-67.463317
  0
LINE
  8
ボルト／ビス
  6
CONTINUOUS
 62
    64
 10
67.492412
 20
-67.315833
 11
67.331257
 21
-67.5072
  0
LINE
  8
ボルト／ビス
  6
CONTINUOUS
 62
    64
 10
67.160952
 20
-67.0367
 11
66.999798
 21
-67.22807
  0
CIRCLE
  8
ボルト／ビス
  6
CONTINUOUS
 62
    64
 10
67.246105
 20
-67.27195
 40
0.216668
  0
CIRCLE
  8
ボルト／ビス
  6
CONTINUOUS
 10
58.755685
 20
-60.121925
 40
0.250185
  0
CIRCLE
  8
ボルト／ビス
  6
CONTINUOUS
 10
58.755685
 20
-60.121925
 40
0.301025
  0
LINE
  8
ボルト／ビス
  6
CONTINUOUS
 62
    64
 10
58.670533
 20
-59.886675
 11
58.916842
 21
-59.93056
  0
LINE
  8
ボルト／ビス
  6
CONTINUOUS
 62
    64
 10
59.001995
 20
-60.165808
 11
58.916842
 21
-59.93056
  0
LINE
  8
ボルト／ビス
  6
CONTINUOUS
 62
    64
 10
58.50938
 20
-60.078042
 11
58.59453
 21
-60.31329
  0
LINE
  8
ボルト／ビス
  6
CONTINUOUS
 62
    64
 10
58.84084
 20
-60.357175
 11
58.59453
 21
-60.31329
  0
LINE
  8
ボルト／ビス
  6
CONTINUOUS
 62
    64
 10
58.670533
 20
-59.886675
 11
58.50938
 21
-60.078042
  0
LINE
  8
ボルト／ビス
  6
CONTINUOUS
 62
    64
 10
59.001995
 20
-60.165808
 11
58.84084
 21
-60.357175
  0
CIRCLE
  8
ボルト／ビス
  6
CONTINUOUS
 62
    64
 10
58.755685
 20
-60.121925
 40
0.216668
  0
ENDBLK
  0
BLOCK
  2
*GRP_0037
 70
    65
 10
0.0
 20
0.0
  0
LINE
  8
補助線
  6
BYBLOCK
 62
    64
 10
58.81943
 20
-74.368295
 11
58.691945
 21
-74.475655
  0
LINE
  8
補助線
  6
BYBLOCK
 62
    64
 10
58.702008
 20
-74.35823
 11
58.809368
 21
-74.485718
  0
LINE
  8
補助線
  6
BYBLOCK
 62
    64
 10
67.309848
 20
-67.218272
 11
67.182363
 21
-67.325627
  0
LINE
  8
補助線
  6
BYBLOCK
 62
    64
 10
67.192425
 20
-67.208208
 11
67.299785
 21
-67.33569
  0
LINE
  8
補助線
  6
BYBLOCK
 62
    64
 10
75.672782
 20
-60.175602
 11
75.800265
 21
-60.068245
  0
LINE
  8
補助線
  6
BYBLOCK
 62
    64
 10
75.682842
 20
-60.05818
 11
75.790202
 21
-60.185668
  0
LINE
  8
型材断面
  6
CONTINUOUS
 10
57.963933
 20
-73.999273
 11
57.903555
 21
-74.703798
  0
LINE
  8
型材断面
  6
CONTINUOUS
 10
57.903555
 20
-74.703798
 11
58.332987
 21
-75.213732
  0
LINE
  8
型材断面
  6
CONTINUOUS
 10
58.332987
 20
-75.213732
 11
59.037513
 21
-75.27411
  0
LINE
  8
型材断面
  6
CONTINUOUS
 10
75.4547
 20
-59.269793
 11
76.159225
 21
-59.33017
  0
LINE
  8
型材断面
  6
CONTINUOUS
 10
76.159225
 20
-59.33017
 11
76.588658
 21
-59.840105
  0
LINE
  8
型材断面
  6
CONTINUOUS
 10
76.588658
 20
-59.840105
 11
76.52828
 21
-60.54463
  0
LINE
  8
型材断面
  6
CONTINUOUS
 10
57.963933
 20
-73.999273
 11
75.4547
 21
-59.269793
  0
LINE
  8
型材断面
  6
CONTINUOUS
 10
59.037513
 20
-75.27411
 11
76.52828
 21
-60.54463
  0
CIRCLE
  8
ボルト／ビス
  6
CONTINUOUS
 10
58.755688
 20
-74.421975
 40
0.250185
  0
CIRCLE
  8
ボルト／ビス
  6
CONTINUOUS
 10
58.755688
 20
-74.421975
 40
0.301025
  0
LINE
  8
ボルト／ビス
  6
CONTINUOUS
 62
    64
 10
58.50938
 20
-74.465858
 11
58.594533
 21
-74.23061
  0
LINE
  8
ボルト／ビス
  6
CONTINUOUS
 62
    64
 10
58.84084
 20
-74.186725
 11
58.594533
 21
-74.23061
  0
LINE
  8
ボルト／ビス
  6
CONTINUOUS
 62
    64
 10
58.670535
 20
-74.657225
 11
58.916842
 21
-74.61334
  0
LINE
  8
ボルト／ビス
  6
CONTINUOUS
 62
    64
 10
59.001995
 20
-74.378093
 11
58.916842
 21
-74.61334
  0
LINE
  8
ボルト／ビス
  6
CONTINUOUS
 62
    64
 10
58.50938
 20
-74.465858
 11
58.670535
 21
-74.657225
  0
LINE
  8
ボルト／ビス
  6
CONTINUOUS
 62
    64
 10
58.84084
 20
-74.186725
 11
59.001995
 21
-74.378093
  0
CIRCLE
  8
ボルト／ビス
  6
CONTINUOUS
 62
    64
 10
58.755688
 20
-74.421975
 40
0.216668
  0
CIRCLE
  8
ボルト／ビス
  6
CONTINUOUS
 10
67.246105
 20
-67.27195
 40
0.250185
  0
CIRCLE
  8
ボルト／ビス
  6
CONTINUOUS
 10
67.246105
 20
-67.27195
 40
0.301025
  0
LINE
  8
ボルト／ビス
  6
CONTINUOUS
 62
    64
 10
66.999798
 20
-67.315833
 11
67.08495
 21
-67.080583
  0
LINE
  8
ボルト／ビス
  6
CONTINUOUS
 62
    64
 10
67.331257
 20
-67.0367
 11
67.08495
 21
-67.080583
  0
LINE
  8
ボルト／ビス
  6
CONTINUOUS
 62
    64
 10
67.160952
 20
-67.5072
 11
67.407263
 21
-67.463317
  0
LINE
  8
ボルト／ビス
  6
CONTINUOUS
 62
    64
 10
67.492412
 20
-67.22807
 11
67.407263
 21
-67.463317
  0
LINE
  8
ボルト／ビス
  6
CONTINUOUS
 62
    64
 10
66.999798
 20
-67.315833
 11
67.160952
 21
-67.5072
  0
LINE
  8
ボルト／ビス
  6
CONTINUOUS
 62
    64
 10
67.331257
 20
-67.0367
 11
67.492412
 21
-67.22807
  0
CIRCLE
  8
ボルト／ビス
  6
CONTINUOUS
 62
    64
 10
67.246105
 20
-67.27195
 40
0.216668
  0
CIRCLE
  8
ボルト／ビス
  6
CONTINUOUS
 10
75.736525
 20
-60.121925
 40
0.250185
  0
CIRCLE
  8
ボルト／ビス
  6
CONTINUOUS
 10
75.736525
 20
-60.121925
 40
0.301025
  0
LINE
  8
ボルト／ビス
  6
CONTINUOUS
 62
    64
 10
75.821678
 20
-59.886675
 11
75.575367
 21
-59.93056
  0
LINE
  8
ボルト／ビス
  6
CONTINUOUS
 62
    64
 10
75.490215
 20
-60.165808
 11
75.575367
 21
-59.93056
  0
LINE
  8
ボルト／ビス
  6
CONTINUOUS
 62
    64
 10
75.98283
 20
-60.078042
 11
75.89768
 21
-60.31329
  0
LINE
  8
ボルト／ビス
  6
CONTINUOUS
 62
    64
 10
75.65137
 20
-60.357175
 11
75.89768
 21
-60.31329
  0
LINE
  8
ボルト／ビス
  6
CONTINUOUS
 62
    64
 10
75.821678
 20
-59.886675
 11
75.98283
 21
-60.078042
  0
LINE
  8
ボルト／ビス
  6
CONTINUOUS
 62
    64
 10
75.490215
 20
-60.165808
 11
75.65137
 21
-60.357175
  0
CIRCLE
  8
ボルト／ビス
  6
CONTINUOUS
 62
    64
 10
75.736525
 20
-60.121925
 40
0.216668
  0
ENDBLK
  0
BLOCK
  2
*GRP_0038
 70
    65
 10
0.0
 20
0.0
  0
LINE
  8
補助線
  6
BYBLOCK
 62
    64
 10
-12.50347
 20
-74.368295
 11
-12.375985
 21
-74.475655
  0
LINE
  8
補助線
  6
BYBLOCK
 62
    64
 10
-12.386048
 20
-74.35823
 11
-12.493408
 21
-74.485718
  0
LINE
  8
補助線
  6
BYBLOCK
 62
    64
 10
-20.993887
 20
-67.218272
 11
-20.866403
 21
-67.325627
  0
LINE
  8
補助線
  6
BYBLOCK
 62
    64
 10
-20.876465
 20
-67.208208
 11
-20.983825
 21
-67.33569
  0
LINE
  8
補助線
  6
BYBLOCK
 62
    64
 10
-29.356823
 20
-60.175602
 11
-29.484305
 21
-60.068245
  0
LINE
  8
補助線
  6
BYBLOCK
 62
    64
 10
-29.366882
 20
-60.05818
 11
-29.474243
 21
-60.185668
  0
LINE
  8
型材断面
  6
CONTINUOUS
 10
-11.647973
 20
-73.999273
 11
-11.587595
 21
-74.703798
  0
LINE
  8
型材断面
  6
CONTINUOUS
 10
-11.587595
 20
-74.703798
 11
-12.017028
 21
-75.213732
  0
LINE
  8
型材断面
  6
CONTINUOUS
 10
-12.017028
 20
-75.213732
 11
-12.721552
 21
-75.27411
  0
LINE
  8
型材断面
  6
CONTINUOUS
 10
-29.13874
 20
-59.269793
 11
-29.843265
 21
-59.33017
  0
LINE
  8
型材断面
  6
CONTINUOUS
 10
-29.843265
 20
-59.33017
 11
-30.272697
 21
-59.840105
  0
LINE
  8
型材断面
  6
CONTINUOUS
 10
-30.272697
 20
-59.840105
 11
-30.21232
 21
-60.54463
  0
LINE
  8
型材断面
  6
CONTINUOUS
 10
-11.647973
 20
-73.999273
 11
-29.13874
 21
-59.269793
  0
LINE
  8
型材断面
  6
CONTINUOUS
 10
-12.721552
 20
-75.27411
 11
-30.21232
 21
-60.54463
  0
CIRCLE
  8
ボルト／ビス
  6
CONTINUOUS
 10
-12.439728
 20
-74.421975
 40
0.250185
  0
CIRCLE
  8
ボルト／ビス
  6
CONTINUOUS
 10
-12.439728
 20
-74.421975
 40
0.301025
  0
LINE
  8
ボルト／ビス
  6
CONTINUOUS
 62
    64
 10
-12.19342
 20
-74.465858
 11
-12.278572
 21
-74.23061
  0
LINE
  8
ボルト／ビス
  6
CONTINUOUS
 62
    64
 10
-12.52488
 20
-74.186725
 11
-12.278572
 21
-74.23061
  0
LINE
  8
ボルト／ビス
  6
CONTINUOUS
 62
    64
 10
-12.354575
 20
-74.657225
 11
-12.600882
 21
-74.61334
  0
LINE
  8
ボルト／ビス
  6
CONTINUOUS
 62
    64
 10
-12.686035
 20
-74.378093
 11
-12.600882
 21
-74.61334
  0
LINE
  8
ボルト／ビス
  6
CONTINUOUS
 62
    64
 10
-12.19342
 20
-74.465858
 11
-12.354575
 21
-74.657225
  0
LINE
  8
ボルト／ビス
  6
CONTINUOUS
 62
    64
 10
-12.52488
 20
-74.186725
 11
-12.686035
 21
-74.378093
  0
CIRCLE
  8
ボルト／ビス
  6
CONTINUOUS
 62
    64
 10
-12.439728
 20
-74.421975
 40
0.216668
  0
CIRCLE
  8
ボルト／ビス
  6
CONTINUOUS
 10
-20.930145
 20
-67.27195
 40
0.250185
  0
CIRCLE
  8
ボルト／ビス
  6
CONTINUOUS
 10
-20.930145
 20
-67.27195
 40
0.301025
  0
LINE
  8
ボルト／ビス
  6
CONTINUOUS
 62
    64
 10
-20.683838
 20
-67.315833
 11
-20.76899
 21
-67.080583
  0
LINE
  8
ボルト／ビス
  6
CONTINUOUS
 62
    64
 10
-21.015297
 20
-67.0367
 11
-20.76899
 21
-67.080583
  0
LINE
  8
ボルト／ビス
  6
CONTINUOUS
 62
    64
 10
-20.844992
 20
-67.5072
 11
-21.091302
 21
-67.463317
  0
LINE
  8
ボルト／ビス
  6
CONTINUOUS
 62
    64
 10
-21.176452
 20
-67.22807
 11
-21.091302
 21
-67.463317
  0
LINE
  8
ボルト／ビス
  6
CONTINUOUS
 62
    64
 10
-20.683838
 20
-67.315833
 11
-20.844992
 21
-67.5072
  0
LINE
  8
ボルト／ビス
  6
CONTINUOUS
 62
    64
 10
-21.015297
 20
-67.0367
 11
-21.176452
 21
-67.22807
  0
CIRCLE
  8
ボルト／ビス
  6
CONTINUOUS
 62
    64
 10
-20.930145
 20
-67.27195
 40
0.216668
  0
CIRCLE
  8
ボルト／ビス
  6
CONTINUOUS
 10
-29.420565
 20
-60.121925
 40
0.250185
  0
CIRCLE
  8
ボルト／ビス
  6
CONTINUOUS
 10
-29.420565
 20
-60.121925
 40
0.301025
  0
LINE
  8
ボルト／ビス
  6
CONTINUOUS
 62
    64
 10
-29.505717
 20
-59.886675
 11
-29.259407
 21
-59.93056
  0
LINE
  8
ボルト／ビス
  6
CONTINUOUS
 62
    64
 10
-29.174255
 20
-60.165808
 11
-29.259407
 21
-59.93056
  0
LINE
  8
ボルト／ビス
  6
CONTINUOUS
 62
    64
 10
-29.66687
 20
-60.078042
 11
-29.58172
 21
-60.31329
  0
LINE
  8
ボルト／ビス
  6
CONTINUOUS
 62
    64
 10
-29.33541
 20
-60.357175
 11
-29.58172
 21
-60.31329
  0
LINE
  8
ボルト／ビス
  6
CONTINUOUS
 62
    64
 10
-29.505717
 20
-59.886675
 11
-29.66687
 21
-60.078042
  0
LINE
  8
ボルト／ビス
  6
CONTINUOUS
 62
    64
 10
-29.174255
 20
-60.165808
 11
-29.33541
 21
-60.357175
  0
CIRCLE
  8
ボルト／ビス
  6
CONTINUOUS
 62
    64
 10
-29.420565
 20
-60.121925
 40
0.216668
  0
ENDBLK
  0
BLOCK
  2
*GRP_0039
 70
    65
 10
0.0
 20
0.0
  0
LINE
  8
補助線
  6
BYBLOCK
 62
    64
 10
-29.35682
 20
-74.368295
 11
-29.484305
 21
-74.475655
  0
LINE
  8
補助線
  6
BYBLOCK
 62
    64
 10
-29.474243
 20
-74.35823
 11
-29.366882
 21
-74.485718
  0
LINE
  8
補助線
  6
BYBLOCK
 62
    64
 10
-20.866403
 20
-67.218272
 11
-20.993887
 21
-67.325627
  0
LINE
  8
補助線
  6
BYBLOCK
 62
    64
 10
-20.983825
 20
-67.208208
 11
-20.876465
 21
-67.33569
  0
LINE
  8
補助線
  6
BYBLOCK
 62
    64
 10
-12.503467
 20
-60.175602
 11
-12.375985
 21
-60.068245
  0
LINE
  8
補助線
  6
BYBLOCK
 62
    64
 10
-12.493408
 20
-60.05818
 11
-12.386048
 21
-60.185668
  0
LINE
  8
型材断面
  6
CONTINUOUS
 10
-30.212317
 20
-73.999273
 11
-30.272695
 21
-74.703798
  0
LINE
  8
型材断面
  6
CONTINUOUS
 10
-30.272695
 20
-74.703798
 11
-29.843263
 21
-75.213732
  0
LINE
  8
型材断面
  6
CONTINUOUS
 10
-29.843263
 20
-75.213732
 11
-29.138738
 21
-75.27411
  0
LINE
  8
型材断面
  6
CONTINUOUS
 10
-12.72155
 20
-59.269793
 11
-12.017025
 21
-59.33017
  0
LINE
  8
型材断面
  6
CONTINUOUS
 10
-12.017025
 20
-59.33017
 11
-11.587593
 21
-59.840105
  0
LINE
  8
型材断面
  6
CONTINUOUS
 10
-11.587593
 20
-59.840105
 11
-11.64797
 21
-60.54463
  0
LINE
  8
型材断面
  6
CONTINUOUS
 10
-30.212317
 20
-73.999273
 11
-12.72155
 21
-59.269793
  0
LINE
  8
型材断面
  6
CONTINUOUS
 10
-29.138738
 20
-75.27411
 11
-11.64797
 21
-60.54463
  0
CIRCLE
  8
ボルト／ビス
  6
CONTINUOUS
 10
-29.420562
 20
-74.421975
 40
0.250185
  0
CIRCLE
  8
ボルト／ビス
  6
CONTINUOUS
 10
-29.420562
 20
-74.421975
 40
0.301025
  0
LINE
  8
ボルト／ビス
  6
CONTINUOUS
 62
    64
 10
-29.66687
 20
-74.465858
 11
-29.581718
 21
-74.23061
  0
LINE
  8
ボルト／ビス
  6
CONTINUOUS
 62
    64
 10
-29.33541
 20
-74.186725
 11
-29.581718
 21
-74.23061
  0
LINE
  8
ボルト／ビス
  6
CONTINUOUS
 62
    64
 10
-29.505715
 20
-74.657225
 11
-29.259407
 21
-74.61334
  0
LINE
  8
ボルト／ビス
  6
CONTINUOUS
 62
    64
 10
-29.174255
 20
-74.378093
 11
-29.259407
 21
-74.61334
  0
LINE
  8
ボルト／ビス
  6
CONTINUOUS
 62
    64
 10
-29.66687
 20
-74.465858
 11
-29.505715
 21
-74.657225
  0
LINE
  8
ボルト／ビス
  6
CONTINUOUS
 62
    64
 10
-29.33541
 20
-74.186725
 11
-29.174255
 21
-74.378093
  0
CIRCLE
  8
ボルト／ビス
  6
CONTINUOUS
 62
    64
 10
-29.420562
 20
-74.421975
 40
0.216668
  0
CIRCLE
  8
ボルト／ビス
  6
CONTINUOUS
 10
-20.930145
 20
-67.27195
 40
0.250185
  0
CIRCLE
  8
ボルト／ビス
  6
CONTINUOUS
 10
-20.930145
 20
-67.27195
 40
0.301025
  0
LINE
  8
ボルト／ビス
  6
CONTINUOUS
 62
    64
 10
-21.176452
 20
-67.315833
 11
-21.0913
 21
-67.080583
  0
LINE
  8
ボルト／ビス
  6
CONTINUOUS
 62
    64
 10
-20.844992
 20
-67.0367
 11
-21.0913
 21
-67.080583
  0
LINE
  8
ボルト／ビス
  6
CONTINUOUS
 62
    64
 10
-21.015297
 20
-67.5072
 11
-20.768988
 21
-67.463317
  0
LINE
  8
ボルト／ビス
  6
CONTINUOUS
 62
    64
 10
-20.683838
 20
-67.22807
 11
-20.768988
 21
-67.463317
  0
LINE
  8
ボルト／ビス
  6
CONTINUOUS
 62
    64
 10
-21.176452
 20
-67.315833
 11
-21.015297
 21
-67.5072
  0
LINE
  8
ボルト／ビス
  6
CONTINUOUS
 62
    64
 10
-20.844992
 20
-67.0367
 11
-20.683838
 21
-67.22807
  0
CIRCLE
  8
ボルト／ビス
  6
CONTINUOUS
 62
    64
 10
-20.930145
 20
-67.27195
 40
0.216668
  0
CIRCLE
  8
ボルト／ビス
  6
CONTINUOUS
 10
-12.439725
 20
-60.121925
 40
0.250185
  0
CIRCLE
  8
ボルト／ビス
  6
CONTINUOUS
 10
-12.439725
 20
-60.121925
 40
0.301025
  0
LINE
  8
ボルト／ビス
  6
CONTINUOUS
 62
    64
 10
-12.354572
 20
-59.886675
 11
-12.600882
 21
-59.93056
  0
LINE
  8
ボルト／ビス
  6
CONTINUOUS
 62
    64
 10
-12.686035
 20
-60.165808
 11
-12.600882
 21
-59.93056
  0
LINE
  8
ボルト／ビス
  6
CONTINUOUS
 62
    64
 10
-12.19342
 20
-60.078042
 11
-12.27857
 21
-60.31329
  0
LINE
  8
ボルト／ビス
  6
CONTINUOUS
 62
    64
 10
-12.52488
 20
-60.357175
 11
-12.27857
 21
-60.31329
  0
LINE
  8
ボルト／ビス
  6
CONTINUOUS
 62
    64
 10
-12.354572
 20
-59.886675
 11
-12.19342
 21
-60.078042
  0
LINE
  8
ボルト／ビス
  6
CONTINUOUS
 62
    64
 10
-12.686035
 20
-60.165808
 11
-12.52488
 21
-60.357175
  0
CIRCLE
  8
ボルト／ビス
  6
CONTINUOUS
 62
    64
 10
-12.439725
 20
-60.121925
 40
0.216668
  0
ENDBLK
  0
BLOCK
  2
*DIM_0040
 70
    65
 10
0.0
 20
0.0
  0
LINE
  8
寸法
  6
CONTINUOUS
 10
136.863907
 20
-39.15883
 11
136.863907
 21
-32.393473
  0
LINE
  8
寸法
  6
CONTINUOUS
 10
168.963907
 20
-39.15883
 11
168.963907
 21
-32.393473
  0
LINE
  8
寸法
  6
CONTINUOUS
 10
136.863907
 20
-32.393473
 11
168.963907
 21
-32.393473
  0
POINT
  8
寸法
 10
136.863907
 20
-32.393473
  0
POINT
  8
寸法
 10
168.963907
 20
-32.393473
  0
TEXT
  7
TextStyle03
  8
寸法
  6
CONTINUOUS
 10
150.4625
 20
-32.025
  1
963
 40
3.0
 72
     5
 11
155.3375
 21
-32.025
  0
ENDBLK
  0
BLOCK
  2
*DIM_0041
 70
    65
 10
0.0
 20
0.0
  0
LINE
  8
寸法
  6
CONTINUOUS
 10
173.963907
 20
-44.15883
 11
181.287942
 21
-44.15883
  0
LINE
  8
寸法
  6
CONTINUOUS
 10
173.963907
 20
-73.492162
 11
181.287942
 21
-73.492162
  0
LINE
  8
寸法
  6
CONTINUOUS
 10
181.287942
 20
-44.15883
 11
181.287942
 21
-73.492162
  0
POINT
  8
寸法
 10
181.287942
 20
-44.15883
  0
POINT
  8
寸法
 10
181.287942
 20
-73.492162
  0
TEXT
  7
TextStyle03
  8
寸法
  6
CONTINUOUS
 10
180.9
 20
-61.2875
  1
880
 40
3.0
 50
90.0
 72
     5
 11
180.9
 21
-56.4125
  0
ENDBLK
  0
BLOCK
  2
*DIM_0042
 70
    65
 10
0.0
 20
0.0
  0
LINE
  8
寸法
  6
CONTINUOUS
 10
81.349857
 20
-68.209977
 11
81.349857
 21
-32.437345
  0
LINE
  8
寸法
  6
CONTINUOUS
 10
79.070162
 20
-32.437345
 11
81.349857
 21
-32.437345
  0
POINT
  8
寸法
 10
79.070162
 20
-32.437345
  0
POINT
  8
寸法
 10
81.349857
 20
-32.437345
  0
TEXT
  7
TextStyle03
  8
寸法
  6
CONTINUOUS
 10
83.66875
 20
-32.075
  1
68.4
 40
3.0
 72
     5
 11
90.23125
 21
-32.075
  0
ENDBLK
  0
BLOCK
  2
*DIM_0043
 70
    65
 10
0.0
 20
0.0
  0
LINE
  8
寸法
  6
CONTINUOUS
 10
-123.209518
 20
-68.209977
 11
-123.209518
 21
-32.437345
  0
LINE
  8
寸法
  6
CONTINUOUS
 10
-120.929822
 20
-32.437345
 11
-123.209518
 21
-32.437345
  0
POINT
  8
寸法
 10
-120.929822
 20
-32.437345
  0
POINT
  8
寸法
 10
-123.209518
 20
-32.437345
  0
TEXT
  7
TextStyle03
  8
寸法
  6
CONTINUOUS
 10
-132.10625
 20
-32.075
  1
68.4
 40
3.0
 72
     5
 11
-125.54375
 21
-32.075
  0
ENDBLK
  0
BLOCK
  2
*DIM_0044
 70
    65
 10
0.0
 20
0.0
  0
LINE
  8
寸法
  6
CONTINUOUS
 10
79.070162
 20
-32.437345
 11
-120.929822
 21
-32.437345
  0
POINT
  8
寸法
 10
79.070162
 20
-32.437345
  0
POINT
  8
寸法
 10
-120.929822
 20
-32.437345
  0
TEXT
  7
TextStyle03
  8
寸法
  6
CONTINUOUS
 10
-32.66875
 20
-32.075
  1
呼称寸法　6000
 40
3.0
 72
     5
 11
-9.23125
 21
-32.075
  0
ENDBLK
  0
BLOCK
  2
M8横
 70
    64
 10
-88.370132
 20
140.837665
  0
LINE
  8
ボルト／ビス
 10
-95.870132
 20
140.837665
 11
-80.870132
 21
140.837665
  0
LINE
  8
ボルト／ビス
 10
-80.870132
 20
145.837665
 11
-81.370132
 21
146.337665
  0
POLYLINE
  8
ボルト／ビス
 66
     1
  0
VERTEX
  8
ボルト／ビス
 10
-84.120132
 20
146.337665
  0
VERTEX
  8
ボルト／ビス
 10
-84.620132
 20
145.837665
  0
VERTEX
  8
ボルト／ビス
 10
-85.120132
 20
146.337665
  0
SEQEND
  0
POLYLINE
  8
ボルト／ビス
 66
     1
  0
VERTEX
  8
ボルト／ビス
 10
-91.620132
 20
146.337665
  0
VERTEX
  8
ボルト／ビス
 10
-92.120132
 20
145.837665
  0
VERTEX
  8
ボルト／ビス
 10
-92.620132
 20
146.337665
  0
SEQEND
  0
LINE
  8
ボルト／ビス
 10
-95.370132
 20
146.337665
 11
-95.870132
 21
145.837665
  0
LINE
  8
ボルト／ビス
 10
-95.870132
 20
140.837665
 11
-95.870132
 21
145.837665
  0
LINE
  8
ボルト／ビス
 10
-80.870132
 20
140.837665
 11
-80.870132
 21
145.837665
  0
LINE
  8
ボルト／ビス
 10
-95.370132
 20
146.337665
 11
-81.370132
 21
146.337665
  0
LINE
  8
ボルト／ビス
 10
-84.620132
 20
140.837665
 11
-84.620132
 21
145.837665
  0
LINE
  8
ボルト／ビス
 10
-92.120132
 20
140.837665
 11
-92.120132
 21
145.837665
  0
ENDBLK
  0
ENDSEC
  0
SECTION
  2
ENTITIES
  0
POLYLINE
  8
通り芯
  6
CONTINUOUS
 66
     1
 70
     1
  0
VERTEX
  8
通り芯
 10
-210.0
 20
-148.5
  0
VERTEX
  8
通り芯
 10
210.0
 20
-148.5
  0
VERTEX
  8
通り芯
 10
210.0
 20
148.5
  0
VERTEX
  8
通り芯
 10
-210.0
 20
148.5
  0
SEQEND
  0
INSERT
  2
*GRP_0001
  8
型材断面
  6
CONTINUOUS
 10
0.0
 20
0.0
  0
LINE
  8
型材断面
  6
CONTINUOUS
 10
162.97617
 20
66.869993
 11
162.97617
 21
66.819993
  0
LINE
  8
型材断面
  6
CONTINUOUS
 10
162.47617
 20
65.203325
 11
161.742835
 21
65.203325
  0
LINE
  8
型材断面
  6
CONTINUOUS
 62
    47
 10
169.709335
 20
66.60302
 11
169.709335
 21
66.55302
  0
LINE
  8
型材断面
  6
CONTINUOUS
 62
    47
 10
169.709335
 20
66.60302
 11
169.209335
 21
66.60302
  0
LINE
  8
型材断面
  6
CONTINUOUS
 10
163.459335
 20
65.25302
 11
163.459335
 21
66.699688
  0
LINE
  8
型材断面
  6
CONTINUOUS
 10
163.909335
 20
66.699688
 11
163.459335
 21
66.699688
  0
LINE
  8
型材断面
  6
CONTINUOUS
 62
    47
 10
166.582028
 20
67.43302
 11
166.582028
 21
67.48302
  0
LINE
  8
型材断面
  6
CONTINUOUS
 62
    47
 10
166.582028
 20
67.48302
 11
166.248695
 21
67.48302
  0
LINE
  8
型材断面
  6
CONTINUOUS
 62
    47
 10
166.248695
 20
67.48302
 11
166.148695
 21
66.699688
  0
LINE
  8
型材断面
  6
CONTINUOUS
 62
    47
 10
165.74267
 20
66.699688
 11
166.148695
 21
66.699688
  0
LINE
  8
型材断面
  6
CONTINUOUS
 62
    47
 10
165.74267
 20
67.169687
 11
163.909335
 21
67.169687
  0
LINE
  8
型材断面
  6
CONTINUOUS
 10
162.97617
 20
66.869993
 11
162.47617
 21
66.869993
  0
LINE
  8
型材断面
  6
CONTINUOUS
 10
163.459335
 20
65.25302
 11
162.97617
 21
65.25302
  0
LINE
  8
型材断面
  6
CONTINUOUS
 62
    47
 10
169.209335
 20
67.169687
 11
166.582028
 21
67.169687
  0
INSERT
  2
*GRP_0002
  8
型材断面
  6
DOT
 10
0.0
 20
0.0
  0
INSERT
  2
*GRP_0003
  8
型材断面
  6
DOT
 10
0.0
 20
0.0
  0
LINE
  8
型材断面
  6
CONTINUOUS
 10
169.209335
 20
67.169687
 11
169.209335
 21
50.203325
  0
LINE
  8
型材断面
  6
CONTINUOUS
 10
169.709335
 20
66.60302
 11
169.709335
 21
50.203325
  0
LINE
  8
型材断面
  6
CONTINUOUS
 10
166.582028
 20
67.48302
 11
166.582028
 21
50.203325
  0
LINE
  8
型材断面
  6
CONTINUOUS
 10
166.248695
 20
67.48302
 11
166.248695
 21
50.203325
  0
LINE
  8
型材断面
  6
CONTINUOUS
 10
166.148695
 20
66.699688
 11
166.148695
 21
50.203325
  0
LINE
  8
型材断面
  6
CONTINUOUS
 10
165.74267
 20
67.169687
 11
165.74267
 21
50.203325
  0
LINE
  8
型材断面
  6
CONTINUOUS
 10
162.97617
 20
66.869993
 11
162.97617
 21
50.203325
  0
LINE
  8
型材断面
  6
CONTINUOUS
 10
161.742835
 20
65.203325
 11
161.742835
 21
50.203325
  0
LINE
  8
型材断面
  6
CONTINUOUS
 10
162.47617
 20
66.869993
 11
162.47617
 21
50.203325
  0
LINE
  8
型材断面
  6
CONTINUOUS
 10
163.459335
 20
66.699688
 11
163.459335
 21
50.203325
  0
LINE
  8
型材断面
  6
CONTINUOUS
 10
163.909335
 20
67.169687
 11
163.909335
 21
50.203325
  0
LINE
  8
型材断面
  6
CONTINUOUS
 10
162.97617
 20
33.53666
 11
162.97617
 21
33.58666
  0
LINE
  8
型材断面
  6
CONTINUOUS
 10
162.47617
 20
35.203325
 11
161.742835
 21
35.203325
  0
LINE
  8
型材断面
  6
CONTINUOUS
 62
    47
 10
169.709335
 20
33.80363
 11
169.709335
 21
33.85363
  0
LINE
  8
型材断面
  6
CONTINUOUS
 62
    47
 10
169.709335
 20
33.80363
 11
169.209335
 21
33.80363
  0
LINE
  8
型材断面
  6
CONTINUOUS
 10
163.459335
 20
35.15363
 11
163.459335
 21
33.706965
  0
LINE
  8
型材断面
  6
CONTINUOUS
 10
163.909335
 20
33.706965
 11
163.459335
 21
33.706965
  0
LINE
  8
型材断面
  6
CONTINUOUS
 62
    47
 10
166.582028
 20
32.97363
 11
166.582028
 21
32.92363
  0
LINE
  8
型材断面
  6
CONTINUOUS
 62
    47
 10
166.582028
 20
32.92363
 11
166.248695
 21
32.92363
  0
LINE
  8
型材断面
  6
CONTINUOUS
 62
    47
 10
166.248695
 20
32.92363
 11
166.148695
 21
33.706965
  0
LINE
  8
型材断面
  6
CONTINUOUS
 62
    47
 10
165.74267
 20
33.706965
 11
166.148695
 21
33.706965
  0
LINE
  8
型材断面
  6
CONTINUOUS
 62
    47
 10
165.74267
 20
33.236965
 11
163.909335
 21
33.236965
  0
LINE
  8
型材断面
  6
CONTINUOUS
 10
162.97617
 20
33.53666
 11
162.47617
 21
33.53666
  0
LINE
  8
型材断面
  6
CONTINUOUS
 10
163.459335
 20
35.15363
 11
162.97617
 21
35.15363
  0
LINE
  8
型材断面
  6
CONTINUOUS
 62
    47
 10
169.209335
 20
33.236965
 11
166.582028
 21
33.236965
  0
INSERT
  2
*GRP_0004
  8
型材断面
  6
DOT
 10
0.0
 20
0.0
  0
INSERT
  2
*GRP_0005
  8
型材断面
  6
DOT
 10
0.0
 20
0.0
  0
LINE
  8
型材断面
  6
CONTINUOUS
 10
169.209335
 20
33.236965
 11
169.209335
 21
50.203325
  0
LINE
  8
型材断面
  6
CONTINUOUS
 10
169.709335
 20
33.80363
 11
169.709335
 21
50.203325
  0
LINE
  8
型材断面
  6
CONTINUOUS
 10
166.582028
 20
32.92363
 11
166.582028
 21
50.203325
  0
LINE
  8
型材断面
  6
CONTINUOUS
 10
166.248695
 20
32.92363
 11
166.248695
 21
50.203325
  0
LINE
  8
型材断面
  6
CONTINUOUS
 10
166.148695
 20
33.706965
 11
166.148695
 21
50.203325
  0
LINE
  8
型材断面
  6
CONTINUOUS
 10
165.74267
 20
33.236965
 11
165.74267
 21
50.203325
  0
LINE
  8
型材断面
  6
CONTINUOUS
 10
162.97617
 20
33.53666
 11
162.97617
 21
50.203325
  0
LINE
  8
型材断面
  6
CONTINUOUS
 10
161.742835
 20
35.203325
 11
161.742835
 21
50.203325
  0
LINE
  8
型材断面
  6
CONTINUOUS
 10
162.47617
 20
33.53666
 11
162.47617
 21
50.203325
  0
LINE
  8
型材断面
  6
CONTINUOUS
 10
163.459335
 20
33.706965
 11
163.459335
 21
50.203325
  0
LINE
  8
型材断面
  6
CONTINUOUS
 10
163.909335
 20
33.236965
 11
163.909335
 21
50.203325
  0
LINE
  8
型材断面
  6
DASHDOT
 10
-20.92983
 20
-79.253555
 11
-20.92983
 21
65.203325
  0
POLYLINE
  8
型材断面
  6
CONTINUOUS
 66
     1
 70
     1
  0
VERTEX
  8
型材断面
 10
45.581157
 20
-94.850355
  0
VERTEX
  8
型材断面
 10
-3.097517
 20
-94.850355
  0
VERTEX
  8
型材断面
 10
-3.097517
 20
-111.19502
  0
VERTEX
  8
型材断面
 10
45.581157
 20
-111.19502
  0
SEQEND
  0
LINE
  8
型材断面
  6
CONTINUOUS
 10
80.73683
 20
-69.937453
 11
80.68683
 21
-69.937453
  0
LINE
  8
型材断面
  6
CONTINUOUS
 10
79.070162
 20
-69.437453
 11
79.070162
 21
-68.70412
  0
LINE
  8
型材断面
  6
CONTINUOUS
 62
    47
 10
80.469858
 20
-76.67062
 11
80.419858
 21
-76.67062
  0
LINE
  8
型材断面
  6
CONTINUOUS
 62
    47
 10
80.469858
 20
-76.67062
 11
80.469858
 21
-76.17062
  0
LINE
  8
型材断面
  6
CONTINUOUS
 10
79.119858
 20
-70.42062
 11
80.566525
 21
-70.42062
  0
LINE
  8
型材断面
  6
CONTINUOUS
 10
80.566525
 20
-70.87062
 11
80.566525
 21
-70.42062
  0
LINE
  8
型材断面
  6
CONTINUOUS
 62
    47
 10
81.299857
 20
-73.543312
 11
81.349857
 21
-73.543312
  0
LINE
  8
型材断面
  6
CONTINUOUS
 62
    47
 10
81.349857
 20
-73.543312
 11
81.349857
 21
-73.209977
  0
LINE
  8
型材断面
  6
CONTINUOUS
 62
    47
 10
81.349857
 20
-73.209977
 11
80.566525
 21
-73.109977
  0
LINE
  8
型材断面
  6
CONTINUOUS
 62
    47
 10
80.566525
 20
-72.703953
 11
80.566525
 21
-73.109977
  0
LINE
  8
型材断面
  6
CONTINUOUS
 62
    47
 10
81.036525
 20
-72.703953
 11
81.036525
 21
-70.87062
  0
LINE
  8
型材断面
  6
CONTINUOUS
 10
80.73683
 20
-69.937453
 11
80.73683
 21
-69.437453
  0
LINE
  8
型材断面
  6
CONTINUOUS
 10
79.119858
 20
-70.42062
 11
79.119858
 21
-69.937453
  0
LINE
  8
型材断面
  6
CONTINUOUS
 62
    47
 10
81.036525
 20
-76.17062
 11
81.036525
 21
-73.543312
  0
INSERT
  2
*GRP_0010
  8
型材断面
  6
DOT
 10
0.0
 20
0.0
  0
INSERT
  2
*GRP_0011
  8
型材断面
  6
DOT
 10
0.0
 20
0.0
  0
LINE
  8
型材断面
  6
CONTINUOUS
 10
81.036525
 20
-76.17062
 11
-20.92983
 21
-76.17062
  0
LINE
  8
型材断面
  6
CONTINUOUS
 10
80.469858
 20
-76.67062
 11
-20.92983
 21
-76.67062
  0
LINE
  8
型材断面
  6
CONTINUOUS
 10
81.349857
 20
-73.543312
 11
-20.92983
 21
-73.543312
  0
LINE
  8
型材断面
  6
CONTINUOUS
 10
81.349857
 20
-73.209977
 11
-20.92983
 21
-73.209977
  0
LINE
  8
型材断面
  6
CONTINUOUS
 10
80.566525
 20
-73.109977
 11
-20.92983
 21
-73.109977
  0
LINE
  8
型材断面
  6
CONTINUOUS
 10
81.036525
 20
-72.703953
 11
-20.92983
 21
-72.703953
  0
LINE
  8
型材断面
  6
CONTINUOUS
 10
80.73683
 20
-69.937453
 11
-20.92983
 21
-69.937453
  0
LINE
  8
型材断面
  6
CONTINUOUS
 10
79.070162
 20
-68.70412
 11
-20.92983
 21
-68.70412
  0
LINE
  8
型材断面
  6
CONTINUOUS
 10
80.73683
 20
-69.437453
 11
-20.92983
 21
-69.437453
  0
LINE
  8
型材断面
  6
CONTINUOUS
 10
80.566525
 20
-70.42062
 11
-20.92983
 21
-70.42062
  0
LINE
  8
型材断面
  6
CONTINUOUS
 10
81.036525
 20
-70.87062
 11
-20.92983
 21
-70.87062
  0
LINE
  8
型材断面
  6
CONTINUOUS
 10
78.23683
 20
50.619993
 11
79.070162
 21
50.619993
  0
LINE
  8
型材断面
  6
CONTINUOUS
 10
78.23683
 20
49.786658
 11
79.070162
 21
49.786658
  0
LINE
  8
型材断面
  6
CONTINUOUS
 10
78.23683
 20
64.369993
 11
81.349857
 21
67.48302
  0
LINE
  8
型材断面
  6
CONTINUOUS
 10
78.23683
 20
50.619993
 11
78.23683
 21
64.369993
  0
LINE
  8
型材断面
  6
CONTINUOUS
 10
78.23683
 20
36.036658
 11
81.349857
 21
32.92363
  0
LINE
  8
型材断面
  6
CONTINUOUS
 10
78.23683
 20
36.036658
 11
78.23683
 21
49.786658
  0
LINE
  8
型材断面
  6
DASHDOT
 10
79.070162
 20
-79.253555
 11
79.070162
 21
35.203325
  0
LINE
  8
型材断面
  6
CONTINUOUS
 10
79.070162
 20
35.203325
 11
79.070162
 21
65.203325
  0
LINE
  8
型材断面
  6
CONTINUOUS
 10
81.036525
 20
33.236962
 11
81.036525
 21
67.169687
  0
LINE
  8
型材断面
  6
CONTINUOUS
 10
81.349857
 20
32.92363
 11
81.349857
 21
67.48302
  0
LINE
  8
型材断面
  6
CONTINUOUS
 10
80.73683
 20
33.536658
 11
80.73683
 21
66.869993
  0
LINE
  8
型材断面
  6
CONTINUOUS
 10
-122.59649
 20
-69.937453
 11
-122.54649
 21
-69.937453
  0
LINE
  8
型材断面
  6
CONTINUOUS
 10
-120.929822
 20
-69.437453
 11
-120.929822
 21
-68.70412
  0
LINE
  8
型材断面
  6
CONTINUOUS
 62
    47
 10
-122.329518
 20
-76.67062
 11
-122.279518
 21
-76.67062
  0
LINE
  8
型材断面
  6
CONTINUOUS
 62
    47
 10
-122.329518
 20
-76.67062
 11
-122.329518
 21
-76.17062
  0
LINE
  8
型材断面
  6
CONTINUOUS
 10
-120.979518
 20
-70.42062
 11
-122.426185
 21
-70.42062
  0
LINE
  8
型材断面
  6
CONTINUOUS
 10
-122.426185
 20
-70.87062
 11
-122.426185
 21
-70.42062
  0
LINE
  8
型材断面
  6
CONTINUOUS
 62
    47
 10
-123.159518
 20
-73.543312
 11
-123.209518
 21
-73.543312
  0
LINE
  8
型材断面
  6
CONTINUOUS
 62
    47
 10
-123.209518
 20
-73.543312
 11
-123.209518
 21
-73.209977
  0
LINE
  8
型材断面
  6
CONTINUOUS
 62
    47
 10
-123.209518
 20
-73.209977
 11
-122.426185
 21
-73.109977
  0
LINE
  8
型材断面
  6
CONTINUOUS
 62
    47
 10
-122.426185
 20
-72.703953
 11
-122.426185
 21
-73.109977
  0
LINE
  8
型材断面
  6
CONTINUOUS
 62
    47
 10
-122.896185
 20
-72.703953
 11
-122.896185
 21
-70.87062
  0
LINE
  8
型材断面
  6
CONTINUOUS
 10
-122.59649
 20
-69.937453
 11
-122.59649
 21
-69.437453
  0
LINE
  8
型材断面
  6
CONTINUOUS
 10
-120.979518
 20
-70.42062
 11
-120.979518
 21
-69.937453
  0
LINE
  8
型材断面
  6
CONTINUOUS
 62
    47
 10
-122.896185
 20
-76.17062
 11
-122.896185
 21
-73.543312
  0
INSERT
  2
*GRP_0012
  8
型材断面
  6
DOT
 10
0.0
 20
0.0
  0
INSERT
  2
*GRP_0013
  8
型材断面
  6
DOT
 10
0.0
 20
0.0
  0
LINE
  8
型材断面
  6
CONTINUOUS
 10
-122.896185
 20
-76.17062
 11
-20.92983
 21
-76.17062
  0
LINE
  8
型材断面
  6
CONTINUOUS
 10
-122.329518
 20
-76.67062
 11
-20.92983
 21
-76.67062
  0
LINE
  8
型材断面
  6
CONTINUOUS
 10
-123.209518
 20
-73.543312
 11
-20.92983
 21
-73.543312
  0
LINE
  8
型材断面
  6
CONTINUOUS
 10
-123.209518
 20
-73.209977
 11
-20.92983
 21
-73.209977
  0
LINE
  8
型材断面
  6
CONTINUOUS
 10
-122.426185
 20
-73.109977
 11
-20.92983
 21
-73.109977
  0
LINE
  8
型材断面
  6
CONTINUOUS
 10
-122.896185
 20
-72.703953
 11
-20.92983
 21
-72.703953
  0
LINE
  8
型材断面
  6
CONTINUOUS
 10
-122.59649
 20
-69.937453
 11
-20.92983
 21
-69.937453
  0
LINE
  8
型材断面
  6
CONTINUOUS
 10
-120.929822
 20
-68.70412
 11
-20.92983
 21
-68.70412
  0
LINE
  8
型材断面
  6
CONTINUOUS
 10
-122.59649
 20
-69.437453
 11
-20.92983
 21
-69.437453
  0
LINE
  8
型材断面
  6
CONTINUOUS
 10
-122.426185
 20
-70.42062
 11
-20.92983
 21
-70.42062
  0
LINE
  8
型材断面
  6
CONTINUOUS
 10
-122.896185
 20
-70.87062
 11
-20.92983
 21
-70.87062
  0
LINE
  8
型材断面
  6
CONTINUOUS
 10
-120.09649
 20
49.786658
 11
-120.929822
 21
49.786658
  0
LINE
  8
型材断面
  6
CONTINUOUS
 10
-120.09649
 20
50.619993
 11
-120.929822
 21
50.619993
  0
LINE
  8
型材断面
  6
CONTINUOUS
 10
-120.09649
 20
64.369993
 11
-123.209518
 21
67.48302
  0
LINE
  8
型材断面
  6
CONTINUOUS
 10
-120.09649
 20
50.619993
 11
-120.09649
 21
64.369993
  0
LINE
  8
型材断面
  6
CONTINUOUS
 10
-120.09649
 20
36.036658
 11
-123.209518
 21
32.92363
  0
LINE
  8
型材断面
  6
CONTINUOUS
 10
-120.09649
 20
36.036658
 11
-120.09649
 21
49.786658
  0
LINE
  8
型材断面
  6
DASHDOT
 10
-120.929822
 20
-79.253555
 11
-120.929822
 21
35.203325
  0
LINE
  8
型材断面
  6
CONTINUOUS
 10
-120.929822
 20
35.203325
 11
-120.929822
 21
65.203325
  0
LINE
  8
型材断面
  6
CONTINUOUS
 10
-122.896185
 20
33.236962
 11
-122.896185
 21
67.169687
  0
LINE
  8
型材断面
  6
CONTINUOUS
 10
-123.209518
 20
32.92363
 11
-123.209518
 21
67.48302
  0
LINE
  8
型材断面
  6
CONTINUOUS
 10
-122.59649
 20
33.536658
 11
-122.59649
 21
66.869993
  0
LINE
  8
型材断面
  6
CONTINUOUS
 10
79.070162
 20
65.203325
 11
-120.929822
 21
65.203325
  0
LINE
  8
型材断面
  6
CONTINUOUS
 10
81.036525
 20
67.169687
 11
-122.896185
 21
67.169687
  0
LINE
  8
型材断面
  6
CONTINUOUS
 10
81.349857
 20
67.48302
 11
-123.209518
 21
67.48302
  0
LINE
  8
型材断面
  6
CONTINUOUS
 10
80.73683
 20
66.869993
 11
-122.59649
 21
66.869993
  0
LINE
  8
型材断面
  6
CONTINUOUS
 10
79.070162
 20
35.203325
 11
-120.929822
 21
35.203325
  0
LINE
  8
型材断面
  6
CONTINUOUS
 10
81.036525
 20
33.236962
 11
-122.896185
 21
33.236962
  0
LINE
  8
型材断面
  6
CONTINUOUS
 10
81.349857
 20
32.92363
 11
-123.209518
 21
32.92363
  0
LINE
  8
型材断面
  6
CONTINUOUS
 10
80.73683
 20
33.536658
 11
-122.59649
 21
33.536658
  0
LINE
  8
型材断面
  6
CONTINUOUS
 10
-86.573165
 20
36.86999
 11
-89.073165
 21
36.86999
  0
LINE
  8
型材断面
  6
CONTINUOUS
 10
-53.1265
 20
36.86999
 11
-55.6265
 21
36.86999
  0
LINE
  8
型材断面
  6
CONTINUOUS
 10
-19.67983
 20
36.86999
 11
-22.17983
 21
36.86999
  0
LINE
  8
型材断面
  6
CONTINUOUS
 10
-103.959825
 20
36.036658
 11
-103.959825
 21
35.203325
  0
LINE
  8
型材断面
  6
CONTINUOUS
 10
-104.79316
 20
36.036658
 11
-104.79316
 21
35.203325
  0
LINE
  8
型材断面
  6
CONTINUOUS
 10
-120.09649
 20
36.036658
 11
-104.79316
 21
36.036658
  0
LINE
  8
型材断面
  6
CONTINUOUS
 10
-70.683165
 20
36.036658
 11
-70.683165
 21
35.203325
  0
LINE
  8
型材断面
  6
CONTINUOUS
 10
-71.5165
 20
36.036658
 11
-71.5165
 21
35.203325
  0
LINE
  8
型材断面
  6
CONTINUOUS
 10
-37.236498
 20
36.036658
 11
-37.236498
 21
35.203325
  0
LINE
  8
型材断面
  6
CONTINUOUS
 10
-38.069833
 20
36.036658
 11
-38.069833
 21
35.203325
  0
LINE
  8
型材断面
  6
CONTINUOUS
 10
-103.959825
 20
36.036658
 11
-71.5165
 21
36.036658
  0
LINE
  8
型材断面
  6
CONTINUOUS
 10
-70.683165
 20
36.036658
 11
-38.069833
 21
36.036658
  0
LINE
  8
型材断面
  6
CONTINUOUS
 10
-86.573165
 20
63.53666
 11
-89.073165
 21
63.53666
  0
LINE
  8
型材断面
  6
CONTINUOUS
 10
-53.1265
 20
63.53666
 11
-55.6265
 21
63.53666
  0
LINE
  8
型材断面
  6
CONTINUOUS
 10
-19.67983
 20
63.53666
 11
-22.17983
 21
63.53666
  0
LINE
  8
型材断面
  6
CONTINUOUS
 10
-86.573165
 20
36.86999
 11
-86.573165
 21
63.53666
  0
LINE
  8
型材断面
  6
CONTINUOUS
 10
-87.573165
 20
36.86999
 11
-87.573165
 21
63.53666
  0
LINE
  8
型材断面
  6
CONTINUOUS
 10
-88.073165
 20
36.86999
 11
-88.073165
 21
63.53666
  0
LINE
  8
型材断面
  6
CONTINUOUS
 10
-89.073165
 20
36.86999
 11
-89.073165
 21
63.53666
  0
LINE
  8
型材断面
  6
CONTINUOUS
 10
-53.1265
 20
36.86999
 11
-53.1265
 21
63.53666
  0
LINE
  8
型材断面
  6
CONTINUOUS
 10
-54.6265
 20
36.86999
 11
-54.6265
 21
63.53666
  0
LINE
  8
型材断面
  6
CONTINUOUS
 10
-54.1265
 20
36.86999
 11
-54.1265
 21
63.53666
  0
LINE
  8
型材断面
  6
CONTINUOUS
 10
-55.6265
 20
36.86999
 11
-55.6265
 21
63.53666
  0
LINE
  8
型材断面
  6
CONTINUOUS
 10
-19.67983
 20
36.86999
 11
-19.67983
 21
63.53666
  0
LINE
  8
型材断面
  6
CONTINUOUS
 10
-20.67983
 20
36.86999
 11
-20.67983
 21
63.53666
  0
LINE
  8
型材断面
  6
CONTINUOUS
 10
-21.17983
 20
36.86999
 11
-21.17983
 21
63.53666
  0
LINE
  8
型材断面
  6
CONTINUOUS
 10
-22.17983
 20
36.86999
 11
-22.17983
 21
63.53666
  0
LINE
  8
型材断面
  6
DASHDOT
 10
-54.3765
 20
35.203325
 11
-54.3765
 21
65.203325
  0
LINE
  8
型材断面
  6
DASHDOT
 10
-87.823165
 20
35.203325
 11
-87.823165
 21
65.203325
  0
LINE
  8
型材断面
  6
CONTINUOUS
 10
44.713505
 20
36.86999
 11
47.213505
 21
36.86999
  0
LINE
  8
型材断面
  6
CONTINUOUS
 10
11.26684
 20
36.86999
 11
13.76684
 21
36.86999
  0
LINE
  8
型材断面
  6
CONTINUOUS
 10
62.100165
 20
36.036658
 11
62.100165
 21
35.203325
  0
LINE
  8
型材断面
  6
CONTINUOUS
 10
62.9335
 20
36.036658
 11
62.9335
 21
35.203325
  0
LINE
  8
型材断面
  6
CONTINUOUS
 10
78.23683
 20
36.036658
 11
62.9335
 21
36.036658
  0
LINE
  8
型材断面
  6
CONTINUOUS
 10
28.823505
 20
36.036658
 11
28.823505
 21
35.203325
  0
LINE
  8
型材断面
  6
CONTINUOUS
 10
29.65684
 20
36.036658
 11
29.65684
 21
35.203325
  0
LINE
  8
型材断面
  6
CONTINUOUS
 10
-4.623163
 20
36.036658
 11
-4.623163
 21
35.203325
  0
LINE
  8
型材断面
  6
CONTINUOUS
 10
-3.789827
 20
36.036658
 11
-3.789827
 21
35.203325
  0
LINE
  8
型材断面
  6
CONTINUOUS
 10
62.100165
 20
36.036658
 11
29.65684
 21
36.036658
  0
LINE
  8
型材断面
  6
CONTINUOUS
 10
28.823505
 20
36.036658
 11
-3.789827
 21
36.036658
  0
LINE
  8
型材断面
  6
CONTINUOUS
 10
44.713505
 20
63.53666
 11
47.213505
 21
63.53666
  0
LINE
  8
型材断面
  6
CONTINUOUS
 10
11.26684
 20
63.53666
 11
13.76684
 21
63.53666
  0
LINE
  8
型材断面
  6
CONTINUOUS
 10
44.713505
 20
36.86999
 11
44.713505
 21
63.53666
  0
LINE
  8
型材断面
  6
CONTINUOUS
 10
45.713505
 20
36.86999
 11
45.713505
 21
63.53666
  0
LINE
  8
型材断面
  6
CONTINUOUS
 10
46.213505
 20
36.86999
 11
46.213505
 21
63.53666
  0
LINE
  8
型材断面
  6
CONTINUOUS
 10
47.213505
 20
36.86999
 11
47.213505
 21
63.53666
  0
LINE
  8
型材断面
  6
CONTINUOUS
 10
11.26684
 20
36.86999
 11
11.26684
 21
63.53666
  0
LINE
  8
型材断面
  6
CONTINUOUS
 10
12.76684
 20
36.86999
 11
12.76684
 21
63.53666
  0
LINE
  8
型材断面
  6
CONTINUOUS
 10
12.26684
 20
36.86999
 11
12.26684
 21
63.53666
  0
LINE
  8
型材断面
  6
CONTINUOUS
 10
13.76684
 20
36.86999
 11
13.76684
 21
63.53666
  0
LINE
  8
型材断面
  6
DASHDOT
 10
12.51684
 20
35.203325
 11
12.51684
 21
65.203325
  0
LINE
  8
型材断面
  6
DASHDOT
 10
45.963505
 20
35.203325
 11
45.963505
 21
65.203325
  0
LINE
  8
型材断面
  6
CONTINUOUS
 10
-37.236498
 20
36.036658
 11
-4.623163
 21
36.036658
  0
LINE
  8
型材断面
  6
CONTINUOUS
 10
-103.959825
 20
64.369993
 11
-103.959825
 21
65.203325
  0
LINE
  8
型材断面
  6
CONTINUOUS
 10
-104.79316
 20
64.369993
 11
-104.79316
 21
65.203325
  0
LINE
  8
型材断面
  6
CONTINUOUS
 10
-120.09649
 20
64.369993
 11
-104.79316
 21
64.369993
  0
LINE
  8
型材断面
  6
CONTINUOUS
 10
-70.683165
 20
64.369993
 11
-70.683165
 21
65.203325
  0
LINE
  8
型材断面
  6
CONTINUOUS
 10
-71.5165
 20
64.369993
 11
-71.5165
 21
65.203325
  0
LINE
  8
型材断面
  6
CONTINUOUS
 10
-37.236498
 20
64.369993
 11
-37.236498
 21
65.203325
  0
LINE
  8
型材断面
  6
CONTINUOUS
 10
-38.069833
 20
64.369993
 11
-38.069833
 21
65.203325
  0
LINE
  8
型材断面
  6
CONTINUOUS
 10
-103.959825
 20
64.369993
 11
-71.5165
 21
64.369993
  0
LINE
  8
型材断面
  6
CONTINUOUS
 10
-70.683165
 20
64.369993
 11
-38.069833
 21
64.369993
  0
LINE
  8
型材断面
  6
CONTINUOUS
 10
62.100165
 20
64.369993
 11
62.100165
 21
65.203325
  0
LINE
  8
型材断面
  6
CONTINUOUS
 10
62.9335
 20
64.369993
 11
62.9335
 21
65.203325
  0
LINE
  8
型材断面
  6
CONTINUOUS
 10
78.23683
 20
64.369993
 11
62.9335
 21
64.369993
  0
LINE
  8
型材断面
  6
CONTINUOUS
 10
28.823505
 20
64.369993
 11
28.823505
 21
65.203325
  0
LINE
  8
型材断面
  6
CONTINUOUS
 10
29.65684
 20
64.369993
 11
29.65684
 21
65.203325
  0
LINE
  8
型材断面
  6
CONTINUOUS
 10
-4.623163
 20
64.369993
 11
-4.623163
 21
65.203325
  0
LINE
  8
型材断面
  6
CONTINUOUS
 10
-3.789827
 20
64.369993
 11
-3.789827
 21
65.203325
  0
LINE
  8
型材断面
  6
CONTINUOUS
 10
62.100165
 20
64.369993
 11
29.65684
 21
64.369993
  0
LINE
  8
型材断面
  6
CONTINUOUS
 10
28.823505
 20
64.369993
 11
-3.789827
 21
64.369993
  0
LINE
  8
型材断面
  6
CONTINUOUS
 10
-37.236498
 20
64.369993
 11
-4.623163
 21
64.369993
  0
POLYLINE
  8
型材断面
  6
CONTINUOUS
 66
     1
 70
     1
  0
VERTEX
  8
型材断面
 10
-11.52982
 20
25.427403
  0
VERTEX
  8
型材断面
 10
-30.30175
 20
25.427403
  0
VERTEX
  8
型材断面
 10
-30.30175
 20
20.69056
  0
VERTEX
  8
型材断面
 10
-11.52982
 20
20.69056
  0
SEQEND
  0
POLYLINE
  8
型材断面
  6
CONTINUOUS
 66
     1
 70
     1
  0
VERTEX
  8
型材断面
 10
-11.52982
 20
74.979248
  0
VERTEX
  8
型材断面
 10
-30.30175
 20
74.979248
  0
VERTEX
  8
型材断面
 10
-30.30175
 20
79.71609
  0
VERTEX
  8
型材断面
 10
-11.52982
 20
79.71609
  0
SEQEND
  0
LINE
  8
型材断面
  6
CONTINUOUS
 10
-104.263162
 20
67.833455
 11
-105.758792
 21
70.423963
  0
LINE
  8
型材断面
  6
CONTINUOUS
 10
-104.263162
 20
67.833455
 11
-102.767533
 21
70.423963
  0
LINE
  8
型材断面
  6
CONTINUOUS
 10
-102.767533
 20
70.423963
 11
-105.758792
 21
70.423963
  0
LINE
  8
型材断面
  6
CONTINUOUS
 10
-161.782038
 20
103.180797
 11
-161.185982
 21
100.59029
  0
LINE
  8
型材断面
  6
CONTINUOUS
 10
-161.782038
 20
103.180797
 11
-162.378095
 21
100.59029
  0
LINE
  8
型材断面
  6
CONTINUOUS
 10
-162.378095
 20
100.59029
 11
-161.185982
 21
100.59029
  0
LINE
  8
型材断面
  6
CONTINUOUS
 10
-167.804625
 20
97.311398
 11
-121.562848
 21
97.311398
  0
LINE
  8
型材断面
  6
CONTINUOUS
 10
-161.782038
 20
109.710672
 11
-163.277668
 21
107.120165
  0
LINE
  8
型材断面
  6
CONTINUOUS
 10
-161.782038
 20
109.710672
 11
-160.286408
 21
107.120165
  0
LINE
  8
型材断面
  6
CONTINUOUS
 10
-160.286408
 20
107.120165
 11
-163.277668
 21
107.120165
  0
LINE
  8
型材断面
  6
CONTINUOUS
 10
-167.804625
 20
106.18157
 11
-121.562848
 21
106.18157
  0
LINE
  8
型材断面
  6
CONTINUOUS
 10
-167.804625
 20
91.523365
 11
-121.562848
 21
91.523365
  0
LINE
  8
型材断面
  6
CONTINUOUS
 10
-123.55996
 20
50.203325
 11
-126.150468
 21
51.698955
  0
LINE
  8
型材断面
  6
CONTINUOUS
 10
-123.55996
 20
50.203325
 11
-126.150468
 21
48.707695
  0
LINE
  8
型材断面
  6
CONTINUOUS
 10
-126.150468
 20
48.707695
 11
-126.150468
 21
51.698955
  0
LINE
  8
型材断面
  6
CONTINUOUS
 10
-104.263162
 20
32.573195
 11
-105.758792
 21
29.982688
  0
LINE
  8
型材断面
  6
CONTINUOUS
 10
-104.263162
 20
32.573195
 11
-102.767533
 21
29.982688
  0
LINE
  8
型材断面
  6
CONTINUOUS
 10
-102.767533
 20
29.982688
 11
-105.758792
 21
29.982688
  0
LINE
  8
型材断面
  6
CONTINUOUS
 10
62.403502
 20
67.833455
 11
63.899133
 21
70.423963
  0
LINE
  8
型材断面
  6
CONTINUOUS
 10
62.403502
 20
67.833455
 11
60.907872
 21
70.423963
  0
LINE
  8
型材断面
  6
CONTINUOUS
 10
60.907872
 20
70.423963
 11
63.899133
 21
70.423963
  0
LINE
  8
型材断面
  6
CONTINUOUS
 10
62.403502
 20
32.573195
 11
63.899133
 21
29.982688
  0
LINE
  8
型材断面
  6
CONTINUOUS
 10
62.403502
 20
32.573195
 11
60.907872
 21
29.982688
  0
LINE
  8
型材断面
  6
CONTINUOUS
 10
60.907872
 20
29.982688
 11
63.899133
 21
29.982688
  0
LINE
  8
型材断面
  6
CONTINUOUS
 10
-20.92983
 20
67.833453
 11
-19.4342
 21
70.42396
  0
LINE
  8
型材断面
  6
CONTINUOUS
 10
-20.92983
 20
67.833453
 11
-22.42546
 21
70.42396
  0
LINE
  8
型材断面
  6
CONTINUOUS
 10
-22.42546
 20
70.42396
 11
-19.4342
 21
70.42396
  0
LINE
  8
型材断面
  6
CONTINUOUS
 10
-20.92983
 20
32.573193
 11
-19.4342
 21
29.982685
  0
LINE
  8
型材断面
  6
CONTINUOUS
 10
-20.92983
 20
32.573193
 11
-22.42546
 21
29.982685
  0
LINE
  8
型材断面
  6
CONTINUOUS
 10
-22.42546
 20
29.982685
 11
-19.4342
 21
29.982685
  0
LINE
  8
型材断面
  6
CONTINUOUS
 10
81.7003
 20
50.203325
 11
84.290807
 21
51.698955
  0
LINE
  8
型材断面
  6
CONTINUOUS
 10
81.7003
 20
50.203325
 11
84.290807
 21
48.707695
  0
LINE
  8
型材断面
  6
CONTINUOUS
 10
84.290807
 20
48.707695
 11
84.290807
 21
51.698955
  0
LINE
  8
型材断面
  6
CONTINUOUS
 10
81.700297
 20
61.303325
 11
84.290805
 21
60.707267
  0
LINE
  8
型材断面
  6
CONTINUOUS
 10
81.700297
 20
61.303325
 11
84.290805
 21
61.899382
  0
LINE
  8
型材断面
  6
CONTINUOUS
 10
84.290805
 20
61.899382
 11
84.290805
 21
60.707267
  0
LINE
  8
型材断面
  6
CONTINUOUS
 10
81.700297
 20
39.103325
 11
84.290805
 21
39.699382
  0
LINE
  8
型材断面
  6
CONTINUOUS
 10
81.700297
 20
39.103325
 11
84.290805
 21
38.507267
  0
LINE
  8
型材断面
  6
CONTINUOUS
 10
84.290805
 20
38.507267
 11
84.290805
 21
39.699382
  0
LINE
  8
型材断面
  6
CONTINUOUS
 10
-123.559958
 20
61.303325
 11
-126.150465
 21
60.707267
  0
LINE
  8
型材断面
  6
CONTINUOUS
 10
-123.559958
 20
61.303325
 11
-126.150465
 21
61.899382
  0
LINE
  8
型材断面
  6
CONTINUOUS
 10
-126.150465
 20
61.899382
 11
-126.150465
 21
60.707267
  0
LINE
  8
型材断面
  6
CONTINUOUS
 10
-123.559958
 20
39.103325
 11
-126.150465
 21
39.699382
  0
LINE
  8
型材断面
  6
CONTINUOUS
 10
-123.559958
 20
39.103325
 11
-126.150465
 21
38.507267
  0
LINE
  8
型材断面
  6
CONTINUOUS
 10
-126.150465
 20
38.507267
 11
-126.150465
 21
39.699382
  0
LINE
  8
型材断面
  6
CONTINUOUS
 10
-167.804625
 20
85.735332
 11
-121.562848
 21
85.735332
  0
LINE
  8
型材断面
  6
DASHDOT
 10
172.29227
 20
35.203325
 11
79.070162
 21
35.203325
  0
LINE
  8
型材断面
  6
DASHDOT
 10
172.29227
 20
65.203325
 11
79.070162
 21
65.203325
  0
LINE
  8
型材断面
  6
DASHDOT
 10
172.29227
 20
50.203325
 11
-120.929822
 21
50.203325
  0
INSERT
  2
*GRP_0028
  8
型材断面
  6
DOT
 10
0.0
 20
0.0
  0
INSERT
  2
*GRP_0034
  8
型材断面
  6
CONTINUOUS
 10
0.0
 20
0.0
  0
INSERT
  2
*GRP_0035
  8
型材断面
  6
CONTINUOUS
 10
0.0
 20
0.0
  0
INSERT
  2
*GRP_0036
  8
型材断面
  6
CONTINUOUS
 10
0.0
 20
0.0
  0
INSERT
  2
*GRP_0037
  8
型材断面
  6
CONTINUOUS
 10
0.0
 20
0.0
  0
INSERT
  2
*GRP_0038
  8
型材断面
  6
CONTINUOUS
 10
0.0
 20
0.0
  0
INSERT
  2
*GRP_0039
  8
型材断面
  6
CONTINUOUS
 10
0.0
 20
0.0
  0
LINE
  8
型材断面
  6
CONTINUOUS
 10
133.30376
 20
-25.317478
 11
152.413163
 21
-25.317478
  0
POLYLINE
  8
ガラス
  6
CONTINUOUS
 66
     1
 70
     1
  0
VERTEX
  8
ガラス
 10
168.963907
 20
-44.15883
  0
VERTEX
  8
ガラス
 10
136.863907
 20
-44.15883
  0
VERTEX
  8
ガラス
 10
136.863907
 20
-73.492162
  0
VERTEX
  8
ガラス
 10
168.963907
 20
-73.492162
  0
SEQEND
  0
TEXT
  7
TextStyle03
  8
文字
  6
CONTINUOUS
 10
78.1
 20
125.25
  1
シリーズ：ＳＴＤＬ
 40
5.0
 72
     5
 11
128.1
 21
125.25
  0
TEXT
  7
TextStyle03
  8
文字
  6
CONTINUOUS
 10
78.1
 20
119.625
  1
　　　　　（上下可動）900×6000タイプ
 40
5.0
 72
     5
 11
181.5375
 21
119.625
  0
TEXT
  7
TextStyle03
  8
文字
  6
CONTINUOUS
 10
78.1
 20
114.0
  1
図面名　：外観姿図
 40
5.0
 72
     5
 11
128.1
 21
114.0
  0
TEXT
  7
TextStyle03
  8
文字
  6
CONTINUOUS
 10
78.1
 20
108.375
  1
　　　　　　
 40
5.0
 72
     5
 11
111.225
 21
108.375
  0
TEXT
  7
TextStyle03
  8
文字
  6
CONTINUOUS
 10
1.2
 20
-100.575
  1
※トップライト枠高さ寸法
 40
3.0
 72
     5
 11
41.325
 21
-100.575
  0
TEXT
  7
TextStyle03
  8
文字
  6
CONTINUOUS
 10
1.2
 20
-103.95
  1
　シングルガラス：214
 40
3.0
 72
     5
 11
36.45
 21
-103.95
  0
TEXT
  7
TextStyle03
  8
文字
  6
CONTINUOUS
 10
1.2
 20
-107.325
  1
　ペアガラス：224
 40
3.0
 72
     5
 11
29.7
 21
-107.325
  0
TEXT
  7
TextStyle03
  8
文字
  6
CONTINUOUS
 10
-29.225
 20
21.725
  1
可動装置側
 40
3.0
 72
     5
 11
-12.725
 21
21.725
  0
TEXT
  7
TextStyle03
  8
文字
  6
CONTINUOUS
 10
-29.225
 20
75.675
  1
可動装置側
 40
3.0
 72
     5
 11
-12.725
 21
75.675
  0
TEXT
  7
TextStyle03
  8
文字
  6
CONTINUOUS
 10
-158.975
 20
101.8
  1
はケーシング位置を示す
 40
3.0
 72
     5
 11
-122.225
 21
101.8
  0
TEXT
  7
TextStyle03
  8
文字
  6
CONTINUOUS
 10
-158.975
 20
98.425
  1
４ヶ所中1ヶ所に設定
 40
3.0
 72
     5
 11
-127.2875
 21
98.425
  0
TEXT
  7
TextStyle03
  8
文字
  6
CONTINUOUS
 10
-158.975
 20
107.325
  1
は排水穴位置を示す
 40
3.0
 72
     5
 11
-128.975
 21
107.325
  0
TEXT
  7
TextStyle03
  8
文字
  6
CONTINUOUS
 10
-141.9
 20
28.675
  1
アンカーピッチ
 40
3.0
 50
90.0
 72
     5
 11
-141.9
 21
51.925
  0
TEXT
  7
TextStyle03
  8
文字
  6
CONTINUOUS
 10
-107.5
 20
102.35
  1
アンカーピッチ
 40
3.0
 72
     5
 11
-84.25
 21
102.35
  0
TEXT
  7
TextStyle03
  8
文字
  6
CONTINUOUS
 10
-162.7
 20
92.45
  1
アンカー数量　２２ヶ所
 40
3.0
 72
     5
 11
-125.95
 21
92.45
  0
TEXT
  7
TextStyle03
  8
文字
  6
CONTINUOUS
 10
-162.75
 20
86.675
  1
アームユニット数　４～６ヶ所
 40
3.0
 72
     5
 11
-115.875
 21
86.675
  0
TEXT
  7
TextStyle03
  8
文字
  6
CONTINUOUS
 10
-167.675
 20
81.725
  1
※重量に依るのでご相談ください
 40
3.0
 72
     5
 11
-117.425
 21
81.725
  0
TEXT
  7
TextStyle03
  8
文字
  6
CONTINUOUS
 10
135.1
 20
-24.575
  1
ガラス寸法
 40
3.0
 72
     5
 11
151.6
 21
-24.575
  0
TEXT
  7
TextStyle03
  8
文字
  6
CONTINUOUS
 10
155.7
 20
-71.375
  1
×６枚
 40
3.0
 72
     5
 11
165.45
 21
-71.375
  0
INSERT
  2
*DIM_0006
  8
寸法
  6
CONTINUOUS
 10
0.0
 20
0.0
  0
INSERT
  2
*DIM_0007
  8
寸法
  6
CONTINUOUS
 10
0.0
 20
0.0
  0
INSERT
  2
*DIM_0008
  8
寸法
  6
CONTINUOUS
 10
0.0
 20
0.0
  0
INSERT
  2
*DIM_0009
  8
寸法
  6
CONTINUOUS
 10
0.0
 20
0.0
  0
INSERT
  2
*DIM_0014
  8
寸法
  6
CONTINUOUS
 10
0.0
 20
0.0
  0
INSERT
  2
*DIM_0015
  8
寸法
  6
CONTINUOUS
 10
0.0
 20
0.0
  0
INSERT
  2
*DIM_0016
  8
寸法
  6
CONTINUOUS
 10
0.0
 20
0.0
  0
INSERT
  2
*DIM_0017
  8
寸法
  6
CONTINUOUS
 10
0.0
 20
0.0
  0
INSERT
  2
*DIM_0018
  8
寸法
  6
CONTINUOUS
 10
0.0
 20
0.0
  0
INSERT
  2
*DIM_0019
  8
寸法
  6
CONTINUOUS
 10
0.0
 20
0.0
  0
INSERT
  2
*DIM_0020
  8
寸法
  6
CONTINUOUS
 10
0.0
 20
0.0
  0
INSERT
  2
*DIM_0021
  8
寸法
  6
CONTINUOUS
 10
0.0
 20
0.0
  0
INSERT
  2
*DIM_0022
  8
寸法
  6
CONTINUOUS
 10
0.0
 20
0.0
  0
INSERT
  2
*DIM_0023
  8
寸法
  6
CONTINUOUS
 10
0.0
 20
0.0
  0
INSERT
  2
*DIM_0024
  8
寸法
  6
CONTINUOUS
 10
0.0
 20
0.0
  0
INSERT
  2
*DIM_0025
  8
寸法
  6
CONTINUOUS
 10
0.0
 20
0.0
  0
INSERT
  2
*DIM_0026
  8
寸法
  6
CONTINUOUS
 10
0.0
 20
0.0
  0
INSERT
  2
*DIM_0027
  8
寸法
  6
CONTINUOUS
 10
0.0
 20
0.0
  0
INSERT
  2
*DIM_0033
  8
寸法
  6
CONTINUOUS
 10
0.0
 20
0.0
  0
INSERT
  2
*DIM_0040
  8
寸法
  6
CONTINUOUS
 10
0.0
 20
0.0
  0
INSERT
  2
*DIM_0041
  8
寸法
  6
CONTINUOUS
 10
0.0
 20
0.0
  0
INSERT
  2
*DIM_0042
  8
寸法
  6
CONTINUOUS
 10
0.0
 20
0.0
  0
INSERT
  2
*DIM_0043
  8
寸法
  6
CONTINUOUS
 10
0.0
 20
0.0
  0
INSERT
  2
*DIM_0044
  8
寸法
  6
CONTINUOUS
 10
0.0
 20
0.0
  0
LINE
  8
曲げ物
  6
CONTINUOUS
 10
63.7959
 20
52.406972
 11
60.100588
 21
48.71166
  0
LINE
  8
曲げ物
  6
CONTINUOUS
 10
63.09243
 20
50.870862
 11
61.6367
 21
49.415133
  0
LINE
  8
曲げ物
  6
CONTINUOUS
 10
62.25979
 20
51.703502
 11
60.80406
 21
50.247773
  0
LINE
  8
曲げ物
  6
CONTINUOUS
 10
31.1686
 20
52.406972
 11
27.473287
 21
48.71166
  0
LINE
  8
曲げ物
  6
CONTINUOUS
 10
30.46513
 20
50.870862
 11
29.0094
 21
49.415133
  0
LINE
  8
曲げ物
  6
CONTINUOUS
 10
29.63249
 20
51.703502
 11
28.17676
 21
50.247773
  0
LINE
  8
曲げ物
  6
CONTINUOUS
 10
-1.78385
 20
52.406972
 11
-5.479162
 21
48.71166
  0
LINE
  8
曲げ物
  6
CONTINUOUS
 10
-2.48732
 20
50.870862
 11
-3.94305
 21
49.415133
  0
LINE
  8
曲げ物
  6
CONTINUOUS
 10
-3.31996
 20
51.703502
 11
-4.77569
 21
50.247773
  0
LINE
  8
曲げ物
  6
CONTINUOUS
 10
-35.164253
 20
52.406972
 11
-38.859565
 21
48.71166
  0
LINE
  8
曲げ物
  6
CONTINUOUS
 10
-35.867723
 20
50.870862
 11
-37.323452
 21
49.415133
  0
LINE
  8
曲げ物
  6
CONTINUOUS
 10
-36.700363
 20
51.703502
 11
-38.156092
 21
50.247773
  0
LINE
  8
曲げ物
  6
CONTINUOUS
 10
-68.117782
 20
52.406972
 11
-71.813095
 21
48.71166
  0
LINE
  8
曲げ物
  6
CONTINUOUS
 10
-68.821252
 20
50.870862
 11
-70.276983
 21
49.415133
  0
LINE
  8
曲げ物
  6
CONTINUOUS
 10
-69.653892
 20
51.703502
 11
-71.109623
 21
50.247773
  0
LINE
  8
曲げ物
  6
CONTINUOUS
 10
-101.78349
 20
52.406972
 11
-105.478802
 21
48.71166
  0
LINE
  8
曲げ物
  6
CONTINUOUS
 10
-102.48696
 20
50.870862
 11
-103.94269
 21
49.415133
  0
LINE
  8
曲げ物
  6
CONTINUOUS
 10
-103.3196
 20
51.703502
 11
-104.77533
 21
50.247773
  0
ENDSEC
  0
EOF
