  0
SECTION
  2
HEADER
  9
$EXTMIN
 10
-210.0
 20
-148.5
  9
$EXTMAX
 10
210.0
 20
148.5
  9
$PDMODE
 70
    32
  9
$PDSIZE
 40
1.5
  9
$LTSCALE
 40
10.0
  0
ENDSEC
  0
SECTION
  2
TABLES
  0
TABLE
  2
LTYPE
 70
    15
  0
LTYPE
  2
CONTINUOUS
 70
    64
  3
実線
 72
    65
 73
     0
 40
0.0
  0
LTYPE
  2
DASHED
 70
    64
  3
破線A
 72
    65
 73
     2
 40
0.6
 49
0.4
 49
-0.2
  0
LTYPE
  2
DASHEDX2
 70
    64
  3
破線B
 72
    65
 73
     2
 40
1.3
 49
0.9
 49
-0.4
  0
LTYPE
  2
DASHDOT
 70
    64
  3
１点鎖線A
 72
    65
 73
     4
 40
0.5375
 49
0.375
 49
-0.05
 49
0.0625
 49
-0.05
  0
LTYPE
  2
DASHDOTX2
 70
    64
  3
１点鎖線B
 72
    65
 73
     4
 40
1.075
 49
0.75
 49
-0.1
 49
0.125
 49
-0.1
  0
LTYPE
  2
DIVIDE2
 70
    64
  3
２点鎖線A
 72
    65
 73
     6
 40
0.5125
 49
0.3
 49
-0.0375
 49
0.05
 49
-0.0375
 49
0.05
 49
-0.0375
  0
LTYPE
  2
DIVIDE
 70
    64
  3
２点鎖線B
 72
    65
 73
     6
 40
1.05
 49
0.55
 49
-0.1
 49
0.1
 49
-0.1
 49
0.1
 49
-0.1
  0
LTYPE
  2
DOT
 70
    64
  3
点線A
 72
    65
 73
     2
 40
0.1125
 49
0.0625
 49
-0.05
  0
LTYPE
  2
DOTX2
 70
    64
  3
点線B
 72
    65
 73
     2
 40
0.275
 49
0.15
 49
-0.125
  0
LTYPE
  2
CONTINUOUS
 70
    64
  3
実線
 72
    65
 73
     0
 40
0.0
  0
LTYPE
  2
CONTINUOUS
 70
    64
  3
実線
 72
    65
 73
     0
 40
0.0
  0
LTYPE
  2
CONTINUOUS
 70
    64
  3
実線
 72
    65
 73
     0
 40
0.0
  0
LTYPE
  2
CONTINUOUS
 70
    64
  3
実線
 72
    65
 73
     0
 40
0.0
  0
LTYPE
  2
CONTINUOUS
 70
    64
  3
実線
 72
    65
 73
     0
 40
0.0
  0
LTYPE
  2
CONTINUOUS
 70
    64
  3
実線
 72
    65
 73
     0
 40
0.0
  0
ENDTAB
  0
TABLE
  2
LAYER
 70
    34
  0
LAYER
  2
通り芯
 70
     0
 62
    15
  6
CONTINUOUS
  0
LAYER
  2
補助線
 70
     0
 62
    16
  6
DOT
  0
LAYER
  2
躯体
 70
     0
 62
    31
  6
CONTINUOUS
  0
LAYER
  2
型材
 70
     0
 62
    32
  6
CONTINUOUS
  0
LAYER
  2
型材断面
 70
     0
 62
    47
  6
CONTINUOUS
  0
LAYER
  2
ガラス
 70
     0
 62
    48
  6
CONTINUOUS
  0
LAYER
  2
ゴム等
 70
     0
 62
    63
  6
CONTINUOUS
  0
LAYER
  2
ボルト／ビス
 70
     0
 62
    64
  6
CONTINUOUS
  0
LAYER
  2
文字
 70
     0
 62
    79
  6
CONTINUOUS
  0
LAYER
  2
寸法
 70
     0
 62
    80
  6
CONTINUOUS
  0
LAYER
  2
ﾊｯﾁﾝｸﾞ
 70
     0
 62
    95
  6
CONTINUOUS
  0
LAYER
  2
別途部材
 70
     0
 62
    96
  6
CONTINUOUS
  0
LAYER
  2
曲げ物
 70
     0
 62
   111
  6
CONTINUOUS
  0
LAYER
  2
鉄骨等
 70
     0
 62
   112
  6
CONTINUOUS
  0
LAYER
  2
St
 70
     0
 62
   127
  6
CONTINUOUS
  0
LAYER
  2
その他部品等
 70
     0
 62
   128
  6
CONTINUOUS
  0
LAYER
  2
ｶﾞｽｹｯﾄ
 70
     0
 62
   143
  6
CONTINUOUS
  0
LAYER
  2
ｽｹｯﾁ
 70
     0
 62
    14
  6
CONTINUOUS
  0
LAYER
  2
0
 70
     0
 62
    17
  6
CONTINUOUS
  0
LAYER
  2
1
 70
     0
 62
    30
  6
CONTINUOUS
  0
LAYER
  2
4
 70
     0
 62
    33
  6
CONTINUOUS
  0
LAYER
  2
ﾚｲﾔ3
 70
     0
 62
    46
  6
CONTINUOUS
  0
LAYER
  2
外形線
 70
     0
 62
    49
  6
CONTINUOUS
  0
LAYER
  2
部品
 70
     0
 62
    14
  6
CONTINUOUS
  0
LAYER
  2
サッシ芯
 70
     0
 62
    17
  6
DASHDOTX2
  0
LAYER
  2
寸法線
 70
     0
 62
    62
  6
CONTINUOUS
  0
LAYER
  2
姿図外形線
 70
     0
 62
    65
  6
CONTINUOUS
  0
LAYER
  2
姿補助線
 70
     0
 62
    30
  6
CONTINUOUS
  0
LAYER
  2
透視線
 70
     0
 62
    78
  6
DOT
  0
LAYER
  2
用紙
 70
     0
 62
    81
  6
CONTINUOUS
  0
LAYER
  2
実線図枠
 70
     0
 62
    94
  6
CONTINUOUS
  0
LAYER
  2
補助図枠
 70
     0
 62
    97
  6
CONTINUOUS
  0
LAYER
  2
建具記号
 70
     0
 62
   110
  6
CONTINUOUS
  0
LAYER
  2
補助文字
 70
     0
 62
   113
  6
CONTINUOUS
  0
ENDTAB
  0
TABLE
  2
STYLE
 70
    10
  0
STYLE
  2
STANDARD
 70
     0
 40
1.0
 41
1.0
 42
1.0
 50
0.0
 71
     0
  3
TXT
  4
BIGFONT
  0
STYLE
  2
TATE
 70
     4
 40
1.0
 41
1.0
 42
1.0
 50
0.0
 71
     0
  3
TXT
  4
BIGFONT
  0
STYLE
  2
TextStyle03
 70
     0
 40
1.0
 41
1.0
 42
1.0
 50
0.0
 71
     0
  3
MONOTXT
  4
BIGFONT
  0
STYLE
  2
TextStyle04
 70
     0
 40
1.0
 41
1.0
 42
1.0
 50
0.0
 71
     0
  3
MONOTXT
  4
BIGFONT
  0
STYLE
  2
TextStyle05
 70
     0
 40
1.0
 41
1.0
 42
1.0
 50
0.0
 71
     0
  3
MONOTXT
  4
BIGFONT
  0
STYLE
  2
TextStyle06
 70
     0
 40
1.0
 41
1.0
 42
1.0
 50
0.0
 71
     0
  3
MONOTXT
  4
BIGFONT
  0
STYLE
  2
TextStyle07
 70
     0
 40
1.0
 41
1.0
 42
1.0
 50
0.0
 71
     0
  3
MONOTXT
  4
BIGFONT
  0
STYLE
  2
TextStyle08
 70
     0
 40
1.0
 41
1.0
 42
1.0
 50
0.0
 71
     0
  3
MONOTXT
  4
BIGFONT
  0
STYLE
  2
TextStyle09
 70
     0
 40
1.0
 41
1.0
 42
1.0
 50
0.0
 71
     0
  3
MONOTXT
  4
BIGFONT
  0
STYLE
  2
TextStyle10
 70
     0
 40
1.0
 41
1.0
 42
1.0
 50
0.0
 71
     0
  3
MONOTXT
  4
BIGFONT
  0
ENDTAB
  0
ENDSEC
  0
SECTION
  2
BLOCKS
  0
BLOCK
  2
*GRP_0001
 70
    65
 10
0.0
 20
0.0
  0
LINE
  8
型材断面
  6
CONTINUOUS
 10
195.0
 20
133.5
 11
195.0
 21
-133.5
  0
LINE
  8
型材断面
  6
CONTINUOUS
 10
195.0
 20
-133.5
 11
-185.0
 21
-133.5
  0
LINE
  8
型材断面
  6
CONTINUOUS
 10
-185.0
 20
-133.5
 11
-185.0
 21
133.5
  0
LINE
  8
型材断面
  6
CONTINUOUS
 10
195.0
 20
133.5
 11
-185.0
 21
133.5
  0
LINE
  8
型材断面
  6
CONTINUOUS
 10
145.0
 20
-133.5
 11
145.0
 21
-118.5
  0
LINE
  8
型材断面
  6
CONTINUOUS
 10
195.0
 20
-118.5
 11
145.0
 21
-118.5
  0
ENDBLK
  0
BLOCK
  2
*GRP_0002
 70
    65
 10
0.0
 20
0.0
  0
INSERT
  2
M8横
  8
ゴム等
  6
CONTINUOUS
 10
163.336003
 20
66.029685
 50
270.0
 41
0.033333
 42
-0.033333
  0
LINE
  8
ボルト／ビス
  6
CONTINUOUS
 10
163.126005
 20
65.896352
 11
163.109338
 21
65.91302
  0
LINE
  8
ボルト／ビス
  6
CONTINUOUS
 10
163.109338
 20
66.146352
 11
163.126005
 21
66.16302
  0
LINE
  8
ボルト／ビス
  6
CONTINUOUS
 10
163.126005
 20
66.16302
 11
163.126005
 21
65.896352
  0
LINE
  8
ボルト／ビス
  6
CONTINUOUS
 10
163.109338
 20
66.146352
 11
163.109338
 21
65.91302
  0
LINE
  8
ボルト／ビス
  6
CONTINUOUS
 10
163.109338
 20
65.91302
 11
163.15267
 21
65.91302
  0
LINE
  8
ボルト／ビス
  6
CONTINUOUS
 10
163.126005
 20
65.896352
 11
163.15267
 21
65.896352
  0
LINE
  8
ボルト／ビス
  6
CONTINUOUS
 10
163.126005
 20
66.16302
 11
163.15267
 21
66.16302
  0
LINE
  8
ボルト／ビス
  6
CONTINUOUS
 10
163.109338
 20
66.146352
 11
163.15267
 21
66.146352
  0
LINE
  8
ボルト／ビス
  6
CONTINUOUS
 10
163.336003
 20
66.396352
 11
163.336003
 21
65.66302
  0
LINE
  8
ボルト／ビス
  6
CONTINUOUS
 10
163.376002
 20
65.61302
 11
163.459335
 21
65.61302
  0
LINE
  8
ボルト／ビス
  6
CONTINUOUS
 10
163.459335
 20
65.61302
 11
163.459335
 21
66.446352
  0
LINE
  8
ボルト／ビス
  6
CONTINUOUS
 10
163.459335
 20
66.446352
 11
163.376002
 21
66.446352
  0
LINE
  8
ボルト／ビス
  6
CONTINUOUS
 10
163.376002
 20
65.61302
 11
163.376002
 21
66.446352
  0
LINE
  8
ボルト／ビス
  6
CONTINUOUS
 10
163.336003
 20
66.396352
 11
163.376002
 21
66.396352
  0
LINE
  8
ボルト／ビス
  6
CONTINUOUS
 10
163.336003
 20
65.66302
 11
163.376002
 21
65.66302
  0
LINE
  8
ボルト／ビス
  6
CONTINUOUS
 10
163.386002
 20
66.029685
 11
163.336003
 21
66.029685
  0
ENDBLK
  0
BLOCK
  2
*GRP_0003
 70
    65
 10
0.0
 20
0.0
  0
LINE
  8
ボルト／ビス
  6
CONTINUOUS
 10
162.47617
 20
66.236355
 11
162.409503
 21
66.236355
  0
LINE
  8
ボルト／ビス
  6
CONTINUOUS
 10
162.409503
 20
66.236355
 11
162.409503
 21
65.50302
  0
LINE
  8
ボルト／ビス
  6
CONTINUOUS
 10
162.409503
 20
65.50302
 11
162.47617
 21
65.50302
  0
LINE
  8
ボルト／ビス
  6
CONTINUOUS
 10
162.47617
 20
66.236355
 11
162.47617
 21
65.50302
  0
LINE
  8
ボルト／ビス
  6
CONTINUOUS
 10
162.37617
 20
66.169687
 11
162.409503
 21
66.169687
  0
LINE
  8
ボルト／ビス
  6
CONTINUOUS
 10
162.37617
 20
66.169687
 11
162.37617
 21
65.569687
  0
LINE
  8
ボルト／ビス
  6
CONTINUOUS
 10
162.37617
 20
65.569687
 11
162.409503
 21
65.569687
  0
LINE
  8
ボルト／ビス
  6
CONTINUOUS
 62
    64
 10
162.17617
 20
66.030062
 11
162.187845
 21
66.062138
  0
ARC
  8
ボルト／ビス
  6
CONTINUOUS
 62
    64
 10
162.281149
 20
66.014031
 40
0.104978
 50
180.0
 51
207.278033
  0
ARC
  8
ボルト／ビス
  6
CONTINUOUS
 62
    64
 10
162.578573
 20
65.869693
 40
0.402402
 50
166.165015
 51
193.834998
  0
LINE
  8
ボルト／ビス
  6
CONTINUOUS
 62
    64
 10
162.17617
 20
65.709312
 11
162.187845
 21
65.677238
  0
ARC
  8
ボルト／ビス
  6
CONTINUOUS
 62
    64
 10
162.281149
 20
65.725355
 40
0.104978
 50
152.721967
 51
180.0
  0
LINE
  8
ボルト／ビス
  6
CONTINUOUS
 62
    64
 10
162.17617
 20
66.030062
 11
162.17617
 21
65.709312
  0
LINE
  8
ボルト／ビス
  6
CONTINUOUS
 62
    64
 10
162.187845
 20
65.677238
 11
162.309503
 21
65.677238
  0
LINE
  8
ボルト／ビス
  6
CONTINUOUS
 62
    64
 10
162.187845
 20
65.773462
 11
162.309503
 21
65.773462
  0
LINE
  8
ボルト／ビス
  6
CONTINUOUS
 62
    64
 10
162.187845
 20
66.062138
 11
162.309503
 21
66.062138
  0
LINE
  8
ボルト／ビス
  6
CONTINUOUS
 62
    64
 10
162.187845
 20
65.965913
 11
162.309503
 21
65.965913
  0
LINE
  8
ボルト／ビス
  6
CONTINUOUS
 10
162.309503
 20
66.062138
 11
162.309503
 21
65.677238
  0
LINE
  8
ボルト／ビス
  6
CONTINUOUS
 10
162.309503
 20
66.069687
 11
162.37617
 21
66.069687
  0
LINE
  8
ボルト／ビス
  6
CONTINUOUS
 10
162.309503
 20
66.069687
 11
162.309503
 21
65.669687
  0
LINE
  8
ボルト／ビス
  6
CONTINUOUS
 10
162.309503
 20
65.669687
 11
162.37617
 21
65.669687
  0
ENDBLK
  0
BLOCK
  2
*GRP_0004
 70
    65
 10
0.0
 20
0.0
  0
INSERT
  2
M8横
  8
ゴム等
  6
CONTINUOUS
 10
163.336003
 20
34.376965
 50
90.0
 41
0.033333
 42
0.033333
  0
LINE
  8
ボルト／ビス
  6
CONTINUOUS
 10
163.126005
 20
34.5103
 11
163.109338
 21
34.493633
  0
LINE
  8
ボルト／ビス
  6
CONTINUOUS
 10
163.109338
 20
34.2603
 11
163.126005
 21
34.243633
  0
LINE
  8
ボルト／ビス
  6
CONTINUOUS
 10
163.126005
 20
34.243633
 11
163.126005
 21
34.5103
  0
LINE
  8
ボルト／ビス
  6
CONTINUOUS
 10
163.109338
 20
34.2603
 11
163.109338
 21
34.493633
  0
LINE
  8
ボルト／ビス
  6
CONTINUOUS
 10
163.109338
 20
34.493633
 11
163.15267
 21
34.493633
  0
LINE
  8
ボルト／ビス
  6
CONTINUOUS
 10
163.126005
 20
34.5103
 11
163.15267
 21
34.5103
  0
LINE
  8
ボルト／ビス
  6
CONTINUOUS
 10
163.126005
 20
34.243633
 11
163.15267
 21
34.243633
  0
LINE
  8
ボルト／ビス
  6
CONTINUOUS
 10
163.109338
 20
34.2603
 11
163.15267
 21
34.2603
  0
LINE
  8
ボルト／ビス
  6
CONTINUOUS
 10
163.336003
 20
34.0103
 11
163.336003
 21
34.743633
  0
LINE
  8
ボルト／ビス
  6
CONTINUOUS
 10
163.376002
 20
34.793633
 11
163.459335
 21
34.793633
  0
LINE
  8
ボルト／ビス
  6
CONTINUOUS
 10
163.459335
 20
34.793633
 11
163.459335
 21
33.9603
  0
LINE
  8
ボルト／ビス
  6
CONTINUOUS
 10
163.459335
 20
33.9603
 11
163.376002
 21
33.9603
  0
LINE
  8
ボルト／ビス
  6
CONTINUOUS
 10
163.376002
 20
34.793633
 11
163.376002
 21
33.9603
  0
LINE
  8
ボルト／ビス
  6
CONTINUOUS
 10
163.336003
 20
34.0103
 11
163.376002
 21
34.0103
  0
LINE
  8
ボルト／ビス
  6
CONTINUOUS
 10
163.336003
 20
34.743633
 11
163.376002
 21
34.743633
  0
LINE
  8
ボルト／ビス
  6
CONTINUOUS
 10
163.386002
 20
34.376965
 11
163.336003
 21
34.376965
  0
ENDBLK
  0
BLOCK
  2
*GRP_0005
 70
    65
 10
0.0
 20
0.0
  0
LINE
  8
ボルト／ビス
  6
CONTINUOUS
 10
162.47617
 20
34.170298
 11
162.409503
 21
34.170298
  0
LINE
  8
ボルト／ビス
  6
CONTINUOUS
 10
162.409503
 20
34.170298
 11
162.409503
 21
34.90363
  0
LINE
  8
ボルト／ビス
  6
CONTINUOUS
 10
162.409503
 20
34.90363
 11
162.47617
 21
34.90363
  0
LINE
  8
ボルト／ビス
  6
CONTINUOUS
 10
162.47617
 20
34.170298
 11
162.47617
 21
34.90363
  0
LINE
  8
ボルト／ビス
  6
CONTINUOUS
 10
162.37617
 20
34.236965
 11
162.409503
 21
34.236965
  0
LINE
  8
ボルト／ビス
  6
CONTINUOUS
 10
162.37617
 20
34.236965
 11
162.37617
 21
34.836965
  0
LINE
  8
ボルト／ビス
  6
CONTINUOUS
 10
162.37617
 20
34.836965
 11
162.409503
 21
34.836965
  0
LINE
  8
ボルト／ビス
  6
CONTINUOUS
 62
    64
 10
162.17617
 20
34.37659
 11
162.187845
 21
34.344515
  0
ARC
  8
ボルト／ビス
  6
CONTINUOUS
 62
    64
 10
162.281149
 20
34.392632
 40
0.104978
 50
152.721967
 51
180.0
  0
ARC
  8
ボルト／ビス
  6
CONTINUOUS
 62
    64
 10
162.578573
 20
34.536969
 40
0.402402
 50
166.165002
 51
193.834985
  0
LINE
  8
ボルト／ビス
  6
CONTINUOUS
 62
    64
 10
162.17617
 20
34.69734
 11
162.187845
 21
34.729415
  0
ARC
  8
ボルト／ビス
  6
CONTINUOUS
 62
    64
 10
162.281149
 20
34.681307
 40
0.104978
 50
180.0
 51
207.278033
  0
LINE
  8
ボルト／ビス
  6
CONTINUOUS
 62
    64
 10
162.17617
 20
34.37659
 11
162.17617
 21
34.69734
  0
LINE
  8
ボルト／ビス
  6
CONTINUOUS
 62
    64
 10
162.187845
 20
34.729415
 11
162.309503
 21
34.729415
  0
LINE
  8
ボルト／ビス
  6
CONTINUOUS
 62
    64
 10
162.187845
 20
34.63319
 11
162.309503
 21
34.63319
  0
LINE
  8
ボルト／ビス
  6
CONTINUOUS
 62
    64
 10
162.187845
 20
34.344515
 11
162.309503
 21
34.344515
  0
LINE
  8
ボルト／ビス
  6
CONTINUOUS
 62
    64
 10
162.187845
 20
34.44074
 11
162.309503
 21
34.44074
  0
LINE
  8
ボルト／ビス
  6
CONTINUOUS
 10
162.309503
 20
34.344515
 11
162.309503
 21
34.729415
  0
LINE
  8
ボルト／ビス
  6
CONTINUOUS
 10
162.309503
 20
34.336965
 11
162.37617
 21
34.336965
  0
LINE
  8
ボルト／ビス
  6
CONTINUOUS
 10
162.309503
 20
34.336965
 11
162.309503
 21
34.736965
  0
LINE
  8
ボルト／ビス
  6
CONTINUOUS
 10
162.309503
 20
34.736965
 11
162.37617
 21
34.736965
  0
ENDBLK
  0
BLOCK
  2
*DIM_0006
 70
    65
 10
0.0
 20
0.0
  0
LINE
  8
寸法
  6
CONTINUOUS
 10
161.248695
 20
32.92363
 11
142.14273
 21
32.92363
  0
LINE
  8
寸法
  6
CONTINUOUS
 10
142.14273
 20
35.203325
 11
142.14273
 21
32.92363
  0
POINT
  8
寸法
 10
142.14273
 20
35.203325
  0
POINT
  8
寸法
 10
142.14273
 20
32.92363
  0
TEXT
  7
TextStyle03
  8
寸法
  6
CONTINUOUS
 10
141.75
 20
24.01875
  1
68.4
 40
3.0
 50
90.0
 72
     5
 11
141.75
 21
30.58125
  0
ENDBLK
  0
BLOCK
  2
*DIM_0007
 70
    65
 10
0.0
 20
0.0
  0
LINE
  8
寸法
  6
CONTINUOUS
 10
142.14273
 20
65.203325
 11
142.14273
 21
35.203325
  0
POINT
  8
寸法
 10
142.14273
 20
65.203325
  0
POINT
  8
寸法
 10
142.14273
 20
35.203325
  0
TEXT
  7
TextStyle03
  8
寸法
  6
CONTINUOUS
 10
141.75
 20
39.325
  1
呼称寸法　900
 40
3.0
 50
90.0
 72
     5
 11
141.75
 21
61.075
  0
ENDBLK
  0
BLOCK
  2
*DIM_0008
 70
    65
 10
0.0
 20
0.0
  0
LINE
  8
寸法
  6
CONTINUOUS
 10
161.248695
 20
67.48302
 11
142.14273
 21
67.48302
  0
LINE
  8
寸法
  6
CONTINUOUS
 10
142.14273
 20
65.203325
 11
142.14273
 21
67.48302
  0
POINT
  8
寸法
 10
142.14273
 20
65.203325
  0
POINT
  8
寸法
 10
142.14273
 20
67.48302
  0
TEXT
  7
TextStyle03
  8
寸法
  6
CONTINUOUS
 10
141.75
 20
69.79375
  1
68.4
 40
3.0
 50
90.0
 72
     5
 11
141.75
 21
76.35625
  0
ENDBLK
  0
BLOCK
  2
*DIM_0009
 70
    65
 10
0.0
 20
0.0
  0
LINE
  8
寸法
  6
CONTINUOUS
 10
169.209335
 20
28.236965
 11
169.209335
 21
20.327945
  0
LINE
  8
寸法
  6
CONTINUOUS
 10
161.742835
 20
30.203325
 11
161.742835
 21
20.327945
  0
LINE
  8
寸法
  6
CONTINUOUS
 10
169.209335
 20
20.327945
 11
161.742835
 21
20.327945
  0
POINT
  8
寸法
 10
169.209335
 20
20.327945
  0
POINT
  8
寸法
 10
161.742835
 20
20.327945
  0
TEXT
  7
TextStyle03
  8
寸法
  6
CONTINUOUS
 10
163.0375
 20
20.7
  1
224
 40
3.0
 72
     5
 11
167.9125
 21
20.7
  0
ENDBLK
  0
BLOCK
  2
*GRP_0010
 70
    65
 10
0.0
 20
0.0
  0
INSERT
  2
M8横
  8
ゴム等
  6
CONTINUOUS
 10
46.56319
 20
-70.297288
 50
180.0
 41
0.033333
 42
-0.033333
  0
LINE
  8
ボルト／ビス
  6
CONTINUOUS
 10
46.429858
 20
-70.087288
 11
46.446522
 21
-70.070622
  0
LINE
  8
ボルト／ビス
  6
CONTINUOUS
 10
46.679858
 20
-70.070622
 11
46.696522
 21
-70.087288
  0
LINE
  8
ボルト／ビス
  6
CONTINUOUS
 10
46.696522
 20
-70.087288
 11
46.429858
 21
-70.087288
  0
LINE
  8
ボルト／ビス
  6
CONTINUOUS
 10
46.679858
 20
-70.070622
 11
46.446522
 21
-70.070622
  0
LINE
  8
ボルト／ビス
  6
CONTINUOUS
 10
46.446522
 20
-70.070622
 11
46.446522
 21
-70.113952
  0
LINE
  8
ボルト／ビス
  6
CONTINUOUS
 10
46.429858
 20
-70.087288
 11
46.429858
 21
-70.113952
  0
LINE
  8
ボルト／ビス
  6
CONTINUOUS
 10
46.696522
 20
-70.087288
 11
46.696522
 21
-70.113952
  0
LINE
  8
ボルト／ビス
  6
CONTINUOUS
 10
46.679858
 20
-70.070622
 11
46.679858
 21
-70.113952
  0
LINE
  8
ボルト／ビス
  6
CONTINUOUS
 10
46.929858
 20
-70.297288
 11
46.196522
 21
-70.297288
  0
LINE
  8
ボルト／ビス
  6
CONTINUOUS
 10
46.146522
 20
-70.337288
 11
46.146522
 21
-70.42062
  0
LINE
  8
ボルト／ビス
  6
CONTINUOUS
 10
46.146522
 20
-70.42062
 11
46.979858
 21
-70.42062
  0
LINE
  8
ボルト／ビス
  6
CONTINUOUS
 10
46.979858
 20
-70.42062
 11
46.979858
 21
-70.337288
  0
LINE
  8
ボルト／ビス
  6
CONTINUOUS
 10
46.146522
 20
-70.337288
 11
46.979858
 21
-70.337288
  0
LINE
  8
ボルト／ビス
  6
CONTINUOUS
 10
46.929858
 20
-70.297288
 11
46.929858
 21
-70.337288
  0
LINE
  8
ボルト／ビス
  6
CONTINUOUS
 10
46.196522
 20
-70.297288
 11
46.196522
 21
-70.337288
  0
LINE
  8
ボルト／ビス
  6
CONTINUOUS
 10
46.56319
 20
-70.347288
 11
46.56319
 21
-70.297288
  0
ENDBLK
  0
BLOCK
  2
*GRP_0011
 70
    65
 10
0.0
 20
0.0
  0
LINE
  8
ボルト／ビス
  6
CONTINUOUS
 10
46.769858
 20
-69.437453
 11
46.769858
 21
-69.370788
  0
LINE
  8
ボルト／ビス
  6
CONTINUOUS
 10
46.769858
 20
-69.370788
 11
46.036525
 21
-69.370788
  0
LINE
  8
ボルト／ビス
  6
CONTINUOUS
 10
46.036525
 20
-69.370788
 11
46.036525
 21
-69.437453
  0
LINE
  8
ボルト／ビス
  6
CONTINUOUS
 10
46.769858
 20
-69.437453
 11
46.036525
 21
-69.437453
  0
LINE
  8
ボルト／ビス
  6
CONTINUOUS
 10
46.703192
 20
-69.337453
 11
46.703192
 21
-69.370788
  0
LINE
  8
ボルト／ビス
  6
CONTINUOUS
 10
46.703192
 20
-69.337453
 11
46.103192
 21
-69.337453
  0
LINE
  8
ボルト／ビス
  6
CONTINUOUS
 10
46.103192
 20
-69.337453
 11
46.103192
 21
-69.370788
  0
LINE
  8
ボルト／ビス
  6
CONTINUOUS
 62
    64
 10
46.563567
 20
-69.137453
 11
46.595643
 21
-69.149128
  0
ARC
  8
ボルト／ビス
  6
CONTINUOUS
 62
    64
 10
46.547529
 20
-69.242431
 40
0.104978
 50
90.0
 51
117.278033
  0
ARC
  8
ボルト／ビス
  6
CONTINUOUS
 62
    64
 10
46.403191
 20
-69.539855
 40
0.402402
 50
76.165015
 51
103.834998
  0
LINE
  8
ボルト／ビス
  6
CONTINUOUS
 62
    64
 10
46.242817
 20
-69.137453
 11
46.210743
 21
-69.149128
  0
ARC
  8
ボルト／ビス
  6
CONTINUOUS
 62
    64
 10
46.258853
 20
-69.242431
 40
0.104978
 50
62.721967
 51
90.0
  0
LINE
  8
ボルト／ビス
  6
CONTINUOUS
 62
    64
 10
46.563567
 20
-69.137453
 11
46.242817
 21
-69.137453
  0
LINE
  8
ボルト／ビス
  6
CONTINUOUS
 62
    64
 10
46.210743
 20
-69.149128
 11
46.210743
 21
-69.270788
  0
LINE
  8
ボルト／ビス
  6
CONTINUOUS
 62
    64
 10
46.306968
 20
-69.149128
 11
46.306968
 21
-69.270788
  0
LINE
  8
ボルト／ビス
  6
CONTINUOUS
 62
    64
 10
46.595643
 20
-69.149128
 11
46.595643
 21
-69.270788
  0
LINE
  8
ボルト／ビス
  6
CONTINUOUS
 62
    64
 10
46.499417
 20
-69.149128
 11
46.499417
 21
-69.270788
  0
LINE
  8
ボルト／ビス
  6
CONTINUOUS
 10
46.595643
 20
-69.270788
 11
46.210743
 21
-69.270788
  0
LINE
  8
ボルト／ビス
  6
CONTINUOUS
 10
46.603192
 20
-69.270788
 11
46.603192
 21
-69.337453
  0
LINE
  8
ボルト／ビス
  6
CONTINUOUS
 10
46.603192
 20
-69.270788
 11
46.203192
 21
-69.270788
  0
LINE
  8
ボルト／ビス
  6
CONTINUOUS
 10
46.203192
 20
-69.270788
 11
46.203192
 21
-69.337453
  0
ENDBLK
  0
BLOCK
  2
*DIM_0012
 70
    65
 10
0.0
 20
0.0
  0
LINE
  8
寸法
  6
CONTINUOUS
 10
50.73683
 20
-68.70412
 11
69.355302
 21
-68.70412
  0
LINE
  8
寸法
  6
CONTINUOUS
 10
52.703192
 20
-76.17062
 11
69.355302
 21
-76.17062
  0
LINE
  8
寸法
  6
CONTINUOUS
 10
69.355302
 20
-68.70412
 11
69.355302
 21
-76.17062
  0
POINT
  8
寸法
 10
69.355302
 20
-68.70412
  0
POINT
  8
寸法
 10
69.355302
 20
-76.17062
  0
TEXT
  7
TextStyle03
  8
寸法
  6
CONTINUOUS
 10
68.975
 20
-74.8875
  1
224
 40
3.0
 50
90.0
 72
     5
 11
68.975
 21
-70.0125
  0
ENDBLK
  0
BLOCK
  2
*GRP_0013
 70
    65
 10
0.0
 20
0.0
  0
INSERT
  2
M8横
  8
ゴム等
  6
CONTINUOUS
 10
-121.756185
 20
-70.297288
 41
0.033333
 42
0.033333
  0
LINE
  8
ボルト／ビス
  6
CONTINUOUS
 10
-121.622853
 20
-70.087288
 11
-121.639517
 21
-70.070622
  0
LINE
  8
ボルト／ビス
  6
CONTINUOUS
 10
-121.872853
 20
-70.070622
 11
-121.889517
 21
-70.087288
  0
LINE
  8
ボルト／ビス
  6
CONTINUOUS
 10
-121.889517
 20
-70.087288
 11
-121.622853
 21
-70.087288
  0
LINE
  8
ボルト／ビス
  6
CONTINUOUS
 10
-121.872853
 20
-70.070622
 11
-121.639517
 21
-70.070622
  0
LINE
  8
ボルト／ビス
  6
CONTINUOUS
 10
-121.639517
 20
-70.070622
 11
-121.639517
 21
-70.113952
  0
LINE
  8
ボルト／ビス
  6
CONTINUOUS
 10
-121.622853
 20
-70.087288
 11
-121.622853
 21
-70.113952
  0
LINE
  8
ボルト／ビス
  6
CONTINUOUS
 10
-121.889517
 20
-70.087288
 11
-121.889517
 21
-70.113952
  0
LINE
  8
ボルト／ビス
  6
CONTINUOUS
 10
-121.872853
 20
-70.070622
 11
-121.872853
 21
-70.113952
  0
LINE
  8
ボルト／ビス
  6
CONTINUOUS
 10
-122.122853
 20
-70.297288
 11
-121.389517
 21
-70.297288
  0
LINE
  8
ボルト／ビス
  6
CONTINUOUS
 10
-121.339517
 20
-70.337288
 11
-121.339517
 21
-70.42062
  0
LINE
  8
ボルト／ビス
  6
CONTINUOUS
 10
-121.339517
 20
-70.42062
 11
-122.172853
 21
-70.42062
  0
LINE
  8
ボルト／ビス
  6
CONTINUOUS
 10
-122.172853
 20
-70.42062
 11
-122.172853
 21
-70.337288
  0
LINE
  8
ボルト／ビス
  6
CONTINUOUS
 10
-121.339517
 20
-70.337288
 11
-122.172853
 21
-70.337288
  0
LINE
  8
ボルト／ビス
  6
CONTINUOUS
 10
-122.122853
 20
-70.297288
 11
-122.122853
 21
-70.337288
  0
LINE
  8
ボルト／ビス
  6
CONTINUOUS
 10
-121.389517
 20
-70.297288
 11
-121.389517
 21
-70.337288
  0
LINE
  8
ボルト／ビス
  6
CONTINUOUS
 10
-121.756185
 20
-70.347288
 11
-121.756185
 21
-70.297288
  0
ENDBLK
  0
BLOCK
  2
*GRP_0014
 70
    65
 10
0.0
 20
0.0
  0
LINE
  8
ボルト／ビス
  6
CONTINUOUS
 10
-121.962853
 20
-69.437453
 11
-121.962853
 21
-69.370788
  0
LINE
  8
ボルト／ビス
  6
CONTINUOUS
 10
-121.962853
 20
-69.370788
 11
-121.22952
 21
-69.370788
  0
LINE
  8
ボルト／ビス
  6
CONTINUOUS
 10
-121.22952
 20
-69.370788
 11
-121.22952
 21
-69.437453
  0
LINE
  8
ボルト／ビス
  6
CONTINUOUS
 10
-121.962853
 20
-69.437453
 11
-121.22952
 21
-69.437453
  0
LINE
  8
ボルト／ビス
  6
CONTINUOUS
 10
-121.896188
 20
-69.337453
 11
-121.896188
 21
-69.370788
  0
LINE
  8
ボルト／ビス
  6
CONTINUOUS
 10
-121.896188
 20
-69.337453
 11
-121.296188
 21
-69.337453
  0
LINE
  8
ボルト／ビス
  6
CONTINUOUS
 10
-121.296188
 20
-69.337453
 11
-121.296188
 21
-69.370788
  0
LINE
  8
ボルト／ビス
  6
CONTINUOUS
 62
    64
 10
-121.756563
 20
-69.137453
 11
-121.788638
 21
-69.149128
  0
ARC
  8
ボルト／ビス
  6
CONTINUOUS
 62
    64
 10
-121.740525
 20
-69.242431
 40
0.104978
 50
62.721967
 51
90.0
  0
ARC
  8
ボルト／ビス
  6
CONTINUOUS
 62
    64
 10
-121.596188
 20
-69.539855
 40
0.402402
 50
76.165002
 51
103.834985
  0
LINE
  8
ボルト／ビス
  6
CONTINUOUS
 62
    64
 10
-121.435812
 20
-69.137453
 11
-121.403737
 21
-69.149128
  0
ARC
  8
ボルト／ビス
  6
CONTINUOUS
 62
    64
 10
-121.45185
 20
-69.242431
 40
0.104978
 50
90.0
 51
117.278033
  0
LINE
  8
ボルト／ビス
  6
CONTINUOUS
 62
    64
 10
-121.756563
 20
-69.137453
 11
-121.435812
 21
-69.137453
  0
LINE
  8
ボルト／ビス
  6
CONTINUOUS
 62
    64
 10
-121.403737
 20
-69.149128
 11
-121.403737
 21
-69.270788
  0
LINE
  8
ボルト／ビス
  6
CONTINUOUS
 62
    64
 10
-121.499963
 20
-69.149128
 11
-121.499963
 21
-69.270788
  0
LINE
  8
ボルト／ビス
  6
CONTINUOUS
 62
    64
 10
-121.788638
 20
-69.149128
 11
-121.788638
 21
-69.270788
  0
LINE
  8
ボルト／ビス
  6
CONTINUOUS
 62
    64
 10
-121.692412
 20
-69.149128
 11
-121.692412
 21
-69.270788
  0
LINE
  8
ボルト／ビス
  6
CONTINUOUS
 10
-121.788638
 20
-69.270788
 11
-121.403737
 21
-69.270788
  0
LINE
  8
ボルト／ビス
  6
CONTINUOUS
 10
-121.796188
 20
-69.270788
 11
-121.796188
 21
-69.337453
  0
LINE
  8
ボルト／ビス
  6
CONTINUOUS
 10
-121.796188
 20
-69.270788
 11
-121.396188
 21
-69.270788
  0
LINE
  8
ボルト／ビス
  6
CONTINUOUS
 10
-121.396188
 20
-69.270788
 11
-121.396188
 21
-69.337453
  0
ENDBLK
  0
BLOCK
  2
*DIM_0015
 70
    65
 10
0.0
 20
0.0
  0
LINE
  8
寸法
  6
BYBLOCK
 62
     0
 10
-104.263162
 20
31.573195
 11
-104.263162
 21
26.270873
  0
LINE
  8
寸法
  6
BYBLOCK
 62
     0
 10
-37.596497
 20
31.573198
 11
-37.596497
 21
26.270873
  0
LINE
  8
寸法
  6
BYBLOCK
 62
     0
 10
-104.263162
 20
26.270873
 11
-37.596497
 21
26.270873
  0
POINT
  8
寸法
 62
     0
 10
-104.263162
 20
26.270873
  0
POINT
  8
寸法
 62
     0
 10
-37.596497
 20
26.270873
  0
TEXT
  7
TextStyle03
  8
寸法
  6
CONTINUOUS
 62
     0
 10
-74.23125
 20
26.625
  1
2000
 40
3.0
 72
     5
 11
-67.66875
 21
26.625
  0
ENDBLK
  0
BLOCK
  2
*DIM_0016
 70
    65
 10
0.0
 20
0.0
  0
LINE
  8
寸法
  6
BYBLOCK
 62
     0
 10
29.070168
 20
31.573195
 11
29.070168
 21
26.270873
  0
LINE
  8
寸法
  6
BYBLOCK
 62
     0
 10
-37.596497
 20
26.270873
 11
29.070168
 21
26.270873
  0
POINT
  8
寸法
 62
     0
 10
29.070168
 20
26.270873
  0
TEXT
  7
TextStyle03
  8
寸法
  6
CONTINUOUS
 62
     0
 10
-7.55625
 20
26.625
  1
2000
 40
3.0
 72
     5
 11
-0.99375
 21
26.625
  0
ENDBLK
  0
BLOCK
  2
*DIM_0017
 70
    65
 10
0.0
 20
0.0
  0
LINE
  8
寸法
  6
BYBLOCK
 62
     0
 10
49.366963
 20
61.303325
 11
56.144255
 21
61.303325
  0
LINE
  8
寸法
  6
BYBLOCK
 62
     0
 10
56.144255
 20
65.203325
 11
56.144255
 21
61.303325
  0
POINT
  8
寸法
 62
     0
 10
56.144255
 20
65.203325
  0
POINT
  8
寸法
 62
     0
 10
56.144255
 20
61.303325
  0
TEXT
  7
TextStyle03
  8
寸法
  6
CONTINUOUS
 62
     0
 10
55.825
 20
65.8625
  1
117
 40
3.0
 50
90.0
 72
     5
 11
55.825
 21
70.7375
  0
ENDBLK
  0
BLOCK
  2
*DIM_0018
 70
    65
 10
0.0
 20
0.0
  0
LINE
  8
寸法
  6
BYBLOCK
 62
     0
 10
49.366963
 20
39.103325
 11
56.144255
 21
39.103325
  0
LINE
  8
寸法
  6
BYBLOCK
 62
     0
 10
56.144255
 20
35.203325
 11
56.144255
 21
39.103325
  0
POINT
  8
寸法
 62
     0
 10
56.144255
 20
35.203325
  0
POINT
  8
寸法
 62
     0
 10
56.144255
 20
39.103325
  0
TEXT
  7
TextStyle03
  8
寸法
  6
CONTINUOUS
 62
     0
 10
56.2
 20
29.5875
  1
117
 40
3.0
 50
90.0
 72
     5
 11
56.2
 21
34.4625
  0
ENDBLK
  0
BLOCK
  2
*DIM_0019
 70
    65
 10
0.0
 20
0.0
  0
LINE
  8
寸法
  6
BYBLOCK
 62
     0
 10
-123.92983
 20
60.203325
 11
-137.222668
 21
60.203325
  0
LINE
  8
寸法
  6
BYBLOCK
 62
     0
 10
-123.92983
 20
40.203325
 11
-137.222668
 21
40.203325
  0
LINE
  8
寸法
  6
BYBLOCK
 62
     0
 10
-137.222668
 20
60.203325
 11
-137.222668
 21
40.203325
  0
POINT
  8
寸法
 62
     0
 10
-137.222668
 20
60.203325
  0
POINT
  8
寸法
 62
     0
 10
-137.222668
 20
40.203325
  0
TEXT
  7
TextStyle03
  8
寸法
  6
CONTINUOUS
 62
     0
 10
-137.575
 20
47.7375
  1
600
 40
3.0
 50
90.0
 72
     5
 11
-137.575
 21
52.6125
  0
ENDBLK
  0
BLOCK
  2
*DIM_0020
 70
    65
 10
0.0
 20
0.0
  0
LINE
  8
寸法
  6
BYBLOCK
 62
     0
 10
-112.596495
 20
68.203325
 11
-112.596495
 21
97.311398
  0
LINE
  8
寸法
  6
BYBLOCK
 62
     0
 10
-87.596495
 20
68.203325
 11
-87.596495
 21
97.311398
  0
LINE
  8
寸法
  6
BYBLOCK
 62
     0
 10
-112.596495
 20
97.311398
 11
-87.596495
 21
97.311398
  0
POINT
  8
寸法
 62
     0
 10
-112.596495
 20
97.311398
  0
POINT
  8
寸法
 62
     0
 10
-87.596495
 20
97.311398
  0
TEXT
  7
TextStyle03
  8
寸法
  6
CONTINUOUS
 62
     0
 10
-102.5625
 20
97.675
  1
750
 40
3.0
 72
     5
 11
-97.6875
 21
97.675
  0
ENDBLK
  0
BLOCK
  2
*DIM_0021
 70
    65
 10
0.0
 20
0.0
  0
LINE
  8
寸法
  6
BYBLOCK
 62
     0
 10
-62.596495
 20
68.203325
 11
-62.596495
 21
97.311398
  0
LINE
  8
寸法
  6
BYBLOCK
 62
     0
 10
-87.596495
 20
97.311398
 11
-62.596495
 21
97.311398
  0
POINT
  8
寸法
 62
     0
 10
-62.596495
 20
97.311398
  0
TEXT
  7
TextStyle03
  8
寸法
  6
CONTINUOUS
 62
     0
 10
-77.5625
 20
97.675
  1
750
 40
3.0
 72
     5
 11
-72.6875
 21
97.675
  0
ENDBLK
  0
BLOCK
  2
*DIM_0022
 70
    65
 10
0.0
 20
0.0
  0
LINE
  8
寸法
  6
BYBLOCK
 62
     0
 10
-37.596495
 20
68.203325
 11
-37.596495
 21
97.311398
  0
LINE
  8
寸法
  6
BYBLOCK
 62
     0
 10
-62.596495
 20
97.311398
 11
-37.596495
 21
97.311398
  0
POINT
  8
寸法
 62
     0
 10
-37.596495
 20
97.311398
  0
TEXT
  7
TextStyle03
  8
寸法
  6
CONTINUOUS
 62
     0
 10
-52.5625
 20
97.675
  1
750
 40
3.0
 72
     5
 11
-47.6875
 21
97.675
  0
ENDBLK
  0
BLOCK
  2
*DIM_0023
 70
    65
 10
0.0
 20
0.0
  0
LINE
  8
寸法
  6
BYBLOCK
 62
     0
 10
-12.596495
 20
68.203325
 11
-12.596495
 21
97.311398
  0
LINE
  8
寸法
  6
BYBLOCK
 62
     0
 10
-37.596495
 20
97.311398
 11
-12.596495
 21
97.311398
  0
POINT
  8
寸法
 62
     0
 10
-12.596495
 20
97.311398
  0
TEXT
  7
TextStyle03
  8
寸法
  6
CONTINUOUS
 62
     0
 10
-27.5625
 20
97.675
  1
750
 40
3.0
 72
     5
 11
-22.6875
 21
97.675
  0
ENDBLK
  0
BLOCK
  2
*DIM_0024
 70
    65
 10
0.0
 20
0.0
  0
LINE
  8
寸法
  6
BYBLOCK
 62
     0
 10
12.403505
 20
68.203325
 11
12.403505
 21
97.311398
  0
LINE
  8
寸法
  6
BYBLOCK
 62
     0
 10
-12.596495
 20
97.311398
 11
12.403505
 21
97.311398
  0
POINT
  8
寸法
 62
     0
 10
12.403505
 20
97.311398
  0
TEXT
  7
TextStyle03
  8
寸法
  6
CONTINUOUS
 62
     0
 10
-2.5625
 20
97.675
  1
750
 40
3.0
 72
     5
 11
2.3125
 21
97.675
  0
ENDBLK
  0
BLOCK
  2
*DIM_0025
 70
    65
 10
0.0
 20
0.0
  0
LINE
  8
寸法
  6
BYBLOCK
 62
     0
 10
37.403505
 20
68.203325
 11
37.403505
 21
97.311398
  0
LINE
  8
寸法
  6
BYBLOCK
 62
     0
 10
12.403505
 20
97.311398
 11
37.403505
 21
97.311398
  0
POINT
  8
寸法
 62
     0
 10
37.403505
 20
97.311398
  0
TEXT
  7
TextStyle03
  8
寸法
  6
CONTINUOUS
 62
     0
 10
22.4375
 20
97.675
  1
750
 40
3.0
 72
     5
 11
27.3125
 21
97.675
  0
ENDBLK
  0
BLOCK
  2
*GRP_0026
 70
    65
 10
0.0
 20
0.0
  0
LINE
  8
型材断面
  6
DOT
 10
47.403498
 20
-58.270785
 11
47.353498
 21
-58.270785
  0
LINE
  8
型材断面
  6
DOT
 10
45.73683
 20
-57.770785
 11
45.73683
 21
-57.037453
  0
LINE
  8
型材断面
  6
DOT
 10
45.786525
 20
-58.753953
 11
47.233193
 21
-58.753953
  0
LINE
  8
型材断面
  6
DOT
 10
47.233193
 20
-59.203953
 11
47.233193
 21
-58.753953
  0
LINE
  8
型材断面
  6
DOT
 62
    47
 10
47.966525
 20
-61.876645
 11
48.016525
 21
-61.876645
  0
LINE
  8
型材断面
  6
DOT
 62
    47
 10
48.016525
 20
-61.876645
 11
48.016525
 21
-61.54331
  0
LINE
  8
型材断面
  6
DOT
 62
    47
 10
48.016525
 20
-61.54331
 11
47.233193
 21
-61.44331
  0
LINE
  8
型材断面
  6
DOT
 62
    47
 10
47.233193
 20
-61.037285
 11
47.233193
 21
-61.44331
  0
LINE
  8
型材断面
  6
DOT
 62
    47
 10
47.703192
 20
-61.037285
 11
47.703192
 21
-59.203953
  0
LINE
  8
型材断面
  6
DOT
 10
47.403498
 20
-58.270785
 11
47.403498
 21
-57.770785
  0
LINE
  8
型材断面
  6
DOT
 10
45.786525
 20
-58.753953
 11
45.786525
 21
-58.270785
  0
INSERT
  2
*GRP_0027
  8
型材断面
  6
DOT
 10
0.0
 20
0.0
  0
INSERT
  2
*GRP_0028
  8
型材断面
  6
DOT
 10
0.0
 20
0.0
  0
LINE
  8
型材断面
  6
DOT
 10
48.016525
 20
-61.876645
 11
-37.596497
 21
-61.876645
  0
LINE
  8
型材断面
  6
DOT
 10
48.016525
 20
-61.54331
 11
-37.596497
 21
-61.54331
  0
LINE
  8
型材断面
  6
DOT
 10
47.233193
 20
-61.44331
 11
-37.596497
 21
-61.44331
  0
LINE
  8
型材断面
  6
DOT
 10
47.703192
 20
-61.037285
 11
-37.596497
 21
-61.037285
  0
LINE
  8
型材断面
  6
DOT
 10
47.403498
 20
-58.270785
 11
-37.596497
 21
-58.270785
  0
LINE
  8
型材断面
  6
DOT
 10
45.73683
 20
-57.037453
 11
-37.596497
 21
-57.037453
  0
LINE
  8
型材断面
  6
DOT
 10
47.403498
 20
-57.770785
 11
-37.596497
 21
-57.770785
  0
LINE
  8
型材断面
  6
DOT
 10
47.233193
 20
-58.753953
 11
-37.596497
 21
-58.753953
  0
LINE
  8
型材断面
  6
DOT
 10
47.703192
 20
-59.203953
 11
-37.596497
 21
-59.203953
  0
LINE
  8
型材断面
  6
DOT
 10
-122.596493
 20
-58.270785
 11
-122.546493
 21
-58.270785
  0
LINE
  8
型材断面
  6
DOT
 10
-120.929825
 20
-57.770785
 11
-120.929825
 21
-57.037453
  0
LINE
  8
型材断面
  6
DOT
 10
-120.97952
 20
-58.753953
 11
-122.426188
 21
-58.753953
  0
LINE
  8
型材断面
  6
DOT
 10
-122.426188
 20
-59.203953
 11
-122.426188
 21
-58.753953
  0
LINE
  8
型材断面
  6
DOT
 62
    47
 10
-123.15952
 20
-61.876645
 11
-123.20952
 21
-61.876645
  0
LINE
  8
型材断面
  6
DOT
 62
    47
 10
-123.20952
 20
-61.876645
 11
-123.20952
 21
-61.54331
  0
LINE
  8
型材断面
  6
DOT
 62
    47
 10
-123.20952
 20
-61.54331
 11
-122.426188
 21
-61.44331
  0
LINE
  8
型材断面
  6
DOT
 62
    47
 10
-122.426188
 20
-61.037285
 11
-122.426188
 21
-61.44331
  0
LINE
  8
型材断面
  6
DOT
 62
    47
 10
-122.896188
 20
-61.037285
 11
-122.896188
 21
-59.203953
  0
LINE
  8
型材断面
  6
DOT
 10
-122.596493
 20
-58.270785
 11
-122.596493
 21
-57.770785
  0
LINE
  8
型材断面
  6
DOT
 10
-120.97952
 20
-58.753953
 11
-120.97952
 21
-58.270785
  0
INSERT
  2
*GRP_0029
  8
型材断面
  6
DOT
 10
0.0
 20
0.0
  0
INSERT
  2
*GRP_0030
  8
型材断面
  6
DOT
 10
0.0
 20
0.0
  0
LINE
  8
型材断面
  6
DOT
 10
-123.20952
 20
-61.876645
 11
-37.596497
 21
-61.876645
  0
LINE
  8
型材断面
  6
DOT
 10
-123.20952
 20
-61.54331
 11
-37.596497
 21
-61.54331
  0
LINE
  8
型材断面
  6
DOT
 10
-122.426188
 20
-61.44331
 11
-37.596497
 21
-61.44331
  0
LINE
  8
型材断面
  6
DOT
 10
-122.896188
 20
-61.037285
 11
-37.596497
 21
-61.037285
  0
LINE
  8
型材断面
  6
DOT
 10
-122.596493
 20
-58.270785
 11
-37.596497
 21
-58.270785
  0
LINE
  8
型材断面
  6
DOT
 10
-120.929825
 20
-57.037453
 11
-37.596497
 21
-57.037453
  0
LINE
  8
型材断面
  6
DOT
 10
-122.596493
 20
-57.770785
 11
-37.596497
 21
-57.770785
  0
LINE
  8
型材断面
  6
DOT
 10
-122.426188
 20
-58.753953
 11
-37.596497
 21
-58.753953
  0
LINE
  8
型材断面
  6
DOT
 10
-122.896188
 20
-59.203953
 11
-37.596497
 21
-59.203953
  0
ENDBLK
  0
BLOCK
  2
*GRP_0027
 70
    65
 10
0.0
 20
0.0
  0
INSERT
  2
M8横
  8
ゴム等
  6
DOT
 10
46.56319
 20
-58.63062
 50
180.0
 41
0.033333
 42
-0.033333
  0
LINE
  8
ボルト／ビス
  6
DOT
 10
46.429858
 20
-58.42062
 11
46.446522
 21
-58.403955
  0
LINE
  8
ボルト／ビス
  6
DOT
 10
46.679858
 20
-58.403955
 11
46.696522
 21
-58.42062
  0
LINE
  8
ボルト／ビス
  6
DOT
 10
46.696522
 20
-58.42062
 11
46.429858
 21
-58.42062
  0
LINE
  8
ボルト／ビス
  6
DOT
 10
46.679858
 20
-58.403955
 11
46.446522
 21
-58.403955
  0
LINE
  8
ボルト／ビス
  6
DOT
 10
46.446522
 20
-58.403955
 11
46.446522
 21
-58.447285
  0
LINE
  8
ボルト／ビス
  6
DOT
 10
46.429858
 20
-58.42062
 11
46.429858
 21
-58.447285
  0
LINE
  8
ボルト／ビス
  6
DOT
 10
46.696522
 20
-58.42062
 11
46.696522
 21
-58.447285
  0
LINE
  8
ボルト／ビス
  6
DOT
 10
46.679858
 20
-58.403955
 11
46.679858
 21
-58.447285
  0
LINE
  8
ボルト／ビス
  6
DOT
 10
46.929858
 20
-58.63062
 11
46.196522
 21
-58.63062
  0
LINE
  8
ボルト／ビス
  6
DOT
 10
46.146522
 20
-58.67062
 11
46.146522
 21
-58.753953
  0
LINE
  8
ボルト／ビス
  6
DOT
 10
46.146522
 20
-58.753953
 11
46.979858
 21
-58.753953
  0
LINE
  8
ボルト／ビス
  6
DOT
 10
46.979858
 20
-58.753953
 11
46.979858
 21
-58.67062
  0
LINE
  8
ボルト／ビス
  6
DOT
 10
46.146522
 20
-58.67062
 11
46.979858
 21
-58.67062
  0
LINE
  8
ボルト／ビス
  6
DOT
 10
46.929858
 20
-58.63062
 11
46.929858
 21
-58.67062
  0
LINE
  8
ボルト／ビス
  6
DOT
 10
46.196522
 20
-58.63062
 11
46.196522
 21
-58.67062
  0
LINE
  8
ボルト／ビス
  6
DOT
 10
46.56319
 20
-58.68062
 11
46.56319
 21
-58.63062
  0
ENDBLK
  0
BLOCK
  2
*GRP_0028
 70
    65
 10
0.0
 20
0.0
  0
LINE
  8
ボルト／ビス
  6
DOT
 10
46.769858
 20
-57.770785
 11
46.769858
 21
-57.70412
  0
LINE
  8
ボルト／ビス
  6
DOT
 10
46.769858
 20
-57.70412
 11
46.036525
 21
-57.70412
  0
LINE
  8
ボルト／ビス
  6
DOT
 10
46.036525
 20
-57.70412
 11
46.036525
 21
-57.770785
  0
LINE
  8
ボルト／ビス
  6
DOT
 10
46.769858
 20
-57.770785
 11
46.036525
 21
-57.770785
  0
LINE
  8
ボルト／ビス
  6
DOT
 10
46.703192
 20
-57.670785
 11
46.703192
 21
-57.70412
  0
LINE
  8
ボルト／ビス
  6
DOT
 10
46.703192
 20
-57.670785
 11
46.103192
 21
-57.670785
  0
LINE
  8
ボルト／ビス
  6
DOT
 10
46.103192
 20
-57.670785
 11
46.103192
 21
-57.70412
  0
LINE
  8
ボルト／ビス
  6
DOT
 62
    64
 10
46.563567
 20
-57.470785
 11
46.595643
 21
-57.48246
  0
ARC
  8
ボルト／ビス
  6
DOT
 62
    64
 10
46.547529
 20
-57.575764
 40
0.104978
 50
90.0
 51
117.278033
  0
ARC
  8
ボルト／ビス
  6
DOT
 62
    64
 10
46.403191
 20
-57.873188
 40
0.402402
 50
76.165015
 51
103.834998
  0
LINE
  8
ボルト／ビス
  6
DOT
 62
    64
 10
46.242817
 20
-57.470785
 11
46.210743
 21
-57.48246
  0
ARC
  8
ボルト／ビス
  6
DOT
 62
    64
 10
46.258853
 20
-57.575764
 40
0.104978
 50
62.721967
 51
90.0
  0
LINE
  8
ボルト／ビス
  6
DOT
 62
    64
 10
46.563567
 20
-57.470785
 11
46.242817
 21
-57.470785
  0
LINE
  8
ボルト／ビス
  6
DOT
 62
    64
 10
46.210743
 20
-57.48246
 11
46.210743
 21
-57.60412
  0
LINE
  8
ボルト／ビス
  6
DOT
 62
    64
 10
46.306968
 20
-57.48246
 11
46.306968
 21
-57.60412
  0
LINE
  8
ボルト／ビス
  6
DOT
 62
    64
 10
46.595643
 20
-57.48246
 11
46.595643
 21
-57.60412
  0
LINE
  8
ボルト／ビス
  6
DOT
 62
    64
 10
46.499417
 20
-57.48246
 11
46.499417
 21
-57.60412
  0
LINE
  8
ボルト／ビス
  6
DOT
 10
46.595643
 20
-57.60412
 11
46.210743
 21
-57.60412
  0
LINE
  8
ボルト／ビス
  6
DOT
 10
46.603192
 20
-57.60412
 11
46.603192
 21
-57.670785
  0
LINE
  8
ボルト／ビス
  6
DOT
 10
46.603192
 20
-57.60412
 11
46.203192
 21
-57.60412
  0
LINE
  8
ボルト／ビス
  6
DOT
 10
46.203192
 20
-57.60412
 11
46.203192
 21
-57.670785
  0
ENDBLK
  0
BLOCK
  2
*GRP_0029
 70
    65
 10
0.0
 20
0.0
  0
INSERT
  2
M8横
  8
ゴム等
  6
DOT
 10
-121.756185
 20
-58.63062
 41
0.033333
 42
0.033333
  0
LINE
  8
ボルト／ビス
  6
DOT
 10
-121.622853
 20
-58.42062
 11
-121.639517
 21
-58.403955
  0
LINE
  8
ボルト／ビス
  6
DOT
 10
-121.872853
 20
-58.403955
 11
-121.889517
 21
-58.42062
  0
LINE
  8
ボルト／ビス
  6
DOT
 10
-121.889517
 20
-58.42062
 11
-121.622853
 21
-58.42062
  0
LINE
  8
ボルト／ビス
  6
DOT
 10
-121.872853
 20
-58.403955
 11
-121.639517
 21
-58.403955
  0
LINE
  8
ボルト／ビス
  6
DOT
 10
-121.639517
 20
-58.403955
 11
-121.639517
 21
-58.447285
  0
LINE
  8
ボルト／ビス
  6
DOT
 10
-121.622853
 20
-58.42062
 11
-121.622853
 21
-58.447285
  0
LINE
  8
ボルト／ビス
  6
DOT
 10
-121.889517
 20
-58.42062
 11
-121.889517
 21
-58.447285
  0
LINE
  8
ボルト／ビス
  6
DOT
 10
-121.872853
 20
-58.403955
 11
-121.872853
 21
-58.447285
  0
LINE
  8
ボルト／ビス
  6
DOT
 10
-122.122853
 20
-58.63062
 11
-121.389517
 21
-58.63062
  0
LINE
  8
ボルト／ビス
  6
DOT
 10
-121.339517
 20
-58.67062
 11
-121.339517
 21
-58.753953
  0
LINE
  8
ボルト／ビス
  6
DOT
 10
-121.339517
 20
-58.753953
 11
-122.172853
 21
-58.753953
  0
LINE
  8
ボルト／ビス
  6
DOT
 10
-122.172853
 20
-58.753953
 11
-122.172853
 21
-58.67062
  0
LINE
  8
ボルト／ビス
  6
DOT
 10
-121.339517
 20
-58.67062
 11
-122.172853
 21
-58.67062
  0
LINE
  8
ボルト／ビス
  6
DOT
 10
-122.122853
 20
-58.63062
 11
-122.122853
 21
-58.67062
  0
LINE
  8
ボルト／ビス
  6
DOT
 10
-121.389517
 20
-58.63062
 11
-121.389517
 21
-58.67062
  0
LINE
  8
ボルト／ビス
  6
DOT
 10
-121.756185
 20
-58.68062
 11
-121.756185
 21
-58.63062
  0
ENDBLK
  0
BLOCK
  2
*GRP_0030
 70
    65
 10
0.0
 20
0.0
  0
LINE
  8
ボルト／ビス
  6
DOT
 10
-121.962853
 20
-57.770785
 11
-121.962853
 21
-57.70412
  0
LINE
  8
ボルト／ビス
  6
DOT
 10
-121.962853
 20
-57.70412
 11
-121.22952
 21
-57.70412
  0
LINE
  8
ボルト／ビス
  6
DOT
 10
-121.22952
 20
-57.70412
 11
-121.22952
 21
-57.770785
  0
LINE
  8
ボルト／ビス
  6
DOT
 10
-121.962853
 20
-57.770785
 11
-121.22952
 21
-57.770785
  0
LINE
  8
ボルト／ビス
  6
DOT
 10
-121.896188
 20
-57.670785
 11
-121.896188
 21
-57.70412
  0
LINE
  8
ボルト／ビス
  6
DOT
 10
-121.896188
 20
-57.670785
 11
-121.296188
 21
-57.670785
  0
LINE
  8
ボルト／ビス
  6
DOT
 10
-121.296188
 20
-57.670785
 11
-121.296188
 21
-57.70412
  0
LINE
  8
ボルト／ビス
  6
DOT
 62
    64
 10
-121.756563
 20
-57.470785
 11
-121.788638
 21
-57.48246
  0
ARC
  8
ボルト／ビス
  6
DOT
 62
    64
 10
-121.740525
 20
-57.575764
 40
0.104978
 50
62.721967
 51
90.0
  0
ARC
  8
ボルト／ビス
  6
DOT
 62
    64
 10
-121.596188
 20
-57.873188
 40
0.402402
 50
76.165002
 51
103.834985
  0
LINE
  8
ボルト／ビス
  6
DOT
 62
    64
 10
-121.435812
 20
-57.470785
 11
-121.403737
 21
-57.48246
  0
ARC
  8
ボルト／ビス
  6
DOT
 62
    64
 10
-121.45185
 20
-57.575764
 40
0.104978
 50
90.0
 51
117.278033
  0
LINE
  8
ボルト／ビス
  6
DOT
 62
    64
 10
-121.756563
 20
-57.470785
 11
-121.435812
 21
-57.470785
  0
LINE
  8
ボルト／ビス
  6
DOT
 62
    64
 10
-121.403737
 20
-57.48246
 11
-121.403737
 21
-57.60412
  0
LINE
  8
ボルト／ビス
  6
DOT
 62
    64
 10
-121.499963
 20
-57.48246
 11
-121.499963
 21
-57.60412
  0
LINE
  8
ボルト／ビス
  6
DOT
 62
    64
 10
-121.788638
 20
-57.48246
 11
-121.788638
 21
-57.60412
  0
LINE
  8
ボルト／ビス
  6
DOT
 62
    64
 10
-121.692412
 20
-57.48246
 11
-121.692412
 21
-57.60412
  0
LINE
  8
ボルト／ビス
  6
DOT
 10
-121.788638
 20
-57.60412
 11
-121.403737
 21
-57.60412
  0
LINE
  8
ボルト／ビス
  6
DOT
 10
-121.796188
 20
-57.60412
 11
-121.796188
 21
-57.670785
  0
LINE
  8
ボルト／ビス
  6
DOT
 10
-121.796188
 20
-57.60412
 11
-121.396188
 21
-57.60412
  0
LINE
  8
ボルト／ビス
  6
DOT
 10
-121.396188
 20
-57.60412
 11
-121.396188
 21
-57.670785
  0
ENDBLK
  0
BLOCK
  2
*DIM_0031
 70
    65
 10
0.0
 20
0.0
  0
LINE
  8
寸法
  6
CONTINUOUS
 10
50.73683
 20
-68.70412
 11
69.355302
 21
-68.70412
  0
LINE
  8
寸法
  6
CONTINUOUS
 10
50.73683
 20
-57.037453
 11
69.355302
 21
-57.037453
  0
LINE
  8
寸法
  6
CONTINUOUS
 10
69.355302
 20
-68.70412
 11
69.355302
 21
-57.037453
  0
POINT
  8
寸法
 10
69.355302
 20
-68.70412
  0
POINT
  8
寸法
 10
69.355302
 20
-57.037453
  0
TEXT
  7
TextStyle03
  8
寸法
  6
CONTINUOUS
 10
72.35
 20
-71.96875
  1
上昇319以上
 40
3.0
 50
90.0
 72
     5
 11
72.35
 21
-53.78125
  0
ENDBLK
  0
BLOCK
  2
*GRP_0032
 70
    65
 10
0.0
 20
0.0
  0
LINE
  8
補助線
  6
BYBLOCK
 62
    64
 10
-117.533068
 20
-74.368295
 11
-117.660552
 21
-74.475655
  0
LINE
  8
補助線
  6
BYBLOCK
 62
    64
 10
-117.65049
 20
-74.35823
 11
-117.54313
 21
-74.485718
  0
LINE
  8
補助線
  6
BYBLOCK
 62
    64
 10
-109.04265
 20
-67.218272
 11
-109.170135
 21
-67.325627
  0
LINE
  8
補助線
  6
BYBLOCK
 62
    64
 10
-109.160073
 20
-67.208208
 11
-109.052712
 21
-67.33569
  0
LINE
  8
補助線
  6
BYBLOCK
 62
    64
 10
-100.679715
 20
-60.175602
 11
-100.552232
 21
-60.068245
  0
LINE
  8
補助線
  6
BYBLOCK
 62
    64
 10
-100.669655
 20
-60.05818
 11
-100.562295
 21
-60.185668
  0
LINE
  8
型材断面
  6
CONTINUOUS
 10
-118.388565
 20
-73.999273
 11
-118.448942
 21
-74.703798
  0
LINE
  8
型材断面
  6
CONTINUOUS
 10
-118.448942
 20
-74.703798
 11
-118.01951
 21
-75.213732
  0
LINE
  8
型材断面
  6
CONTINUOUS
 10
-118.01951
 20
-75.213732
 11
-117.314985
 21
-75.27411
  0
LINE
  8
型材断面
  6
CONTINUOUS
 10
-100.897797
 20
-59.269793
 11
-100.193272
 21
-59.33017
  0
LINE
  8
型材断面
  6
CONTINUOUS
 10
-100.193272
 20
-59.33017
 11
-99.76384
 21
-59.840105
  0
LINE
  8
型材断面
  6
CONTINUOUS
 10
-99.76384
 20
-59.840105
 11
-99.824218
 21
-60.54463
  0
LINE
  8
型材断面
  6
CONTINUOUS
 10
-118.388565
 20
-73.999273
 11
-100.897797
 21
-59.269793
  0
LINE
  8
型材断面
  6
CONTINUOUS
 10
-117.314985
 20
-75.27411
 11
-99.824218
 21
-60.54463
  0
CIRCLE
  8
ボルト／ビス
  6
CONTINUOUS
 10
-117.59681
 20
-74.421975
 40
0.250185
  0
CIRCLE
  8
ボルト／ビス
  6
CONTINUOUS
 10
-117.59681
 20
-74.421975
 40
0.301025
  0
LINE
  8
ボルト／ビス
  6
CONTINUOUS
 62
    64
 10
-117.843117
 20
-74.465858
 11
-117.757965
 21
-74.23061
  0
LINE
  8
ボルト／ビス
  6
CONTINUOUS
 62
    64
 10
-117.511658
 20
-74.186725
 11
-117.757965
 21
-74.23061
  0
LINE
  8
ボルト／ビス
  6
CONTINUOUS
 62
    64
 10
-117.681963
 20
-74.657225
 11
-117.435655
 21
-74.61334
  0
LINE
  8
ボルト／ビス
  6
CONTINUOUS
 62
    64
 10
-117.350503
 20
-74.378093
 11
-117.435655
 21
-74.61334
  0
LINE
  8
ボルト／ビス
  6
CONTINUOUS
 62
    64
 10
-117.843117
 20
-74.465858
 11
-117.681963
 21
-74.657225
  0
LINE
  8
ボルト／ビス
  6
CONTINUOUS
 62
    64
 10
-117.511658
 20
-74.186725
 11
-117.350503
 21
-74.378093
  0
CIRCLE
  8
ボルト／ビス
  6
CONTINUOUS
 62
    64
 10
-117.59681
 20
-74.421975
 40
0.216668
  0
CIRCLE
  8
ボルト／ビス
  6
CONTINUOUS
 10
-109.106393
 20
-67.27195
 40
0.250185
  0
CIRCLE
  8
ボルト／ビス
  6
CONTINUOUS
 10
-109.106393
 20
-67.27195
 40
0.301025
  0
LINE
  8
ボルト／ビス
  6
CONTINUOUS
 62
    64
 10
-109.3527
 20
-67.315833
 11
-109.267548
 21
-67.080583
  0
LINE
  8
ボルト／ビス
  6
CONTINUOUS
 62
    64
 10
-109.02124
 20
-67.0367
 11
-109.267548
 21
-67.080583
  0
LINE
  8
ボルト／ビス
  6
CONTINUOUS
 62
    64
 10
-109.191545
 20
-67.5072
 11
-108.945235
 21
-67.463317
  0
LINE
  8
ボルト／ビス
  6
CONTINUOUS
 62
    64
 10
-108.860085
 20
-67.22807
 11
-108.945235
 21
-67.463317
  0
LINE
  8
ボルト／ビス
  6
CONTINUOUS
 62
    64
 10
-109.3527
 20
-67.315833
 11
-109.191545
 21
-67.5072
  0
LINE
  8
ボルト／ビス
  6
CONTINUOUS
 62
    64
 10
-109.02124
 20
-67.0367
 11
-108.860085
 21
-67.22807
  0
CIRCLE
  8
ボルト／ビス
  6
CONTINUOUS
 62
    64
 10
-109.106393
 20
-67.27195
 40
0.216668
  0
CIRCLE
  8
ボルト／ビス
  6
CONTINUOUS
 10
-100.615973
 20
-60.121925
 40
0.250185
  0
CIRCLE
  8
ボルト／ビス
  6
CONTINUOUS
 10
-100.615973
 20
-60.121925
 40
0.301025
  0
LINE
  8
ボルト／ビス
  6
CONTINUOUS
 62
    64
 10
-100.53082
 20
-59.886675
 11
-100.77713
 21
-59.93056
  0
LINE
  8
ボルト／ビス
  6
CONTINUOUS
 62
    64
 10
-100.862283
 20
-60.165808
 11
-100.77713
 21
-59.93056
  0
LINE
  8
ボルト／ビス
  6
CONTINUOUS
 62
    64
 10
-100.369668
 20
-60.078042
 11
-100.454817
 21
-60.31329
  0
LINE
  8
ボルト／ビス
  6
CONTINUOUS
 62
    64
 10
-100.701127
 20
-60.357175
 11
-100.454817
 21
-60.31329
  0
LINE
  8
ボルト／ビス
  6
CONTINUOUS
 62
    64
 10
-100.53082
 20
-59.886675
 11
-100.369668
 21
-60.078042
  0
LINE
  8
ボルト／ビス
  6
CONTINUOUS
 62
    64
 10
-100.862283
 20
-60.165808
 11
-100.701127
 21
-60.357175
  0
CIRCLE
  8
ボルト／ビス
  6
CONTINUOUS
 62
    64
 10
-100.615973
 20
-60.121925
 40
0.216668
  0
ENDBLK
  0
BLOCK
  2
*GRP_0033
 70
    65
 10
0.0
 20
0.0
  0
LINE
  8
補助線
  6
BYBLOCK
 62
    64
 10
-100.679717
 20
-74.368295
 11
-100.552232
 21
-74.475655
  0
LINE
  8
補助線
  6
BYBLOCK
 62
    64
 10
-100.562295
 20
-74.35823
 11
-100.669655
 21
-74.485718
  0
LINE
  8
補助線
  6
BYBLOCK
 62
    64
 10
-109.170135
 20
-67.218272
 11
-109.04265
 21
-67.325627
  0
LINE
  8
補助線
  6
BYBLOCK
 62
    64
 10
-109.052712
 20
-67.208208
 11
-109.160073
 21
-67.33569
  0
LINE
  8
補助線
  6
BYBLOCK
 62
    64
 10
-117.53307
 20
-60.175602
 11
-117.660552
 21
-60.068245
  0
LINE
  8
補助線
  6
BYBLOCK
 62
    64
 10
-117.54313
 20
-60.05818
 11
-117.65049
 21
-60.185668
  0
LINE
  8
型材断面
  6
CONTINUOUS
 10
-99.82422
 20
-73.999273
 11
-99.763843
 21
-74.703798
  0
LINE
  8
型材断面
  6
CONTINUOUS
 10
-99.763843
 20
-74.703798
 11
-100.193275
 21
-75.213732
  0
LINE
  8
型材断面
  6
CONTINUOUS
 10
-100.193275
 20
-75.213732
 11
-100.8978
 21
-75.27411
  0
LINE
  8
型材断面
  6
CONTINUOUS
 10
-117.314988
 20
-59.269793
 11
-118.019513
 21
-59.33017
  0
LINE
  8
型材断面
  6
CONTINUOUS
 10
-118.019513
 20
-59.33017
 11
-118.448945
 21
-59.840105
  0
LINE
  8
型材断面
  6
CONTINUOUS
 10
-118.448945
 20
-59.840105
 11
-118.388568
 21
-60.54463
  0
LINE
  8
型材断面
  6
CONTINUOUS
 10
-99.82422
 20
-73.999273
 11
-117.314988
 21
-59.269793
  0
LINE
  8
型材断面
  6
CONTINUOUS
 10
-100.8978
 20
-75.27411
 11
-118.388568
 21
-60.54463
  0
CIRCLE
  8
ボルト／ビス
  6
CONTINUOUS
 10
-100.615975
 20
-74.421975
 40
0.250185
  0
CIRCLE
  8
ボルト／ビス
  6
CONTINUOUS
 10
-100.615975
 20
-74.421975
 40
0.301025
  0
LINE
  8
ボルト／ビス
  6
CONTINUOUS
 62
    64
 10
-100.369668
 20
-74.465858
 11
-100.45482
 21
-74.23061
  0
LINE
  8
ボルト／ビス
  6
CONTINUOUS
 62
    64
 10
-100.701127
 20
-74.186725
 11
-100.45482
 21
-74.23061
  0
LINE
  8
ボルト／ビス
  6
CONTINUOUS
 62
    64
 10
-100.530822
 20
-74.657225
 11
-100.77713
 21
-74.61334
  0
LINE
  8
ボルト／ビス
  6
CONTINUOUS
 62
    64
 10
-100.862283
 20
-74.378093
 11
-100.77713
 21
-74.61334
  0
LINE
  8
ボルト／ビス
  6
CONTINUOUS
 62
    64
 10
-100.369668
 20
-74.465858
 11
-100.530822
 21
-74.657225
  0
LINE
  8
ボルト／ビス
  6
CONTINUOUS
 62
    64
 10
-100.701127
 20
-74.186725
 11
-100.862283
 21
-74.378093
  0
CIRCLE
  8
ボルト／ビス
  6
CONTINUOUS
 62
    64
 10
-100.615975
 20
-74.421975
 40
0.216668
  0
CIRCLE
  8
ボルト／ビス
  6
CONTINUOUS
 10
-109.106393
 20
-67.27195
 40
0.250185
  0
CIRCLE
  8
ボルト／ビス
  6
CONTINUOUS
 10
-109.106393
 20
-67.27195
 40
0.301025
  0
LINE
  8
ボルト／ビス
  6
CONTINUOUS
 62
    64
 10
-108.860085
 20
-67.315833
 11
-108.945237
 21
-67.080583
  0
LINE
  8
ボルト／ビス
  6
CONTINUOUS
 62
    64
 10
-109.191545
 20
-67.0367
 11
-108.945237
 21
-67.080583
  0
LINE
  8
ボルト／ビス
  6
CONTINUOUS
 62
    64
 10
-109.02124
 20
-67.5072
 11
-109.26755
 21
-67.463317
  0
LINE
  8
ボルト／ビス
  6
CONTINUOUS
 62
    64
 10
-109.3527
 20
-67.22807
 11
-109.26755
 21
-67.463317
  0
LINE
  8
ボルト／ビス
  6
CONTINUOUS
 62
    64
 10
-108.860085
 20
-67.315833
 11
-109.02124
 21
-67.5072
  0
LINE
  8
ボルト／ビス
  6
CONTINUOUS
 62
    64
 10
-109.191545
 20
-67.0367
 11
-109.3527
 21
-67.22807
  0
CIRCLE
  8
ボルト／ビス
  6
CONTINUOUS
 62
    64
 10
-109.106393
 20
-67.27195
 40
0.216668
  0
CIRCLE
  8
ボルト／ビス
  6
CONTINUOUS
 10
-117.596813
 20
-60.121925
 40
0.250185
  0
CIRCLE
  8
ボルト／ビス
  6
CONTINUOUS
 10
-117.596813
 20
-60.121925
 40
0.301025
  0
LINE
  8
ボルト／ビス
  6
CONTINUOUS
 62
    64
 10
-117.681965
 20
-59.886675
 11
-117.435655
 21
-59.93056
  0
LINE
  8
ボルト／ビス
  6
CONTINUOUS
 62
    64
 10
-117.350503
 20
-60.165808
 11
-117.435655
 21
-59.93056
  0
LINE
  8
ボルト／ビス
  6
CONTINUOUS
 62
    64
 10
-117.843117
 20
-60.078042
 11
-117.757967
 21
-60.31329
  0
LINE
  8
ボルト／ビス
  6
CONTINUOUS
 62
    64
 10
-117.511658
 20
-60.357175
 11
-117.757967
 21
-60.31329
  0
LINE
  8
ボルト／ビス
  6
CONTINUOUS
 62
    64
 10
-117.681965
 20
-59.886675
 11
-117.843117
 21
-60.078042
  0
LINE
  8
ボルト／ビス
  6
CONTINUOUS
 62
    64
 10
-117.350503
 20
-60.165808
 11
-117.511658
 21
-60.357175
  0
CIRCLE
  8
ボルト／ビス
  6
CONTINUOUS
 62
    64
 10
-117.596813
 20
-60.121925
 40
0.216668
  0
ENDBLK
  0
BLOCK
  2
*GRP_0034
 70
    65
 10
0.0
 20
0.0
  0
LINE
  8
補助線
  6
BYBLOCK
 62
    64
 10
42.339447
 20
-74.368295
 11
42.466933
 21
-74.475655
  0
LINE
  8
補助線
  6
BYBLOCK
 62
    64
 10
42.45687
 20
-74.35823
 11
42.34951
 21
-74.485718
  0
LINE
  8
補助線
  6
BYBLOCK
 62
    64
 10
33.84903
 20
-67.218272
 11
33.976515
 21
-67.325627
  0
LINE
  8
補助線
  6
BYBLOCK
 62
    64
 10
33.966453
 20
-67.208208
 11
33.859093
 21
-67.33569
  0
LINE
  8
補助線
  6
BYBLOCK
 62
    64
 10
25.486095
 20
-60.175602
 11
25.358612
 21
-60.068245
  0
LINE
  8
補助線
  6
BYBLOCK
 62
    64
 10
25.476035
 20
-60.05818
 11
25.368675
 21
-60.185668
  0
LINE
  8
型材断面
  6
CONTINUOUS
 10
43.194945
 20
-73.999273
 11
43.255322
 21
-74.703798
  0
LINE
  8
型材断面
  6
CONTINUOUS
 10
43.255322
 20
-74.703798
 11
42.82589
 21
-75.213732
  0
LINE
  8
型材断面
  6
CONTINUOUS
 10
42.82589
 20
-75.213732
 11
42.121365
 21
-75.27411
  0
LINE
  8
型材断面
  6
CONTINUOUS
 10
25.704177
 20
-59.269793
 11
24.999653
 21
-59.33017
  0
LINE
  8
型材断面
  6
CONTINUOUS
 10
24.999653
 20
-59.33017
 11
24.57022
 21
-59.840105
  0
LINE
  8
型材断面
  6
CONTINUOUS
 10
24.57022
 20
-59.840105
 11
24.630597
 21
-60.54463
  0
LINE
  8
型材断面
  6
CONTINUOUS
 10
43.194945
 20
-73.999273
 11
25.704177
 21
-59.269793
  0
LINE
  8
型材断面
  6
CONTINUOUS
 10
42.121365
 20
-75.27411
 11
24.630597
 21
-60.54463
  0
CIRCLE
  8
ボルト／ビス
  6
CONTINUOUS
 10
42.40319
 20
-74.421975
 40
0.250185
  0
CIRCLE
  8
ボルト／ビス
  6
CONTINUOUS
 10
42.40319
 20
-74.421975
 40
0.301025
  0
LINE
  8
ボルト／ビス
  6
CONTINUOUS
 62
    64
 10
42.649497
 20
-74.465858
 11
42.564345
 21
-74.23061
  0
LINE
  8
ボルト／ビス
  6
CONTINUOUS
 62
    64
 10
42.318037
 20
-74.186725
 11
42.564345
 21
-74.23061
  0
LINE
  8
ボルト／ビス
  6
CONTINUOUS
 62
    64
 10
42.488343
 20
-74.657225
 11
42.242035
 21
-74.61334
  0
LINE
  8
ボルト／ビス
  6
CONTINUOUS
 62
    64
 10
42.156883
 20
-74.378093
 11
42.242035
 21
-74.61334
  0
LINE
  8
ボルト／ビス
  6
CONTINUOUS
 62
    64
 10
42.649497
 20
-74.465858
 11
42.488343
 21
-74.657225
  0
LINE
  8
ボルト／ビス
  6
CONTINUOUS
 62
    64
 10
42.318037
 20
-74.186725
 11
42.156883
 21
-74.378093
  0
CIRCLE
  8
ボルト／ビス
  6
CONTINUOUS
 62
    64
 10
42.40319
 20
-74.421975
 40
0.216668
  0
CIRCLE
  8
ボルト／ビス
  6
CONTINUOUS
 10
33.912773
 20
-67.27195
 40
0.250185
  0
CIRCLE
  8
ボルト／ビス
  6
CONTINUOUS
 10
33.912773
 20
-67.27195
 40
0.301025
  0
LINE
  8
ボルト／ビス
  6
CONTINUOUS
 62
    64
 10
34.15908
 20
-67.315833
 11
34.073927
 21
-67.080583
  0
LINE
  8
ボルト／ビス
  6
CONTINUOUS
 62
    64
 10
33.82762
 20
-67.0367
 11
34.073927
 21
-67.080583
  0
LINE
  8
ボルト／ビス
  6
CONTINUOUS
 62
    64
 10
33.997925
 20
-67.5072
 11
33.751615
 21
-67.463317
  0
LINE
  8
ボルト／ビス
  6
CONTINUOUS
 62
    64
 10
33.666465
 20
-67.22807
 11
33.751615
 21
-67.463317
  0
LINE
  8
ボルト／ビス
  6
CONTINUOUS
 62
    64
 10
34.15908
 20
-67.315833
 11
33.997925
 21
-67.5072
  0
LINE
  8
ボルト／ビス
  6
CONTINUOUS
 62
    64
 10
33.82762
 20
-67.0367
 11
33.666465
 21
-67.22807
  0
CIRCLE
  8
ボルト／ビス
  6
CONTINUOUS
 62
    64
 10
33.912773
 20
-67.27195
 40
0.216668
  0
CIRCLE
  8
ボルト／ビス
  6
CONTINUOUS
 10
25.422352
 20
-60.121925
 40
0.250185
  0
CIRCLE
  8
ボルト／ビス
  6
CONTINUOUS
 10
25.422352
 20
-60.121925
 40
0.301025
  0
LINE
  8
ボルト／ビス
  6
CONTINUOUS
 62
    64
 10
25.3372
 20
-59.886675
 11
25.58351
 21
-59.93056
  0
LINE
  8
ボルト／ビス
  6
CONTINUOUS
 62
    64
 10
25.668663
 20
-60.165808
 11
25.58351
 21
-59.93056
  0
LINE
  8
ボルト／ビス
  6
CONTINUOUS
 62
    64
 10
25.176047
 20
-60.078042
 11
25.261197
 21
-60.31329
  0
LINE
  8
ボルト／ビス
  6
CONTINUOUS
 62
    64
 10
25.507508
 20
-60.357175
 11
25.261197
 21
-60.31329
  0
LINE
  8
ボルト／ビス
  6
CONTINUOUS
 62
    64
 10
25.3372
 20
-59.886675
 11
25.176047
 21
-60.078042
  0
LINE
  8
ボルト／ビス
  6
CONTINUOUS
 62
    64
 10
25.668663
 20
-60.165808
 11
25.507508
 21
-60.357175
  0
CIRCLE
  8
ボルト／ビス
  6
CONTINUOUS
 62
    64
 10
25.422352
 20
-60.121925
 40
0.216668
  0
ENDBLK
  0
BLOCK
  2
*GRP_0035
 70
    65
 10
0.0
 20
0.0
  0
LINE
  8
補助線
  6
BYBLOCK
 62
    64
 10
25.486097
 20
-74.368295
 11
25.358612
 21
-74.475655
  0
LINE
  8
補助線
  6
BYBLOCK
 62
    64
 10
25.368675
 20
-74.35823
 11
25.476035
 21
-74.485718
  0
LINE
  8
補助線
  6
BYBLOCK
 62
    64
 10
33.976515
 20
-67.218272
 11
33.84903
 21
-67.325627
  0
LINE
  8
補助線
  6
BYBLOCK
 62
    64
 10
33.859093
 20
-67.208208
 11
33.966453
 21
-67.33569
  0
LINE
  8
補助線
  6
BYBLOCK
 62
    64
 10
42.33945
 20
-60.175602
 11
42.466933
 21
-60.068245
  0
LINE
  8
補助線
  6
BYBLOCK
 62
    64
 10
42.34951
 20
-60.05818
 11
42.45687
 21
-60.185668
  0
LINE
  8
型材断面
  6
CONTINUOUS
 10
24.6306
 20
-73.999273
 11
24.570223
 21
-74.703798
  0
LINE
  8
型材断面
  6
CONTINUOUS
 10
24.570223
 20
-74.703798
 11
24.999655
 21
-75.213732
  0
LINE
  8
型材断面
  6
CONTINUOUS
 10
24.999655
 20
-75.213732
 11
25.70418
 21
-75.27411
  0
LINE
  8
型材断面
  6
CONTINUOUS
 10
42.121368
 20
-59.269793
 11
42.825893
 21
-59.33017
  0
LINE
  8
型材断面
  6
CONTINUOUS
 10
42.825893
 20
-59.33017
 11
43.255325
 21
-59.840105
  0
LINE
  8
型材断面
  6
CONTINUOUS
 10
43.255325
 20
-59.840105
 11
43.194947
 21
-60.54463
  0
LINE
  8
型材断面
  6
CONTINUOUS
 10
24.6306
 20
-73.999273
 11
42.121368
 21
-59.269793
  0
LINE
  8
型材断面
  6
CONTINUOUS
 10
25.70418
 20
-75.27411
 11
43.194947
 21
-60.54463
  0
CIRCLE
  8
ボルト／ビス
  6
CONTINUOUS
 10
25.422355
 20
-74.421975
 40
0.250185
  0
CIRCLE
  8
ボルト／ビス
  6
CONTINUOUS
 10
25.422355
 20
-74.421975
 40
0.301025
  0
LINE
  8
ボルト／ビス
  6
CONTINUOUS
 62
    64
 10
25.176047
 20
-74.465858
 11
25.2612
 21
-74.23061
  0
LINE
  8
ボルト／ビス
  6
CONTINUOUS
 62
    64
 10
25.507508
 20
-74.186725
 11
25.2612
 21
-74.23061
  0
LINE
  8
ボルト／ビス
  6
CONTINUOUS
 62
    64
 10
25.337203
 20
-74.657225
 11
25.58351
 21
-74.61334
  0
LINE
  8
ボルト／ビス
  6
CONTINUOUS
 62
    64
 10
25.668663
 20
-74.378093
 11
25.58351
 21
-74.61334
  0
LINE
  8
ボルト／ビス
  6
CONTINUOUS
 62
    64
 10
25.176047
 20
-74.465858
 11
25.337203
 21
-74.657225
  0
LINE
  8
ボルト／ビス
  6
CONTINUOUS
 62
    64
 10
25.507508
 20
-74.186725
 11
25.668663
 21
-74.378093
  0
CIRCLE
  8
ボルト／ビス
  6
CONTINUOUS
 62
    64
 10
25.422355
 20
-74.421975
 40
0.216668
  0
CIRCLE
  8
ボルト／ビス
  6
CONTINUOUS
 10
33.912773
 20
-67.27195
 40
0.250185
  0
CIRCLE
  8
ボルト／ビス
  6
CONTINUOUS
 10
33.912773
 20
-67.27195
 40
0.301025
  0
LINE
  8
ボルト／ビス
  6
CONTINUOUS
 62
    64
 10
33.666465
 20
-67.315833
 11
33.751618
 21
-67.080583
  0
LINE
  8
ボルト／ビス
  6
CONTINUOUS
 62
    64
 10
33.997925
 20
-67.0367
 11
33.751618
 21
-67.080583
  0
LINE
  8
ボルト／ビス
  6
CONTINUOUS
 62
    64
 10
33.82762
 20
-67.5072
 11
34.07393
 21
-67.463317
  0
LINE
  8
ボルト／ビス
  6
CONTINUOUS
 62
    64
 10
34.15908
 20
-67.22807
 11
34.07393
 21
-67.463317
  0
LINE
  8
ボルト／ビス
  6
CONTINUOUS
 62
    64
 10
33.666465
 20
-67.315833
 11
33.82762
 21
-67.5072
  0
LINE
  8
ボルト／ビス
  6
CONTINUOUS
 62
    64
 10
33.997925
 20
-67.0367
 11
34.15908
 21
-67.22807
  0
CIRCLE
  8
ボルト／ビス
  6
CONTINUOUS
 62
    64
 10
33.912773
 20
-67.27195
 40
0.216668
  0
CIRCLE
  8
ボルト／ビス
  6
CONTINUOUS
 10
42.403192
 20
-60.121925
 40
0.250185
  0
CIRCLE
  8
ボルト／ビス
  6
CONTINUOUS
 10
42.403192
 20
-60.121925
 40
0.301025
  0
LINE
  8
ボルト／ビス
  6
CONTINUOUS
 62
    64
 10
42.488345
 20
-59.886675
 11
42.242035
 21
-59.93056
  0
LINE
  8
ボルト／ビス
  6
CONTINUOUS
 62
    64
 10
42.156883
 20
-60.165808
 11
42.242035
 21
-59.93056
  0
LINE
  8
ボルト／ビス
  6
CONTINUOUS
 62
    64
 10
42.649497
 20
-60.078042
 11
42.564348
 21
-60.31329
  0
LINE
  8
ボルト／ビス
  6
CONTINUOUS
 62
    64
 10
42.318037
 20
-60.357175
 11
42.564348
 21
-60.31329
  0
LINE
  8
ボルト／ビス
  6
CONTINUOUS
 62
    64
 10
42.488345
 20
-59.886675
 11
42.649497
 21
-60.078042
  0
LINE
  8
ボルト／ビス
  6
CONTINUOUS
 62
    64
 10
42.156883
 20
-60.165808
 11
42.318037
 21
-60.357175
  0
CIRCLE
  8
ボルト／ビス
  6
CONTINUOUS
 62
    64
 10
42.403192
 20
-60.121925
 40
0.216668
  0
ENDBLK
  0
BLOCK
  2
*DIM_0036
 70
    65
 10
0.0
 20
0.0
  0
LINE
  8
寸法
  6
CONTINUOUS
 10
128.871662
 20
-40.504173
 11
128.871662
 21
-30.512162
  0
LINE
  8
寸法
  6
CONTINUOUS
 10
160.994995
 20
-40.504173
 11
160.994995
 21
-30.512162
  0
LINE
  8
寸法
  6
CONTINUOUS
 10
128.871662
 20
-30.512162
 11
160.994995
 21
-30.512162
  0
POINT
  8
寸法
 10
128.871662
 20
-30.512162
  0
POINT
  8
寸法
 10
160.994995
 20
-30.512162
  0
TEXT
  7
TextStyle03
  8
寸法
  6
CONTINUOUS
 10
140.8
 20
-30.15
  1
963.7
 40
3.0
 72
     5
 11
149.05
 21
-30.15
  0
ENDBLK
  0
BLOCK
  2
*DIM_0037
 70
    65
 10
0.0
 20
0.0
  0
LINE
  8
寸法
  6
CONTINUOUS
 10
165.994995
 20
-45.504173
 11
176.515155
 21
-45.504173
  0
LINE
  8
寸法
  6
CONTINUOUS
 10
165.994995
 20
-74.837505
 11
176.515155
 21
-74.837505
  0
LINE
  8
寸法
  6
CONTINUOUS
 10
176.515155
 20
-45.504173
 11
176.515155
 21
-74.837505
  0
POINT
  8
寸法
 10
176.515155
 20
-45.504173
  0
POINT
  8
寸法
 10
176.515155
 20
-74.837505
  0
TEXT
  7
TextStyle03
  8
寸法
  6
CONTINUOUS
 10
176.125
 20
-62.6125
  1
880
 40
3.0
 50
90.0
 72
     5
 11
176.125
 21
-57.7375
  0
ENDBLK
  0
BLOCK
  2
*DIM_0038
 70
    65
 10
0.0
 20
0.0
  0
LINE
  8
寸法
  6
CONTINUOUS
 10
48.016525
 20
-68.209977
 11
48.016525
 21
-32.437345
  0
LINE
  8
寸法
  6
CONTINUOUS
 10
45.73683
 20
-32.437345
 11
48.016525
 21
-32.437345
  0
POINT
  8
寸法
 10
45.73683
 20
-32.437345
  0
POINT
  8
寸法
 10
48.016525
 20
-32.437345
  0
TEXT
  7
TextStyle03
  8
寸法
  6
CONTINUOUS
 10
50.34375
 20
-32.075
  1
68.4
 40
3.0
 72
     5
 11
56.90625
 21
-32.075
  0
ENDBLK
  0
BLOCK
  2
*DIM_0039
 70
    65
 10
0.0
 20
0.0
  0
LINE
  8
寸法
  6
CONTINUOUS
 10
-123.20952
 20
-68.209977
 11
-123.20952
 21
-32.437345
  0
LINE
  8
寸法
  6
CONTINUOUS
 10
-120.929825
 20
-32.437345
 11
-123.20952
 21
-32.437345
  0
POINT
  8
寸法
 10
-120.929825
 20
-32.437345
  0
POINT
  8
寸法
 10
-123.20952
 20
-32.437345
  0
TEXT
  7
TextStyle03
  8
寸法
  6
CONTINUOUS
 10
-132.10625
 20
-32.075
  1
68.4
 40
3.0
 72
     5
 11
-125.54375
 21
-32.075
  0
ENDBLK
  0
BLOCK
  2
*DIM_0040
 70
    65
 10
0.0
 20
0.0
  0
LINE
  8
寸法
  6
CONTINUOUS
 10
45.73683
 20
-32.437345
 11
-120.929825
 21
-32.437345
  0
POINT
  8
寸法
 10
45.73683
 20
-32.437345
  0
POINT
  8
寸法
 10
-120.929825
 20
-32.437345
  0
TEXT
  7
TextStyle03
  8
寸法
  6
CONTINUOUS
 10
-49.31875
 20
-32.075
  1
呼称寸法　5000
 40
3.0
 72
     5
 11
-25.88125
 21
-32.075
  0
ENDBLK
  0
BLOCK
  2
M8横
 70
    64
 10
-88.370132
 20
140.837665
  0
LINE
  8
ボルト／ビス
 10
-95.870132
 20
140.837665
 11
-80.870132
 21
140.837665
  0
LINE
  8
ボルト／ビス
 10
-80.870132
 20
145.837665
 11
-81.370132
 21
146.337665
  0
POLYLINE
  8
ボルト／ビス
 66
     1
  0
VERTEX
  8
ボルト／ビス
 10
-84.120132
 20
146.337665
  0
VERTEX
  8
ボルト／ビス
 10
-84.620132
 20
145.837665
  0
VERTEX
  8
ボルト／ビス
 10
-85.120132
 20
146.337665
  0
SEQEND
  0
POLYLINE
  8
ボルト／ビス
 66
     1
  0
VERTEX
  8
ボルト／ビス
 10
-91.620132
 20
146.337665
  0
VERTEX
  8
ボルト／ビス
 10
-92.120132
 20
145.837665
  0
VERTEX
  8
ボルト／ビス
 10
-92.620132
 20
146.337665
  0
SEQEND
  0
LINE
  8
ボルト／ビス
 10
-95.370132
 20
146.337665
 11
-95.870132
 21
145.837665
  0
LINE
  8
ボルト／ビス
 10
-95.870132
 20
140.837665
 11
-95.870132
 21
145.837665
  0
LINE
  8
ボルト／ビス
 10
-80.870132
 20
140.837665
 11
-80.870132
 21
145.837665
  0
LINE
  8
ボルト／ビス
 10
-95.370132
 20
146.337665
 11
-81.370132
 21
146.337665
  0
LINE
  8
ボルト／ビス
 10
-84.620132
 20
140.837665
 11
-84.620132
 21
145.837665
  0
LINE
  8
ボルト／ビス
 10
-92.120132
 20
140.837665
 11
-92.120132
 21
145.837665
  0
ENDBLK
  0
ENDSEC
  0
SECTION
  2
ENTITIES
  0
POLYLINE
  8
通り芯
  6
CONTINUOUS
 66
     1
 70
     1
  0
VERTEX
  8
通り芯
 10
-210.0
 20
-148.5
  0
VERTEX
  8
通り芯
 10
210.0
 20
-148.5
  0
VERTEX
  8
通り芯
 10
210.0
 20
148.5
  0
VERTEX
  8
通り芯
 10
-210.0
 20
148.5
  0
SEQEND
  0
INSERT
  2
*GRP_0001
  8
型材断面
  6
CONTINUOUS
 10
0.0
 20
0.0
  0
LINE
  8
型材断面
  6
CONTINUOUS
 10
162.97617
 20
66.869993
 11
162.97617
 21
66.819993
  0
LINE
  8
型材断面
  6
CONTINUOUS
 10
162.47617
 20
65.203325
 11
161.742835
 21
65.203325
  0
LINE
  8
型材断面
  6
CONTINUOUS
 62
    47
 10
169.709335
 20
66.60302
 11
169.709335
 21
66.55302
  0
LINE
  8
型材断面
  6
CONTINUOUS
 62
    47
 10
169.709335
 20
66.60302
 11
169.209335
 21
66.60302
  0
LINE
  8
型材断面
  6
CONTINUOUS
 10
163.459335
 20
65.25302
 11
163.459335
 21
66.699688
  0
LINE
  8
型材断面
  6
CONTINUOUS
 10
163.909335
 20
66.699688
 11
163.459335
 21
66.699688
  0
LINE
  8
型材断面
  6
CONTINUOUS
 62
    47
 10
166.582028
 20
67.43302
 11
166.582028
 21
67.48302
  0
LINE
  8
型材断面
  6
CONTINUOUS
 62
    47
 10
166.582028
 20
67.48302
 11
166.248695
 21
67.48302
  0
LINE
  8
型材断面
  6
CONTINUOUS
 62
    47
 10
166.248695
 20
67.48302
 11
166.148695
 21
66.699688
  0
LINE
  8
型材断面
  6
CONTINUOUS
 62
    47
 10
165.74267
 20
66.699688
 11
166.148695
 21
66.699688
  0
LINE
  8
型材断面
  6
CONTINUOUS
 62
    47
 10
165.74267
 20
67.169687
 11
163.909335
 21
67.169687
  0
LINE
  8
型材断面
  6
CONTINUOUS
 10
162.97617
 20
66.869993
 11
162.47617
 21
66.869993
  0
LINE
  8
型材断面
  6
CONTINUOUS
 10
163.459335
 20
65.25302
 11
162.97617
 21
65.25302
  0
LINE
  8
型材断面
  6
CONTINUOUS
 62
    47
 10
169.209335
 20
67.169687
 11
166.582028
 21
67.169687
  0
INSERT
  2
*GRP_0002
  8
型材断面
  6
DOT
 10
0.0
 20
0.0
  0
INSERT
  2
*GRP_0003
  8
型材断面
  6
DOT
 10
0.0
 20
0.0
  0
LINE
  8
型材断面
  6
CONTINUOUS
 10
169.209335
 20
67.169687
 11
169.209335
 21
50.203325
  0
LINE
  8
型材断面
  6
CONTINUOUS
 10
169.709335
 20
66.60302
 11
169.709335
 21
50.203325
  0
LINE
  8
型材断面
  6
CONTINUOUS
 10
166.582028
 20
67.48302
 11
166.582028
 21
50.203325
  0
LINE
  8
型材断面
  6
CONTINUOUS
 10
166.248695
 20
67.48302
 11
166.248695
 21
50.203325
  0
LINE
  8
型材断面
  6
CONTINUOUS
 10
166.148695
 20
66.699688
 11
166.148695
 21
50.203325
  0
LINE
  8
型材断面
  6
CONTINUOUS
 10
165.74267
 20
67.169687
 11
165.74267
 21
50.203325
  0
LINE
  8
型材断面
  6
CONTINUOUS
 10
162.97617
 20
66.869993
 11
162.97617
 21
50.203325
  0
LINE
  8
型材断面
  6
CONTINUOUS
 10
161.742835
 20
65.203325
 11
161.742835
 21
50.203325
  0
LINE
  8
型材断面
  6
CONTINUOUS
 10
162.47617
 20
66.869993
 11
162.47617
 21
50.203325
  0
LINE
  8
型材断面
  6
CONTINUOUS
 10
163.459335
 20
66.699688
 11
163.459335
 21
50.203325
  0
LINE
  8
型材断面
  6
CONTINUOUS
 10
163.909335
 20
67.169687
 11
163.909335
 21
50.203325
  0
LINE
  8
型材断面
  6
DASHDOT
 10
-37.596497
 20
-79.253555
 11
-37.596497
 21
65.203325
  0
LINE
  8
型材断面
  6
CONTINUOUS
 10
162.97617
 20
33.53666
 11
162.97617
 21
33.58666
  0
LINE
  8
型材断面
  6
CONTINUOUS
 10
162.47617
 20
35.203325
 11
161.742835
 21
35.203325
  0
LINE
  8
型材断面
  6
CONTINUOUS
 62
    47
 10
169.709335
 20
33.80363
 11
169.709335
 21
33.85363
  0
LINE
  8
型材断面
  6
CONTINUOUS
 62
    47
 10
169.709335
 20
33.80363
 11
169.209335
 21
33.80363
  0
LINE
  8
型材断面
  6
CONTINUOUS
 10
163.459335
 20
35.15363
 11
163.459335
 21
33.706965
  0
LINE
  8
型材断面
  6
CONTINUOUS
 10
163.909335
 20
33.706965
 11
163.459335
 21
33.706965
  0
LINE
  8
型材断面
  6
CONTINUOUS
 62
    47
 10
166.582028
 20
32.97363
 11
166.582028
 21
32.92363
  0
LINE
  8
型材断面
  6
CONTINUOUS
 62
    47
 10
166.582028
 20
32.92363
 11
166.248695
 21
32.92363
  0
LINE
  8
型材断面
  6
CONTINUOUS
 62
    47
 10
166.248695
 20
32.92363
 11
166.148695
 21
33.706965
  0
LINE
  8
型材断面
  6
CONTINUOUS
 62
    47
 10
165.74267
 20
33.706965
 11
166.148695
 21
33.706965
  0
LINE
  8
型材断面
  6
CONTINUOUS
 62
    47
 10
165.74267
 20
33.236965
 11
163.909335
 21
33.236965
  0
LINE
  8
型材断面
  6
CONTINUOUS
 10
162.97617
 20
33.53666
 11
162.47617
 21
33.53666
  0
LINE
  8
型材断面
  6
CONTINUOUS
 10
163.459335
 20
35.15363
 11
162.97617
 21
35.15363
  0
LINE
  8
型材断面
  6
CONTINUOUS
 62
    47
 10
169.209335
 20
33.236965
 11
166.582028
 21
33.236965
  0
INSERT
  2
*GRP_0004
  8
型材断面
  6
DOT
 10
0.0
 20
0.0
  0
INSERT
  2
*GRP_0005
  8
型材断面
  6
DOT
 10
0.0
 20
0.0
  0
LINE
  8
型材断面
  6
CONTINUOUS
 10
169.209335
 20
33.236965
 11
169.209335
 21
50.203325
  0
LINE
  8
型材断面
  6
CONTINUOUS
 10
169.709335
 20
33.80363
 11
169.709335
 21
50.203325
  0
LINE
  8
型材断面
  6
CONTINUOUS
 10
166.582028
 20
32.92363
 11
166.582028
 21
50.203325
  0
LINE
  8
型材断面
  6
CONTINUOUS
 10
166.248695
 20
32.92363
 11
166.248695
 21
50.203325
  0
LINE
  8
型材断面
  6
CONTINUOUS
 10
166.148695
 20
33.706965
 11
166.148695
 21
50.203325
  0
LINE
  8
型材断面
  6
CONTINUOUS
 10
165.74267
 20
33.236965
 11
165.74267
 21
50.203325
  0
LINE
  8
型材断面
  6
CONTINUOUS
 10
162.97617
 20
33.53666
 11
162.97617
 21
50.203325
  0
LINE
  8
型材断面
  6
CONTINUOUS
 10
161.742835
 20
35.203325
 11
161.742835
 21
50.203325
  0
LINE
  8
型材断面
  6
CONTINUOUS
 10
162.47617
 20
33.53666
 11
162.47617
 21
50.203325
  0
LINE
  8
型材断面
  6
CONTINUOUS
 10
163.459335
 20
33.706965
 11
163.459335
 21
50.203325
  0
LINE
  8
型材断面
  6
CONTINUOUS
 10
163.909335
 20
33.236965
 11
163.909335
 21
50.203325
  0
POLYLINE
  8
型材断面
  6
CONTINUOUS
 66
     1
 70
     1
  0
VERTEX
  8
型材断面
 10
28.91449
 20
-94.850355
  0
VERTEX
  8
型材断面
 10
-19.764185
 20
-94.850355
  0
VERTEX
  8
型材断面
 10
-19.764185
 20
-111.19502
  0
VERTEX
  8
型材断面
 10
28.91449
 20
-111.19502
  0
SEQEND
  0
LINE
  8
型材断面
  6
CONTINUOUS
 10
47.403498
 20
-69.937453
 11
47.353498
 21
-69.937453
  0
LINE
  8
型材断面
  6
CONTINUOUS
 10
45.73683
 20
-69.437453
 11
45.73683
 21
-68.70412
  0
LINE
  8
型材断面
  6
CONTINUOUS
 62
    47
 10
47.136525
 20
-76.67062
 11
47.086525
 21
-76.67062
  0
LINE
  8
型材断面
  6
CONTINUOUS
 62
    47
 10
47.136525
 20
-76.67062
 11
47.136525
 21
-76.17062
  0
LINE
  8
型材断面
  6
CONTINUOUS
 10
45.786525
 20
-70.42062
 11
47.233193
 21
-70.42062
  0
LINE
  8
型材断面
  6
CONTINUOUS
 10
47.233193
 20
-70.87062
 11
47.233193
 21
-70.42062
  0
LINE
  8
型材断面
  6
CONTINUOUS
 62
    47
 10
47.966525
 20
-73.543312
 11
48.016525
 21
-73.543312
  0
LINE
  8
型材断面
  6
CONTINUOUS
 62
    47
 10
48.016525
 20
-73.543312
 11
48.016525
 21
-73.209977
  0
LINE
  8
型材断面
  6
CONTINUOUS
 62
    47
 10
48.016525
 20
-73.209977
 11
47.233193
 21
-73.109977
  0
LINE
  8
型材断面
  6
CONTINUOUS
 62
    47
 10
47.233193
 20
-72.703953
 11
47.233193
 21
-73.109977
  0
LINE
  8
型材断面
  6
CONTINUOUS
 62
    47
 10
47.703192
 20
-72.703953
 11
47.703192
 21
-70.87062
  0
LINE
  8
型材断面
  6
CONTINUOUS
 10
47.403498
 20
-69.937453
 11
47.403498
 21
-69.437453
  0
LINE
  8
型材断面
  6
CONTINUOUS
 10
45.786525
 20
-70.42062
 11
45.786525
 21
-69.937453
  0
LINE
  8
型材断面
  6
CONTINUOUS
 62
    47
 10
47.703192
 20
-76.17062
 11
47.703192
 21
-73.543312
  0
INSERT
  2
*GRP_0010
  8
型材断面
  6
DOT
 10
0.0
 20
0.0
  0
INSERT
  2
*GRP_0011
  8
型材断面
  6
DOT
 10
0.0
 20
0.0
  0
LINE
  8
型材断面
  6
CONTINUOUS
 10
47.703192
 20
-76.17062
 11
-37.596497
 21
-76.17062
  0
LINE
  8
型材断面
  6
CONTINUOUS
 10
47.136525
 20
-76.67062
 11
-37.596497
 21
-76.67062
  0
LINE
  8
型材断面
  6
CONTINUOUS
 10
48.016525
 20
-73.543312
 11
-37.596497
 21
-73.543312
  0
LINE
  8
型材断面
  6
CONTINUOUS
 10
48.016525
 20
-73.209977
 11
-37.596497
 21
-73.209977
  0
LINE
  8
型材断面
  6
CONTINUOUS
 10
47.233193
 20
-73.109977
 11
-37.596497
 21
-73.109977
  0
LINE
  8
型材断面
  6
CONTINUOUS
 10
47.703192
 20
-72.703953
 11
-37.596497
 21
-72.703953
  0
LINE
  8
型材断面
  6
CONTINUOUS
 10
47.403498
 20
-69.937453
 11
-37.596497
 21
-69.937453
  0
LINE
  8
型材断面
  6
CONTINUOUS
 10
45.73683
 20
-68.70412
 11
-37.596497
 21
-68.70412
  0
LINE
  8
型材断面
  6
CONTINUOUS
 10
47.403498
 20
-69.437453
 11
-37.596497
 21
-69.437453
  0
LINE
  8
型材断面
  6
CONTINUOUS
 10
47.233193
 20
-70.42062
 11
-37.596497
 21
-70.42062
  0
LINE
  8
型材断面
  6
CONTINUOUS
 10
47.703192
 20
-70.87062
 11
-37.596497
 21
-70.87062
  0
LINE
  8
型材断面
  6
CONTINUOUS
 10
44.903498
 20
50.619993
 11
45.73683
 21
50.619993
  0
LINE
  8
型材断面
  6
CONTINUOUS
 10
44.903498
 20
49.786658
 11
45.73683
 21
49.786658
  0
LINE
  8
型材断面
  6
CONTINUOUS
 10
44.903498
 20
64.369993
 11
48.016525
 21
67.48302
  0
LINE
  8
型材断面
  6
CONTINUOUS
 10
44.903498
 20
50.619993
 11
44.903498
 21
64.369993
  0
LINE
  8
型材断面
  6
DASHDOT
 10
172.29227
 20
65.203325
 11
45.73683
 21
65.203325
  0
LINE
  8
型材断面
  6
CONTINUOUS
 10
44.903498
 20
36.036658
 11
48.016525
 21
32.92363
  0
LINE
  8
型材断面
  6
CONTINUOUS
 10
44.903498
 20
36.036658
 11
44.903498
 21
49.786658
  0
LINE
  8
型材断面
  6
DASHDOT
 10
172.29227
 20
35.203325
 11
45.73683
 21
35.203325
  0
LINE
  8
型材断面
  6
DASHDOT
 10
45.73683
 20
-79.253555
 11
45.73683
 21
35.203325
  0
LINE
  8
型材断面
  6
CONTINUOUS
 10
45.73683
 20
35.203325
 11
45.73683
 21
65.203325
  0
LINE
  8
型材断面
  6
CONTINUOUS
 10
47.703192
 20
33.236962
 11
47.703192
 21
67.169687
  0
LINE
  8
型材断面
  6
CONTINUOUS
 10
48.016525
 20
32.92363
 11
48.016525
 21
67.48302
  0
LINE
  8
型材断面
  6
CONTINUOUS
 10
47.403498
 20
33.536658
 11
47.403498
 21
66.869993
  0
LINE
  8
型材断面
  6
CONTINUOUS
 10
-122.596493
 20
-69.937453
 11
-122.546493
 21
-69.937453
  0
LINE
  8
型材断面
  6
CONTINUOUS
 10
-120.929825
 20
-69.437453
 11
-120.929825
 21
-68.70412
  0
LINE
  8
型材断面
  6
CONTINUOUS
 62
    47
 10
-122.32952
 20
-76.67062
 11
-122.27952
 21
-76.67062
  0
LINE
  8
型材断面
  6
CONTINUOUS
 62
    47
 10
-122.32952
 20
-76.67062
 11
-122.32952
 21
-76.17062
  0
LINE
  8
型材断面
  6
CONTINUOUS
 10
-120.97952
 20
-70.42062
 11
-122.426188
 21
-70.42062
  0
LINE
  8
型材断面
  6
CONTINUOUS
 10
-122.426188
 20
-70.87062
 11
-122.426188
 21
-70.42062
  0
LINE
  8
型材断面
  6
CONTINUOUS
 62
    47
 10
-123.15952
 20
-73.543312
 11
-123.20952
 21
-73.543312
  0
LINE
  8
型材断面
  6
CONTINUOUS
 62
    47
 10
-123.20952
 20
-73.543312
 11
-123.20952
 21
-73.209977
  0
LINE
  8
型材断面
  6
CONTINUOUS
 62
    47
 10
-123.20952
 20
-73.209977
 11
-122.426188
 21
-73.109977
  0
LINE
  8
型材断面
  6
CONTINUOUS
 62
    47
 10
-122.426188
 20
-72.703953
 11
-122.426188
 21
-73.109977
  0
LINE
  8
型材断面
  6
CONTINUOUS
 62
    47
 10
-122.896188
 20
-72.703953
 11
-122.896188
 21
-70.87062
  0
LINE
  8
型材断面
  6
CONTINUOUS
 10
-122.596493
 20
-69.937453
 11
-122.596493
 21
-69.437453
  0
LINE
  8
型材断面
  6
CONTINUOUS
 10
-120.97952
 20
-70.42062
 11
-120.97952
 21
-69.937453
  0
LINE
  8
型材断面
  6
CONTINUOUS
 62
    47
 10
-122.896188
 20
-76.17062
 11
-122.896188
 21
-73.543312
  0
INSERT
  2
*GRP_0013
  8
型材断面
  6
DOT
 10
0.0
 20
0.0
  0
INSERT
  2
*GRP_0014
  8
型材断面
  6
DOT
 10
0.0
 20
0.0
  0
LINE
  8
型材断面
  6
CONTINUOUS
 10
-122.896188
 20
-76.17062
 11
-37.596497
 21
-76.17062
  0
LINE
  8
型材断面
  6
CONTINUOUS
 10
-122.32952
 20
-76.67062
 11
-37.596497
 21
-76.67062
  0
LINE
  8
型材断面
  6
CONTINUOUS
 10
-123.20952
 20
-73.543312
 11
-37.596497
 21
-73.543312
  0
LINE
  8
型材断面
  6
CONTINUOUS
 10
-123.20952
 20
-73.209977
 11
-37.596497
 21
-73.209977
  0
LINE
  8
型材断面
  6
CONTINUOUS
 10
-122.426188
 20
-73.109977
 11
-37.596497
 21
-73.109977
  0
LINE
  8
型材断面
  6
CONTINUOUS
 10
-122.896188
 20
-72.703953
 11
-37.596497
 21
-72.703953
  0
LINE
  8
型材断面
  6
CONTINUOUS
 10
-122.596493
 20
-69.937453
 11
-37.596497
 21
-69.937453
  0
LINE
  8
型材断面
  6
CONTINUOUS
 10
-120.929825
 20
-68.70412
 11
-37.596497
 21
-68.70412
  0
LINE
  8
型材断面
  6
CONTINUOUS
 10
-122.596493
 20
-69.437453
 11
-37.596497
 21
-69.437453
  0
LINE
  8
型材断面
  6
CONTINUOUS
 10
-122.426188
 20
-70.42062
 11
-37.596497
 21
-70.42062
  0
LINE
  8
型材断面
  6
CONTINUOUS
 10
-122.896188
 20
-70.87062
 11
-37.596497
 21
-70.87062
  0
LINE
  8
型材断面
  6
CONTINUOUS
 10
-120.096493
 20
49.786658
 11
-120.929825
 21
49.786658
  0
LINE
  8
型材断面
  6
CONTINUOUS
 10
-120.096493
 20
50.619993
 11
-120.929825
 21
50.619993
  0
LINE
  8
型材断面
  6
DASHDOT
 10
172.29227
 20
50.203325
 11
-120.929825
 21
50.203325
  0
LINE
  8
型材断面
  6
CONTINUOUS
 10
-120.096493
 20
64.369993
 11
-123.20952
 21
67.48302
  0
LINE
  8
型材断面
  6
CONTINUOUS
 10
-120.096493
 20
50.619993
 11
-120.096493
 21
64.369993
  0
LINE
  8
型材断面
  6
CONTINUOUS
 10
-120.096493
 20
36.036658
 11
-123.20952
 21
32.92363
  0
LINE
  8
型材断面
  6
CONTINUOUS
 10
-120.096493
 20
36.036658
 11
-120.096493
 21
49.786658
  0
LINE
  8
型材断面
  6
DASHDOT
 10
-120.929825
 20
-79.253555
 11
-120.929825
 21
35.203325
  0
LINE
  8
型材断面
  6
CONTINUOUS
 10
-120.929825
 20
35.203325
 11
-120.929825
 21
65.203325
  0
LINE
  8
型材断面
  6
CONTINUOUS
 10
-122.896188
 20
33.236962
 11
-122.896188
 21
67.169687
  0
LINE
  8
型材断面
  6
CONTINUOUS
 10
-123.20952
 20
32.92363
 11
-123.20952
 21
67.48302
  0
LINE
  8
型材断面
  6
CONTINUOUS
 10
-122.596493
 20
33.536658
 11
-122.596493
 21
66.869993
  0
LINE
  8
型材断面
  6
CONTINUOUS
 10
45.73683
 20
65.203325
 11
-120.929825
 21
65.203325
  0
LINE
  8
型材断面
  6
CONTINUOUS
 10
47.703192
 20
67.169687
 11
-122.896188
 21
67.169687
  0
LINE
  8
型材断面
  6
CONTINUOUS
 10
48.016525
 20
67.48302
 11
-123.20952
 21
67.48302
  0
LINE
  8
型材断面
  6
CONTINUOUS
 10
47.403498
 20
66.869993
 11
-122.596493
 21
66.869993
  0
LINE
  8
型材断面
  6
CONTINUOUS
 10
45.73683
 20
35.203325
 11
-120.929825
 21
35.203325
  0
LINE
  8
型材断面
  6
CONTINUOUS
 10
47.703192
 20
33.236962
 11
-122.896188
 21
33.236962
  0
LINE
  8
型材断面
  6
CONTINUOUS
 10
48.016525
 20
32.92363
 11
-123.20952
 21
32.92363
  0
LINE
  8
型材断面
  6
CONTINUOUS
 10
47.403498
 20
33.536658
 11
-122.596493
 21
33.536658
  0
LINE
  8
型材断面
  6
CONTINUOUS
 10
-86.5505
 20
36.86999
 11
-89.0505
 21
36.86999
  0
LINE
  8
型材断面
  6
CONTINUOUS
 10
-53.081167
 20
36.86999
 11
-55.581167
 21
36.86999
  0
LINE
  8
型材断面
  6
CONTINUOUS
 10
-103.948495
 20
35.203325
 11
-103.948495
 21
36.036658
  0
LINE
  8
型材断面
  6
CONTINUOUS
 10
-104.78183
 20
35.203325
 11
-104.78183
 21
36.036658
  0
LINE
  8
型材断面
  6
CONTINUOUS
 10
-120.096493
 20
36.036658
 11
-104.78183
 21
36.036658
  0
LINE
  8
型材断面
  6
CONTINUOUS
 10
-70.649165
 20
35.203325
 11
-70.649165
 21
36.036658
  0
LINE
  8
型材断面
  6
CONTINUOUS
 10
-71.4825
 20
35.203325
 11
-71.4825
 21
36.036658
  0
LINE
  8
型材断面
  6
CONTINUOUS
 10
-103.948495
 20
36.036658
 11
-71.4825
 21
36.036658
  0
LINE
  8
型材断面
  6
CONTINUOUS
 10
-37.17983
 20
35.203325
 11
-37.17983
 21
36.036658
  0
LINE
  8
型材断面
  6
CONTINUOUS
 10
-38.013165
 20
35.203325
 11
-38.013165
 21
36.036658
  0
LINE
  8
型材断面
  6
CONTINUOUS
 10
-70.649165
 20
36.036658
 11
-38.013165
 21
36.036658
  0
LINE
  8
型材断面
  6
DASHDOT
 10
-87.8005
 20
35.203325
 11
-87.8005
 21
65.203325
  0
LINE
  8
型材断面
  6
DASHDOT
 10
-54.331167
 20
35.203325
 11
-54.331167
 21
65.203325
  0
LINE
  8
型材断面
  6
CONTINUOUS
 10
-86.5505
 20
63.53666
 11
-89.0505
 21
63.53666
  0
LINE
  8
型材断面
  6
CONTINUOUS
 10
-53.081167
 20
63.53666
 11
-55.581167
 21
63.53666
  0
LINE
  8
型材断面
  6
CONTINUOUS
 10
-87.5505
 20
36.86999
 11
-87.5505
 21
63.53666
  0
LINE
  8
型材断面
  6
CONTINUOUS
 10
-86.5505
 20
36.86999
 11
-86.5505
 21
63.53666
  0
LINE
  8
型材断面
  6
CONTINUOUS
 10
-88.0505
 20
36.86999
 11
-88.0505
 21
63.53666
  0
LINE
  8
型材断面
  6
CONTINUOUS
 10
-89.0505
 20
36.86999
 11
-89.0505
 21
63.53666
  0
LINE
  8
型材断面
  6
CONTINUOUS
 10
-54.081167
 20
36.86999
 11
-54.081167
 21
63.53666
  0
LINE
  8
型材断面
  6
CONTINUOUS
 10
-53.081167
 20
36.86999
 11
-53.081167
 21
63.53666
  0
LINE
  8
型材断面
  6
CONTINUOUS
 10
-54.581167
 20
36.86999
 11
-54.581167
 21
63.53666
  0
LINE
  8
型材断面
  6
CONTINUOUS
 10
-55.581167
 20
36.86999
 11
-55.581167
 21
63.53666
  0
LINE
  8
型材断面
  6
CONTINUOUS
 10
11.357505
 20
36.86999
 11
13.857505
 21
36.86999
  0
LINE
  8
型材断面
  6
CONTINUOUS
 10
-22.111827
 20
36.86999
 11
-19.611827
 21
36.86999
  0
LINE
  8
型材断面
  6
CONTINUOUS
 10
28.7555
 20
35.203325
 11
28.7555
 21
36.036658
  0
LINE
  8
型材断面
  6
CONTINUOUS
 10
29.588835
 20
35.203325
 11
29.588835
 21
36.036658
  0
LINE
  8
型材断面
  6
CONTINUOUS
 10
44.903498
 20
36.036658
 11
29.588835
 21
36.036658
  0
LINE
  8
型材断面
  6
CONTINUOUS
 10
-4.54383
 20
35.203325
 11
-4.54383
 21
36.036658
  0
LINE
  8
型材断面
  6
CONTINUOUS
 10
-3.710495
 20
35.203325
 11
-3.710495
 21
36.036658
  0
LINE
  8
型材断面
  6
CONTINUOUS
 10
28.7555
 20
36.036658
 11
-3.710495
 21
36.036658
  0
LINE
  8
型材断面
  6
DASHDOT
 10
12.607505
 20
35.203325
 11
12.607505
 21
65.203325
  0
LINE
  8
型材断面
  6
DASHDOT
 10
-20.861827
 20
35.203325
 11
-20.861827
 21
65.203325
  0
LINE
  8
型材断面
  6
CONTINUOUS
 10
11.357505
 20
63.53666
 11
13.857505
 21
63.53666
  0
LINE
  8
型材断面
  6
CONTINUOUS
 10
-22.111827
 20
63.53666
 11
-19.611827
 21
63.53666
  0
LINE
  8
型材断面
  6
CONTINUOUS
 10
12.357505
 20
36.86999
 11
12.357505
 21
63.53666
  0
LINE
  8
型材断面
  6
CONTINUOUS
 10
11.357505
 20
36.86999
 11
11.357505
 21
63.53666
  0
LINE
  8
型材断面
  6
CONTINUOUS
 10
12.857505
 20
36.86999
 11
12.857505
 21
63.53666
  0
LINE
  8
型材断面
  6
CONTINUOUS
 10
13.857505
 20
36.86999
 11
13.857505
 21
63.53666
  0
LINE
  8
型材断面
  6
CONTINUOUS
 10
-21.111827
 20
36.86999
 11
-21.111827
 21
63.53666
  0
LINE
  8
型材断面
  6
CONTINUOUS
 10
-22.111827
 20
36.86999
 11
-22.111827
 21
63.53666
  0
LINE
  8
型材断面
  6
CONTINUOUS
 10
-20.611827
 20
36.86999
 11
-20.611827
 21
63.53666
  0
LINE
  8
型材断面
  6
CONTINUOUS
 10
-19.611827
 20
36.86999
 11
-19.611827
 21
63.53666
  0
LINE
  8
型材断面
  6
CONTINUOUS
 10
-37.17983
 20
36.036658
 11
-4.54383
 21
36.036658
  0
POLYLINE
  8
型材断面
  6
CONTINUOUS
 66
     1
 70
     1
  0
VERTEX
  8
型材断面
 10
-28.268443
 20
25.427403
  0
VERTEX
  8
型材断面
 10
-47.040373
 20
25.427403
  0
VERTEX
  8
型材断面
 10
-47.040373
 20
20.69056
  0
VERTEX
  8
型材断面
 10
-28.268443
 20
20.69056
  0
SEQEND
  0
POLYLINE
  8
型材断面
  6
CONTINUOUS
 66
     1
 70
     1
  0
VERTEX
  8
型材断面
 10
-28.268443
 20
74.979248
  0
VERTEX
  8
型材断面
 10
-47.040373
 20
74.979248
  0
VERTEX
  8
型材断面
 10
-47.040373
 20
79.71609
  0
VERTEX
  8
型材断面
 10
-28.268443
 20
79.71609
  0
SEQEND
  0
LINE
  8
型材断面
  6
CONTINUOUS
 10
-104.263162
 20
67.833455
 11
-105.758792
 21
70.423963
  0
LINE
  8
型材断面
  6
CONTINUOUS
 10
-104.263162
 20
67.833455
 11
-102.767533
 21
70.423963
  0
LINE
  8
型材断面
  6
CONTINUOUS
 10
-102.767533
 20
70.423963
 11
-105.758792
 21
70.423963
  0
LINE
  8
型材断面
  6
CONTINUOUS
 10
-161.782038
 20
103.180797
 11
-161.185982
 21
100.59029
  0
LINE
  8
型材断面
  6
CONTINUOUS
 10
-161.782038
 20
103.180797
 11
-162.378095
 21
100.59029
  0
LINE
  8
型材断面
  6
CONTINUOUS
 10
-162.378095
 20
100.59029
 11
-161.185982
 21
100.59029
  0
LINE
  8
型材断面
  6
CONTINUOUS
 10
-167.804625
 20
97.311398
 11
-121.562848
 21
97.311398
  0
LINE
  8
型材断面
  6
CONTINUOUS
 10
-161.782038
 20
109.710672
 11
-163.277668
 21
107.120165
  0
LINE
  8
型材断面
  6
CONTINUOUS
 10
-161.782038
 20
109.710672
 11
-160.286408
 21
107.120165
  0
LINE
  8
型材断面
  6
CONTINUOUS
 10
-160.286408
 20
107.120165
 11
-163.277668
 21
107.120165
  0
LINE
  8
型材断面
  6
CONTINUOUS
 10
-167.804625
 20
106.18157
 11
-121.562848
 21
106.18157
  0
LINE
  8
型材断面
  6
CONTINUOUS
 10
-167.804625
 20
91.523365
 11
-121.562848
 21
91.523365
  0
LINE
  8
型材断面
  6
CONTINUOUS
 10
-123.55996
 20
50.203325
 11
-126.150468
 21
51.698955
  0
LINE
  8
型材断面
  6
CONTINUOUS
 10
-123.55996
 20
50.203325
 11
-126.150468
 21
48.707695
  0
LINE
  8
型材断面
  6
CONTINUOUS
 10
-126.150468
 20
48.707695
 11
-126.150468
 21
51.698955
  0
LINE
  8
型材断面
  6
CONTINUOUS
 10
-104.263162
 20
32.573195
 11
-105.758792
 21
29.982688
  0
LINE
  8
型材断面
  6
CONTINUOUS
 10
-104.263162
 20
32.573195
 11
-102.767533
 21
29.982688
  0
LINE
  8
型材断面
  6
CONTINUOUS
 10
-102.767533
 20
29.982688
 11
-105.758792
 21
29.982688
  0
LINE
  8
型材断面
  6
CONTINUOUS
 10
29.070168
 20
67.833455
 11
30.565798
 21
70.423963
  0
LINE
  8
型材断面
  6
CONTINUOUS
 10
29.070168
 20
67.833455
 11
27.574538
 21
70.423963
  0
LINE
  8
型材断面
  6
CONTINUOUS
 10
27.574538
 20
70.423963
 11
30.565798
 21
70.423963
  0
LINE
  8
型材断面
  6
CONTINUOUS
 10
48.366965
 20
50.203325
 11
50.957473
 21
51.698955
  0
LINE
  8
型材断面
  6
CONTINUOUS
 10
48.366965
 20
50.203325
 11
50.957473
 21
48.707695
  0
LINE
  8
型材断面
  6
CONTINUOUS
 10
50.957473
 20
48.707695
 11
50.957473
 21
51.698955
  0
LINE
  8
型材断面
  6
CONTINUOUS
 10
29.070168
 20
32.573195
 11
30.565798
 21
29.982688
  0
LINE
  8
型材断面
  6
CONTINUOUS
 10
29.070168
 20
32.573195
 11
27.574538
 21
29.982688
  0
LINE
  8
型材断面
  6
CONTINUOUS
 10
27.574538
 20
29.982688
 11
30.565798
 21
29.982688
  0
LINE
  8
型材断面
  6
CONTINUOUS
 10
-37.596497
 20
67.833453
 11
-36.100868
 21
70.42396
  0
LINE
  8
型材断面
  6
CONTINUOUS
 10
-37.596497
 20
67.833453
 11
-39.092127
 21
70.42396
  0
LINE
  8
型材断面
  6
CONTINUOUS
 10
-39.092127
 20
70.42396
 11
-36.100868
 21
70.42396
  0
LINE
  8
型材断面
  6
CONTINUOUS
 10
-37.596497
 20
32.573193
 11
-36.100868
 21
29.982685
  0
LINE
  8
型材断面
  6
CONTINUOUS
 10
-37.596497
 20
32.573193
 11
-39.092127
 21
29.982685
  0
LINE
  8
型材断面
  6
CONTINUOUS
 10
-39.092127
 20
29.982685
 11
-36.100868
 21
29.982685
  0
LINE
  8
型材断面
  6
CONTINUOUS
 10
48.366963
 20
61.303325
 11
50.95747
 21
60.707267
  0
LINE
  8
型材断面
  6
CONTINUOUS
 10
48.366963
 20
61.303325
 11
50.95747
 21
61.899382
  0
LINE
  8
型材断面
  6
CONTINUOUS
 10
50.95747
 20
61.899382
 11
50.95747
 21
60.707267
  0
LINE
  8
型材断面
  6
CONTINUOUS
 10
48.366963
 20
39.103325
 11
50.95747
 21
39.699382
  0
LINE
  8
型材断面
  6
CONTINUOUS
 10
48.366963
 20
39.103325
 11
50.95747
 21
38.507267
  0
LINE
  8
型材断面
  6
CONTINUOUS
 10
50.95747
 20
38.507267
 11
50.95747
 21
39.699382
  0
LINE
  8
型材断面
  6
CONTINUOUS
 10
-123.559958
 20
61.303325
 11
-126.150465
 21
60.707267
  0
LINE
  8
型材断面
  6
CONTINUOUS
 10
-123.559958
 20
61.303325
 11
-126.150465
 21
61.899382
  0
LINE
  8
型材断面
  6
CONTINUOUS
 10
-126.150465
 20
61.899382
 11
-126.150465
 21
60.707267
  0
LINE
  8
型材断面
  6
CONTINUOUS
 10
-123.559958
 20
39.103325
 11
-126.150465
 21
39.699382
  0
LINE
  8
型材断面
  6
CONTINUOUS
 10
-123.559958
 20
39.103325
 11
-126.150465
 21
38.507267
  0
LINE
  8
型材断面
  6
CONTINUOUS
 10
-126.150465
 20
38.507267
 11
-126.150465
 21
39.699382
  0
LINE
  8
型材断面
  6
CONTINUOUS
 10
-167.804625
 20
85.735332
 11
-121.562848
 21
85.735332
  0
INSERT
  2
*GRP_0026
  8
型材断面
  6
DOT
 10
0.0
 20
0.0
  0
INSERT
  2
*GRP_0032
  8
型材断面
  6
CONTINUOUS
 10
0.0
 20
0.0
  0
INSERT
  2
*GRP_0033
  8
型材断面
  6
CONTINUOUS
 10
0.0
 20
0.0
  0
INSERT
  2
*GRP_0034
  8
型材断面
  6
CONTINUOUS
 10
0.0
 20
0.0
  0
INSERT
  2
*GRP_0035
  8
型材断面
  6
CONTINUOUS
 10
0.0
 20
0.0
  0
LINE
  8
型材断面
  6
CONTINUOUS
 10
-103.948495
 20
65.203325
 11
-103.948495
 21
64.369993
  0
LINE
  8
型材断面
  6
CONTINUOUS
 10
-104.78183
 20
65.203325
 11
-104.78183
 21
64.369993
  0
LINE
  8
型材断面
  6
CONTINUOUS
 10
-120.096493
 20
64.369993
 11
-104.78183
 21
64.369993
  0
LINE
  8
型材断面
  6
CONTINUOUS
 10
-70.649165
 20
65.203325
 11
-70.649165
 21
64.369993
  0
LINE
  8
型材断面
  6
CONTINUOUS
 10
-71.4825
 20
65.203325
 11
-71.4825
 21
64.369993
  0
LINE
  8
型材断面
  6
CONTINUOUS
 10
-103.948495
 20
64.369993
 11
-71.4825
 21
64.369993
  0
LINE
  8
型材断面
  6
CONTINUOUS
 10
-37.17983
 20
65.203325
 11
-37.17983
 21
64.369993
  0
LINE
  8
型材断面
  6
CONTINUOUS
 10
-38.013165
 20
65.203325
 11
-38.013165
 21
64.369993
  0
LINE
  8
型材断面
  6
CONTINUOUS
 10
-70.649165
 20
64.369993
 11
-38.013165
 21
64.369993
  0
LINE
  8
型材断面
  6
CONTINUOUS
 10
28.7555
 20
65.203325
 11
28.7555
 21
64.369993
  0
LINE
  8
型材断面
  6
CONTINUOUS
 10
29.588835
 20
65.203325
 11
29.588835
 21
64.369993
  0
LINE
  8
型材断面
  6
CONTINUOUS
 10
44.903498
 20
64.369993
 11
29.588835
 21
64.369993
  0
LINE
  8
型材断面
  6
CONTINUOUS
 10
-4.54383
 20
65.203325
 11
-4.54383
 21
64.369993
  0
LINE
  8
型材断面
  6
CONTINUOUS
 10
-3.710495
 20
65.203325
 11
-3.710495
 21
64.369993
  0
LINE
  8
型材断面
  6
CONTINUOUS
 10
28.7555
 20
64.369993
 11
-3.710495
 21
64.369993
  0
LINE
  8
型材断面
  6
CONTINUOUS
 10
-37.17983
 20
64.369993
 11
-4.54383
 21
64.369993
  0
LINE
  8
型材断面
  6
CONTINUOUS
 10
145.736505
 20
-23.85708
 11
125.562602
 21
-23.85708
  0
POLYLINE
  8
ガラス
  6
CONTINUOUS
 66
     1
 70
     1
  0
VERTEX
  8
ガラス
 10
160.994995
 20
-45.504173
  0
VERTEX
  8
ガラス
 10
128.871662
 20
-45.504173
  0
VERTEX
  8
ガラス
 10
128.871662
 20
-74.837505
  0
VERTEX
  8
ガラス
 10
160.994995
 20
-74.837505
  0
SEQEND
  0
TEXT
  7
TextStyle03
  8
文字
  6
CONTINUOUS
 10
-15.45
 20
-100.575
  1
※トップライト枠高さ寸法
 40
3.0
 72
     5
 11
24.675
 21
-100.575
  0
TEXT
  7
TextStyle03
  8
文字
  6
CONTINUOUS
 10
-15.45
 20
-103.95
  1
　シングルガラス：214
 40
3.0
 72
     5
 11
19.8
 21
-103.95
  0
TEXT
  7
TextStyle03
  8
文字
  6
CONTINUOUS
 10
-15.45
 20
-107.325
  1
　ペアガラス：224
 40
3.0
 72
     5
 11
13.05
 21
-107.325
  0
TEXT
  7
TextStyle03
  8
文字
  6
CONTINUOUS
 10
78.1
 20
125.25
  1
シリーズ：ＳＴＤＬ
 40
5.0
 72
     5
 11
128.1
 21
125.25
  0
TEXT
  7
TextStyle03
  8
文字
  6
CONTINUOUS
 10
78.1
 20
119.625
  1
　　　　　（上下可動）900×5000タイプ
 40
5.0
 72
     5
 11
181.5375
 21
119.625
  0
TEXT
  7
TextStyle03
  8
文字
  6
CONTINUOUS
 10
78.1
 20
114.0
  1
図面名　：外観姿図
 40
5.0
 72
     5
 11
128.1
 21
114.0
  0
TEXT
  7
TextStyle03
  8
文字
  6
CONTINUOUS
 10
78.1
 20
108.375
  1
　　　　　　
 40
5.0
 72
     5
 11
111.225
 21
108.375
  0
TEXT
  7
TextStyle03
  8
文字
  6
CONTINUOUS
 10
-45.95
 20
21.7
  1
可動装置側
 40
3.0
 72
     5
 11
-29.45
 21
21.7
  0
TEXT
  7
TextStyle03
  8
文字
  6
CONTINUOUS
 10
-45.95
 20
75.65
  1
可動装置側
 40
3.0
 72
     5
 11
-29.45
 21
75.65
  0
TEXT
  7
TextStyle03
  8
文字
  6
CONTINUOUS
 10
-158.975
 20
101.775
  1
はケーシング位置を示す
 40
3.0
 72
     5
 11
-122.225
 21
101.775
  0
TEXT
  7
TextStyle03
  8
文字
  6
CONTINUOUS
 10
-158.975
 20
98.4
  1
４ヶ所中1ヶ所に設定
 40
3.0
 72
     5
 11
-127.2875
 21
98.4
  0
TEXT
  7
TextStyle03
  8
文字
  6
CONTINUOUS
 10
-158.975
 20
107.3
  1
は排水穴位置を示す
 40
3.0
 72
     5
 11
-128.975
 21
107.3
  0
TEXT
  7
TextStyle03
  8
文字
  6
CONTINUOUS
 10
-141.9
 20
28.65
  1
アンカーピッチ
 40
3.0
 50
90.0
 72
     5
 11
-141.9
 21
51.9
  0
TEXT
  7
TextStyle03
  8
文字
  6
CONTINUOUS
 10
-110.2
 20
102.65
  1
アンカーピッチ
 40
3.0
 72
     5
 11
-86.95
 21
102.65
  0
TEXT
  7
TextStyle03
  8
文字
  6
CONTINUOUS
 10
-162.7
 20
92.425
  1
アンカー数量　１８ヶ所
 40
3.0
 72
     5
 11
-125.95
 21
92.425
  0
TEXT
  7
TextStyle03
  8
文字
  6
CONTINUOUS
 10
-162.75
 20
86.675
  1
アームユニット数　４ヶ所
 40
3.0
 72
     5
 11
-122.625
 21
86.675
  0
TEXT
  7
TextStyle03
  8
文字
  6
CONTINUOUS
 10
127.875
 20
-23.275
  1
ガラス寸法
 40
3.0
 72
     5
 11
144.375
 21
-23.275
  0
TEXT
  7
TextStyle03
  8
文字
  6
CONTINUOUS
 10
147.775
 20
-72.55
  1
×５枚
 40
3.0
 72
     5
 11
157.525
 21
-72.55
  0
INSERT
  2
*DIM_0006
  8
寸法
  6
CONTINUOUS
 10
0.0
 20
0.0
  0
INSERT
  2
*DIM_0007
  8
寸法
  6
CONTINUOUS
 10
0.0
 20
0.0
  0
INSERT
  2
*DIM_0008
  8
寸法
  6
CONTINUOUS
 10
0.0
 20
0.0
  0
INSERT
  2
*DIM_0009
  8
寸法
  6
CONTINUOUS
 10
0.0
 20
0.0
  0
INSERT
  2
*DIM_0012
  8
寸法
  6
CONTINUOUS
 10
0.0
 20
0.0
  0
INSERT
  2
*DIM_0015
  8
寸法
  6
CONTINUOUS
 10
0.0
 20
0.0
  0
INSERT
  2
*DIM_0016
  8
寸法
  6
CONTINUOUS
 10
0.0
 20
0.0
  0
INSERT
  2
*DIM_0017
  8
寸法
  6
CONTINUOUS
 10
0.0
 20
0.0
  0
INSERT
  2
*DIM_0018
  8
寸法
  6
CONTINUOUS
 10
0.0
 20
0.0
  0
INSERT
  2
*DIM_0019
  8
寸法
  6
CONTINUOUS
 10
0.0
 20
0.0
  0
INSERT
  2
*DIM_0020
  8
寸法
  6
CONTINUOUS
 10
0.0
 20
0.0
  0
INSERT
  2
*DIM_0021
  8
寸法
  6
CONTINUOUS
 10
0.0
 20
0.0
  0
INSERT
  2
*DIM_0022
  8
寸法
  6
CONTINUOUS
 10
0.0
 20
0.0
  0
INSERT
  2
*DIM_0023
  8
寸法
  6
CONTINUOUS
 10
0.0
 20
0.0
  0
INSERT
  2
*DIM_0024
  8
寸法
  6
CONTINUOUS
 10
0.0
 20
0.0
  0
INSERT
  2
*DIM_0025
  8
寸法
  6
CONTINUOUS
 10
0.0
 20
0.0
  0
INSERT
  2
*DIM_0031
  8
寸法
  6
CONTINUOUS
 10
0.0
 20
0.0
  0
INSERT
  2
*DIM_0036
  8
寸法
  6
CONTINUOUS
 10
0.0
 20
0.0
  0
INSERT
  2
*DIM_0037
  8
寸法
  6
CONTINUOUS
 10
0.0
 20
0.0
  0
INSERT
  2
*DIM_0038
  8
寸法
  6
CONTINUOUS
 10
0.0
 20
0.0
  0
INSERT
  2
*DIM_0039
  8
寸法
  6
CONTINUOUS
 10
0.0
 20
0.0
  0
INSERT
  2
*DIM_0040
  8
寸法
  6
CONTINUOUS
 10
0.0
 20
0.0
  0
LINE
  8
曲げ物
  6
CONTINUOUS
 10
30.462565
 20
52.082655
 11
26.767252
 21
48.387342
  0
LINE
  8
曲げ物
  6
CONTINUOUS
 10
29.759095
 20
50.546545
 11
28.303365
 21
49.090815
  0
LINE
  8
曲げ物
  6
CONTINUOUS
 10
28.926455
 20
51.379185
 11
27.470725
 21
49.923455
  0
LINE
  8
曲げ物
  6
CONTINUOUS
 10
-1.5399
 20
52.082655
 11
-5.235213
 21
48.387342
  0
LINE
  8
曲げ物
  6
CONTINUOUS
 10
-2.24337
 20
50.546545
 11
-3.6991
 21
49.090815
  0
LINE
  8
曲げ物
  6
CONTINUOUS
 10
-3.07601
 20
51.379185
 11
-4.53174
 21
49.923455
  0
LINE
  8
曲げ物
  6
CONTINUOUS
 10
-35.641367
 20
52.082655
 11
-39.33668
 21
48.387342
  0
LINE
  8
曲げ物
  6
CONTINUOUS
 10
-36.344837
 20
50.546545
 11
-37.800568
 21
49.090815
  0
LINE
  8
曲げ物
  6
CONTINUOUS
 10
-37.177477
 20
51.379185
 11
-38.633208
 21
49.923455
  0
LINE
  8
曲げ物
  6
CONTINUOUS
 10
-68.729455
 20
52.082655
 11
-72.424767
 21
48.387342
  0
LINE
  8
曲げ物
  6
CONTINUOUS
 10
-69.432925
 20
50.546545
 11
-70.888655
 21
49.090815
  0
LINE
  8
曲げ物
  6
CONTINUOUS
 10
-70.265565
 20
51.379185
 11
-71.721295
 21
49.923455
  0
LINE
  8
曲げ物
  6
CONTINUOUS
 10
-101.995103
 20
52.082655
 11
-105.690415
 21
48.387342
  0
LINE
  8
曲げ物
  6
CONTINUOUS
 10
-102.698572
 20
50.546545
 11
-104.154303
 21
49.090815
  0
LINE
  8
曲げ物
  6
CONTINUOUS
 10
-103.531213
 20
51.379185
 11
-104.986942
 21
49.923455
  0
ENDSEC
  0
EOF
