  0
SECTION
  2
HEADER
  9
$EXTMIN
 10
-210.0
 20
-148.5
  9
$EXTMAX
 10
210.0
 20
148.5
  9
$PDMODE
 70
    32
  9
$PDSIZE
 40
1.5
  9
$LTSCALE
 40
10.0
  0
ENDSEC
  0
SECTION
  2
TABLES
  0
TABLE
  2
LTYPE
 70
    15
  0
LTYPE
  2
CONTINUOUS
 70
    64
  3
実線
 72
    65
 73
     0
 40
0.0
  0
LTYPE
  2
DASHED
 70
    64
  3
破線A
 72
    65
 73
     2
 40
0.6
 49
0.4
 49
-0.2
  0
LTYPE
  2
DASHEDX2
 70
    64
  3
破線B
 72
    65
 73
     2
 40
1.3
 49
0.9
 49
-0.4
  0
LTYPE
  2
DASHDOT
 70
    64
  3
１点鎖線A
 72
    65
 73
     4
 40
0.5375
 49
0.375
 49
-0.05
 49
0.0625
 49
-0.05
  0
LTYPE
  2
DASHDOTX2
 70
    64
  3
１点鎖線B
 72
    65
 73
     4
 40
1.075
 49
0.75
 49
-0.1
 49
0.125
 49
-0.1
  0
LTYPE
  2
DIVIDE2
 70
    64
  3
２点鎖線A
 72
    65
 73
     6
 40
0.5125
 49
0.3
 49
-0.0375
 49
0.05
 49
-0.0375
 49
0.05
 49
-0.0375
  0
LTYPE
  2
DIVIDE
 70
    64
  3
２点鎖線B
 72
    65
 73
     6
 40
1.05
 49
0.55
 49
-0.1
 49
0.1
 49
-0.1
 49
0.1
 49
-0.1
  0
LTYPE
  2
DOT
 70
    64
  3
点線A
 72
    65
 73
     2
 40
0.1125
 49
0.0625
 49
-0.05
  0
LTYPE
  2
DOTX2
 70
    64
  3
点線B
 72
    65
 73
     2
 40
0.275
 49
0.15
 49
-0.125
  0
LTYPE
  2
CONTINUOUS
 70
    64
  3
実線
 72
    65
 73
     0
 40
0.0
  0
LTYPE
  2
CONTINUOUS
 70
    64
  3
実線
 72
    65
 73
     0
 40
0.0
  0
LTYPE
  2
CONTINUOUS
 70
    64
  3
実線
 72
    65
 73
     0
 40
0.0
  0
LTYPE
  2
CONTINUOUS
 70
    64
  3
実線
 72
    65
 73
     0
 40
0.0
  0
LTYPE
  2
CONTINUOUS
 70
    64
  3
実線
 72
    65
 73
     0
 40
0.0
  0
LTYPE
  2
CONTINUOUS
 70
    64
  3
実線
 72
    65
 73
     0
 40
0.0
  0
ENDTAB
  0
TABLE
  2
LAYER
 70
    34
  0
LAYER
  2
通り芯
 70
     0
 62
    15
  6
CONTINUOUS
  0
LAYER
  2
補助線
 70
     0
 62
    16
  6
DOT
  0
LAYER
  2
躯体
 70
     0
 62
    31
  6
CONTINUOUS
  0
LAYER
  2
型材
 70
     0
 62
    32
  6
CONTINUOUS
  0
LAYER
  2
型材断面
 70
     0
 62
    47
  6
CONTINUOUS
  0
LAYER
  2
ガラス
 70
     0
 62
    48
  6
CONTINUOUS
  0
LAYER
  2
ゴム等
 70
     0
 62
    63
  6
CONTINUOUS
  0
LAYER
  2
ボルト／ビス
 70
     0
 62
    64
  6
CONTINUOUS
  0
LAYER
  2
文字
 70
     0
 62
    79
  6
CONTINUOUS
  0
LAYER
  2
寸法
 70
     0
 62
    80
  6
CONTINUOUS
  0
LAYER
  2
ﾊｯﾁﾝｸﾞ
 70
     0
 62
    95
  6
CONTINUOUS
  0
LAYER
  2
別途部材
 70
     0
 62
    96
  6
CONTINUOUS
  0
LAYER
  2
曲げ物
 70
     0
 62
   111
  6
CONTINUOUS
  0
LAYER
  2
鉄骨等
 70
     0
 62
   112
  6
CONTINUOUS
  0
LAYER
  2
St
 70
     0
 62
   127
  6
CONTINUOUS
  0
LAYER
  2
その他部品等
 70
     0
 62
   128
  6
CONTINUOUS
  0
LAYER
  2
ｶﾞｽｹｯﾄ
 70
     0
 62
   143
  6
CONTINUOUS
  0
LAYER
  2
ｽｹｯﾁ
 70
     0
 62
    14
  6
CONTINUOUS
  0
LAYER
  2
0
 70
     0
 62
    17
  6
CONTINUOUS
  0
LAYER
  2
1
 70
     0
 62
    30
  6
CONTINUOUS
  0
LAYER
  2
4
 70
     0
 62
    33
  6
CONTINUOUS
  0
LAYER
  2
ﾚｲﾔ3
 70
     0
 62
    46
  6
CONTINUOUS
  0
LAYER
  2
外形線
 70
     0
 62
    49
  6
CONTINUOUS
  0
LAYER
  2
部品
 70
     0
 62
    14
  6
CONTINUOUS
  0
LAYER
  2
サッシ芯
 70
     0
 62
    17
  6
DASHDOTX2
  0
LAYER
  2
寸法線
 70
     0
 62
    62
  6
CONTINUOUS
  0
LAYER
  2
姿図外形線
 70
     0
 62
    65
  6
CONTINUOUS
  0
LAYER
  2
姿補助線
 70
     0
 62
    30
  6
CONTINUOUS
  0
LAYER
  2
透視線
 70
     0
 62
    78
  6
DOT
  0
LAYER
  2
用紙
 70
     0
 62
    81
  6
CONTINUOUS
  0
LAYER
  2
実線図枠
 70
     0
 62
    94
  6
CONTINUOUS
  0
LAYER
  2
補助図枠
 70
     0
 62
    97
  6
CONTINUOUS
  0
LAYER
  2
建具記号
 70
     0
 62
   110
  6
CONTINUOUS
  0
LAYER
  2
補助文字
 70
     0
 62
   113
  6
CONTINUOUS
  0
ENDTAB
  0
TABLE
  2
STYLE
 70
    10
  0
STYLE
  2
STANDARD
 70
     0
 40
1.0
 41
1.0
 42
1.0
 50
0.0
 71
     0
  3
TXT
  4
BIGFONT
  0
STYLE
  2
TATE
 70
     4
 40
1.0
 41
1.0
 42
1.0
 50
0.0
 71
     0
  3
TXT
  4
BIGFONT
  0
STYLE
  2
TextStyle03
 70
     0
 40
1.0
 41
1.0
 42
1.0
 50
0.0
 71
     0
  3
MONOTXT
  4
BIGFONT
  0
STYLE
  2
TextStyle04
 70
     0
 40
1.0
 41
1.0
 42
1.0
 50
0.0
 71
     0
  3
MONOTXT
  4
BIGFONT
  0
STYLE
  2
TextStyle05
 70
     0
 40
1.0
 41
1.0
 42
1.0
 50
0.0
 71
     0
  3
MONOTXT
  4
BIGFONT
  0
STYLE
  2
TextStyle06
 70
     0
 40
1.0
 41
1.0
 42
1.0
 50
0.0
 71
     0
  3
MONOTXT
  4
BIGFONT
  0
STYLE
  2
TextStyle07
 70
     0
 40
1.0
 41
1.0
 42
1.0
 50
0.0
 71
     0
  3
MONOTXT
  4
BIGFONT
  0
STYLE
  2
TextStyle08
 70
     0
 40
1.0
 41
1.0
 42
1.0
 50
0.0
 71
     0
  3
MONOTXT
  4
BIGFONT
  0
STYLE
  2
TextStyle09
 70
     0
 40
1.0
 41
1.0
 42
1.0
 50
0.0
 71
     0
  3
MONOTXT
  4
BIGFONT
  0
STYLE
  2
TextStyle10
 70
     0
 40
1.0
 41
1.0
 42
1.0
 50
0.0
 71
     0
  3
MONOTXT
  4
BIGFONT
  0
ENDTAB
  0
ENDSEC
  0
SECTION
  2
BLOCKS
  0
BLOCK
  2
*GRP_0001
 70
    65
 10
0.0
 20
0.0
  0
LINE
  8
型材断面
  6
CONTINUOUS
 10
195.0
 20
133.5
 11
195.0
 21
-133.5
  0
LINE
  8
型材断面
  6
CONTINUOUS
 10
195.0
 20
-133.5
 11
-185.0
 21
-133.5
  0
LINE
  8
型材断面
  6
CONTINUOUS
 10
-185.0
 20
-133.5
 11
-185.0
 21
133.5
  0
LINE
  8
型材断面
  6
CONTINUOUS
 10
195.0
 20
133.5
 11
-185.0
 21
133.5
  0
LINE
  8
型材断面
  6
CONTINUOUS
 10
145.0
 20
-133.5
 11
145.0
 21
-118.5
  0
LINE
  8
型材断面
  6
CONTINUOUS
 10
195.0
 20
-118.5
 11
145.0
 21
-118.5
  0
ENDBLK
  0
BLOCK
  2
*GRP_0002
 70
    65
 10
0.0
 20
0.0
  0
INSERT
  2
M8横
  8
ゴム等
  6
CONTINUOUS
 10
163.336003
 20
66.029685
 50
270.0
 41
0.033333
 42
-0.033333
  0
LINE
  8
ボルト／ビス
  6
CONTINUOUS
 10
163.126005
 20
65.896352
 11
163.109338
 21
65.91302
  0
LINE
  8
ボルト／ビス
  6
CONTINUOUS
 10
163.109338
 20
66.146352
 11
163.126005
 21
66.16302
  0
LINE
  8
ボルト／ビス
  6
CONTINUOUS
 10
163.126005
 20
66.16302
 11
163.126005
 21
65.896352
  0
LINE
  8
ボルト／ビス
  6
CONTINUOUS
 10
163.109338
 20
66.146352
 11
163.109338
 21
65.91302
  0
LINE
  8
ボルト／ビス
  6
CONTINUOUS
 10
163.109338
 20
65.91302
 11
163.15267
 21
65.91302
  0
LINE
  8
ボルト／ビス
  6
CONTINUOUS
 10
163.126005
 20
65.896352
 11
163.15267
 21
65.896352
  0
LINE
  8
ボルト／ビス
  6
CONTINUOUS
 10
163.126005
 20
66.16302
 11
163.15267
 21
66.16302
  0
LINE
  8
ボルト／ビス
  6
CONTINUOUS
 10
163.109338
 20
66.146352
 11
163.15267
 21
66.146352
  0
LINE
  8
ボルト／ビス
  6
CONTINUOUS
 10
163.336003
 20
66.396352
 11
163.336003
 21
65.66302
  0
LINE
  8
ボルト／ビス
  6
CONTINUOUS
 10
163.376002
 20
65.61302
 11
163.459335
 21
65.61302
  0
LINE
  8
ボルト／ビス
  6
CONTINUOUS
 10
163.459335
 20
65.61302
 11
163.459335
 21
66.446352
  0
LINE
  8
ボルト／ビス
  6
CONTINUOUS
 10
163.459335
 20
66.446352
 11
163.376002
 21
66.446352
  0
LINE
  8
ボルト／ビス
  6
CONTINUOUS
 10
163.376002
 20
65.61302
 11
163.376002
 21
66.446352
  0
LINE
  8
ボルト／ビス
  6
CONTINUOUS
 10
163.336003
 20
66.396352
 11
163.376002
 21
66.396352
  0
LINE
  8
ボルト／ビス
  6
CONTINUOUS
 10
163.336003
 20
65.66302
 11
163.376002
 21
65.66302
  0
LINE
  8
ボルト／ビス
  6
CONTINUOUS
 10
163.386002
 20
66.029685
 11
163.336003
 21
66.029685
  0
ENDBLK
  0
BLOCK
  2
*GRP_0003
 70
    65
 10
0.0
 20
0.0
  0
LINE
  8
ボルト／ビス
  6
CONTINUOUS
 10
162.47617
 20
66.236355
 11
162.409503
 21
66.236355
  0
LINE
  8
ボルト／ビス
  6
CONTINUOUS
 10
162.409503
 20
66.236355
 11
162.409503
 21
65.50302
  0
LINE
  8
ボルト／ビス
  6
CONTINUOUS
 10
162.409503
 20
65.50302
 11
162.47617
 21
65.50302
  0
LINE
  8
ボルト／ビス
  6
CONTINUOUS
 10
162.47617
 20
66.236355
 11
162.47617
 21
65.50302
  0
LINE
  8
ボルト／ビス
  6
CONTINUOUS
 10
162.37617
 20
66.169687
 11
162.409503
 21
66.169687
  0
LINE
  8
ボルト／ビス
  6
CONTINUOUS
 10
162.37617
 20
66.169687
 11
162.37617
 21
65.569687
  0
LINE
  8
ボルト／ビス
  6
CONTINUOUS
 10
162.37617
 20
65.569687
 11
162.409503
 21
65.569687
  0
LINE
  8
ボルト／ビス
  6
CONTINUOUS
 62
    64
 10
162.17617
 20
66.030062
 11
162.187845
 21
66.062138
  0
ARC
  8
ボルト／ビス
  6
CONTINUOUS
 62
    64
 10
162.281149
 20
66.014031
 40
0.104978
 50
180.0
 51
207.278033
  0
ARC
  8
ボルト／ビス
  6
CONTINUOUS
 62
    64
 10
162.578573
 20
65.869693
 40
0.402402
 50
166.165015
 51
193.834998
  0
LINE
  8
ボルト／ビス
  6
CONTINUOUS
 62
    64
 10
162.17617
 20
65.709312
 11
162.187845
 21
65.677238
  0
ARC
  8
ボルト／ビス
  6
CONTINUOUS
 62
    64
 10
162.281149
 20
65.725355
 40
0.104978
 50
152.721967
 51
180.0
  0
LINE
  8
ボルト／ビス
  6
CONTINUOUS
 62
    64
 10
162.17617
 20
66.030062
 11
162.17617
 21
65.709312
  0
LINE
  8
ボルト／ビス
  6
CONTINUOUS
 62
    64
 10
162.187845
 20
65.677238
 11
162.309503
 21
65.677238
  0
LINE
  8
ボルト／ビス
  6
CONTINUOUS
 62
    64
 10
162.187845
 20
65.773462
 11
162.309503
 21
65.773462
  0
LINE
  8
ボルト／ビス
  6
CONTINUOUS
 62
    64
 10
162.187845
 20
66.062138
 11
162.309503
 21
66.062138
  0
LINE
  8
ボルト／ビス
  6
CONTINUOUS
 62
    64
 10
162.187845
 20
65.965913
 11
162.309503
 21
65.965913
  0
LINE
  8
ボルト／ビス
  6
CONTINUOUS
 10
162.309503
 20
66.062138
 11
162.309503
 21
65.677238
  0
LINE
  8
ボルト／ビス
  6
CONTINUOUS
 10
162.309503
 20
66.069687
 11
162.37617
 21
66.069687
  0
LINE
  8
ボルト／ビス
  6
CONTINUOUS
 10
162.309503
 20
66.069687
 11
162.309503
 21
65.669687
  0
LINE
  8
ボルト／ビス
  6
CONTINUOUS
 10
162.309503
 20
65.669687
 11
162.37617
 21
65.669687
  0
ENDBLK
  0
BLOCK
  2
*GRP_0004
 70
    65
 10
0.0
 20
0.0
  0
INSERT
  2
M8横
  8
ゴム等
  6
CONTINUOUS
 10
163.336003
 20
34.376965
 50
90.0
 41
0.033333
 42
0.033333
  0
LINE
  8
ボルト／ビス
  6
CONTINUOUS
 10
163.126005
 20
34.5103
 11
163.109338
 21
34.493633
  0
LINE
  8
ボルト／ビス
  6
CONTINUOUS
 10
163.109338
 20
34.2603
 11
163.126005
 21
34.243633
  0
LINE
  8
ボルト／ビス
  6
CONTINUOUS
 10
163.126005
 20
34.243633
 11
163.126005
 21
34.5103
  0
LINE
  8
ボルト／ビス
  6
CONTINUOUS
 10
163.109338
 20
34.2603
 11
163.109338
 21
34.493633
  0
LINE
  8
ボルト／ビス
  6
CONTINUOUS
 10
163.109338
 20
34.493633
 11
163.15267
 21
34.493633
  0
LINE
  8
ボルト／ビス
  6
CONTINUOUS
 10
163.126005
 20
34.5103
 11
163.15267
 21
34.5103
  0
LINE
  8
ボルト／ビス
  6
CONTINUOUS
 10
163.126005
 20
34.243633
 11
163.15267
 21
34.243633
  0
LINE
  8
ボルト／ビス
  6
CONTINUOUS
 10
163.109338
 20
34.2603
 11
163.15267
 21
34.2603
  0
LINE
  8
ボルト／ビス
  6
CONTINUOUS
 10
163.336003
 20
34.0103
 11
163.336003
 21
34.743633
  0
LINE
  8
ボルト／ビス
  6
CONTINUOUS
 10
163.376002
 20
34.793633
 11
163.459335
 21
34.793633
  0
LINE
  8
ボルト／ビス
  6
CONTINUOUS
 10
163.459335
 20
34.793633
 11
163.459335
 21
33.9603
  0
LINE
  8
ボルト／ビス
  6
CONTINUOUS
 10
163.459335
 20
33.9603
 11
163.376002
 21
33.9603
  0
LINE
  8
ボルト／ビス
  6
CONTINUOUS
 10
163.376002
 20
34.793633
 11
163.376002
 21
33.9603
  0
LINE
  8
ボルト／ビス
  6
CONTINUOUS
 10
163.336003
 20
34.0103
 11
163.376002
 21
34.0103
  0
LINE
  8
ボルト／ビス
  6
CONTINUOUS
 10
163.336003
 20
34.743633
 11
163.376002
 21
34.743633
  0
LINE
  8
ボルト／ビス
  6
CONTINUOUS
 10
163.386002
 20
34.376965
 11
163.336003
 21
34.376965
  0
ENDBLK
  0
BLOCK
  2
*GRP_0005
 70
    65
 10
0.0
 20
0.0
  0
LINE
  8
ボルト／ビス
  6
CONTINUOUS
 10
162.47617
 20
34.170298
 11
162.409503
 21
34.170298
  0
LINE
  8
ボルト／ビス
  6
CONTINUOUS
 10
162.409503
 20
34.170298
 11
162.409503
 21
34.90363
  0
LINE
  8
ボルト／ビス
  6
CONTINUOUS
 10
162.409503
 20
34.90363
 11
162.47617
 21
34.90363
  0
LINE
  8
ボルト／ビス
  6
CONTINUOUS
 10
162.47617
 20
34.170298
 11
162.47617
 21
34.90363
  0
LINE
  8
ボルト／ビス
  6
CONTINUOUS
 10
162.37617
 20
34.236965
 11
162.409503
 21
34.236965
  0
LINE
  8
ボルト／ビス
  6
CONTINUOUS
 10
162.37617
 20
34.236965
 11
162.37617
 21
34.836965
  0
LINE
  8
ボルト／ビス
  6
CONTINUOUS
 10
162.37617
 20
34.836965
 11
162.409503
 21
34.836965
  0
LINE
  8
ボルト／ビス
  6
CONTINUOUS
 62
    64
 10
162.17617
 20
34.37659
 11
162.187845
 21
34.344515
  0
ARC
  8
ボルト／ビス
  6
CONTINUOUS
 62
    64
 10
162.281149
 20
34.392632
 40
0.104978
 50
152.721967
 51
180.0
  0
ARC
  8
ボルト／ビス
  6
CONTINUOUS
 62
    64
 10
162.578573
 20
34.536969
 40
0.402402
 50
166.165002
 51
193.834985
  0
LINE
  8
ボルト／ビス
  6
CONTINUOUS
 62
    64
 10
162.17617
 20
34.69734
 11
162.187845
 21
34.729415
  0
ARC
  8
ボルト／ビス
  6
CONTINUOUS
 62
    64
 10
162.281149
 20
34.681307
 40
0.104978
 50
180.0
 51
207.278033
  0
LINE
  8
ボルト／ビス
  6
CONTINUOUS
 62
    64
 10
162.17617
 20
34.37659
 11
162.17617
 21
34.69734
  0
LINE
  8
ボルト／ビス
  6
CONTINUOUS
 62
    64
 10
162.187845
 20
34.729415
 11
162.309503
 21
34.729415
  0
LINE
  8
ボルト／ビス
  6
CONTINUOUS
 62
    64
 10
162.187845
 20
34.63319
 11
162.309503
 21
34.63319
  0
LINE
  8
ボルト／ビス
  6
CONTINUOUS
 62
    64
 10
162.187845
 20
34.344515
 11
162.309503
 21
34.344515
  0
LINE
  8
ボルト／ビス
  6
CONTINUOUS
 62
    64
 10
162.187845
 20
34.44074
 11
162.309503
 21
34.44074
  0
LINE
  8
ボルト／ビス
  6
CONTINUOUS
 10
162.309503
 20
34.344515
 11
162.309503
 21
34.729415
  0
LINE
  8
ボルト／ビス
  6
CONTINUOUS
 10
162.309503
 20
34.336965
 11
162.37617
 21
34.336965
  0
LINE
  8
ボルト／ビス
  6
CONTINUOUS
 10
162.309503
 20
34.336965
 11
162.309503
 21
34.736965
  0
LINE
  8
ボルト／ビス
  6
CONTINUOUS
 10
162.309503
 20
34.736965
 11
162.37617
 21
34.736965
  0
ENDBLK
  0
BLOCK
  2
*DIM_0006
 70
    65
 10
0.0
 20
0.0
  0
LINE
  8
寸法
  6
CONTINUOUS
 10
161.248695
 20
32.92363
 11
142.14273
 21
32.92363
  0
LINE
  8
寸法
  6
CONTINUOUS
 10
142.14273
 20
35.203325
 11
142.14273
 21
32.92363
  0
POINT
  8
寸法
 10
142.14273
 20
35.203325
  0
POINT
  8
寸法
 10
142.14273
 20
32.92363
  0
TEXT
  7
TextStyle03
  8
寸法
  6
CONTINUOUS
 10
141.75
 20
24.01875
  1
68.4
 40
3.0
 50
90.0
 72
     5
 11
141.75
 21
30.58125
  0
ENDBLK
  0
BLOCK
  2
*DIM_0007
 70
    65
 10
0.0
 20
0.0
  0
LINE
  8
寸法
  6
CONTINUOUS
 10
142.14273
 20
65.203325
 11
142.14273
 21
35.203325
  0
POINT
  8
寸法
 10
142.14273
 20
65.203325
  0
POINT
  8
寸法
 10
142.14273
 20
35.203325
  0
TEXT
  7
TextStyle03
  8
寸法
  6
CONTINUOUS
 10
141.75
 20
39.325
  1
呼称寸法　900
 40
3.0
 50
90.0
 72
     5
 11
141.75
 21
61.075
  0
ENDBLK
  0
BLOCK
  2
*DIM_0008
 70
    65
 10
0.0
 20
0.0
  0
LINE
  8
寸法
  6
CONTINUOUS
 10
161.248695
 20
67.48302
 11
142.14273
 21
67.48302
  0
LINE
  8
寸法
  6
CONTINUOUS
 10
142.14273
 20
65.203325
 11
142.14273
 21
67.48302
  0
POINT
  8
寸法
 10
142.14273
 20
65.203325
  0
POINT
  8
寸法
 10
142.14273
 20
67.48302
  0
TEXT
  7
TextStyle03
  8
寸法
  6
CONTINUOUS
 10
141.75
 20
69.79375
  1
68.4
 40
3.0
 50
90.0
 72
     5
 11
141.75
 21
76.35625
  0
ENDBLK
  0
BLOCK
  2
*DIM_0009
 70
    65
 10
0.0
 20
0.0
  0
LINE
  8
寸法
  6
CONTINUOUS
 10
169.209335
 20
28.236965
 11
169.209335
 21
20.327945
  0
LINE
  8
寸法
  6
CONTINUOUS
 10
161.742835
 20
30.203325
 11
161.742835
 21
20.327945
  0
LINE
  8
寸法
  6
CONTINUOUS
 10
169.209335
 20
20.327945
 11
161.742835
 21
20.327945
  0
POINT
  8
寸法
 10
169.209335
 20
20.327945
  0
POINT
  8
寸法
 10
161.742835
 20
20.327945
  0
TEXT
  7
TextStyle03
  8
寸法
  6
CONTINUOUS
 10
163.0375
 20
20.7
  1
224
 40
3.0
 72
     5
 11
167.9125
 21
20.7
  0
ENDBLK
  0
BLOCK
  2
*GRP_0010
 70
    65
 10
0.0
 20
0.0
  0
INSERT
  2
M8横
  8
ゴム等
  6
CONTINUOUS
 10
29.896525
 20
-70.297288
 50
180.0
 41
0.033333
 42
-0.033333
  0
LINE
  8
ボルト／ビス
  6
CONTINUOUS
 10
29.763192
 20
-70.087288
 11
29.779858
 21
-70.070622
  0
LINE
  8
ボルト／ビス
  6
CONTINUOUS
 10
30.013192
 20
-70.070622
 11
30.029858
 21
-70.087288
  0
LINE
  8
ボルト／ビス
  6
CONTINUOUS
 10
30.029858
 20
-70.087288
 11
29.763192
 21
-70.087288
  0
LINE
  8
ボルト／ビス
  6
CONTINUOUS
 10
30.013192
 20
-70.070622
 11
29.779858
 21
-70.070622
  0
LINE
  8
ボルト／ビス
  6
CONTINUOUS
 10
29.779858
 20
-70.070622
 11
29.779858
 21
-70.113952
  0
LINE
  8
ボルト／ビス
  6
CONTINUOUS
 10
29.763192
 20
-70.087288
 11
29.763192
 21
-70.113952
  0
LINE
  8
ボルト／ビス
  6
CONTINUOUS
 10
30.029858
 20
-70.087288
 11
30.029858
 21
-70.113952
  0
LINE
  8
ボルト／ビス
  6
CONTINUOUS
 10
30.013192
 20
-70.070622
 11
30.013192
 21
-70.113952
  0
LINE
  8
ボルト／ビス
  6
CONTINUOUS
 10
30.263192
 20
-70.297288
 11
29.529858
 21
-70.297288
  0
LINE
  8
ボルト／ビス
  6
CONTINUOUS
 10
29.479858
 20
-70.337288
 11
29.479858
 21
-70.42062
  0
LINE
  8
ボルト／ビス
  6
CONTINUOUS
 10
29.479858
 20
-70.42062
 11
30.313192
 21
-70.42062
  0
LINE
  8
ボルト／ビス
  6
CONTINUOUS
 10
30.313192
 20
-70.42062
 11
30.313192
 21
-70.337288
  0
LINE
  8
ボルト／ビス
  6
CONTINUOUS
 10
29.479858
 20
-70.337288
 11
30.313192
 21
-70.337288
  0
LINE
  8
ボルト／ビス
  6
CONTINUOUS
 10
30.263192
 20
-70.297288
 11
30.263192
 21
-70.337288
  0
LINE
  8
ボルト／ビス
  6
CONTINUOUS
 10
29.529858
 20
-70.297288
 11
29.529858
 21
-70.337288
  0
LINE
  8
ボルト／ビス
  6
CONTINUOUS
 10
29.896525
 20
-70.347288
 11
29.896525
 21
-70.297288
  0
ENDBLK
  0
BLOCK
  2
*GRP_0011
 70
    65
 10
0.0
 20
0.0
  0
LINE
  8
ボルト／ビス
  6
CONTINUOUS
 10
30.103192
 20
-69.437453
 11
30.103192
 21
-69.370788
  0
LINE
  8
ボルト／ビス
  6
CONTINUOUS
 10
30.103192
 20
-69.370788
 11
29.36986
 21
-69.370788
  0
LINE
  8
ボルト／ビス
  6
CONTINUOUS
 10
29.36986
 20
-69.370788
 11
29.36986
 21
-69.437453
  0
LINE
  8
ボルト／ビス
  6
CONTINUOUS
 10
30.103192
 20
-69.437453
 11
29.36986
 21
-69.437453
  0
LINE
  8
ボルト／ビス
  6
CONTINUOUS
 10
30.036528
 20
-69.337453
 11
30.036528
 21
-69.370788
  0
LINE
  8
ボルト／ビス
  6
CONTINUOUS
 10
30.036528
 20
-69.337453
 11
29.436528
 21
-69.337453
  0
LINE
  8
ボルト／ビス
  6
CONTINUOUS
 10
29.436528
 20
-69.337453
 11
29.436528
 21
-69.370788
  0
LINE
  8
ボルト／ビス
  6
CONTINUOUS
 62
    64
 10
29.896903
 20
-69.137453
 11
29.928977
 21
-69.149128
  0
ARC
  8
ボルト／ビス
  6
CONTINUOUS
 62
    64
 10
29.880864
 20
-69.242431
 40
0.104978
 50
90.0
 51
117.278033
  0
ARC
  8
ボルト／ビス
  6
CONTINUOUS
 62
    64
 10
29.736526
 20
-69.539855
 40
0.402402
 50
76.165015
 51
103.834998
  0
LINE
  8
ボルト／ビス
  6
CONTINUOUS
 62
    64
 10
29.576152
 20
-69.137453
 11
29.544077
 21
-69.149128
  0
ARC
  8
ボルト／ビス
  6
CONTINUOUS
 62
    64
 10
29.592188
 20
-69.242431
 40
0.104978
 50
62.721967
 51
90.0
  0
LINE
  8
ボルト／ビス
  6
CONTINUOUS
 62
    64
 10
29.896903
 20
-69.137453
 11
29.576152
 21
-69.137453
  0
LINE
  8
ボルト／ビス
  6
CONTINUOUS
 62
    64
 10
29.544077
 20
-69.149128
 11
29.544077
 21
-69.270788
  0
LINE
  8
ボルト／ビス
  6
CONTINUOUS
 62
    64
 10
29.640302
 20
-69.149128
 11
29.640302
 21
-69.270788
  0
LINE
  8
ボルト／ビス
  6
CONTINUOUS
 62
    64
 10
29.928977
 20
-69.149128
 11
29.928977
 21
-69.270788
  0
LINE
  8
ボルト／ビス
  6
CONTINUOUS
 62
    64
 10
29.832753
 20
-69.149128
 11
29.832753
 21
-69.270788
  0
LINE
  8
ボルト／ビス
  6
CONTINUOUS
 10
29.928977
 20
-69.270788
 11
29.544077
 21
-69.270788
  0
LINE
  8
ボルト／ビス
  6
CONTINUOUS
 10
29.936528
 20
-69.270788
 11
29.936528
 21
-69.337453
  0
LINE
  8
ボルト／ビス
  6
CONTINUOUS
 10
29.936528
 20
-69.270788
 11
29.536528
 21
-69.270788
  0
LINE
  8
ボルト／ビス
  6
CONTINUOUS
 10
29.536528
 20
-69.270788
 11
29.536528
 21
-69.337453
  0
ENDBLK
  0
BLOCK
  2
*DIM_0012
 70
    65
 10
0.0
 20
0.0
  0
LINE
  8
寸法
  6
CONTINUOUS
 10
34.070165
 20
-68.70412
 11
52.688638
 21
-68.70412
  0
LINE
  8
寸法
  6
CONTINUOUS
 10
36.036528
 20
-76.17062
 11
52.688638
 21
-76.17062
  0
LINE
  8
寸法
  6
CONTINUOUS
 10
52.688638
 20
-68.70412
 11
52.688638
 21
-76.17062
  0
POINT
  8
寸法
 10
52.688638
 20
-68.70412
  0
POINT
  8
寸法
 10
52.688638
 20
-76.17062
  0
TEXT
  7
TextStyle03
  8
寸法
  6
CONTINUOUS
 10
52.3
 20
-74.8875
  1
224
 40
3.0
 50
90.0
 72
     5
 11
52.3
 21
-70.0125
  0
ENDBLK
  0
BLOCK
  2
*GRP_0013
 70
    65
 10
0.0
 20
0.0
  0
INSERT
  2
M8横
  8
ゴム等
  6
CONTINUOUS
 10
-105.08952
 20
-70.297288
 41
0.033333
 42
0.033333
  0
LINE
  8
ボルト／ビス
  6
CONTINUOUS
 10
-104.956188
 20
-70.087288
 11
-104.972853
 21
-70.070622
  0
LINE
  8
ボルト／ビス
  6
CONTINUOUS
 10
-105.206188
 20
-70.070622
 11
-105.222853
 21
-70.087288
  0
LINE
  8
ボルト／ビス
  6
CONTINUOUS
 10
-105.222853
 20
-70.087288
 11
-104.956188
 21
-70.087288
  0
LINE
  8
ボルト／ビス
  6
CONTINUOUS
 10
-105.206188
 20
-70.070622
 11
-104.972853
 21
-70.070622
  0
LINE
  8
ボルト／ビス
  6
CONTINUOUS
 10
-104.972853
 20
-70.070622
 11
-104.972853
 21
-70.113952
  0
LINE
  8
ボルト／ビス
  6
CONTINUOUS
 10
-104.956188
 20
-70.087288
 11
-104.956188
 21
-70.113952
  0
LINE
  8
ボルト／ビス
  6
CONTINUOUS
 10
-105.222853
 20
-70.087288
 11
-105.222853
 21
-70.113952
  0
LINE
  8
ボルト／ビス
  6
CONTINUOUS
 10
-105.206188
 20
-70.070622
 11
-105.206188
 21
-70.113952
  0
LINE
  8
ボルト／ビス
  6
CONTINUOUS
 10
-105.456188
 20
-70.297288
 11
-104.722853
 21
-70.297288
  0
LINE
  8
ボルト／ビス
  6
CONTINUOUS
 10
-104.672853
 20
-70.337288
 11
-104.672853
 21
-70.42062
  0
LINE
  8
ボルト／ビス
  6
CONTINUOUS
 10
-104.672853
 20
-70.42062
 11
-105.506188
 21
-70.42062
  0
LINE
  8
ボルト／ビス
  6
CONTINUOUS
 10
-105.506188
 20
-70.42062
 11
-105.506188
 21
-70.337288
  0
LINE
  8
ボルト／ビス
  6
CONTINUOUS
 10
-104.672853
 20
-70.337288
 11
-105.506188
 21
-70.337288
  0
LINE
  8
ボルト／ビス
  6
CONTINUOUS
 10
-105.456188
 20
-70.297288
 11
-105.456188
 21
-70.337288
  0
LINE
  8
ボルト／ビス
  6
CONTINUOUS
 10
-104.722853
 20
-70.297288
 11
-104.722853
 21
-70.337288
  0
LINE
  8
ボルト／ビス
  6
CONTINUOUS
 10
-105.08952
 20
-70.347288
 11
-105.08952
 21
-70.297288
  0
ENDBLK
  0
BLOCK
  2
*GRP_0014
 70
    65
 10
0.0
 20
0.0
  0
LINE
  8
ボルト／ビス
  6
CONTINUOUS
 10
-105.296188
 20
-69.437453
 11
-105.296188
 21
-69.370788
  0
LINE
  8
ボルト／ビス
  6
CONTINUOUS
 10
-105.296188
 20
-69.370788
 11
-104.562855
 21
-69.370788
  0
LINE
  8
ボルト／ビス
  6
CONTINUOUS
 10
-104.562855
 20
-69.370788
 11
-104.562855
 21
-69.437453
  0
LINE
  8
ボルト／ビス
  6
CONTINUOUS
 10
-105.296188
 20
-69.437453
 11
-104.562855
 21
-69.437453
  0
LINE
  8
ボルト／ビス
  6
CONTINUOUS
 10
-105.229522
 20
-69.337453
 11
-105.229522
 21
-69.370788
  0
LINE
  8
ボルト／ビス
  6
CONTINUOUS
 10
-105.229522
 20
-69.337453
 11
-104.629522
 21
-69.337453
  0
LINE
  8
ボルト／ビス
  6
CONTINUOUS
 10
-104.629522
 20
-69.337453
 11
-104.629522
 21
-69.370788
  0
LINE
  8
ボルト／ビス
  6
CONTINUOUS
 62
    64
 10
-105.089898
 20
-69.137453
 11
-105.121973
 21
-69.149128
  0
ARC
  8
ボルト／ビス
  6
CONTINUOUS
 62
    64
 10
-105.07386
 20
-69.242431
 40
0.104978
 50
62.721967
 51
90.0
  0
ARC
  8
ボルト／ビス
  6
CONTINUOUS
 62
    64
 10
-104.929523
 20
-69.539855
 40
0.402402
 50
76.165002
 51
103.834985
  0
LINE
  8
ボルト／ビス
  6
CONTINUOUS
 62
    64
 10
-104.769147
 20
-69.137453
 11
-104.737072
 21
-69.149128
  0
ARC
  8
ボルト／ビス
  6
CONTINUOUS
 62
    64
 10
-104.785185
 20
-69.242431
 40
0.104978
 50
90.0
 51
117.278033
  0
LINE
  8
ボルト／ビス
  6
CONTINUOUS
 62
    64
 10
-105.089898
 20
-69.137453
 11
-104.769147
 21
-69.137453
  0
LINE
  8
ボルト／ビス
  6
CONTINUOUS
 62
    64
 10
-104.737072
 20
-69.149128
 11
-104.737072
 21
-69.270788
  0
LINE
  8
ボルト／ビス
  6
CONTINUOUS
 62
    64
 10
-104.833298
 20
-69.149128
 11
-104.833298
 21
-69.270788
  0
LINE
  8
ボルト／ビス
  6
CONTINUOUS
 62
    64
 10
-105.121973
 20
-69.149128
 11
-105.121973
 21
-69.270788
  0
LINE
  8
ボルト／ビス
  6
CONTINUOUS
 62
    64
 10
-105.025748
 20
-69.149128
 11
-105.025748
 21
-69.270788
  0
LINE
  8
ボルト／ビス
  6
CONTINUOUS
 10
-105.121973
 20
-69.270788
 11
-104.737072
 21
-69.270788
  0
LINE
  8
ボルト／ビス
  6
CONTINUOUS
 10
-105.129522
 20
-69.270788
 11
-105.129522
 21
-69.337453
  0
LINE
  8
ボルト／ビス
  6
CONTINUOUS
 10
-105.129522
 20
-69.270788
 11
-104.729522
 21
-69.270788
  0
LINE
  8
ボルト／ビス
  6
CONTINUOUS
 10
-104.729522
 20
-69.270788
 11
-104.729522
 21
-69.337453
  0
ENDBLK
  0
BLOCK
  2
*DIM_0015
 70
    65
 10
0.0
 20
0.0
  0
LINE
  8
寸法
  6
BYBLOCK
 62
     0
 10
-87.596495
 20
31.573195
 11
-87.596495
 21
26.522187
  0
LINE
  8
寸法
  6
BYBLOCK
 62
     0
 10
12.4035
 20
31.573195
 11
12.4035
 21
26.522187
  0
LINE
  8
寸法
  6
BYBLOCK
 62
     0
 10
-87.596495
 20
26.522187
 11
12.4035
 21
26.522187
  0
POINT
  8
寸法
 62
     0
 10
-87.596495
 20
26.522187
  0
POINT
  8
寸法
 62
     0
 10
12.4035
 20
26.522187
  0
TEXT
  7
TextStyle03
  8
寸法
  6
CONTINUOUS
 62
     0
 10
-40.88125
 20
26.875
  1
3000
 40
3.0
 72
     5
 11
-34.31875
 21
26.875
  0
ENDBLK
  0
BLOCK
  2
*DIM_0016
 70
    65
 10
0.0
 20
0.0
  0
LINE
  8
寸法
  6
BYBLOCK
 62
     0
 10
32.700297
 20
61.303325
 11
39.47759
 21
61.303325
  0
LINE
  8
寸法
  6
BYBLOCK
 62
     0
 10
39.47759
 20
65.203325
 11
39.47759
 21
61.303325
  0
POINT
  8
寸法
 62
     0
 10
39.47759
 20
65.203325
  0
POINT
  8
寸法
 62
     0
 10
39.47759
 20
61.303325
  0
TEXT
  7
TextStyle03
  8
寸法
  6
CONTINUOUS
 62
     0
 10
39.175
 20
65.8625
  1
117
 40
3.0
 50
90.0
 72
     5
 11
39.175
 21
70.7375
  0
ENDBLK
  0
BLOCK
  2
*DIM_0017
 70
    65
 10
0.0
 20
0.0
  0
LINE
  8
寸法
  6
BYBLOCK
 62
     0
 10
32.700297
 20
39.103325
 11
39.47759
 21
39.103325
  0
LINE
  8
寸法
  6
BYBLOCK
 62
     0
 10
39.47759
 20
35.203325
 11
39.47759
 21
39.103325
  0
POINT
  8
寸法
 62
     0
 10
39.47759
 20
35.203325
  0
POINT
  8
寸法
 62
     0
 10
39.47759
 20
39.103325
  0
TEXT
  7
TextStyle03
  8
寸法
  6
CONTINUOUS
 62
     0
 10
39.55
 20
29.5875
  1
117
 40
3.0
 50
90.0
 72
     5
 11
39.55
 21
34.4625
  0
ENDBLK
  0
BLOCK
  2
*DIM_0018
 70
    65
 10
0.0
 20
0.0
  0
LINE
  8
寸法
  6
BYBLOCK
 62
     0
 10
-107.263162
 20
60.203325
 11
-120.556
 21
60.203325
  0
LINE
  8
寸法
  6
BYBLOCK
 62
     0
 10
-107.263162
 20
40.203325
 11
-120.556
 21
40.203325
  0
LINE
  8
寸法
  6
BYBLOCK
 62
     0
 10
-120.556
 20
60.203325
 11
-120.556
 21
40.203325
  0
POINT
  8
寸法
 62
     0
 10
-120.556
 20
60.203325
  0
POINT
  8
寸法
 62
     0
 10
-120.556
 20
40.203325
  0
TEXT
  7
TextStyle03
  8
寸法
  6
CONTINUOUS
 62
     0
 10
-120.925
 20
47.7375
  1
600
 40
3.0
 50
90.0
 72
     5
 11
-120.925
 21
52.6125
  0
ENDBLK
  0
BLOCK
  2
*DIM_0019
 70
    65
 10
0.0
 20
0.0
  0
LINE
  8
寸法
  6
BYBLOCK
 62
     0
 10
-95.92983
 20
68.203325
 11
-95.92983
 21
97.311398
  0
LINE
  8
寸法
  6
BYBLOCK
 62
     0
 10
-72.596497
 20
68.203325
 11
-72.596497
 21
97.311398
  0
LINE
  8
寸法
  6
BYBLOCK
 62
     0
 10
-95.92983
 20
97.311398
 11
-72.596497
 21
97.311398
  0
POINT
  8
寸法
 62
     0
 10
-95.92983
 20
97.311398
  0
POINT
  8
寸法
 62
     0
 10
-72.596497
 20
97.311398
  0
TEXT
  7
TextStyle03
  8
寸法
  6
CONTINUOUS
 62
     0
 10
-86.7125
 20
97.675
  1
700
 40
3.0
 72
     5
 11
-81.8375
 21
97.675
  0
ENDBLK
  0
BLOCK
  2
*DIM_0020
 70
    65
 10
0.0
 20
0.0
  0
LINE
  8
寸法
  6
BYBLOCK
 62
     0
 10
-49.263165
 20
68.203325
 11
-49.263165
 21
97.311398
  0
LINE
  8
寸法
  6
BYBLOCK
 62
     0
 10
-72.596497
 20
97.311398
 11
-49.263165
 21
97.311398
  0
POINT
  8
寸法
 62
     0
 10
-49.263165
 20
97.311398
  0
TEXT
  7
TextStyle03
  8
寸法
  6
CONTINUOUS
 62
     0
 10
-63.3875
 20
97.675
  1
700
 40
3.0
 72
     5
 11
-58.5125
 21
97.675
  0
ENDBLK
  0
BLOCK
  2
*DIM_0021
 70
    65
 10
0.0
 20
0.0
  0
LINE
  8
寸法
  6
BYBLOCK
 62
     0
 10
-25.92983
 20
68.203325
 11
-25.92983
 21
97.311398
  0
LINE
  8
寸法
  6
BYBLOCK
 62
     0
 10
-49.263165
 20
97.311398
 11
-25.92983
 21
97.311398
  0
POINT
  8
寸法
 62
     0
 10
-25.92983
 20
97.311398
  0
TEXT
  7
TextStyle03
  8
寸法
  6
CONTINUOUS
 62
     0
 10
-40.0625
 20
97.675
  1
700
 40
3.0
 72
     5
 11
-35.1875
 21
97.675
  0
ENDBLK
  0
BLOCK
  2
*DIM_0022
 70
    65
 10
0.0
 20
0.0
  0
LINE
  8
寸法
  6
BYBLOCK
 62
     0
 10
-2.596497
 20
68.203325
 11
-2.596497
 21
97.311398
  0
LINE
  8
寸法
  6
BYBLOCK
 62
     0
 10
-25.92983
 20
97.311398
 11
-2.596497
 21
97.311398
  0
POINT
  8
寸法
 62
     0
 10
-2.596497
 20
97.311398
  0
TEXT
  7
TextStyle03
  8
寸法
  6
CONTINUOUS
 62
     0
 10
-16.7125
 20
97.675
  1
700
 40
3.0
 72
     5
 11
-11.8375
 21
97.675
  0
ENDBLK
  0
BLOCK
  2
*DIM_0023
 70
    65
 10
0.0
 20
0.0
  0
LINE
  8
寸法
  6
BYBLOCK
 62
     0
 10
20.736835
 20
68.203325
 11
20.736835
 21
97.311398
  0
LINE
  8
寸法
  6
BYBLOCK
 62
     0
 10
-2.596497
 20
97.311398
 11
20.736835
 21
97.311398
  0
POINT
  8
寸法
 62
     0
 10
20.736835
 20
97.311398
  0
TEXT
  7
TextStyle03
  8
寸法
  6
CONTINUOUS
 62
     0
 10
6.6125
 20
97.675
  1
700
 40
3.0
 72
     5
 11
11.4875
 21
97.675
  0
ENDBLK
  0
BLOCK
  2
*GRP_0024
 70
    65
 10
0.0
 20
0.0
  0
LINE
  8
型材断面
  6
DOT
 10
30.736832
 20
-58.270785
 11
30.686832
 21
-58.270785
  0
LINE
  8
型材断面
  6
DOT
 10
29.070165
 20
-57.770785
 11
29.070165
 21
-57.037453
  0
LINE
  8
型材断面
  6
DOT
 10
29.11986
 20
-58.753953
 11
30.566527
 21
-58.753953
  0
LINE
  8
型材断面
  6
DOT
 10
30.566527
 20
-59.203953
 11
30.566527
 21
-58.753953
  0
LINE
  8
型材断面
  6
DOT
 62
    47
 10
31.29986
 20
-61.876645
 11
31.34986
 21
-61.876645
  0
LINE
  8
型材断面
  6
DOT
 62
    47
 10
31.34986
 20
-61.876645
 11
31.34986
 21
-61.54331
  0
LINE
  8
型材断面
  6
DOT
 62
    47
 10
31.34986
 20
-61.54331
 11
30.566527
 21
-61.44331
  0
LINE
  8
型材断面
  6
DOT
 62
    47
 10
30.566527
 20
-61.037285
 11
30.566527
 21
-61.44331
  0
LINE
  8
型材断面
  6
DOT
 62
    47
 10
31.036528
 20
-61.037285
 11
31.036528
 21
-59.203953
  0
LINE
  8
型材断面
  6
DOT
 10
30.736832
 20
-58.270785
 11
30.736832
 21
-57.770785
  0
LINE
  8
型材断面
  6
DOT
 10
29.11986
 20
-58.753953
 11
29.11986
 21
-58.270785
  0
INSERT
  2
*GRP_0025
  8
型材断面
  6
DOT
 10
0.0
 20
0.0
  0
INSERT
  2
*GRP_0026
  8
型材断面
  6
DOT
 10
0.0
 20
0.0
  0
LINE
  8
型材断面
  6
DOT
 10
31.34986
 20
-61.876645
 11
-37.596497
 21
-61.876645
  0
LINE
  8
型材断面
  6
DOT
 10
31.34986
 20
-61.54331
 11
-37.596497
 21
-61.54331
  0
LINE
  8
型材断面
  6
DOT
 10
30.566527
 20
-61.44331
 11
-37.596497
 21
-61.44331
  0
LINE
  8
型材断面
  6
DOT
 10
31.036528
 20
-61.037285
 11
-37.596497
 21
-61.037285
  0
LINE
  8
型材断面
  6
DOT
 10
30.736832
 20
-58.270785
 11
-37.596497
 21
-58.270785
  0
LINE
  8
型材断面
  6
DOT
 10
29.070165
 20
-57.037453
 11
-37.596497
 21
-57.037453
  0
LINE
  8
型材断面
  6
DOT
 10
30.736832
 20
-57.770785
 11
-37.596497
 21
-57.770785
  0
LINE
  8
型材断面
  6
DOT
 10
30.566527
 20
-58.753953
 11
-37.596497
 21
-58.753953
  0
LINE
  8
型材断面
  6
DOT
 10
31.036528
 20
-59.203953
 11
-37.596497
 21
-59.203953
  0
LINE
  8
型材断面
  6
DOT
 10
-105.929828
 20
-58.270785
 11
-105.879828
 21
-58.270785
  0
LINE
  8
型材断面
  6
DOT
 10
-104.26316
 20
-57.770785
 11
-104.26316
 21
-57.037453
  0
LINE
  8
型材断面
  6
DOT
 10
-104.312855
 20
-58.753953
 11
-105.759523
 21
-58.753953
  0
LINE
  8
型材断面
  6
DOT
 10
-105.759523
 20
-59.203953
 11
-105.759523
 21
-58.753953
  0
LINE
  8
型材断面
  6
DOT
 62
    47
 10
-106.492855
 20
-61.876645
 11
-106.542855
 21
-61.876645
  0
LINE
  8
型材断面
  6
DOT
 62
    47
 10
-106.542855
 20
-61.876645
 11
-106.542855
 21
-61.54331
  0
LINE
  8
型材断面
  6
DOT
 62
    47
 10
-106.542855
 20
-61.54331
 11
-105.759523
 21
-61.44331
  0
LINE
  8
型材断面
  6
DOT
 62
    47
 10
-105.759523
 20
-61.037285
 11
-105.759523
 21
-61.44331
  0
LINE
  8
型材断面
  6
DOT
 62
    47
 10
-106.229522
 20
-61.037285
 11
-106.229522
 21
-59.203953
  0
LINE
  8
型材断面
  6
DOT
 10
-105.929828
 20
-58.270785
 11
-105.929828
 21
-57.770785
  0
LINE
  8
型材断面
  6
DOT
 10
-104.312855
 20
-58.753953
 11
-104.312855
 21
-58.270785
  0
INSERT
  2
*GRP_0027
  8
型材断面
  6
DOT
 10
0.0
 20
0.0
  0
INSERT
  2
*GRP_0028
  8
型材断面
  6
DOT
 10
0.0
 20
0.0
  0
LINE
  8
型材断面
  6
DOT
 10
-106.542855
 20
-61.876645
 11
-37.596497
 21
-61.876645
  0
LINE
  8
型材断面
  6
DOT
 10
-106.542855
 20
-61.54331
 11
-37.596497
 21
-61.54331
  0
LINE
  8
型材断面
  6
DOT
 10
-105.759523
 20
-61.44331
 11
-37.596497
 21
-61.44331
  0
LINE
  8
型材断面
  6
DOT
 10
-106.229522
 20
-61.037285
 11
-37.596497
 21
-61.037285
  0
LINE
  8
型材断面
  6
DOT
 10
-105.929828
 20
-58.270785
 11
-37.596497
 21
-58.270785
  0
LINE
  8
型材断面
  6
DOT
 10
-104.26316
 20
-57.037453
 11
-37.596497
 21
-57.037453
  0
LINE
  8
型材断面
  6
DOT
 10
-105.929828
 20
-57.770785
 11
-37.596497
 21
-57.770785
  0
LINE
  8
型材断面
  6
DOT
 10
-105.759523
 20
-58.753953
 11
-37.596497
 21
-58.753953
  0
LINE
  8
型材断面
  6
DOT
 10
-106.229522
 20
-59.203953
 11
-37.596497
 21
-59.203953
  0
ENDBLK
  0
BLOCK
  2
*GRP_0025
 70
    65
 10
0.0
 20
0.0
  0
INSERT
  2
M8横
  8
ゴム等
  6
DOT
 10
29.896525
 20
-58.63062
 50
180.0
 41
0.033333
 42
-0.033333
  0
LINE
  8
ボルト／ビス
  6
DOT
 10
29.763192
 20
-58.42062
 11
29.779858
 21
-58.403955
  0
LINE
  8
ボルト／ビス
  6
DOT
 10
30.013192
 20
-58.403955
 11
30.029858
 21
-58.42062
  0
LINE
  8
ボルト／ビス
  6
DOT
 10
30.029858
 20
-58.42062
 11
29.763192
 21
-58.42062
  0
LINE
  8
ボルト／ビス
  6
DOT
 10
30.013192
 20
-58.403955
 11
29.779858
 21
-58.403955
  0
LINE
  8
ボルト／ビス
  6
DOT
 10
29.779858
 20
-58.403955
 11
29.779858
 21
-58.447285
  0
LINE
  8
ボルト／ビス
  6
DOT
 10
29.763192
 20
-58.42062
 11
29.763192
 21
-58.447285
  0
LINE
  8
ボルト／ビス
  6
DOT
 10
30.029858
 20
-58.42062
 11
30.029858
 21
-58.447285
  0
LINE
  8
ボルト／ビス
  6
DOT
 10
30.013192
 20
-58.403955
 11
30.013192
 21
-58.447285
  0
LINE
  8
ボルト／ビス
  6
DOT
 10
30.263192
 20
-58.63062
 11
29.529858
 21
-58.63062
  0
LINE
  8
ボルト／ビス
  6
DOT
 10
29.479858
 20
-58.67062
 11
29.479858
 21
-58.753953
  0
LINE
  8
ボルト／ビス
  6
DOT
 10
29.479858
 20
-58.753953
 11
30.313192
 21
-58.753953
  0
LINE
  8
ボルト／ビス
  6
DOT
 10
30.313192
 20
-58.753953
 11
30.313192
 21
-58.67062
  0
LINE
  8
ボルト／ビス
  6
DOT
 10
29.479858
 20
-58.67062
 11
30.313192
 21
-58.67062
  0
LINE
  8
ボルト／ビス
  6
DOT
 10
30.263192
 20
-58.63062
 11
30.263192
 21
-58.67062
  0
LINE
  8
ボルト／ビス
  6
DOT
 10
29.529858
 20
-58.63062
 11
29.529858
 21
-58.67062
  0
LINE
  8
ボルト／ビス
  6
DOT
 10
29.896525
 20
-58.68062
 11
29.896525
 21
-58.63062
  0
ENDBLK
  0
BLOCK
  2
*GRP_0026
 70
    65
 10
0.0
 20
0.0
  0
LINE
  8
ボルト／ビス
  6
DOT
 10
30.103192
 20
-57.770785
 11
30.103192
 21
-57.70412
  0
LINE
  8
ボルト／ビス
  6
DOT
 10
30.103192
 20
-57.70412
 11
29.36986
 21
-57.70412
  0
LINE
  8
ボルト／ビス
  6
DOT
 10
29.36986
 20
-57.70412
 11
29.36986
 21
-57.770785
  0
LINE
  8
ボルト／ビス
  6
DOT
 10
30.103192
 20
-57.770785
 11
29.36986
 21
-57.770785
  0
LINE
  8
ボルト／ビス
  6
DOT
 10
30.036528
 20
-57.670785
 11
30.036528
 21
-57.70412
  0
LINE
  8
ボルト／ビス
  6
DOT
 10
30.036528
 20
-57.670785
 11
29.436528
 21
-57.670785
  0
LINE
  8
ボルト／ビス
  6
DOT
 10
29.436528
 20
-57.670785
 11
29.436528
 21
-57.70412
  0
LINE
  8
ボルト／ビス
  6
DOT
 62
    64
 10
29.896903
 20
-57.470785
 11
29.928977
 21
-57.48246
  0
ARC
  8
ボルト／ビス
  6
DOT
 62
    64
 10
29.880864
 20
-57.575764
 40
0.104978
 50
90.0
 51
117.278033
  0
ARC
  8
ボルト／ビス
  6
DOT
 62
    64
 10
29.736526
 20
-57.873188
 40
0.402402
 50
76.165015
 51
103.834998
  0
LINE
  8
ボルト／ビス
  6
DOT
 62
    64
 10
29.576152
 20
-57.470785
 11
29.544077
 21
-57.48246
  0
ARC
  8
ボルト／ビス
  6
DOT
 62
    64
 10
29.592188
 20
-57.575764
 40
0.104978
 50
62.721967
 51
90.0
  0
LINE
  8
ボルト／ビス
  6
DOT
 62
    64
 10
29.896903
 20
-57.470785
 11
29.576152
 21
-57.470785
  0
LINE
  8
ボルト／ビス
  6
DOT
 62
    64
 10
29.544077
 20
-57.48246
 11
29.544077
 21
-57.60412
  0
LINE
  8
ボルト／ビス
  6
DOT
 62
    64
 10
29.640302
 20
-57.48246
 11
29.640302
 21
-57.60412
  0
LINE
  8
ボルト／ビス
  6
DOT
 62
    64
 10
29.928977
 20
-57.48246
 11
29.928977
 21
-57.60412
  0
LINE
  8
ボルト／ビス
  6
DOT
 62
    64
 10
29.832753
 20
-57.48246
 11
29.832753
 21
-57.60412
  0
LINE
  8
ボルト／ビス
  6
DOT
 10
29.928977
 20
-57.60412
 11
29.544077
 21
-57.60412
  0
LINE
  8
ボルト／ビス
  6
DOT
 10
29.936528
 20
-57.60412
 11
29.936528
 21
-57.670785
  0
LINE
  8
ボルト／ビス
  6
DOT
 10
29.936528
 20
-57.60412
 11
29.536528
 21
-57.60412
  0
LINE
  8
ボルト／ビス
  6
DOT
 10
29.536528
 20
-57.60412
 11
29.536528
 21
-57.670785
  0
ENDBLK
  0
BLOCK
  2
*GRP_0027
 70
    65
 10
0.0
 20
0.0
  0
INSERT
  2
M8横
  8
ゴム等
  6
DOT
 10
-105.08952
 20
-58.63062
 41
0.033333
 42
0.033333
  0
LINE
  8
ボルト／ビス
  6
DOT
 10
-104.956188
 20
-58.42062
 11
-104.972853
 21
-58.403955
  0
LINE
  8
ボルト／ビス
  6
DOT
 10
-105.206188
 20
-58.403955
 11
-105.222853
 21
-58.42062
  0
LINE
  8
ボルト／ビス
  6
DOT
 10
-105.222853
 20
-58.42062
 11
-104.956188
 21
-58.42062
  0
LINE
  8
ボルト／ビス
  6
DOT
 10
-105.206188
 20
-58.403955
 11
-104.972853
 21
-58.403955
  0
LINE
  8
ボルト／ビス
  6
DOT
 10
-104.972853
 20
-58.403955
 11
-104.972853
 21
-58.447285
  0
LINE
  8
ボルト／ビス
  6
DOT
 10
-104.956188
 20
-58.42062
 11
-104.956188
 21
-58.447285
  0
LINE
  8
ボルト／ビス
  6
DOT
 10
-105.222853
 20
-58.42062
 11
-105.222853
 21
-58.447285
  0
LINE
  8
ボルト／ビス
  6
DOT
 10
-105.206188
 20
-58.403955
 11
-105.206188
 21
-58.447285
  0
LINE
  8
ボルト／ビス
  6
DOT
 10
-105.456188
 20
-58.63062
 11
-104.722853
 21
-58.63062
  0
LINE
  8
ボルト／ビス
  6
DOT
 10
-104.672853
 20
-58.67062
 11
-104.672853
 21
-58.753953
  0
LINE
  8
ボルト／ビス
  6
DOT
 10
-104.672853
 20
-58.753953
 11
-105.506188
 21
-58.753953
  0
LINE
  8
ボルト／ビス
  6
DOT
 10
-105.506188
 20
-58.753953
 11
-105.506188
 21
-58.67062
  0
LINE
  8
ボルト／ビス
  6
DOT
 10
-104.672853
 20
-58.67062
 11
-105.506188
 21
-58.67062
  0
LINE
  8
ボルト／ビス
  6
DOT
 10
-105.456188
 20
-58.63062
 11
-105.456188
 21
-58.67062
  0
LINE
  8
ボルト／ビス
  6
DOT
 10
-104.722853
 20
-58.63062
 11
-104.722853
 21
-58.67062
  0
LINE
  8
ボルト／ビス
  6
DOT
 10
-105.08952
 20
-58.68062
 11
-105.08952
 21
-58.63062
  0
ENDBLK
  0
BLOCK
  2
*GRP_0028
 70
    65
 10
0.0
 20
0.0
  0
LINE
  8
ボルト／ビス
  6
DOT
 10
-105.296188
 20
-57.770785
 11
-105.296188
 21
-57.70412
  0
LINE
  8
ボルト／ビス
  6
DOT
 10
-105.296188
 20
-57.70412
 11
-104.562855
 21
-57.70412
  0
LINE
  8
ボルト／ビス
  6
DOT
 10
-104.562855
 20
-57.70412
 11
-104.562855
 21
-57.770785
  0
LINE
  8
ボルト／ビス
  6
DOT
 10
-105.296188
 20
-57.770785
 11
-104.562855
 21
-57.770785
  0
LINE
  8
ボルト／ビス
  6
DOT
 10
-105.229522
 20
-57.670785
 11
-105.229522
 21
-57.70412
  0
LINE
  8
ボルト／ビス
  6
DOT
 10
-105.229522
 20
-57.670785
 11
-104.629522
 21
-57.670785
  0
LINE
  8
ボルト／ビス
  6
DOT
 10
-104.629522
 20
-57.670785
 11
-104.629522
 21
-57.70412
  0
LINE
  8
ボルト／ビス
  6
DOT
 62
    64
 10
-105.089898
 20
-57.470785
 11
-105.121973
 21
-57.48246
  0
ARC
  8
ボルト／ビス
  6
DOT
 62
    64
 10
-105.07386
 20
-57.575764
 40
0.104978
 50
62.721967
 51
90.0
  0
ARC
  8
ボルト／ビス
  6
DOT
 62
    64
 10
-104.929523
 20
-57.873188
 40
0.402402
 50
76.165002
 51
103.834985
  0
LINE
  8
ボルト／ビス
  6
DOT
 62
    64
 10
-104.769147
 20
-57.470785
 11
-104.737072
 21
-57.48246
  0
ARC
  8
ボルト／ビス
  6
DOT
 62
    64
 10
-104.785185
 20
-57.575764
 40
0.104978
 50
90.0
 51
117.278033
  0
LINE
  8
ボルト／ビス
  6
DOT
 62
    64
 10
-105.089898
 20
-57.470785
 11
-104.769147
 21
-57.470785
  0
LINE
  8
ボルト／ビス
  6
DOT
 62
    64
 10
-104.737072
 20
-57.48246
 11
-104.737072
 21
-57.60412
  0
LINE
  8
ボルト／ビス
  6
DOT
 62
    64
 10
-104.833298
 20
-57.48246
 11
-104.833298
 21
-57.60412
  0
LINE
  8
ボルト／ビス
  6
DOT
 62
    64
 10
-105.121973
 20
-57.48246
 11
-105.121973
 21
-57.60412
  0
LINE
  8
ボルト／ビス
  6
DOT
 62
    64
 10
-105.025748
 20
-57.48246
 11
-105.025748
 21
-57.60412
  0
LINE
  8
ボルト／ビス
  6
DOT
 10
-105.121973
 20
-57.60412
 11
-104.737072
 21
-57.60412
  0
LINE
  8
ボルト／ビス
  6
DOT
 10
-105.129522
 20
-57.60412
 11
-105.129522
 21
-57.670785
  0
LINE
  8
ボルト／ビス
  6
DOT
 10
-105.129522
 20
-57.60412
 11
-104.729522
 21
-57.60412
  0
LINE
  8
ボルト／ビス
  6
DOT
 10
-104.729522
 20
-57.60412
 11
-104.729522
 21
-57.670785
  0
ENDBLK
  0
BLOCK
  2
*DIM_0029
 70
    65
 10
0.0
 20
0.0
  0
LINE
  8
寸法
  6
CONTINUOUS
 10
34.070165
 20
-68.70412
 11
52.688638
 21
-68.70412
  0
LINE
  8
寸法
  6
CONTINUOUS
 10
34.070165
 20
-57.037453
 11
52.688638
 21
-57.037453
  0
LINE
  8
寸法
  6
CONTINUOUS
 10
52.688638
 20
-68.70412
 11
52.688638
 21
-57.037453
  0
POINT
  8
寸法
 10
52.688638
 20
-68.70412
  0
POINT
  8
寸法
 10
52.688638
 20
-57.037453
  0
TEXT
  7
TextStyle03
  8
寸法
  6
CONTINUOUS
 10
55.675
 20
-71.96875
  1
上昇304以上
 40
3.0
 50
90.0
 72
     5
 11
55.675
 21
-53.78125
  0
ENDBLK
  0
BLOCK
  2
*GRP_0030
 70
    65
 10
0.0
 20
0.0
  0
LINE
  8
補助線
  6
BYBLOCK
 62
    64
 10
-92.53307
 20
-74.368295
 11
-92.660555
 21
-74.475655
  0
LINE
  8
補助線
  6
BYBLOCK
 62
    64
 10
-92.650493
 20
-74.35823
 11
-92.543132
 21
-74.485718
  0
LINE
  8
補助線
  6
BYBLOCK
 62
    64
 10
-84.042652
 20
-67.218272
 11
-84.170137
 21
-67.325627
  0
LINE
  8
補助線
  6
BYBLOCK
 62
    64
 10
-84.160075
 20
-67.208208
 11
-84.052715
 21
-67.33569
  0
LINE
  8
補助線
  6
BYBLOCK
 62
    64
 10
-75.679717
 20
-60.175602
 11
-75.552235
 21
-60.068245
  0
LINE
  8
補助線
  6
BYBLOCK
 62
    64
 10
-75.669658
 20
-60.05818
 11
-75.562298
 21
-60.185668
  0
LINE
  8
型材断面
  6
CONTINUOUS
 10
-93.388568
 20
-73.999273
 11
-93.448945
 21
-74.703798
  0
LINE
  8
型材断面
  6
CONTINUOUS
 10
-93.448945
 20
-74.703798
 11
-93.019513
 21
-75.213732
  0
LINE
  8
型材断面
  6
CONTINUOUS
 10
-93.019513
 20
-75.213732
 11
-92.314988
 21
-75.27411
  0
LINE
  8
型材断面
  6
CONTINUOUS
 10
-75.8978
 20
-59.269793
 11
-75.193275
 21
-59.33017
  0
LINE
  8
型材断面
  6
CONTINUOUS
 10
-75.193275
 20
-59.33017
 11
-74.763843
 21
-59.840105
  0
LINE
  8
型材断面
  6
CONTINUOUS
 10
-74.763843
 20
-59.840105
 11
-74.82422
 21
-60.54463
  0
LINE
  8
型材断面
  6
CONTINUOUS
 10
-93.388568
 20
-73.999273
 11
-75.8978
 21
-59.269793
  0
LINE
  8
型材断面
  6
CONTINUOUS
 10
-92.314988
 20
-75.27411
 11
-74.82422
 21
-60.54463
  0
CIRCLE
  8
ボルト／ビス
  6
CONTINUOUS
 10
-92.596813
 20
-74.421975
 40
0.250185
  0
CIRCLE
  8
ボルト／ビス
  6
CONTINUOUS
 10
-92.596813
 20
-74.421975
 40
0.301025
  0
LINE
  8
ボルト／ビス
  6
CONTINUOUS
 62
    64
 10
-92.84312
 20
-74.465858
 11
-92.757967
 21
-74.23061
  0
LINE
  8
ボルト／ビス
  6
CONTINUOUS
 62
    64
 10
-92.51166
 20
-74.186725
 11
-92.757967
 21
-74.23061
  0
LINE
  8
ボルト／ビス
  6
CONTINUOUS
 62
    64
 10
-92.681965
 20
-74.657225
 11
-92.435657
 21
-74.61334
  0
LINE
  8
ボルト／ビス
  6
CONTINUOUS
 62
    64
 10
-92.350505
 20
-74.378093
 11
-92.435657
 21
-74.61334
  0
LINE
  8
ボルト／ビス
  6
CONTINUOUS
 62
    64
 10
-92.84312
 20
-74.465858
 11
-92.681965
 21
-74.657225
  0
LINE
  8
ボルト／ビス
  6
CONTINUOUS
 62
    64
 10
-92.51166
 20
-74.186725
 11
-92.350505
 21
-74.378093
  0
CIRCLE
  8
ボルト／ビス
  6
CONTINUOUS
 62
    64
 10
-92.596813
 20
-74.421975
 40
0.216668
  0
CIRCLE
  8
ボルト／ビス
  6
CONTINUOUS
 10
-84.106395
 20
-67.27195
 40
0.250185
  0
CIRCLE
  8
ボルト／ビス
  6
CONTINUOUS
 10
-84.106395
 20
-67.27195
 40
0.301025
  0
LINE
  8
ボルト／ビス
  6
CONTINUOUS
 62
    64
 10
-84.352703
 20
-67.315833
 11
-84.26755
 21
-67.080583
  0
LINE
  8
ボルト／ビス
  6
CONTINUOUS
 62
    64
 10
-84.021242
 20
-67.0367
 11
-84.26755
 21
-67.080583
  0
LINE
  8
ボルト／ビス
  6
CONTINUOUS
 62
    64
 10
-84.191547
 20
-67.5072
 11
-83.945237
 21
-67.463317
  0
LINE
  8
ボルト／ビス
  6
CONTINUOUS
 62
    64
 10
-83.860088
 20
-67.22807
 11
-83.945237
 21
-67.463317
  0
LINE
  8
ボルト／ビス
  6
CONTINUOUS
 62
    64
 10
-84.352703
 20
-67.315833
 11
-84.191547
 21
-67.5072
  0
LINE
  8
ボルト／ビス
  6
CONTINUOUS
 62
    64
 10
-84.021242
 20
-67.0367
 11
-83.860088
 21
-67.22807
  0
CIRCLE
  8
ボルト／ビス
  6
CONTINUOUS
 62
    64
 10
-84.106395
 20
-67.27195
 40
0.216668
  0
CIRCLE
  8
ボルト／ビス
  6
CONTINUOUS
 10
-75.615975
 20
-60.121925
 40
0.250185
  0
CIRCLE
  8
ボルト／ビス
  6
CONTINUOUS
 10
-75.615975
 20
-60.121925
 40
0.301025
  0
LINE
  8
ボルト／ビス
  6
CONTINUOUS
 62
    64
 10
-75.530822
 20
-59.886675
 11
-75.777132
 21
-59.93056
  0
LINE
  8
ボルト／ビス
  6
CONTINUOUS
 62
    64
 10
-75.862285
 20
-60.165808
 11
-75.777132
 21
-59.93056
  0
LINE
  8
ボルト／ビス
  6
CONTINUOUS
 62
    64
 10
-75.36967
 20
-60.078042
 11
-75.45482
 21
-60.31329
  0
LINE
  8
ボルト／ビス
  6
CONTINUOUS
 62
    64
 10
-75.70113
 20
-60.357175
 11
-75.45482
 21
-60.31329
  0
LINE
  8
ボルト／ビス
  6
CONTINUOUS
 62
    64
 10
-75.530822
 20
-59.886675
 11
-75.36967
 21
-60.078042
  0
LINE
  8
ボルト／ビス
  6
CONTINUOUS
 62
    64
 10
-75.862285
 20
-60.165808
 11
-75.70113
 21
-60.357175
  0
CIRCLE
  8
ボルト／ビス
  6
CONTINUOUS
 62
    64
 10
-75.615975
 20
-60.121925
 40
0.216668
  0
ENDBLK
  0
BLOCK
  2
*GRP_0031
 70
    65
 10
0.0
 20
0.0
  0
LINE
  8
補助線
  6
BYBLOCK
 62
    64
 10
-75.67972
 20
-74.368295
 11
-75.552235
 21
-74.475655
  0
LINE
  8
補助線
  6
BYBLOCK
 62
    64
 10
-75.562298
 20
-74.35823
 11
-75.669658
 21
-74.485718
  0
LINE
  8
補助線
  6
BYBLOCK
 62
    64
 10
-84.170137
 20
-67.218272
 11
-84.042652
 21
-67.325627
  0
LINE
  8
補助線
  6
BYBLOCK
 62
    64
 10
-84.052715
 20
-67.208208
 11
-84.160075
 21
-67.33569
  0
LINE
  8
補助線
  6
BYBLOCK
 62
    64
 10
-92.533072
 20
-60.175602
 11
-92.660555
 21
-60.068245
  0
LINE
  8
補助線
  6
BYBLOCK
 62
    64
 10
-92.543132
 20
-60.05818
 11
-92.650493
 21
-60.185668
  0
LINE
  8
型材断面
  6
CONTINUOUS
 10
-74.824222
 20
-73.999273
 11
-74.763845
 21
-74.703798
  0
LINE
  8
型材断面
  6
CONTINUOUS
 10
-74.763845
 20
-74.703798
 11
-75.193278
 21
-75.213732
  0
LINE
  8
型材断面
  6
CONTINUOUS
 10
-75.193278
 20
-75.213732
 11
-75.897803
 21
-75.27411
  0
LINE
  8
型材断面
  6
CONTINUOUS
 10
-92.31499
 20
-59.269793
 11
-93.019515
 21
-59.33017
  0
LINE
  8
型材断面
  6
CONTINUOUS
 10
-93.019515
 20
-59.33017
 11
-93.448948
 21
-59.840105
  0
LINE
  8
型材断面
  6
CONTINUOUS
 10
-93.448948
 20
-59.840105
 11
-93.38857
 21
-60.54463
  0
LINE
  8
型材断面
  6
CONTINUOUS
 10
-74.824222
 20
-73.999273
 11
-92.31499
 21
-59.269793
  0
LINE
  8
型材断面
  6
CONTINUOUS
 10
-75.897803
 20
-75.27411
 11
-93.38857
 21
-60.54463
  0
CIRCLE
  8
ボルト／ビス
  6
CONTINUOUS
 10
-75.615978
 20
-74.421975
 40
0.250185
  0
CIRCLE
  8
ボルト／ビス
  6
CONTINUOUS
 10
-75.615978
 20
-74.421975
 40
0.301025
  0
LINE
  8
ボルト／ビス
  6
CONTINUOUS
 62
    64
 10
-75.36967
 20
-74.465858
 11
-75.454822
 21
-74.23061
  0
LINE
  8
ボルト／ビス
  6
CONTINUOUS
 62
    64
 10
-75.70113
 20
-74.186725
 11
-75.454822
 21
-74.23061
  0
LINE
  8
ボルト／ビス
  6
CONTINUOUS
 62
    64
 10
-75.530825
 20
-74.657225
 11
-75.777132
 21
-74.61334
  0
LINE
  8
ボルト／ビス
  6
CONTINUOUS
 62
    64
 10
-75.862285
 20
-74.378093
 11
-75.777132
 21
-74.61334
  0
LINE
  8
ボルト／ビス
  6
CONTINUOUS
 62
    64
 10
-75.36967
 20
-74.465858
 11
-75.530825
 21
-74.657225
  0
LINE
  8
ボルト／ビス
  6
CONTINUOUS
 62
    64
 10
-75.70113
 20
-74.186725
 11
-75.862285
 21
-74.378093
  0
CIRCLE
  8
ボルト／ビス
  6
CONTINUOUS
 62
    64
 10
-75.615978
 20
-74.421975
 40
0.216668
  0
CIRCLE
  8
ボルト／ビス
  6
CONTINUOUS
 10
-84.106395
 20
-67.27195
 40
0.250185
  0
CIRCLE
  8
ボルト／ビス
  6
CONTINUOUS
 10
-84.106395
 20
-67.27195
 40
0.301025
  0
LINE
  8
ボルト／ビス
  6
CONTINUOUS
 62
    64
 10
-83.860088
 20
-67.315833
 11
-83.94524
 21
-67.080583
  0
LINE
  8
ボルト／ビス
  6
CONTINUOUS
 62
    64
 10
-84.191547
 20
-67.0367
 11
-83.94524
 21
-67.080583
  0
LINE
  8
ボルト／ビス
  6
CONTINUOUS
 62
    64
 10
-84.021242
 20
-67.5072
 11
-84.267552
 21
-67.463317
  0
LINE
  8
ボルト／ビス
  6
CONTINUOUS
 62
    64
 10
-84.352703
 20
-67.22807
 11
-84.267552
 21
-67.463317
  0
LINE
  8
ボルト／ビス
  6
CONTINUOUS
 62
    64
 10
-83.860088
 20
-67.315833
 11
-84.021242
 21
-67.5072
  0
LINE
  8
ボルト／ビス
  6
CONTINUOUS
 62
    64
 10
-84.191547
 20
-67.0367
 11
-84.352703
 21
-67.22807
  0
CIRCLE
  8
ボルト／ビス
  6
CONTINUOUS
 62
    64
 10
-84.106395
 20
-67.27195
 40
0.216668
  0
CIRCLE
  8
ボルト／ビス
  6
CONTINUOUS
 10
-92.596815
 20
-60.121925
 40
0.250185
  0
CIRCLE
  8
ボルト／ビス
  6
CONTINUOUS
 10
-92.596815
 20
-60.121925
 40
0.301025
  0
LINE
  8
ボルト／ビス
  6
CONTINUOUS
 62
    64
 10
-92.681967
 20
-59.886675
 11
-92.435657
 21
-59.93056
  0
LINE
  8
ボルト／ビス
  6
CONTINUOUS
 62
    64
 10
-92.350505
 20
-60.165808
 11
-92.435657
 21
-59.93056
  0
LINE
  8
ボルト／ビス
  6
CONTINUOUS
 62
    64
 10
-92.84312
 20
-60.078042
 11
-92.75797
 21
-60.31329
  0
LINE
  8
ボルト／ビス
  6
CONTINUOUS
 62
    64
 10
-92.51166
 20
-60.357175
 11
-92.75797
 21
-60.31329
  0
LINE
  8
ボルト／ビス
  6
CONTINUOUS
 62
    64
 10
-92.681967
 20
-59.886675
 11
-92.84312
 21
-60.078042
  0
LINE
  8
ボルト／ビス
  6
CONTINUOUS
 62
    64
 10
-92.350505
 20
-60.165808
 11
-92.51166
 21
-60.357175
  0
CIRCLE
  8
ボルト／ビス
  6
CONTINUOUS
 62
    64
 10
-92.596815
 20
-60.121925
 40
0.216668
  0
ENDBLK
  0
BLOCK
  2
*GRP_0032
 70
    65
 10
0.0
 20
0.0
  0
LINE
  8
補助線
  6
BYBLOCK
 62
    64
 10
17.33945
 20
-74.368295
 11
17.466935
 21
-74.475655
  0
LINE
  8
補助線
  6
BYBLOCK
 62
    64
 10
17.456872
 20
-74.35823
 11
17.349512
 21
-74.485718
  0
LINE
  8
補助線
  6
BYBLOCK
 62
    64
 10
8.849033
 20
-67.218272
 11
8.976518
 21
-67.325627
  0
LINE
  8
補助線
  6
BYBLOCK
 62
    64
 10
8.966455
 20
-67.208208
 11
8.859095
 21
-67.33569
  0
LINE
  8
補助線
  6
BYBLOCK
 62
    64
 10
0.486097
 20
-60.175602
 11
0.358615
 21
-60.068245
  0
LINE
  8
補助線
  6
BYBLOCK
 62
    64
 10
0.476037
 20
-60.05818
 11
0.368678
 21
-60.185668
  0
LINE
  8
型材断面
  6
CONTINUOUS
 10
18.194947
 20
-73.999273
 11
18.255325
 21
-74.703798
  0
LINE
  8
型材断面
  6
CONTINUOUS
 10
18.255325
 20
-74.703798
 11
17.825893
 21
-75.213732
  0
LINE
  8
型材断面
  6
CONTINUOUS
 10
17.825893
 20
-75.213732
 11
17.121368
 21
-75.27411
  0
LINE
  8
型材断面
  6
CONTINUOUS
 10
0.70418
 20
-59.269793
 11
-0.000345
 21
-59.33017
  0
LINE
  8
型材断面
  6
CONTINUOUS
 10
-0.000345
 20
-59.33017
 11
-0.429778
 21
-59.840105
  0
LINE
  8
型材断面
  6
CONTINUOUS
 10
-0.429778
 20
-59.840105
 11
-0.3694
 21
-60.54463
  0
LINE
  8
型材断面
  6
CONTINUOUS
 10
18.194947
 20
-73.999273
 11
0.70418
 21
-59.269793
  0
LINE
  8
型材断面
  6
CONTINUOUS
 10
17.121368
 20
-75.27411
 11
-0.3694
 21
-60.54463
  0
CIRCLE
  8
ボルト／ビス
  6
CONTINUOUS
 10
17.403192
 20
-74.421975
 40
0.250185
  0
CIRCLE
  8
ボルト／ビス
  6
CONTINUOUS
 10
17.403192
 20
-74.421975
 40
0.301025
  0
LINE
  8
ボルト／ビス
  6
CONTINUOUS
 62
    64
 10
17.6495
 20
-74.465858
 11
17.564348
 21
-74.23061
  0
LINE
  8
ボルト／ビス
  6
CONTINUOUS
 62
    64
 10
17.31804
 20
-74.186725
 11
17.564348
 21
-74.23061
  0
LINE
  8
ボルト／ビス
  6
CONTINUOUS
 62
    64
 10
17.488345
 20
-74.657225
 11
17.242037
 21
-74.61334
  0
LINE
  8
ボルト／ビス
  6
CONTINUOUS
 62
    64
 10
17.156885
 20
-74.378093
 11
17.242037
 21
-74.61334
  0
LINE
  8
ボルト／ビス
  6
CONTINUOUS
 62
    64
 10
17.6495
 20
-74.465858
 11
17.488345
 21
-74.657225
  0
LINE
  8
ボルト／ビス
  6
CONTINUOUS
 62
    64
 10
17.31804
 20
-74.186725
 11
17.156885
 21
-74.378093
  0
CIRCLE
  8
ボルト／ビス
  6
CONTINUOUS
 62
    64
 10
17.403192
 20
-74.421975
 40
0.216668
  0
CIRCLE
  8
ボルト／ビス
  6
CONTINUOUS
 10
8.912775
 20
-67.27195
 40
0.250185
  0
CIRCLE
  8
ボルト／ビス
  6
CONTINUOUS
 10
8.912775
 20
-67.27195
 40
0.301025
  0
LINE
  8
ボルト／ビス
  6
CONTINUOUS
 62
    64
 10
9.159082
 20
-67.315833
 11
9.07393
 21
-67.080583
  0
LINE
  8
ボルト／ビス
  6
CONTINUOUS
 62
    64
 10
8.827622
 20
-67.0367
 11
9.07393
 21
-67.080583
  0
LINE
  8
ボルト／ビス
  6
CONTINUOUS
 62
    64
 10
8.997927
 20
-67.5072
 11
8.751618
 21
-67.463317
  0
LINE
  8
ボルト／ビス
  6
CONTINUOUS
 62
    64
 10
8.666467
 20
-67.22807
 11
8.751618
 21
-67.463317
  0
LINE
  8
ボルト／ビス
  6
CONTINUOUS
 62
    64
 10
9.159082
 20
-67.315833
 11
8.997927
 21
-67.5072
  0
LINE
  8
ボルト／ビス
  6
CONTINUOUS
 62
    64
 10
8.827622
 20
-67.0367
 11
8.666467
 21
-67.22807
  0
CIRCLE
  8
ボルト／ビス
  6
CONTINUOUS
 62
    64
 10
8.912775
 20
-67.27195
 40
0.216668
  0
CIRCLE
  8
ボルト／ビス
  6
CONTINUOUS
 10
0.422355
 20
-60.121925
 40
0.250185
  0
CIRCLE
  8
ボルト／ビス
  6
CONTINUOUS
 10
0.422355
 20
-60.121925
 40
0.301025
  0
LINE
  8
ボルト／ビス
  6
CONTINUOUS
 62
    64
 10
0.337203
 20
-59.886675
 11
0.583512
 21
-59.93056
  0
LINE
  8
ボルト／ビス
  6
CONTINUOUS
 62
    64
 10
0.668665
 20
-60.165808
 11
0.583512
 21
-59.93056
  0
LINE
  8
ボルト／ビス
  6
CONTINUOUS
 62
    64
 10
0.17605
 20
-60.078042
 11
0.2612
 21
-60.31329
  0
LINE
  8
ボルト／ビス
  6
CONTINUOUS
 62
    64
 10
0.50751
 20
-60.357175
 11
0.2612
 21
-60.31329
  0
LINE
  8
ボルト／ビス
  6
CONTINUOUS
 62
    64
 10
0.337203
 20
-59.886675
 11
0.17605
 21
-60.078042
  0
LINE
  8
ボルト／ビス
  6
CONTINUOUS
 62
    64
 10
0.668665
 20
-60.165808
 11
0.50751
 21
-60.357175
  0
CIRCLE
  8
ボルト／ビス
  6
CONTINUOUS
 62
    64
 10
0.422355
 20
-60.121925
 40
0.216668
  0
ENDBLK
  0
BLOCK
  2
*GRP_0033
 70
    65
 10
0.0
 20
0.0
  0
LINE
  8
補助線
  6
BYBLOCK
 62
    64
 10
0.4861
 20
-74.368295
 11
0.358615
 21
-74.475655
  0
LINE
  8
補助線
  6
BYBLOCK
 62
    64
 10
0.368678
 20
-74.35823
 11
0.476037
 21
-74.485718
  0
LINE
  8
補助線
  6
BYBLOCK
 62
    64
 10
8.976518
 20
-67.218272
 11
8.849033
 21
-67.325627
  0
LINE
  8
補助線
  6
BYBLOCK
 62
    64
 10
8.859095
 20
-67.208208
 11
8.966455
 21
-67.33569
  0
LINE
  8
補助線
  6
BYBLOCK
 62
    64
 10
17.339452
 20
-60.175602
 11
17.466935
 21
-60.068245
  0
LINE
  8
補助線
  6
BYBLOCK
 62
    64
 10
17.349512
 20
-60.05818
 11
17.456872
 21
-60.185668
  0
LINE
  8
型材断面
  6
CONTINUOUS
 10
-0.369398
 20
-73.999273
 11
-0.429775
 21
-74.703798
  0
LINE
  8
型材断面
  6
CONTINUOUS
 10
-0.429775
 20
-74.703798
 11
-0.000342
 21
-75.213732
  0
LINE
  8
型材断面
  6
CONTINUOUS
 10
-0.000342
 20
-75.213732
 11
0.704183
 21
-75.27411
  0
LINE
  8
型材断面
  6
CONTINUOUS
 10
17.12137
 20
-59.269793
 11
17.825895
 21
-59.33017
  0
LINE
  8
型材断面
  6
CONTINUOUS
 10
17.825895
 20
-59.33017
 11
18.255328
 21
-59.840105
  0
LINE
  8
型材断面
  6
CONTINUOUS
 10
18.255328
 20
-59.840105
 11
18.19495
 21
-60.54463
  0
LINE
  8
型材断面
  6
CONTINUOUS
 10
-0.369398
 20
-73.999273
 11
17.12137
 21
-59.269793
  0
LINE
  8
型材断面
  6
CONTINUOUS
 10
0.704183
 20
-75.27411
 11
18.19495
 21
-60.54463
  0
CIRCLE
  8
ボルト／ビス
  6
CONTINUOUS
 10
0.422357
 20
-74.421975
 40
0.250185
  0
CIRCLE
  8
ボルト／ビス
  6
CONTINUOUS
 10
0.422357
 20
-74.421975
 40
0.301025
  0
LINE
  8
ボルト／ビス
  6
CONTINUOUS
 62
    64
 10
0.17605
 20
-74.465858
 11
0.261203
 21
-74.23061
  0
LINE
  8
ボルト／ビス
  6
CONTINUOUS
 62
    64
 10
0.50751
 20
-74.186725
 11
0.261203
 21
-74.23061
  0
LINE
  8
ボルト／ビス
  6
CONTINUOUS
 62
    64
 10
0.337205
 20
-74.657225
 11
0.583512
 21
-74.61334
  0
LINE
  8
ボルト／ビス
  6
CONTINUOUS
 62
    64
 10
0.668665
 20
-74.378093
 11
0.583512
 21
-74.61334
  0
LINE
  8
ボルト／ビス
  6
CONTINUOUS
 62
    64
 10
0.17605
 20
-74.465858
 11
0.337205
 21
-74.657225
  0
LINE
  8
ボルト／ビス
  6
CONTINUOUS
 62
    64
 10
0.50751
 20
-74.186725
 11
0.668665
 21
-74.378093
  0
CIRCLE
  8
ボルト／ビス
  6
CONTINUOUS
 62
    64
 10
0.422357
 20
-74.421975
 40
0.216668
  0
CIRCLE
  8
ボルト／ビス
  6
CONTINUOUS
 10
8.912775
 20
-67.27195
 40
0.250185
  0
CIRCLE
  8
ボルト／ビス
  6
CONTINUOUS
 10
8.912775
 20
-67.27195
 40
0.301025
  0
LINE
  8
ボルト／ビス
  6
CONTINUOUS
 62
    64
 10
8.666467
 20
-67.315833
 11
8.75162
 21
-67.080583
  0
LINE
  8
ボルト／ビス
  6
CONTINUOUS
 62
    64
 10
8.997927
 20
-67.0367
 11
8.75162
 21
-67.080583
  0
LINE
  8
ボルト／ビス
  6
CONTINUOUS
 62
    64
 10
8.827622
 20
-67.5072
 11
9.073933
 21
-67.463317
  0
LINE
  8
ボルト／ビス
  6
CONTINUOUS
 62
    64
 10
9.159082
 20
-67.22807
 11
9.073933
 21
-67.463317
  0
LINE
  8
ボルト／ビス
  6
CONTINUOUS
 62
    64
 10
8.666467
 20
-67.315833
 11
8.827622
 21
-67.5072
  0
LINE
  8
ボルト／ビス
  6
CONTINUOUS
 62
    64
 10
8.997927
 20
-67.0367
 11
9.159082
 21
-67.22807
  0
CIRCLE
  8
ボルト／ビス
  6
CONTINUOUS
 62
    64
 10
8.912775
 20
-67.27195
 40
0.216668
  0
CIRCLE
  8
ボルト／ビス
  6
CONTINUOUS
 10
17.403195
 20
-60.121925
 40
0.250185
  0
CIRCLE
  8
ボルト／ビス
  6
CONTINUOUS
 10
17.403195
 20
-60.121925
 40
0.301025
  0
LINE
  8
ボルト／ビス
  6
CONTINUOUS
 62
    64
 10
17.488348
 20
-59.886675
 11
17.242037
 21
-59.93056
  0
LINE
  8
ボルト／ビス
  6
CONTINUOUS
 62
    64
 10
17.156885
 20
-60.165808
 11
17.242037
 21
-59.93056
  0
LINE
  8
ボルト／ビス
  6
CONTINUOUS
 62
    64
 10
17.6495
 20
-60.078042
 11
17.56435
 21
-60.31329
  0
LINE
  8
ボルト／ビス
  6
CONTINUOUS
 62
    64
 10
17.31804
 20
-60.357175
 11
17.56435
 21
-60.31329
  0
LINE
  8
ボルト／ビス
  6
CONTINUOUS
 62
    64
 10
17.488348
 20
-59.886675
 11
17.6495
 21
-60.078042
  0
LINE
  8
ボルト／ビス
  6
CONTINUOUS
 62
    64
 10
17.156885
 20
-60.165808
 11
17.31804
 21
-60.357175
  0
CIRCLE
  8
ボルト／ビス
  6
CONTINUOUS
 62
    64
 10
17.403195
 20
-60.121925
 40
0.216668
  0
ENDBLK
  0
BLOCK
  2
*DIM_0034
 70
    65
 10
0.0
 20
0.0
  0
LINE
  8
寸法
  6
CONTINUOUS
 10
127.920893
 20
-39.554723
 11
127.920893
 21
-31.354533
  0
LINE
  8
寸法
  6
CONTINUOUS
 10
160.07756
 20
-39.554723
 11
160.07756
 21
-31.354533
  0
LINE
  8
寸法
  6
CONTINUOUS
 10
127.920893
 20
-31.354533
 11
160.07756
 21
-31.354533
  0
POINT
  8
寸法
 10
127.920893
 20
-31.354533
  0
POINT
  8
寸法
 10
160.07756
 20
-31.354533
  0
TEXT
  7
TextStyle03
  8
寸法
  6
CONTINUOUS
 10
139.85
 20
-31.0
  1
964.7
 40
3.0
 72
     5
 11
148.1
 21
-31.0
  0
ENDBLK
  0
BLOCK
  2
*DIM_0035
 70
    65
 10
0.0
 20
0.0
  0
LINE
  8
寸法
  6
CONTINUOUS
 10
165.07756
 20
-44.554723
 11
175.93761
 21
-44.554723
  0
LINE
  8
寸法
  6
CONTINUOUS
 10
165.07756
 20
-73.888055
 11
175.93761
 21
-73.888055
  0
LINE
  8
寸法
  6
CONTINUOUS
 10
175.93761
 20
-44.554723
 11
175.93761
 21
-73.888055
  0
POINT
  8
寸法
 10
175.93761
 20
-44.554723
  0
POINT
  8
寸法
 10
175.93761
 20
-73.888055
  0
TEXT
  7
TextStyle03
  8
寸法
  6
CONTINUOUS
 10
175.55
 20
-61.6625
  1
880
 40
3.0
 50
90.0
 72
     5
 11
175.55
 21
-56.7875
  0
ENDBLK
  0
BLOCK
  2
*DIM_0036
 70
    65
 10
0.0
 20
0.0
  0
LINE
  8
寸法
  6
CONTINUOUS
 10
31.34986
 20
-68.209977
 11
31.34986
 21
-32.437345
  0
LINE
  8
寸法
  6
CONTINUOUS
 10
29.070165
 20
-32.437345
 11
31.34986
 21
-32.437345
  0
POINT
  8
寸法
 10
29.070165
 20
-32.437345
  0
POINT
  8
寸法
 10
31.34986
 20
-32.437345
  0
TEXT
  7
TextStyle03
  8
寸法
  6
CONTINUOUS
 10
33.66875
 20
-32.075
  1
68.4
 40
3.0
 72
     5
 11
40.23125
 21
-32.075
  0
ENDBLK
  0
BLOCK
  2
*DIM_0037
 70
    65
 10
0.0
 20
0.0
  0
LINE
  8
寸法
  6
CONTINUOUS
 10
-106.542855
 20
-68.209977
 11
-106.542855
 21
-32.437345
  0
LINE
  8
寸法
  6
CONTINUOUS
 10
-104.26316
 20
-32.437345
 11
-106.542855
 21
-32.437345
  0
POINT
  8
寸法
 10
-104.26316
 20
-32.437345
  0
POINT
  8
寸法
 10
-106.542855
 20
-32.437345
  0
TEXT
  7
TextStyle03
  8
寸法
  6
CONTINUOUS
 10
-115.45625
 20
-32.075
  1
68.4
 40
3.0
 72
     5
 11
-108.89375
 21
-32.075
  0
ENDBLK
  0
BLOCK
  2
*DIM_0038
 70
    65
 10
0.0
 20
0.0
  0
LINE
  8
寸法
  6
CONTINUOUS
 10
29.070165
 20
-32.437345
 11
-104.26316
 21
-32.437345
  0
POINT
  8
寸法
 10
29.070165
 20
-32.437345
  0
POINT
  8
寸法
 10
-104.26316
 20
-32.437345
  0
TEXT
  7
TextStyle03
  8
寸法
  6
CONTINUOUS
 10
-49.31875
 20
-32.075
  1
呼称寸法　4000
 40
3.0
 72
     5
 11
-25.88125
 21
-32.075
  0
ENDBLK
  0
BLOCK
  2
M8横
 70
    64
 10
-88.370132
 20
140.837665
  0
LINE
  8
ボルト／ビス
 10
-95.870132
 20
140.837665
 11
-80.870132
 21
140.837665
  0
LINE
  8
ボルト／ビス
 10
-80.870132
 20
145.837665
 11
-81.370132
 21
146.337665
  0
POLYLINE
  8
ボルト／ビス
 66
     1
  0
VERTEX
  8
ボルト／ビス
 10
-84.120132
 20
146.337665
  0
VERTEX
  8
ボルト／ビス
 10
-84.620132
 20
145.837665
  0
VERTEX
  8
ボルト／ビス
 10
-85.120132
 20
146.337665
  0
SEQEND
  0
POLYLINE
  8
ボルト／ビス
 66
     1
  0
VERTEX
  8
ボルト／ビス
 10
-91.620132
 20
146.337665
  0
VERTEX
  8
ボルト／ビス
 10
-92.120132
 20
145.837665
  0
VERTEX
  8
ボルト／ビス
 10
-92.620132
 20
146.337665
  0
SEQEND
  0
LINE
  8
ボルト／ビス
 10
-95.370132
 20
146.337665
 11
-95.870132
 21
145.837665
  0
LINE
  8
ボルト／ビス
 10
-95.870132
 20
140.837665
 11
-95.870132
 21
145.837665
  0
LINE
  8
ボルト／ビス
 10
-80.870132
 20
140.837665
 11
-80.870132
 21
145.837665
  0
LINE
  8
ボルト／ビス
 10
-95.370132
 20
146.337665
 11
-81.370132
 21
146.337665
  0
LINE
  8
ボルト／ビス
 10
-84.620132
 20
140.837665
 11
-84.620132
 21
145.837665
  0
LINE
  8
ボルト／ビス
 10
-92.120132
 20
140.837665
 11
-92.120132
 21
145.837665
  0
ENDBLK
  0
ENDSEC
  0
SECTION
  2
ENTITIES
  0
POLYLINE
  8
通り芯
  6
CONTINUOUS
 66
     1
 70
     1
  0
VERTEX
  8
通り芯
 10
-210.0
 20
-148.5
  0
VERTEX
  8
通り芯
 10
210.0
 20
-148.5
  0
VERTEX
  8
通り芯
 10
210.0
 20
148.5
  0
VERTEX
  8
通り芯
 10
-210.0
 20
148.5
  0
SEQEND
  0
INSERT
  2
*GRP_0001
  8
型材断面
  6
CONTINUOUS
 10
0.0
 20
0.0
  0
LINE
  8
型材断面
  6
CONTINUOUS
 10
162.97617
 20
66.869993
 11
162.97617
 21
66.819993
  0
LINE
  8
型材断面
  6
CONTINUOUS
 10
162.47617
 20
65.203325
 11
161.742835
 21
65.203325
  0
LINE
  8
型材断面
  6
CONTINUOUS
 62
    47
 10
169.709335
 20
66.60302
 11
169.709335
 21
66.55302
  0
LINE
  8
型材断面
  6
CONTINUOUS
 62
    47
 10
169.709335
 20
66.60302
 11
169.209335
 21
66.60302
  0
LINE
  8
型材断面
  6
CONTINUOUS
 10
163.459335
 20
65.25302
 11
163.459335
 21
66.699688
  0
LINE
  8
型材断面
  6
CONTINUOUS
 10
163.909335
 20
66.699688
 11
163.459335
 21
66.699688
  0
LINE
  8
型材断面
  6
CONTINUOUS
 62
    47
 10
166.582028
 20
67.43302
 11
166.582028
 21
67.48302
  0
LINE
  8
型材断面
  6
CONTINUOUS
 62
    47
 10
166.582028
 20
67.48302
 11
166.248695
 21
67.48302
  0
LINE
  8
型材断面
  6
CONTINUOUS
 62
    47
 10
166.248695
 20
67.48302
 11
166.148695
 21
66.699688
  0
LINE
  8
型材断面
  6
CONTINUOUS
 62
    47
 10
165.74267
 20
66.699688
 11
166.148695
 21
66.699688
  0
LINE
  8
型材断面
  6
CONTINUOUS
 62
    47
 10
165.74267
 20
67.169687
 11
163.909335
 21
67.169687
  0
LINE
  8
型材断面
  6
CONTINUOUS
 10
162.97617
 20
66.869993
 11
162.47617
 21
66.869993
  0
LINE
  8
型材断面
  6
CONTINUOUS
 10
163.459335
 20
65.25302
 11
162.97617
 21
65.25302
  0
LINE
  8
型材断面
  6
CONTINUOUS
 62
    47
 10
169.209335
 20
67.169687
 11
166.582028
 21
67.169687
  0
INSERT
  2
*GRP_0002
  8
型材断面
  6
DOT
 10
0.0
 20
0.0
  0
INSERT
  2
*GRP_0003
  8
型材断面
  6
DOT
 10
0.0
 20
0.0
  0
LINE
  8
型材断面
  6
CONTINUOUS
 10
169.209335
 20
67.169687
 11
169.209335
 21
50.203325
  0
LINE
  8
型材断面
  6
CONTINUOUS
 10
169.709335
 20
66.60302
 11
169.709335
 21
50.203325
  0
LINE
  8
型材断面
  6
CONTINUOUS
 10
166.582028
 20
67.48302
 11
166.582028
 21
50.203325
  0
LINE
  8
型材断面
  6
CONTINUOUS
 10
166.248695
 20
67.48302
 11
166.248695
 21
50.203325
  0
LINE
  8
型材断面
  6
CONTINUOUS
 10
166.148695
 20
66.699688
 11
166.148695
 21
50.203325
  0
LINE
  8
型材断面
  6
CONTINUOUS
 10
165.74267
 20
67.169687
 11
165.74267
 21
50.203325
  0
LINE
  8
型材断面
  6
CONTINUOUS
 10
162.97617
 20
66.869993
 11
162.97617
 21
50.203325
  0
LINE
  8
型材断面
  6
CONTINUOUS
 10
161.742835
 20
65.203325
 11
161.742835
 21
50.203325
  0
LINE
  8
型材断面
  6
CONTINUOUS
 10
162.47617
 20
66.869993
 11
162.47617
 21
50.203325
  0
LINE
  8
型材断面
  6
CONTINUOUS
 10
163.459335
 20
66.699688
 11
163.459335
 21
50.203325
  0
LINE
  8
型材断面
  6
CONTINUOUS
 10
163.909335
 20
67.169687
 11
163.909335
 21
50.203325
  0
LINE
  8
型材断面
  6
DASHDOT
 10
-37.596497
 20
-79.253555
 11
-37.596497
 21
65.203325
  0
LINE
  8
型材断面
  6
CONTINUOUS
 10
162.97617
 20
33.53666
 11
162.97617
 21
33.58666
  0
LINE
  8
型材断面
  6
CONTINUOUS
 10
162.47617
 20
35.203325
 11
161.742835
 21
35.203325
  0
LINE
  8
型材断面
  6
CONTINUOUS
 62
    47
 10
169.709335
 20
33.80363
 11
169.709335
 21
33.85363
  0
LINE
  8
型材断面
  6
CONTINUOUS
 62
    47
 10
169.709335
 20
33.80363
 11
169.209335
 21
33.80363
  0
LINE
  8
型材断面
  6
CONTINUOUS
 10
163.459335
 20
35.15363
 11
163.459335
 21
33.706965
  0
LINE
  8
型材断面
  6
CONTINUOUS
 10
163.909335
 20
33.706965
 11
163.459335
 21
33.706965
  0
LINE
  8
型材断面
  6
CONTINUOUS
 62
    47
 10
166.582028
 20
32.97363
 11
166.582028
 21
32.92363
  0
LINE
  8
型材断面
  6
CONTINUOUS
 62
    47
 10
166.582028
 20
32.92363
 11
166.248695
 21
32.92363
  0
LINE
  8
型材断面
  6
CONTINUOUS
 62
    47
 10
166.248695
 20
32.92363
 11
166.148695
 21
33.706965
  0
LINE
  8
型材断面
  6
CONTINUOUS
 62
    47
 10
165.74267
 20
33.706965
 11
166.148695
 21
33.706965
  0
LINE
  8
型材断面
  6
CONTINUOUS
 62
    47
 10
165.74267
 20
33.236965
 11
163.909335
 21
33.236965
  0
LINE
  8
型材断面
  6
CONTINUOUS
 10
162.97617
 20
33.53666
 11
162.47617
 21
33.53666
  0
LINE
  8
型材断面
  6
CONTINUOUS
 10
163.459335
 20
35.15363
 11
162.97617
 21
35.15363
  0
LINE
  8
型材断面
  6
CONTINUOUS
 62
    47
 10
169.209335
 20
33.236965
 11
166.582028
 21
33.236965
  0
INSERT
  2
*GRP_0004
  8
型材断面
  6
DOT
 10
0.0
 20
0.0
  0
INSERT
  2
*GRP_0005
  8
型材断面
  6
DOT
 10
0.0
 20
0.0
  0
LINE
  8
型材断面
  6
CONTINUOUS
 10
169.209335
 20
33.236965
 11
169.209335
 21
50.203325
  0
LINE
  8
型材断面
  6
CONTINUOUS
 10
169.709335
 20
33.80363
 11
169.709335
 21
50.203325
  0
LINE
  8
型材断面
  6
CONTINUOUS
 10
166.582028
 20
32.92363
 11
166.582028
 21
50.203325
  0
LINE
  8
型材断面
  6
CONTINUOUS
 10
166.248695
 20
32.92363
 11
166.248695
 21
50.203325
  0
LINE
  8
型材断面
  6
CONTINUOUS
 10
166.148695
 20
33.706965
 11
166.148695
 21
50.203325
  0
LINE
  8
型材断面
  6
CONTINUOUS
 10
165.74267
 20
33.236965
 11
165.74267
 21
50.203325
  0
LINE
  8
型材断面
  6
CONTINUOUS
 10
162.97617
 20
33.53666
 11
162.97617
 21
50.203325
  0
LINE
  8
型材断面
  6
CONTINUOUS
 10
161.742835
 20
35.203325
 11
161.742835
 21
50.203325
  0
LINE
  8
型材断面
  6
CONTINUOUS
 10
162.47617
 20
33.53666
 11
162.47617
 21
50.203325
  0
LINE
  8
型材断面
  6
CONTINUOUS
 10
163.459335
 20
33.706965
 11
163.459335
 21
50.203325
  0
LINE
  8
型材断面
  6
CONTINUOUS
 10
163.909335
 20
33.236965
 11
163.909335
 21
50.203325
  0
POLYLINE
  8
型材断面
  6
CONTINUOUS
 66
     1
 70
     1
  0
VERTEX
  8
型材断面
 10
28.91449
 20
-94.850355
  0
VERTEX
  8
型材断面
 10
-19.764185
 20
-94.850355
  0
VERTEX
  8
型材断面
 10
-19.764185
 20
-111.19502
  0
VERTEX
  8
型材断面
 10
28.91449
 20
-111.19502
  0
SEQEND
  0
LINE
  8
型材断面
  6
CONTINUOUS
 10
30.736832
 20
-69.937453
 11
30.686832
 21
-69.937453
  0
LINE
  8
型材断面
  6
CONTINUOUS
 10
29.070165
 20
-69.437453
 11
29.070165
 21
-68.70412
  0
LINE
  8
型材断面
  6
CONTINUOUS
 62
    47
 10
30.46986
 20
-76.67062
 11
30.41986
 21
-76.67062
  0
LINE
  8
型材断面
  6
CONTINUOUS
 62
    47
 10
30.46986
 20
-76.67062
 11
30.46986
 21
-76.17062
  0
LINE
  8
型材断面
  6
CONTINUOUS
 10
29.11986
 20
-70.42062
 11
30.566527
 21
-70.42062
  0
LINE
  8
型材断面
  6
CONTINUOUS
 10
30.566527
 20
-70.87062
 11
30.566527
 21
-70.42062
  0
LINE
  8
型材断面
  6
CONTINUOUS
 62
    47
 10
31.29986
 20
-73.543312
 11
31.34986
 21
-73.543312
  0
LINE
  8
型材断面
  6
CONTINUOUS
 62
    47
 10
31.34986
 20
-73.543312
 11
31.34986
 21
-73.209977
  0
LINE
  8
型材断面
  6
CONTINUOUS
 62
    47
 10
31.34986
 20
-73.209977
 11
30.566527
 21
-73.109977
  0
LINE
  8
型材断面
  6
CONTINUOUS
 62
    47
 10
30.566527
 20
-72.703953
 11
30.566527
 21
-73.109977
  0
LINE
  8
型材断面
  6
CONTINUOUS
 62
    47
 10
31.036528
 20
-72.703953
 11
31.036528
 21
-70.87062
  0
LINE
  8
型材断面
  6
CONTINUOUS
 10
30.736832
 20
-69.937453
 11
30.736832
 21
-69.437453
  0
LINE
  8
型材断面
  6
CONTINUOUS
 10
29.11986
 20
-70.42062
 11
29.11986
 21
-69.937453
  0
LINE
  8
型材断面
  6
CONTINUOUS
 62
    47
 10
31.036528
 20
-76.17062
 11
31.036528
 21
-73.543312
  0
INSERT
  2
*GRP_0010
  8
型材断面
  6
DOT
 10
0.0
 20
0.0
  0
INSERT
  2
*GRP_0011
  8
型材断面
  6
DOT
 10
0.0
 20
0.0
  0
LINE
  8
型材断面
  6
CONTINUOUS
 10
31.036528
 20
-76.17062
 11
-37.596497
 21
-76.17062
  0
LINE
  8
型材断面
  6
CONTINUOUS
 10
30.46986
 20
-76.67062
 11
-37.596497
 21
-76.67062
  0
LINE
  8
型材断面
  6
CONTINUOUS
 10
31.34986
 20
-73.543312
 11
-37.596497
 21
-73.543312
  0
LINE
  8
型材断面
  6
CONTINUOUS
 10
31.34986
 20
-73.209977
 11
-37.596497
 21
-73.209977
  0
LINE
  8
型材断面
  6
CONTINUOUS
 10
30.566527
 20
-73.109977
 11
-37.596497
 21
-73.109977
  0
LINE
  8
型材断面
  6
CONTINUOUS
 10
31.036528
 20
-72.703953
 11
-37.596497
 21
-72.703953
  0
LINE
  8
型材断面
  6
CONTINUOUS
 10
30.736832
 20
-69.937453
 11
-37.596497
 21
-69.937453
  0
LINE
  8
型材断面
  6
CONTINUOUS
 10
29.070165
 20
-68.70412
 11
-37.596497
 21
-68.70412
  0
LINE
  8
型材断面
  6
CONTINUOUS
 10
30.736832
 20
-69.437453
 11
-37.596497
 21
-69.437453
  0
LINE
  8
型材断面
  6
CONTINUOUS
 10
30.566527
 20
-70.42062
 11
-37.596497
 21
-70.42062
  0
LINE
  8
型材断面
  6
CONTINUOUS
 10
31.036528
 20
-70.87062
 11
-37.596497
 21
-70.87062
  0
LINE
  8
型材断面
  6
CONTINUOUS
 10
28.236832
 20
50.619993
 11
29.070165
 21
50.619993
  0
LINE
  8
型材断面
  6
CONTINUOUS
 10
28.236832
 20
49.786658
 11
29.070165
 21
49.786658
  0
LINE
  8
型材断面
  6
CONTINUOUS
 10
28.236832
 20
64.369993
 11
31.34986
 21
67.48302
  0
LINE
  8
型材断面
  6
CONTINUOUS
 10
28.236832
 20
50.619993
 11
28.236832
 21
64.369993
  0
LINE
  8
型材断面
  6
DASHDOT
 10
172.29227
 20
65.203325
 11
29.070165
 21
65.203325
  0
LINE
  8
型材断面
  6
CONTINUOUS
 10
28.236832
 20
36.036658
 11
31.34986
 21
32.92363
  0
LINE
  8
型材断面
  6
CONTINUOUS
 10
28.236832
 20
36.036658
 11
28.236832
 21
49.786658
  0
LINE
  8
型材断面
  6
DASHDOT
 10
172.29227
 20
35.203325
 11
29.070165
 21
35.203325
  0
LINE
  8
型材断面
  6
DASHDOT
 10
29.070165
 20
-79.253555
 11
29.070165
 21
35.203325
  0
LINE
  8
型材断面
  6
CONTINUOUS
 10
29.070165
 20
35.203325
 11
29.070165
 21
65.203325
  0
LINE
  8
型材断面
  6
CONTINUOUS
 10
31.036528
 20
33.236962
 11
31.036528
 21
67.169687
  0
LINE
  8
型材断面
  6
CONTINUOUS
 10
31.34986
 20
32.92363
 11
31.34986
 21
67.48302
  0
LINE
  8
型材断面
  6
CONTINUOUS
 10
30.736832
 20
33.536658
 11
30.736832
 21
66.869993
  0
LINE
  8
型材断面
  6
CONTINUOUS
 10
-105.929828
 20
-69.937453
 11
-105.879828
 21
-69.937453
  0
LINE
  8
型材断面
  6
CONTINUOUS
 10
-104.26316
 20
-69.437453
 11
-104.26316
 21
-68.70412
  0
LINE
  8
型材断面
  6
CONTINUOUS
 62
    47
 10
-105.662855
 20
-76.67062
 11
-105.612855
 21
-76.67062
  0
LINE
  8
型材断面
  6
CONTINUOUS
 62
    47
 10
-105.662855
 20
-76.67062
 11
-105.662855
 21
-76.17062
  0
LINE
  8
型材断面
  6
CONTINUOUS
 10
-104.312855
 20
-70.42062
 11
-105.759523
 21
-70.42062
  0
LINE
  8
型材断面
  6
CONTINUOUS
 10
-105.759523
 20
-70.87062
 11
-105.759523
 21
-70.42062
  0
LINE
  8
型材断面
  6
CONTINUOUS
 62
    47
 10
-106.492855
 20
-73.543312
 11
-106.542855
 21
-73.543312
  0
LINE
  8
型材断面
  6
CONTINUOUS
 62
    47
 10
-106.542855
 20
-73.543312
 11
-106.542855
 21
-73.209977
  0
LINE
  8
型材断面
  6
CONTINUOUS
 62
    47
 10
-106.542855
 20
-73.209977
 11
-105.759523
 21
-73.109977
  0
LINE
  8
型材断面
  6
CONTINUOUS
 62
    47
 10
-105.759523
 20
-72.703953
 11
-105.759523
 21
-73.109977
  0
LINE
  8
型材断面
  6
CONTINUOUS
 62
    47
 10
-106.229522
 20
-72.703953
 11
-106.229522
 21
-70.87062
  0
LINE
  8
型材断面
  6
CONTINUOUS
 10
-105.929828
 20
-69.937453
 11
-105.929828
 21
-69.437453
  0
LINE
  8
型材断面
  6
CONTINUOUS
 10
-104.312855
 20
-70.42062
 11
-104.312855
 21
-69.937453
  0
LINE
  8
型材断面
  6
CONTINUOUS
 62
    47
 10
-106.229522
 20
-76.17062
 11
-106.229522
 21
-73.543312
  0
INSERT
  2
*GRP_0013
  8
型材断面
  6
DOT
 10
0.0
 20
0.0
  0
INSERT
  2
*GRP_0014
  8
型材断面
  6
DOT
 10
0.0
 20
0.0
  0
LINE
  8
型材断面
  6
CONTINUOUS
 10
-106.229522
 20
-76.17062
 11
-37.596497
 21
-76.17062
  0
LINE
  8
型材断面
  6
CONTINUOUS
 10
-105.662855
 20
-76.67062
 11
-37.596497
 21
-76.67062
  0
LINE
  8
型材断面
  6
CONTINUOUS
 10
-106.542855
 20
-73.543312
 11
-37.596497
 21
-73.543312
  0
LINE
  8
型材断面
  6
CONTINUOUS
 10
-106.542855
 20
-73.209977
 11
-37.596497
 21
-73.209977
  0
LINE
  8
型材断面
  6
CONTINUOUS
 10
-105.759523
 20
-73.109977
 11
-37.596497
 21
-73.109977
  0
LINE
  8
型材断面
  6
CONTINUOUS
 10
-106.229522
 20
-72.703953
 11
-37.596497
 21
-72.703953
  0
LINE
  8
型材断面
  6
CONTINUOUS
 10
-105.929828
 20
-69.937453
 11
-37.596497
 21
-69.937453
  0
LINE
  8
型材断面
  6
CONTINUOUS
 10
-104.26316
 20
-68.70412
 11
-37.596497
 21
-68.70412
  0
LINE
  8
型材断面
  6
CONTINUOUS
 10
-105.929828
 20
-69.437453
 11
-37.596497
 21
-69.437453
  0
LINE
  8
型材断面
  6
CONTINUOUS
 10
-105.759523
 20
-70.42062
 11
-37.596497
 21
-70.42062
  0
LINE
  8
型材断面
  6
CONTINUOUS
 10
-106.229522
 20
-70.87062
 11
-37.596497
 21
-70.87062
  0
LINE
  8
型材断面
  6
CONTINUOUS
 10
-103.429828
 20
49.786658
 11
-104.26316
 21
49.786658
  0
LINE
  8
型材断面
  6
CONTINUOUS
 10
-103.429828
 20
50.619993
 11
-104.26316
 21
50.619993
  0
LINE
  8
型材断面
  6
DASHDOT
 10
172.29227
 20
50.203325
 11
-104.26316
 21
50.203325
  0
LINE
  8
型材断面
  6
CONTINUOUS
 10
-103.429828
 20
64.369993
 11
-106.542855
 21
67.48302
  0
LINE
  8
型材断面
  6
CONTINUOUS
 10
-103.429828
 20
50.619993
 11
-103.429828
 21
64.369993
  0
LINE
  8
型材断面
  6
CONTINUOUS
 10
-103.429828
 20
36.036658
 11
-106.542855
 21
32.92363
  0
LINE
  8
型材断面
  6
CONTINUOUS
 10
-103.429828
 20
36.036658
 11
-103.429828
 21
49.786658
  0
LINE
  8
型材断面
  6
DASHDOT
 10
-104.26316
 20
-79.253555
 11
-104.26316
 21
35.203325
  0
LINE
  8
型材断面
  6
CONTINUOUS
 10
-104.26316
 20
35.203325
 11
-104.26316
 21
65.203325
  0
LINE
  8
型材断面
  6
CONTINUOUS
 10
-106.229522
 20
33.236962
 11
-106.229522
 21
67.169687
  0
LINE
  8
型材断面
  6
CONTINUOUS
 10
-106.542855
 20
32.92363
 11
-106.542855
 21
67.48302
  0
LINE
  8
型材断面
  6
CONTINUOUS
 10
-105.929828
 20
33.536658
 11
-105.929828
 21
66.869993
  0
LINE
  8
型材断面
  6
CONTINUOUS
 10
29.070165
 20
65.203325
 11
-104.26316
 21
65.203325
  0
LINE
  8
型材断面
  6
CONTINUOUS
 10
31.036528
 20
67.169687
 11
-106.229522
 21
67.169687
  0
LINE
  8
型材断面
  6
CONTINUOUS
 10
31.34986
 20
67.48302
 11
-106.542855
 21
67.48302
  0
LINE
  8
型材断面
  6
CONTINUOUS
 10
30.736832
 20
66.869993
 11
-105.929828
 21
66.869993
  0
LINE
  8
型材断面
  6
CONTINUOUS
 10
29.070165
 20
35.203325
 11
-104.26316
 21
35.203325
  0
LINE
  8
型材断面
  6
CONTINUOUS
 10
31.036528
 20
33.236962
 11
-106.229522
 21
33.236962
  0
LINE
  8
型材断面
  6
CONTINUOUS
 10
31.34986
 20
32.92363
 11
-106.542855
 21
32.92363
  0
LINE
  8
型材断面
  6
CONTINUOUS
 10
30.736832
 20
33.536658
 11
-105.929828
 21
33.536658
  0
LINE
  8
型材断面
  6
CONTINUOUS
 10
-69.84983
 20
36.86999
 11
-72.34983
 21
36.86999
  0
LINE
  8
型材断面
  6
CONTINUOUS
 10
-103.429828
 20
36.036658
 11
-88.098163
 21
36.036658
  0
LINE
  8
型材断面
  6
CONTINUOUS
 10
-87.264827
 20
35.203325
 11
-87.264827
 21
36.036658
  0
LINE
  8
型材断面
  6
CONTINUOUS
 10
-88.098163
 20
35.203325
 11
-88.098163
 21
36.036658
  0
LINE
  8
型材断面
  6
CONTINUOUS
 10
-53.931495
 20
35.203325
 11
-53.931495
 21
36.036658
  0
LINE
  8
型材断面
  6
CONTINUOUS
 10
-54.76483
 20
35.203325
 11
-54.76483
 21
36.036658
  0
LINE
  8
型材断面
  6
CONTINUOUS
 10
-87.264827
 20
36.036658
 11
-54.76483
 21
36.036658
  0
LINE
  8
型材断面
  6
CONTINUOUS
 10
-69.84983
 20
63.53666
 11
-72.34983
 21
63.53666
  0
LINE
  8
型材断面
  6
CONTINUOUS
 10
-69.84983
 20
36.86999
 11
-69.84983
 21
63.53666
  0
LINE
  8
型材断面
  6
CONTINUOUS
 10
-71.34983
 20
36.86999
 11
-71.34983
 21
63.53666
  0
LINE
  8
型材断面
  6
CONTINUOUS
 10
-70.84983
 20
36.86999
 11
-70.84983
 21
63.53666
  0
LINE
  8
型材断面
  6
CONTINUOUS
 10
-72.34983
 20
36.86999
 11
-72.34983
 21
63.53666
  0
LINE
  8
型材断面
  6
DASHDOT
 10
-71.09983
 20
35.203325
 11
-71.09983
 21
65.203325
  0
LINE
  8
型材断面
  6
CONTINUOUS
 10
-36.346497
 20
36.86999
 11
-38.846497
 21
36.86999
  0
LINE
  8
型材断面
  6
CONTINUOUS
 10
-36.346497
 20
63.53666
 11
-38.846497
 21
63.53666
  0
LINE
  8
型材断面
  6
CONTINUOUS
 10
-36.346497
 20
36.86999
 11
-36.346497
 21
63.53666
  0
LINE
  8
型材断面
  6
CONTINUOUS
 10
-37.846497
 20
36.86999
 11
-37.846497
 21
63.53666
  0
LINE
  8
型材断面
  6
CONTINUOUS
 10
-37.346497
 20
36.86999
 11
-37.346497
 21
63.53666
  0
LINE
  8
型材断面
  6
CONTINUOUS
 10
-38.846497
 20
36.86999
 11
-38.846497
 21
63.53666
  0
LINE
  8
型材断面
  6
CONTINUOUS
 10
-5.343165
 20
36.86999
 11
-2.843165
 21
36.86999
  0
LINE
  8
型材断面
  6
CONTINUOUS
 10
28.236832
 20
36.036658
 11
12.905168
 21
36.036658
  0
LINE
  8
型材断面
  6
CONTINUOUS
 10
12.071832
 20
35.203325
 11
12.071832
 21
36.036658
  0
LINE
  8
型材断面
  6
CONTINUOUS
 10
12.905168
 20
35.203325
 11
12.905168
 21
36.036658
  0
LINE
  8
型材断面
  6
CONTINUOUS
 10
-21.2615
 20
35.203325
 11
-21.2615
 21
36.036658
  0
LINE
  8
型材断面
  6
CONTINUOUS
 10
-20.428165
 20
35.203325
 11
-20.428165
 21
36.036658
  0
LINE
  8
型材断面
  6
CONTINUOUS
 10
12.071832
 20
36.036658
 11
-20.428165
 21
36.036658
  0
LINE
  8
型材断面
  6
CONTINUOUS
 10
-5.343165
 20
63.53666
 11
-2.843165
 21
63.53666
  0
LINE
  8
型材断面
  6
CONTINUOUS
 10
-5.343165
 20
36.86999
 11
-5.343165
 21
63.53666
  0
LINE
  8
型材断面
  6
CONTINUOUS
 10
-3.843165
 20
36.86999
 11
-3.843165
 21
63.53666
  0
LINE
  8
型材断面
  6
CONTINUOUS
 10
-4.343165
 20
36.86999
 11
-4.343165
 21
63.53666
  0
LINE
  8
型材断面
  6
CONTINUOUS
 10
-2.843165
 20
36.86999
 11
-2.843165
 21
63.53666
  0
LINE
  8
型材断面
  6
DASHDOT
 10
-4.093165
 20
35.203325
 11
-4.093165
 21
65.203325
  0
LINE
  8
型材断面
  6
CONTINUOUS
 10
-53.931495
 20
36.036658
 11
-21.2615
 21
36.036658
  0
LINE
  8
型材断面
  6
CONTINUOUS
 10
-103.429828
 20
64.369993
 11
-88.098163
 21
64.369993
  0
LINE
  8
型材断面
  6
CONTINUOUS
 10
-87.264827
 20
65.203325
 11
-87.264827
 21
64.369993
  0
LINE
  8
型材断面
  6
CONTINUOUS
 10
-88.098163
 20
65.203325
 11
-88.098163
 21
64.369993
  0
LINE
  8
型材断面
  6
CONTINUOUS
 10
-53.931495
 20
65.203325
 11
-53.931495
 21
64.369993
  0
LINE
  8
型材断面
  6
CONTINUOUS
 10
-54.76483
 20
65.203325
 11
-54.76483
 21
64.369993
  0
LINE
  8
型材断面
  6
CONTINUOUS
 10
-87.264827
 20
64.369993
 11
-54.76483
 21
64.369993
  0
LINE
  8
型材断面
  6
CONTINUOUS
 10
28.236832
 20
64.369993
 11
12.905168
 21
64.369993
  0
LINE
  8
型材断面
  6
CONTINUOUS
 10
12.071832
 20
65.203325
 11
12.071832
 21
64.369993
  0
LINE
  8
型材断面
  6
CONTINUOUS
 10
12.905168
 20
65.203325
 11
12.905168
 21
64.369993
  0
LINE
  8
型材断面
  6
CONTINUOUS
 10
-21.2615
 20
65.203325
 11
-21.2615
 21
64.369993
  0
LINE
  8
型材断面
  6
CONTINUOUS
 10
-20.428165
 20
65.203325
 11
-20.428165
 21
64.369993
  0
LINE
  8
型材断面
  6
CONTINUOUS
 10
12.071832
 20
64.369993
 11
-20.428165
 21
64.369993
  0
LINE
  8
型材断面
  6
CONTINUOUS
 10
-53.931495
 20
64.369993
 11
-21.2615
 21
64.369993
  0
POLYLINE
  8
型材断面
  6
CONTINUOUS
 66
     1
 70
     1
  0
VERTEX
  8
型材断面
 10
-28.072665
 20
25.427403
  0
VERTEX
  8
型材断面
 10
-46.844595
 20
25.427403
  0
VERTEX
  8
型材断面
 10
-46.844595
 20
20.69056
  0
VERTEX
  8
型材断面
 10
-28.072665
 20
20.69056
  0
SEQEND
  0
POLYLINE
  8
型材断面
  6
CONTINUOUS
 66
     1
 70
     1
  0
VERTEX
  8
型材断面
 10
-28.072665
 20
74.979248
  0
VERTEX
  8
型材断面
 10
-46.844595
 20
74.979248
  0
VERTEX
  8
型材断面
 10
-46.844595
 20
79.71609
  0
VERTEX
  8
型材断面
 10
-28.072665
 20
79.71609
  0
SEQEND
  0
LINE
  8
型材断面
  6
CONTINUOUS
 10
-87.596495
 20
67.833455
 11
-89.092125
 21
70.423963
  0
LINE
  8
型材断面
  6
CONTINUOUS
 10
-87.596495
 20
67.833455
 11
-86.100865
 21
70.423963
  0
LINE
  8
型材断面
  6
CONTINUOUS
 10
-86.100865
 20
70.423963
 11
-89.092125
 21
70.423963
  0
LINE
  8
型材断面
  6
CONTINUOUS
 10
-106.893293
 20
50.203325
 11
-109.4838
 21
51.698955
  0
LINE
  8
型材断面
  6
CONTINUOUS
 10
-106.893293
 20
50.203325
 11
-109.4838
 21
48.707695
  0
LINE
  8
型材断面
  6
CONTINUOUS
 10
-109.4838
 20
48.707695
 11
-109.4838
 21
51.698955
  0
LINE
  8
型材断面
  6
CONTINUOUS
 10
-87.596495
 20
32.573195
 11
-89.092125
 21
29.982688
  0
LINE
  8
型材断面
  6
CONTINUOUS
 10
-87.596495
 20
32.573195
 11
-86.100865
 21
29.982688
  0
LINE
  8
型材断面
  6
CONTINUOUS
 10
-86.100865
 20
29.982688
 11
-89.092125
 21
29.982688
  0
LINE
  8
型材断面
  6
CONTINUOUS
 10
12.4035
 20
67.833455
 11
13.89913
 21
70.423963
  0
LINE
  8
型材断面
  6
CONTINUOUS
 10
12.4035
 20
67.833455
 11
10.90787
 21
70.423963
  0
LINE
  8
型材断面
  6
CONTINUOUS
 10
10.90787
 20
70.423963
 11
13.89913
 21
70.423963
  0
LINE
  8
型材断面
  6
CONTINUOUS
 10
12.4035
 20
32.573195
 11
13.89913
 21
29.982688
  0
LINE
  8
型材断面
  6
CONTINUOUS
 10
12.4035
 20
32.573195
 11
10.90787
 21
29.982688
  0
LINE
  8
型材断面
  6
CONTINUOUS
 10
10.90787
 20
29.982688
 11
13.89913
 21
29.982688
  0
LINE
  8
型材断面
  6
CONTINUOUS
 10
-158.141685
 20
103.180797
 11
-157.54563
 21
100.59029
  0
LINE
  8
型材断面
  6
CONTINUOUS
 10
-158.141685
 20
103.180797
 11
-158.737742
 21
100.59029
  0
LINE
  8
型材断面
  6
CONTINUOUS
 10
-158.737742
 20
100.59029
 11
-157.54563
 21
100.59029
  0
LINE
  8
型材断面
  6
CONTINUOUS
 10
-164.164272
 20
97.311398
 11
-117.922495
 21
97.311398
  0
LINE
  8
型材断面
  6
CONTINUOUS
 10
-158.141685
 20
109.710672
 11
-159.637315
 21
107.120165
  0
LINE
  8
型材断面
  6
CONTINUOUS
 10
-158.141685
 20
109.710672
 11
-156.646055
 21
107.120165
  0
LINE
  8
型材断面
  6
CONTINUOUS
 10
-156.646055
 20
107.120165
 11
-159.637315
 21
107.120165
  0
LINE
  8
型材断面
  6
CONTINUOUS
 10
-164.164272
 20
106.18157
 11
-117.922495
 21
106.18157
  0
LINE
  8
型材断面
  6
CONTINUOUS
 10
-164.164272
 20
91.523365
 11
-117.922495
 21
91.523365
  0
LINE
  8
型材断面
  6
CONTINUOUS
 10
-106.329832
 20
67.269993
 11
-106.543167
 21
67.483328
  0
LINE
  8
型材断面
  6
CONTINUOUS
 10
31.700297
 20
61.303325
 11
34.290805
 21
60.707267
  0
LINE
  8
型材断面
  6
CONTINUOUS
 10
31.700297
 20
61.303325
 11
34.290805
 21
61.899382
  0
LINE
  8
型材断面
  6
CONTINUOUS
 10
34.290805
 20
61.899382
 11
34.290805
 21
60.707267
  0
LINE
  8
型材断面
  6
CONTINUOUS
 10
31.700297
 20
39.103325
 11
34.290805
 21
39.699382
  0
LINE
  8
型材断面
  6
CONTINUOUS
 10
31.700297
 20
39.103325
 11
34.290805
 21
38.507267
  0
LINE
  8
型材断面
  6
CONTINUOUS
 10
34.290805
 20
38.507267
 11
34.290805
 21
39.699382
  0
LINE
  8
型材断面
  6
CONTINUOUS
 10
-106.893293
 20
61.303325
 11
-109.4838
 21
60.707267
  0
LINE
  8
型材断面
  6
CONTINUOUS
 10
-106.893293
 20
61.303325
 11
-109.4838
 21
61.899382
  0
LINE
  8
型材断面
  6
CONTINUOUS
 10
-109.4838
 20
61.899382
 11
-109.4838
 21
60.707267
  0
LINE
  8
型材断面
  6
CONTINUOUS
 10
-106.893293
 20
39.103325
 11
-109.4838
 21
39.699382
  0
LINE
  8
型材断面
  6
CONTINUOUS
 10
-106.893293
 20
39.103325
 11
-109.4838
 21
38.507267
  0
LINE
  8
型材断面
  6
CONTINUOUS
 10
-109.4838
 20
38.507267
 11
-109.4838
 21
39.699382
  0
LINE
  8
型材断面
  6
CONTINUOUS
 10
-164.164272
 20
85.735332
 11
-117.922495
 21
85.735332
  0
LINE
  8
型材断面
  6
CONTINUOUS
 10
31.700297
 20
50.203325
 11
34.290805
 21
51.698955
  0
LINE
  8
型材断面
  6
CONTINUOUS
 10
31.700297
 20
50.203325
 11
34.290805
 21
48.707695
  0
LINE
  8
型材断面
  6
CONTINUOUS
 10
34.290805
 20
48.707695
 11
34.290805
 21
51.698955
  0
INSERT
  2
*GRP_0024
  8
型材断面
  6
DOT
 10
0.0
 20
0.0
  0
INSERT
  2
*GRP_0030
  8
型材断面
  6
CONTINUOUS
 10
0.0
 20
0.0
  0
INSERT
  2
*GRP_0031
  8
型材断面
  6
CONTINUOUS
 10
0.0
 20
0.0
  0
INSERT
  2
*GRP_0032
  8
型材断面
  6
CONTINUOUS
 10
0.0
 20
0.0
  0
INSERT
  2
*GRP_0033
  8
型材断面
  6
CONTINUOUS
 10
0.0
 20
0.0
  0
LINE
  8
型材断面
  6
CONTINUOUS
 10
144.373788
 20
-23.55011
 11
124.795572
 21
-23.55011
  0
POLYLINE
  8
ガラス
  6
CONTINUOUS
 66
     1
 70
     1
  0
VERTEX
  8
ガラス
 10
160.07756
 20
-44.554723
  0
VERTEX
  8
ガラス
 10
127.920893
 20
-44.554723
  0
VERTEX
  8
ガラス
 10
127.920893
 20
-73.888055
  0
VERTEX
  8
ガラス
 10
160.07756
 20
-73.888055
  0
SEQEND
  0
TEXT
  7
TextStyle03
  8
文字
  6
CONTINUOUS
 10
-15.45
 20
-100.575
  1
※トップライト枠高さ寸法
 40
3.0
 72
     5
 11
24.675
 21
-100.575
  0
TEXT
  7
TextStyle03
  8
文字
  6
CONTINUOUS
 10
-15.45
 20
-103.95
  1
　シングルガラス：214
 40
3.0
 72
     5
 11
19.8
 21
-103.95
  0
TEXT
  7
TextStyle03
  8
文字
  6
CONTINUOUS
 10
-15.45
 20
-107.325
  1
　ペアガラス：224
 40
3.0
 72
     5
 11
13.05
 21
-107.325
  0
TEXT
  7
TextStyle03
  8
文字
  6
CONTINUOUS
 10
78.1
 20
125.25
  1
シリーズ：ＳＴＤＬ
 40
5.0
 72
     5
 11
128.1
 21
125.25
  0
TEXT
  7
TextStyle03
  8
文字
  6
CONTINUOUS
 10
78.1
 20
119.625
  1
　　　　　（上下可動）900×4000タイプ
 40
5.0
 72
     5
 11
181.5375
 21
119.625
  0
TEXT
  7
TextStyle03
  8
文字
  6
CONTINUOUS
 10
78.1
 20
114.0
  1
図面名　：外観姿図
 40
5.0
 72
     5
 11
128.1
 21
114.0
  0
TEXT
  7
TextStyle03
  8
文字
  6
CONTINUOUS
 10
78.1
 20
108.375
  1
　　　　　　
 40
5.0
 72
     5
 11
111.225
 21
108.375
  0
TEXT
  7
TextStyle03
  8
文字
  6
CONTINUOUS
 10
-45.75
 20
21.7
  1
可動装置側
 40
3.0
 72
     5
 11
-29.25
 21
21.7
  0
TEXT
  7
TextStyle03
  8
文字
  6
CONTINUOUS
 10
-45.75
 20
75.65
  1
可動装置側
 40
3.0
 72
     5
 11
-29.25
 21
75.65
  0
TEXT
  7
TextStyle03
  8
文字
  6
CONTINUOUS
 10
-155.35
 20
101.775
  1
はケーシング位置を示す
 40
3.0
 72
     5
 11
-118.6
 21
101.775
  0
TEXT
  7
TextStyle03
  8
文字
  6
CONTINUOUS
 10
-155.35
 20
98.4
  1
４ヶ所中1ヶ所に設定
 40
3.0
 72
     5
 11
-123.6625
 21
98.4
  0
TEXT
  7
TextStyle03
  8
文字
  6
CONTINUOUS
 10
-155.35
 20
107.3
  1
は排水穴位置を示す
 40
3.0
 72
     5
 11
-125.35
 21
107.3
  0
TEXT
  7
TextStyle03
  8
文字
  6
CONTINUOUS
 10
-125.25
 20
28.65
  1
アンカーピッチ
 40
3.0
 50
90.0
 72
     5
 11
-125.25
 21
51.9
  0
TEXT
  7
TextStyle03
  8
文字
  6
CONTINUOUS
 10
-96.175
 20
103.225
  1
アンカーピッチ
 40
3.0
 72
     5
 11
-72.925
 21
103.225
  0
TEXT
  7
TextStyle03
  8
文字
  6
CONTINUOUS
 10
-159.075
 20
92.425
  1
アンカー数量　１６ヶ所
 40
3.0
 72
     5
 11
-122.325
 21
92.425
  0
TEXT
  7
TextStyle03
  8
文字
  6
CONTINUOUS
 10
-159.125
 20
86.675
  1
アームユニット数　４ヶ所
 40
3.0
 72
     5
 11
-119.0
 21
86.675
  0
TEXT
  7
TextStyle03
  8
文字
  6
CONTINUOUS
 10
125.875
 20
-22.675
  1
ガラス寸法
 40
3.0
 72
     5
 11
142.375
 21
-22.675
  0
TEXT
  7
TextStyle03
  8
文字
  6
CONTINUOUS
 10
146.4
 20
-71.275
  1
×４枚
 40
3.0
 72
     5
 11
156.15
 21
-71.275
  0
INSERT
  2
*DIM_0006
  8
寸法
  6
CONTINUOUS
 10
0.0
 20
0.0
  0
INSERT
  2
*DIM_0007
  8
寸法
  6
CONTINUOUS
 10
0.0
 20
0.0
  0
INSERT
  2
*DIM_0008
  8
寸法
  6
CONTINUOUS
 10
0.0
 20
0.0
  0
INSERT
  2
*DIM_0009
  8
寸法
  6
CONTINUOUS
 10
0.0
 20
0.0
  0
INSERT
  2
*DIM_0012
  8
寸法
  6
CONTINUOUS
 10
0.0
 20
0.0
  0
INSERT
  2
*DIM_0015
  8
寸法
  6
CONTINUOUS
 10
0.0
 20
0.0
  0
INSERT
  2
*DIM_0016
  8
寸法
  6
CONTINUOUS
 10
0.0
 20
0.0
  0
INSERT
  2
*DIM_0017
  8
寸法
  6
CONTINUOUS
 10
0.0
 20
0.0
  0
INSERT
  2
*DIM_0018
  8
寸法
  6
CONTINUOUS
 10
0.0
 20
0.0
  0
INSERT
  2
*DIM_0019
  8
寸法
  6
CONTINUOUS
 10
0.0
 20
0.0
  0
INSERT
  2
*DIM_0020
  8
寸法
  6
CONTINUOUS
 10
0.0
 20
0.0
  0
INSERT
  2
*DIM_0021
  8
寸法
  6
CONTINUOUS
 10
0.0
 20
0.0
  0
INSERT
  2
*DIM_0022
  8
寸法
  6
CONTINUOUS
 10
0.0
 20
0.0
  0
INSERT
  2
*DIM_0023
  8
寸法
  6
CONTINUOUS
 10
0.0
 20
0.0
  0
INSERT
  2
*DIM_0029
  8
寸法
  6
CONTINUOUS
 10
0.0
 20
0.0
  0
INSERT
  2
*DIM_0034
  8
寸法
  6
CONTINUOUS
 10
0.0
 20
0.0
  0
INSERT
  2
*DIM_0035
  8
寸法
  6
CONTINUOUS
 10
0.0
 20
0.0
  0
INSERT
  2
*DIM_0036
  8
寸法
  6
CONTINUOUS
 10
0.0
 20
0.0
  0
INSERT
  2
*DIM_0037
  8
寸法
  6
CONTINUOUS
 10
0.0
 20
0.0
  0
INSERT
  2
*DIM_0038
  8
寸法
  6
CONTINUOUS
 10
0.0
 20
0.0
  0
LINE
  8
曲げ物
  6
CONTINUOUS
 10
13.7959
 20
52.128875
 11
10.100588
 21
48.433562
  0
LINE
  8
曲げ物
  6
CONTINUOUS
 10
13.09243
 20
50.592765
 11
11.6367
 21
49.137035
  0
LINE
  8
曲げ物
  6
CONTINUOUS
 10
12.25979
 20
51.425405
 11
10.80406
 21
49.969675
  0
LINE
  8
曲げ物
  6
CONTINUOUS
 10
-18.38841
 20
52.128875
 11
-22.083723
 21
48.433562
  0
LINE
  8
曲げ物
  6
CONTINUOUS
 10
-19.09188
 20
50.592765
 11
-20.54761
 21
49.137035
  0
LINE
  8
曲げ物
  6
CONTINUOUS
 10
-19.92452
 20
51.425405
 11
-21.38025
 21
49.969675
  0
LINE
  8
曲げ物
  6
CONTINUOUS
 10
-52.490355
 20
52.128875
 11
-56.185668
 21
48.433562
  0
LINE
  8
曲げ物
  6
CONTINUOUS
 10
-53.193825
 20
50.592765
 11
-54.649555
 21
49.137035
  0
LINE
  8
曲げ物
  6
CONTINUOUS
 10
-54.026465
 20
51.425405
 11
-55.482195
 21
49.969675
  0
LINE
  8
曲げ物
  6
CONTINUOUS
 10
-86.01341
 20
52.128875
 11
-89.708723
 21
48.433562
  0
LINE
  8
曲げ物
  6
CONTINUOUS
 10
-86.71688
 20
50.592765
 11
-88.17261
 21
49.137035
  0
LINE
  8
曲げ物
  6
CONTINUOUS
 10
-87.54952
 20
51.425405
 11
-89.00525
 21
49.969675
  0
ENDSEC
  0
EOF
