  0
SECTION
  2
HEADER
  9
$EXTMIN
 10
-210.0
 20
-148.5
  9
$EXTMAX
 10
210.0
 20
148.5
  9
$PDMODE
 70
    32
  9
$PDSIZE
 40
1.5
  9
$LTSCALE
 40
10.0
  0
ENDSEC
  0
SECTION
  2
TABLES
  0
TABLE
  2
LTYPE
 70
    15
  0
LTYPE
  2
CONTINUOUS
 70
    64
  3
実線
 72
    65
 73
     0
 40
0.0
  0
LTYPE
  2
DASHED
 70
    64
  3
破線A
 72
    65
 73
     2
 40
0.6
 49
0.4
 49
-0.2
  0
LTYPE
  2
DASHEDX2
 70
    64
  3
破線B
 72
    65
 73
     2
 40
1.3
 49
0.9
 49
-0.4
  0
LTYPE
  2
DASHDOT
 70
    64
  3
１点鎖線A
 72
    65
 73
     4
 40
0.5375
 49
0.375
 49
-0.05
 49
0.0625
 49
-0.05
  0
LTYPE
  2
DASHDOTX2
 70
    64
  3
１点鎖線B
 72
    65
 73
     4
 40
1.075
 49
0.75
 49
-0.1
 49
0.125
 49
-0.1
  0
LTYPE
  2
DIVIDE2
 70
    64
  3
２点鎖線A
 72
    65
 73
     6
 40
0.5125
 49
0.3
 49
-0.0375
 49
0.05
 49
-0.0375
 49
0.05
 49
-0.0375
  0
LTYPE
  2
DIVIDE
 70
    64
  3
２点鎖線B
 72
    65
 73
     6
 40
1.05
 49
0.55
 49
-0.1
 49
0.1
 49
-0.1
 49
0.1
 49
-0.1
  0
LTYPE
  2
DOT
 70
    64
  3
点線A
 72
    65
 73
     2
 40
0.1125
 49
0.0625
 49
-0.05
  0
LTYPE
  2
DOTX2
 70
    64
  3
点線B
 72
    65
 73
     2
 40
0.275
 49
0.15
 49
-0.125
  0
LTYPE
  2
CONTINUOUS
 70
    64
  3
実線
 72
    65
 73
     0
 40
0.0
  0
LTYPE
  2
CONTINUOUS
 70
    64
  3
実線
 72
    65
 73
     0
 40
0.0
  0
LTYPE
  2
CONTINUOUS
 70
    64
  3
実線
 72
    65
 73
     0
 40
0.0
  0
LTYPE
  2
CONTINUOUS
 70
    64
  3
実線
 72
    65
 73
     0
 40
0.0
  0
LTYPE
  2
CONTINUOUS
 70
    64
  3
実線
 72
    65
 73
     0
 40
0.0
  0
LTYPE
  2
CONTINUOUS
 70
    64
  3
実線
 72
    65
 73
     0
 40
0.0
  0
ENDTAB
  0
TABLE
  2
LAYER
 70
    34
  0
LAYER
  2
通り芯
 70
     0
 62
    15
  6
CONTINUOUS
  0
LAYER
  2
補助線
 70
     0
 62
    16
  6
DOT
  0
LAYER
  2
躯体
 70
     0
 62
    31
  6
CONTINUOUS
  0
LAYER
  2
型材
 70
     0
 62
    32
  6
CONTINUOUS
  0
LAYER
  2
型材断面
 70
     0
 62
    47
  6
CONTINUOUS
  0
LAYER
  2
ガラス
 70
     0
 62
    48
  6
CONTINUOUS
  0
LAYER
  2
ゴム等
 70
     0
 62
    63
  6
CONTINUOUS
  0
LAYER
  2
ボルト／ビス
 70
     0
 62
    64
  6
CONTINUOUS
  0
LAYER
  2
文字
 70
     0
 62
    79
  6
CONTINUOUS
  0
LAYER
  2
寸法
 70
     0
 62
    80
  6
CONTINUOUS
  0
LAYER
  2
ﾊｯﾁﾝｸﾞ
 70
     0
 62
    95
  6
CONTINUOUS
  0
LAYER
  2
別途部材
 70
     0
 62
    96
  6
CONTINUOUS
  0
LAYER
  2
曲げ物
 70
     0
 62
   111
  6
CONTINUOUS
  0
LAYER
  2
鉄骨等
 70
     0
 62
   112
  6
CONTINUOUS
  0
LAYER
  2
St
 70
     0
 62
   127
  6
CONTINUOUS
  0
LAYER
  2
その他部品等
 70
     0
 62
   128
  6
CONTINUOUS
  0
LAYER
  2
ｶﾞｽｹｯﾄ
 70
     0
 62
   143
  6
CONTINUOUS
  0
LAYER
  2
ｽｹｯﾁ
 70
     0
 62
    14
  6
CONTINUOUS
  0
LAYER
  2
0
 70
     0
 62
    17
  6
CONTINUOUS
  0
LAYER
  2
1
 70
     0
 62
    30
  6
CONTINUOUS
  0
LAYER
  2
4
 70
     0
 62
    33
  6
CONTINUOUS
  0
LAYER
  2
ﾚｲﾔ3
 70
     0
 62
    46
  6
CONTINUOUS
  0
LAYER
  2
外形線
 70
     0
 62
    49
  6
CONTINUOUS
  0
LAYER
  2
部品
 70
     0
 62
    14
  6
CONTINUOUS
  0
LAYER
  2
サッシ芯
 70
     0
 62
    17
  6
DASHDOTX2
  0
LAYER
  2
寸法線
 70
     0
 62
    62
  6
CONTINUOUS
  0
LAYER
  2
姿図外形線
 70
     0
 62
    65
  6
CONTINUOUS
  0
LAYER
  2
姿補助線
 70
     0
 62
    30
  6
CONTINUOUS
  0
LAYER
  2
透視線
 70
     0
 62
    78
  6
DOT
  0
LAYER
  2
用紙
 70
     0
 62
    81
  6
CONTINUOUS
  0
LAYER
  2
実線図枠
 70
     0
 62
    94
  6
CONTINUOUS
  0
LAYER
  2
補助図枠
 70
     0
 62
    97
  6
CONTINUOUS
  0
LAYER
  2
建具記号
 70
     0
 62
   110
  6
CONTINUOUS
  0
LAYER
  2
補助文字
 70
     0
 62
   113
  6
CONTINUOUS
  0
ENDTAB
  0
TABLE
  2
STYLE
 70
    10
  0
STYLE
  2
STANDARD
 70
     0
 40
1.0
 41
1.0
 42
1.0
 50
0.0
 71
     0
  3
TXT
  4
BIGFONT
  0
STYLE
  2
TATE
 70
     4
 40
1.0
 41
1.0
 42
1.0
 50
0.0
 71
     0
  3
TXT
  4
BIGFONT
  0
STYLE
  2
TextStyle03
 70
     0
 40
1.0
 41
1.0
 42
1.0
 50
0.0
 71
     0
  3
MONOTXT
  4
BIGFONT
  0
STYLE
  2
TextStyle04
 70
     0
 40
1.0
 41
1.0
 42
1.0
 50
0.0
 71
     0
  3
MONOTXT
  4
BIGFONT
  0
STYLE
  2
TextStyle05
 70
     0
 40
1.0
 41
1.0
 42
1.0
 50
0.0
 71
     0
  3
MONOTXT
  4
BIGFONT
  0
STYLE
  2
TextStyle06
 70
     0
 40
1.0
 41
1.0
 42
1.0
 50
0.0
 71
     0
  3
MONOTXT
  4
BIGFONT
  0
STYLE
  2
TextStyle07
 70
     0
 40
1.0
 41
1.0
 42
1.0
 50
0.0
 71
     0
  3
MONOTXT
  4
BIGFONT
  0
STYLE
  2
TextStyle08
 70
     0
 40
1.0
 41
1.0
 42
1.0
 50
0.0
 71
     0
  3
MONOTXT
  4
BIGFONT
  0
STYLE
  2
TextStyle09
 70
     0
 40
1.0
 41
1.0
 42
1.0
 50
0.0
 71
     0
  3
MONOTXT
  4
BIGFONT
  0
STYLE
  2
TextStyle10
 70
     0
 40
1.0
 41
1.0
 42
1.0
 50
0.0
 71
     0
  3
MONOTXT
  4
BIGFONT
  0
ENDTAB
  0
ENDSEC
  0
SECTION
  2
BLOCKS
  0
BLOCK
  2
*GRP_0001
 70
    65
 10
0.0
 20
0.0
  0
LINE
  8
型材断面
  6
CONTINUOUS
 10
195.0
 20
133.5
 11
195.0
 21
-133.5
  0
LINE
  8
型材断面
  6
CONTINUOUS
 10
195.0
 20
-133.5
 11
-185.0
 21
-133.5
  0
LINE
  8
型材断面
  6
CONTINUOUS
 10
-185.0
 20
-133.5
 11
-185.0
 21
133.5
  0
LINE
  8
型材断面
  6
CONTINUOUS
 10
195.0
 20
133.5
 11
-185.0
 21
133.5
  0
LINE
  8
型材断面
  6
CONTINUOUS
 10
145.0
 20
-133.5
 11
145.0
 21
-118.5
  0
LINE
  8
型材断面
  6
CONTINUOUS
 10
195.0
 20
-118.5
 11
145.0
 21
-118.5
  0
ENDBLK
  0
BLOCK
  2
*GRP_0002
 70
    65
 10
0.0
 20
0.0
  0
INSERT
  2
M8横
  8
ゴム等
  6
CONTINUOUS
 10
163.336003
 20
66.029685
 50
270.0
 41
0.033333
 42
-0.033333
  0
LINE
  8
ボルト／ビス
  6
CONTINUOUS
 10
163.126005
 20
65.896352
 11
163.109338
 21
65.91302
  0
LINE
  8
ボルト／ビス
  6
CONTINUOUS
 10
163.109338
 20
66.146352
 11
163.126005
 21
66.16302
  0
LINE
  8
ボルト／ビス
  6
CONTINUOUS
 10
163.126005
 20
66.16302
 11
163.126005
 21
65.896352
  0
LINE
  8
ボルト／ビス
  6
CONTINUOUS
 10
163.109338
 20
66.146352
 11
163.109338
 21
65.91302
  0
LINE
  8
ボルト／ビス
  6
CONTINUOUS
 10
163.109338
 20
65.91302
 11
163.15267
 21
65.91302
  0
LINE
  8
ボルト／ビス
  6
CONTINUOUS
 10
163.126005
 20
65.896352
 11
163.15267
 21
65.896352
  0
LINE
  8
ボルト／ビス
  6
CONTINUOUS
 10
163.126005
 20
66.16302
 11
163.15267
 21
66.16302
  0
LINE
  8
ボルト／ビス
  6
CONTINUOUS
 10
163.109338
 20
66.146352
 11
163.15267
 21
66.146352
  0
LINE
  8
ボルト／ビス
  6
CONTINUOUS
 10
163.336003
 20
66.396352
 11
163.336003
 21
65.66302
  0
LINE
  8
ボルト／ビス
  6
CONTINUOUS
 10
163.376002
 20
65.61302
 11
163.459335
 21
65.61302
  0
LINE
  8
ボルト／ビス
  6
CONTINUOUS
 10
163.459335
 20
65.61302
 11
163.459335
 21
66.446352
  0
LINE
  8
ボルト／ビス
  6
CONTINUOUS
 10
163.459335
 20
66.446352
 11
163.376002
 21
66.446352
  0
LINE
  8
ボルト／ビス
  6
CONTINUOUS
 10
163.376002
 20
65.61302
 11
163.376002
 21
66.446352
  0
LINE
  8
ボルト／ビス
  6
CONTINUOUS
 10
163.336003
 20
66.396352
 11
163.376002
 21
66.396352
  0
LINE
  8
ボルト／ビス
  6
CONTINUOUS
 10
163.336003
 20
65.66302
 11
163.376002
 21
65.66302
  0
LINE
  8
ボルト／ビス
  6
CONTINUOUS
 10
163.386002
 20
66.029685
 11
163.336003
 21
66.029685
  0
ENDBLK
  0
BLOCK
  2
*GRP_0003
 70
    65
 10
0.0
 20
0.0
  0
LINE
  8
ボルト／ビス
  6
CONTINUOUS
 10
162.47617
 20
66.236355
 11
162.409503
 21
66.236355
  0
LINE
  8
ボルト／ビス
  6
CONTINUOUS
 10
162.409503
 20
66.236355
 11
162.409503
 21
65.50302
  0
LINE
  8
ボルト／ビス
  6
CONTINUOUS
 10
162.409503
 20
65.50302
 11
162.47617
 21
65.50302
  0
LINE
  8
ボルト／ビス
  6
CONTINUOUS
 10
162.47617
 20
66.236355
 11
162.47617
 21
65.50302
  0
LINE
  8
ボルト／ビス
  6
CONTINUOUS
 10
162.37617
 20
66.169687
 11
162.409503
 21
66.169687
  0
LINE
  8
ボルト／ビス
  6
CONTINUOUS
 10
162.37617
 20
66.169687
 11
162.37617
 21
65.569687
  0
LINE
  8
ボルト／ビス
  6
CONTINUOUS
 10
162.37617
 20
65.569687
 11
162.409503
 21
65.569687
  0
LINE
  8
ボルト／ビス
  6
CONTINUOUS
 62
    64
 10
162.17617
 20
66.030062
 11
162.187845
 21
66.062138
  0
ARC
  8
ボルト／ビス
  6
CONTINUOUS
 62
    64
 10
162.281149
 20
66.014031
 40
0.104978
 50
180.0
 51
207.278033
  0
ARC
  8
ボルト／ビス
  6
CONTINUOUS
 62
    64
 10
162.578573
 20
65.869693
 40
0.402402
 50
166.165015
 51
193.834998
  0
LINE
  8
ボルト／ビス
  6
CONTINUOUS
 62
    64
 10
162.17617
 20
65.709312
 11
162.187845
 21
65.677238
  0
ARC
  8
ボルト／ビス
  6
CONTINUOUS
 62
    64
 10
162.281149
 20
65.725355
 40
0.104978
 50
152.721967
 51
180.0
  0
LINE
  8
ボルト／ビス
  6
CONTINUOUS
 62
    64
 10
162.17617
 20
66.030062
 11
162.17617
 21
65.709312
  0
LINE
  8
ボルト／ビス
  6
CONTINUOUS
 62
    64
 10
162.187845
 20
65.677238
 11
162.309503
 21
65.677238
  0
LINE
  8
ボルト／ビス
  6
CONTINUOUS
 62
    64
 10
162.187845
 20
65.773462
 11
162.309503
 21
65.773462
  0
LINE
  8
ボルト／ビス
  6
CONTINUOUS
 62
    64
 10
162.187845
 20
66.062138
 11
162.309503
 21
66.062138
  0
LINE
  8
ボルト／ビス
  6
CONTINUOUS
 62
    64
 10
162.187845
 20
65.965913
 11
162.309503
 21
65.965913
  0
LINE
  8
ボルト／ビス
  6
CONTINUOUS
 10
162.309503
 20
66.062138
 11
162.309503
 21
65.677238
  0
LINE
  8
ボルト／ビス
  6
CONTINUOUS
 10
162.309503
 20
66.069687
 11
162.37617
 21
66.069687
  0
LINE
  8
ボルト／ビス
  6
CONTINUOUS
 10
162.309503
 20
66.069687
 11
162.309503
 21
65.669687
  0
LINE
  8
ボルト／ビス
  6
CONTINUOUS
 10
162.309503
 20
65.669687
 11
162.37617
 21
65.669687
  0
ENDBLK
  0
BLOCK
  2
*GRP_0004
 70
    65
 10
0.0
 20
0.0
  0
INSERT
  2
M8横
  8
ゴム等
  6
CONTINUOUS
 10
163.336003
 20
34.376965
 50
90.0
 41
0.033333
 42
0.033333
  0
LINE
  8
ボルト／ビス
  6
CONTINUOUS
 10
163.126005
 20
34.5103
 11
163.109338
 21
34.493633
  0
LINE
  8
ボルト／ビス
  6
CONTINUOUS
 10
163.109338
 20
34.2603
 11
163.126005
 21
34.243633
  0
LINE
  8
ボルト／ビス
  6
CONTINUOUS
 10
163.126005
 20
34.243633
 11
163.126005
 21
34.5103
  0
LINE
  8
ボルト／ビス
  6
CONTINUOUS
 10
163.109338
 20
34.2603
 11
163.109338
 21
34.493633
  0
LINE
  8
ボルト／ビス
  6
CONTINUOUS
 10
163.109338
 20
34.493633
 11
163.15267
 21
34.493633
  0
LINE
  8
ボルト／ビス
  6
CONTINUOUS
 10
163.126005
 20
34.5103
 11
163.15267
 21
34.5103
  0
LINE
  8
ボルト／ビス
  6
CONTINUOUS
 10
163.126005
 20
34.243633
 11
163.15267
 21
34.243633
  0
LINE
  8
ボルト／ビス
  6
CONTINUOUS
 10
163.109338
 20
34.2603
 11
163.15267
 21
34.2603
  0
LINE
  8
ボルト／ビス
  6
CONTINUOUS
 10
163.336003
 20
34.0103
 11
163.336003
 21
34.743633
  0
LINE
  8
ボルト／ビス
  6
CONTINUOUS
 10
163.376002
 20
34.793633
 11
163.459335
 21
34.793633
  0
LINE
  8
ボルト／ビス
  6
CONTINUOUS
 10
163.459335
 20
34.793633
 11
163.459335
 21
33.9603
  0
LINE
  8
ボルト／ビス
  6
CONTINUOUS
 10
163.459335
 20
33.9603
 11
163.376002
 21
33.9603
  0
LINE
  8
ボルト／ビス
  6
CONTINUOUS
 10
163.376002
 20
34.793633
 11
163.376002
 21
33.9603
  0
LINE
  8
ボルト／ビス
  6
CONTINUOUS
 10
163.336003
 20
34.0103
 11
163.376002
 21
34.0103
  0
LINE
  8
ボルト／ビス
  6
CONTINUOUS
 10
163.336003
 20
34.743633
 11
163.376002
 21
34.743633
  0
LINE
  8
ボルト／ビス
  6
CONTINUOUS
 10
163.386002
 20
34.376965
 11
163.336003
 21
34.376965
  0
ENDBLK
  0
BLOCK
  2
*GRP_0005
 70
    65
 10
0.0
 20
0.0
  0
LINE
  8
ボルト／ビス
  6
CONTINUOUS
 10
162.47617
 20
34.170298
 11
162.409503
 21
34.170298
  0
LINE
  8
ボルト／ビス
  6
CONTINUOUS
 10
162.409503
 20
34.170298
 11
162.409503
 21
34.90363
  0
LINE
  8
ボルト／ビス
  6
CONTINUOUS
 10
162.409503
 20
34.90363
 11
162.47617
 21
34.90363
  0
LINE
  8
ボルト／ビス
  6
CONTINUOUS
 10
162.47617
 20
34.170298
 11
162.47617
 21
34.90363
  0
LINE
  8
ボルト／ビス
  6
CONTINUOUS
 10
162.37617
 20
34.236965
 11
162.409503
 21
34.236965
  0
LINE
  8
ボルト／ビス
  6
CONTINUOUS
 10
162.37617
 20
34.236965
 11
162.37617
 21
34.836965
  0
LINE
  8
ボルト／ビス
  6
CONTINUOUS
 10
162.37617
 20
34.836965
 11
162.409503
 21
34.836965
  0
LINE
  8
ボルト／ビス
  6
CONTINUOUS
 62
    64
 10
162.17617
 20
34.37659
 11
162.187845
 21
34.344515
  0
ARC
  8
ボルト／ビス
  6
CONTINUOUS
 62
    64
 10
162.281149
 20
34.392632
 40
0.104978
 50
152.721967
 51
180.0
  0
ARC
  8
ボルト／ビス
  6
CONTINUOUS
 62
    64
 10
162.578573
 20
34.536969
 40
0.402402
 50
166.165002
 51
193.834985
  0
LINE
  8
ボルト／ビス
  6
CONTINUOUS
 62
    64
 10
162.17617
 20
34.69734
 11
162.187845
 21
34.729415
  0
ARC
  8
ボルト／ビス
  6
CONTINUOUS
 62
    64
 10
162.281149
 20
34.681307
 40
0.104978
 50
180.0
 51
207.278033
  0
LINE
  8
ボルト／ビス
  6
CONTINUOUS
 62
    64
 10
162.17617
 20
34.37659
 11
162.17617
 21
34.69734
  0
LINE
  8
ボルト／ビス
  6
CONTINUOUS
 62
    64
 10
162.187845
 20
34.729415
 11
162.309503
 21
34.729415
  0
LINE
  8
ボルト／ビス
  6
CONTINUOUS
 62
    64
 10
162.187845
 20
34.63319
 11
162.309503
 21
34.63319
  0
LINE
  8
ボルト／ビス
  6
CONTINUOUS
 62
    64
 10
162.187845
 20
34.344515
 11
162.309503
 21
34.344515
  0
LINE
  8
ボルト／ビス
  6
CONTINUOUS
 62
    64
 10
162.187845
 20
34.44074
 11
162.309503
 21
34.44074
  0
LINE
  8
ボルト／ビス
  6
CONTINUOUS
 10
162.309503
 20
34.344515
 11
162.309503
 21
34.729415
  0
LINE
  8
ボルト／ビス
  6
CONTINUOUS
 10
162.309503
 20
34.336965
 11
162.37617
 21
34.336965
  0
LINE
  8
ボルト／ビス
  6
CONTINUOUS
 10
162.309503
 20
34.336965
 11
162.309503
 21
34.736965
  0
LINE
  8
ボルト／ビス
  6
CONTINUOUS
 10
162.309503
 20
34.736965
 11
162.37617
 21
34.736965
  0
ENDBLK
  0
BLOCK
  2
*DIM_0006
 70
    65
 10
0.0
 20
0.0
  0
LINE
  8
寸法
  6
CONTINUOUS
 10
161.248695
 20
32.92363
 11
142.14273
 21
32.92363
  0
LINE
  8
寸法
  6
CONTINUOUS
 10
142.14273
 20
35.203325
 11
142.14273
 21
32.92363
  0
POINT
  8
寸法
 10
142.14273
 20
35.203325
  0
POINT
  8
寸法
 10
142.14273
 20
32.92363
  0
TEXT
  7
TextStyle03
  8
寸法
  6
CONTINUOUS
 10
141.75
 20
24.01875
  1
68.4
 40
3.0
 50
90.0
 72
     5
 11
141.75
 21
30.58125
  0
ENDBLK
  0
BLOCK
  2
*DIM_0007
 70
    65
 10
0.0
 20
0.0
  0
LINE
  8
寸法
  6
CONTINUOUS
 10
142.14273
 20
65.203325
 11
142.14273
 21
35.203325
  0
POINT
  8
寸法
 10
142.14273
 20
65.203325
  0
POINT
  8
寸法
 10
142.14273
 20
35.203325
  0
TEXT
  7
TextStyle03
  8
寸法
  6
CONTINUOUS
 10
141.75
 20
39.325
  1
呼称寸法　900
 40
3.0
 50
90.0
 72
     5
 11
141.75
 21
61.075
  0
ENDBLK
  0
BLOCK
  2
*DIM_0008
 70
    65
 10
0.0
 20
0.0
  0
LINE
  8
寸法
  6
CONTINUOUS
 10
161.248695
 20
67.48302
 11
142.14273
 21
67.48302
  0
LINE
  8
寸法
  6
CONTINUOUS
 10
142.14273
 20
65.203325
 11
142.14273
 21
67.48302
  0
POINT
  8
寸法
 10
142.14273
 20
65.203325
  0
POINT
  8
寸法
 10
142.14273
 20
67.48302
  0
TEXT
  7
TextStyle03
  8
寸法
  6
CONTINUOUS
 10
141.75
 20
69.79375
  1
68.4
 40
3.0
 50
90.0
 72
     5
 11
141.75
 21
76.35625
  0
ENDBLK
  0
BLOCK
  2
*DIM_0009
 70
    65
 10
0.0
 20
0.0
  0
LINE
  8
寸法
  6
CONTINUOUS
 10
169.209335
 20
28.236965
 11
169.209335
 21
20.327945
  0
LINE
  8
寸法
  6
CONTINUOUS
 10
161.742835
 20
30.203325
 11
161.742835
 21
20.327945
  0
LINE
  8
寸法
  6
CONTINUOUS
 10
169.209335
 20
20.327945
 11
161.742835
 21
20.327945
  0
POINT
  8
寸法
 10
169.209335
 20
20.327945
  0
POINT
  8
寸法
 10
161.742835
 20
20.327945
  0
TEXT
  7
TextStyle03
  8
寸法
  6
CONTINUOUS
 10
163.0375
 20
20.7
  1
224
 40
3.0
 72
     5
 11
167.9125
 21
20.7
  0
ENDBLK
  0
BLOCK
  2
*GRP_0010
 70
    65
 10
0.0
 20
0.0
  0
INSERT
  2
M8横
  8
ゴム等
  6
CONTINUOUS
 10
13.22986
 20
-70.297288
 50
180.0
 41
0.033333
 42
-0.033333
  0
LINE
  8
ボルト／ビス
  6
CONTINUOUS
 10
13.096528
 20
-70.087288
 11
13.113192
 21
-70.070622
  0
LINE
  8
ボルト／ビス
  6
CONTINUOUS
 10
13.346528
 20
-70.070622
 11
13.363192
 21
-70.087288
  0
LINE
  8
ボルト／ビス
  6
CONTINUOUS
 10
13.363192
 20
-70.087288
 11
13.096528
 21
-70.087288
  0
LINE
  8
ボルト／ビス
  6
CONTINUOUS
 10
13.346528
 20
-70.070622
 11
13.113192
 21
-70.070622
  0
LINE
  8
ボルト／ビス
  6
CONTINUOUS
 10
13.113192
 20
-70.070622
 11
13.113192
 21
-70.113952
  0
LINE
  8
ボルト／ビス
  6
CONTINUOUS
 10
13.096528
 20
-70.087288
 11
13.096528
 21
-70.113952
  0
LINE
  8
ボルト／ビス
  6
CONTINUOUS
 10
13.363192
 20
-70.087288
 11
13.363192
 21
-70.113952
  0
LINE
  8
ボルト／ビス
  6
CONTINUOUS
 10
13.346528
 20
-70.070622
 11
13.346528
 21
-70.113952
  0
LINE
  8
ボルト／ビス
  6
CONTINUOUS
 10
13.596528
 20
-70.297288
 11
12.863192
 21
-70.297288
  0
LINE
  8
ボルト／ビス
  6
CONTINUOUS
 10
12.813192
 20
-70.337288
 11
12.813192
 21
-70.42062
  0
LINE
  8
ボルト／ビス
  6
CONTINUOUS
 10
12.813192
 20
-70.42062
 11
13.646528
 21
-70.42062
  0
LINE
  8
ボルト／ビス
  6
CONTINUOUS
 10
13.646528
 20
-70.42062
 11
13.646528
 21
-70.337288
  0
LINE
  8
ボルト／ビス
  6
CONTINUOUS
 10
12.813192
 20
-70.337288
 11
13.646528
 21
-70.337288
  0
LINE
  8
ボルト／ビス
  6
CONTINUOUS
 10
13.596528
 20
-70.297288
 11
13.596528
 21
-70.337288
  0
LINE
  8
ボルト／ビス
  6
CONTINUOUS
 10
12.863192
 20
-70.297288
 11
12.863192
 21
-70.337288
  0
LINE
  8
ボルト／ビス
  6
CONTINUOUS
 10
13.22986
 20
-70.347288
 11
13.22986
 21
-70.297288
  0
ENDBLK
  0
BLOCK
  2
*GRP_0011
 70
    65
 10
0.0
 20
0.0
  0
LINE
  8
ボルト／ビス
  6
CONTINUOUS
 10
13.436528
 20
-69.437453
 11
13.436528
 21
-69.370788
  0
LINE
  8
ボルト／ビス
  6
CONTINUOUS
 10
13.436528
 20
-69.370788
 11
12.703195
 21
-69.370788
  0
LINE
  8
ボルト／ビス
  6
CONTINUOUS
 10
12.703195
 20
-69.370788
 11
12.703195
 21
-69.437453
  0
LINE
  8
ボルト／ビス
  6
CONTINUOUS
 10
13.436528
 20
-69.437453
 11
12.703195
 21
-69.437453
  0
LINE
  8
ボルト／ビス
  6
CONTINUOUS
 10
13.369863
 20
-69.337453
 11
13.369863
 21
-69.370788
  0
LINE
  8
ボルト／ビス
  6
CONTINUOUS
 10
13.369863
 20
-69.337453
 11
12.769863
 21
-69.337453
  0
LINE
  8
ボルト／ビス
  6
CONTINUOUS
 10
12.769863
 20
-69.337453
 11
12.769863
 21
-69.370788
  0
LINE
  8
ボルト／ビス
  6
CONTINUOUS
 62
    64
 10
13.230237
 20
-69.137453
 11
13.262313
 21
-69.149128
  0
ARC
  8
ボルト／ビス
  6
CONTINUOUS
 62
    64
 10
13.214199
 20
-69.242431
 40
0.104978
 50
90.0
 51
117.278033
  0
ARC
  8
ボルト／ビス
  6
CONTINUOUS
 62
    64
 10
13.069861
 20
-69.539855
 40
0.402402
 50
76.165015
 51
103.834998
  0
LINE
  8
ボルト／ビス
  6
CONTINUOUS
 62
    64
 10
12.909488
 20
-69.137453
 11
12.877412
 21
-69.149128
  0
ARC
  8
ボルト／ビス
  6
CONTINUOUS
 62
    64
 10
12.925523
 20
-69.242431
 40
0.104978
 50
62.721967
 51
90.0
  0
LINE
  8
ボルト／ビス
  6
CONTINUOUS
 62
    64
 10
13.230237
 20
-69.137453
 11
12.909488
 21
-69.137453
  0
LINE
  8
ボルト／ビス
  6
CONTINUOUS
 62
    64
 10
12.877412
 20
-69.149128
 11
12.877412
 21
-69.270788
  0
LINE
  8
ボルト／ビス
  6
CONTINUOUS
 62
    64
 10
12.973638
 20
-69.149128
 11
12.973638
 21
-69.270788
  0
LINE
  8
ボルト／ビス
  6
CONTINUOUS
 62
    64
 10
13.262313
 20
-69.149128
 11
13.262313
 21
-69.270788
  0
LINE
  8
ボルト／ビス
  6
CONTINUOUS
 62
    64
 10
13.166087
 20
-69.149128
 11
13.166087
 21
-69.270788
  0
LINE
  8
ボルト／ビス
  6
CONTINUOUS
 10
13.262313
 20
-69.270788
 11
12.877412
 21
-69.270788
  0
LINE
  8
ボルト／ビス
  6
CONTINUOUS
 10
13.269863
 20
-69.270788
 11
13.269863
 21
-69.337453
  0
LINE
  8
ボルト／ビス
  6
CONTINUOUS
 10
13.269863
 20
-69.270788
 11
12.869863
 21
-69.270788
  0
LINE
  8
ボルト／ビス
  6
CONTINUOUS
 10
12.869863
 20
-69.270788
 11
12.869863
 21
-69.337453
  0
ENDBLK
  0
BLOCK
  2
*DIM_0012
 70
    65
 10
0.0
 20
0.0
  0
LINE
  8
寸法
  6
CONTINUOUS
 10
17.4035
 20
-68.70412
 11
36.021973
 21
-68.70412
  0
LINE
  8
寸法
  6
CONTINUOUS
 10
19.369863
 20
-76.17062
 11
36.021973
 21
-76.17062
  0
LINE
  8
寸法
  6
CONTINUOUS
 10
36.021973
 20
-68.70412
 11
36.021973
 21
-76.17062
  0
POINT
  8
寸法
 10
36.021973
 20
-68.70412
  0
POINT
  8
寸法
 10
36.021973
 20
-76.17062
  0
TEXT
  7
TextStyle03
  8
寸法
  6
CONTINUOUS
 10
35.625
 20
-74.8875
  1
224
 40
3.0
 50
90.0
 72
     5
 11
35.625
 21
-70.0125
  0
ENDBLK
  0
BLOCK
  2
*GRP_0013
 70
    65
 10
0.0
 20
0.0
  0
INSERT
  2
M8横
  8
ゴム等
  6
CONTINUOUS
 10
-88.422855
 20
-70.297288
 41
0.033333
 42
0.033333
  0
LINE
  8
ボルト／ビス
  6
CONTINUOUS
 10
-88.289523
 20
-70.087288
 11
-88.306188
 21
-70.070622
  0
LINE
  8
ボルト／ビス
  6
CONTINUOUS
 10
-88.539523
 20
-70.070622
 11
-88.556188
 21
-70.087288
  0
LINE
  8
ボルト／ビス
  6
CONTINUOUS
 10
-88.556188
 20
-70.087288
 11
-88.289523
 21
-70.087288
  0
LINE
  8
ボルト／ビス
  6
CONTINUOUS
 10
-88.539523
 20
-70.070622
 11
-88.306188
 21
-70.070622
  0
LINE
  8
ボルト／ビス
  6
CONTINUOUS
 10
-88.306188
 20
-70.070622
 11
-88.306188
 21
-70.113952
  0
LINE
  8
ボルト／ビス
  6
CONTINUOUS
 10
-88.289523
 20
-70.087288
 11
-88.289523
 21
-70.113952
  0
LINE
  8
ボルト／ビス
  6
CONTINUOUS
 10
-88.556188
 20
-70.087288
 11
-88.556188
 21
-70.113952
  0
LINE
  8
ボルト／ビス
  6
CONTINUOUS
 10
-88.539523
 20
-70.070622
 11
-88.539523
 21
-70.113952
  0
LINE
  8
ボルト／ビス
  6
CONTINUOUS
 10
-88.789523
 20
-70.297288
 11
-88.056188
 21
-70.297288
  0
LINE
  8
ボルト／ビス
  6
CONTINUOUS
 10
-88.006188
 20
-70.337288
 11
-88.006188
 21
-70.42062
  0
LINE
  8
ボルト／ビス
  6
CONTINUOUS
 10
-88.006188
 20
-70.42062
 11
-88.839523
 21
-70.42062
  0
LINE
  8
ボルト／ビス
  6
CONTINUOUS
 10
-88.839523
 20
-70.42062
 11
-88.839523
 21
-70.337288
  0
LINE
  8
ボルト／ビス
  6
CONTINUOUS
 10
-88.006188
 20
-70.337288
 11
-88.839523
 21
-70.337288
  0
LINE
  8
ボルト／ビス
  6
CONTINUOUS
 10
-88.789523
 20
-70.297288
 11
-88.789523
 21
-70.337288
  0
LINE
  8
ボルト／ビス
  6
CONTINUOUS
 10
-88.056188
 20
-70.297288
 11
-88.056188
 21
-70.337288
  0
LINE
  8
ボルト／ビス
  6
CONTINUOUS
 10
-88.422855
 20
-70.347288
 11
-88.422855
 21
-70.297288
  0
ENDBLK
  0
BLOCK
  2
*GRP_0014
 70
    65
 10
0.0
 20
0.0
  0
LINE
  8
ボルト／ビス
  6
CONTINUOUS
 10
-88.629522
 20
-69.437453
 11
-88.629522
 21
-69.370788
  0
LINE
  8
ボルト／ビス
  6
CONTINUOUS
 10
-88.629522
 20
-69.370788
 11
-87.89619
 21
-69.370788
  0
LINE
  8
ボルト／ビス
  6
CONTINUOUS
 10
-87.89619
 20
-69.370788
 11
-87.89619
 21
-69.437453
  0
LINE
  8
ボルト／ビス
  6
CONTINUOUS
 10
-88.629522
 20
-69.437453
 11
-87.89619
 21
-69.437453
  0
LINE
  8
ボルト／ビス
  6
CONTINUOUS
 10
-88.562857
 20
-69.337453
 11
-88.562857
 21
-69.370788
  0
LINE
  8
ボルト／ビス
  6
CONTINUOUS
 10
-88.562857
 20
-69.337453
 11
-87.962857
 21
-69.337453
  0
LINE
  8
ボルト／ビス
  6
CONTINUOUS
 10
-87.962857
 20
-69.337453
 11
-87.962857
 21
-69.370788
  0
LINE
  8
ボルト／ビス
  6
CONTINUOUS
 62
    64
 10
-88.423232
 20
-69.137453
 11
-88.455307
 21
-69.149128
  0
ARC
  8
ボルト／ビス
  6
CONTINUOUS
 62
    64
 10
-88.407195
 20
-69.242431
 40
0.104978
 50
62.721967
 51
90.0
  0
ARC
  8
ボルト／ビス
  6
CONTINUOUS
 62
    64
 10
-88.262858
 20
-69.539855
 40
0.402402
 50
76.165002
 51
103.834985
  0
LINE
  8
ボルト／ビス
  6
CONTINUOUS
 62
    64
 10
-88.102483
 20
-69.137453
 11
-88.070407
 21
-69.149128
  0
ARC
  8
ボルト／ビス
  6
CONTINUOUS
 62
    64
 10
-88.11852
 20
-69.242431
 40
0.104978
 50
90.0
 51
117.278033
  0
LINE
  8
ボルト／ビス
  6
CONTINUOUS
 62
    64
 10
-88.423232
 20
-69.137453
 11
-88.102483
 21
-69.137453
  0
LINE
  8
ボルト／ビス
  6
CONTINUOUS
 62
    64
 10
-88.070407
 20
-69.149128
 11
-88.070407
 21
-69.270788
  0
LINE
  8
ボルト／ビス
  6
CONTINUOUS
 62
    64
 10
-88.166633
 20
-69.149128
 11
-88.166633
 21
-69.270788
  0
LINE
  8
ボルト／ビス
  6
CONTINUOUS
 62
    64
 10
-88.455307
 20
-69.149128
 11
-88.455307
 21
-69.270788
  0
LINE
  8
ボルト／ビス
  6
CONTINUOUS
 62
    64
 10
-88.359083
 20
-69.149128
 11
-88.359083
 21
-69.270788
  0
LINE
  8
ボルト／ビス
  6
CONTINUOUS
 10
-88.455307
 20
-69.270788
 11
-88.070407
 21
-69.270788
  0
LINE
  8
ボルト／ビス
  6
CONTINUOUS
 10
-88.462857
 20
-69.270788
 11
-88.462857
 21
-69.337453
  0
LINE
  8
ボルト／ビス
  6
CONTINUOUS
 10
-88.462857
 20
-69.270788
 11
-88.062857
 21
-69.270788
  0
LINE
  8
ボルト／ビス
  6
CONTINUOUS
 10
-88.062857
 20
-69.270788
 11
-88.062857
 21
-69.337453
  0
ENDBLK
  0
BLOCK
  2
*DIM_0015
 70
    65
 10
0.0
 20
0.0
  0
LINE
  8
寸法
  6
BYBLOCK
 62
     0
 10
-70.92983
 20
31.573195
 11
-70.92983
 21
26.492583
  0
LINE
  8
寸法
  6
BYBLOCK
 62
     0
 10
-4.263165
 20
31.573195
 11
-4.263165
 21
26.492583
  0
LINE
  8
寸法
  6
BYBLOCK
 62
     0
 10
-70.92983
 20
26.492583
 11
-4.263165
 21
26.492583
  0
POINT
  8
寸法
 62
     0
 10
-70.92983
 20
26.492583
  0
POINT
  8
寸法
 62
     0
 10
-4.263165
 20
26.492583
  0
TEXT
  7
TextStyle03
  8
寸法
  6
CONTINUOUS
 62
     0
 10
-40.85625
 20
26.85
  1
2000
 40
3.0
 72
     5
 11
-34.29375
 21
26.85
  0
ENDBLK
  0
BLOCK
  2
*DIM_0016
 70
    65
 10
0.0
 20
0.0
  0
LINE
  8
寸法
  6
BYBLOCK
 62
     0
 10
16.03363
 20
61.303325
 11
22.810923
 21
61.303325
  0
LINE
  8
寸法
  6
BYBLOCK
 62
     0
 10
22.810923
 20
65.203325
 11
22.810923
 21
61.303325
  0
POINT
  8
寸法
 62
     0
 10
22.810923
 20
65.203325
  0
POINT
  8
寸法
 62
     0
 10
22.810923
 20
61.303325
  0
TEXT
  7
TextStyle03
  8
寸法
  6
CONTINUOUS
 62
     0
 10
22.55
 20
65.8625
  1
117
 40
3.0
 50
90.0
 72
     5
 11
22.55
 21
70.7375
  0
ENDBLK
  0
BLOCK
  2
*DIM_0017
 70
    65
 10
0.0
 20
0.0
  0
LINE
  8
寸法
  6
BYBLOCK
 62
     0
 10
16.03363
 20
39.103325
 11
22.810923
 21
39.103325
  0
LINE
  8
寸法
  6
BYBLOCK
 62
     0
 10
22.810923
 20
35.203325
 11
22.810923
 21
39.103325
  0
POINT
  8
寸法
 62
     0
 10
22.810923
 20
35.203325
  0
POINT
  8
寸法
 62
     0
 10
22.810923
 20
39.103325
  0
TEXT
  7
TextStyle03
  8
寸法
  6
CONTINUOUS
 62
     0
 10
22.925
 20
29.5875
  1
117
 40
3.0
 50
90.0
 72
     5
 11
22.925
 21
34.4625
  0
ENDBLK
  0
BLOCK
  2
*DIM_0018
 70
    65
 10
0.0
 20
0.0
  0
LINE
  8
寸法
  6
BYBLOCK
 62
     0
 10
-90.596497
 20
60.203325
 11
-103.889335
 21
60.203325
  0
LINE
  8
寸法
  6
BYBLOCK
 62
     0
 10
-90.596497
 20
40.203325
 11
-103.889335
 21
40.203325
  0
LINE
  8
寸法
  6
BYBLOCK
 62
     0
 10
-103.889335
 20
60.203325
 11
-103.889335
 21
40.203325
  0
POINT
  8
寸法
 62
     0
 10
-103.889335
 20
60.203325
  0
POINT
  8
寸法
 62
     0
 10
-103.889335
 20
40.203325
  0
TEXT
  7
TextStyle03
  8
寸法
  6
CONTINUOUS
 62
     0
 10
-104.225
 20
47.7375
  1
600
 40
3.0
 50
90.0
 72
     5
 11
-104.225
 21
52.6125
  0
ENDBLK
  0
BLOCK
  2
*DIM_0019
 70
    65
 10
0.0
 20
0.0
  0
LINE
  8
寸法
  6
BYBLOCK
 62
     0
 10
-77.596497
 20
68.203325
 11
-77.596497
 21
97.311398
  0
LINE
  8
寸法
  6
BYBLOCK
 62
     0
 10
-50.92983
 20
68.203325
 11
-50.92983
 21
97.311398
  0
LINE
  8
寸法
  6
BYBLOCK
 62
     0
 10
-77.596497
 20
97.311398
 11
-50.92983
 21
97.311398
  0
POINT
  8
寸法
 62
     0
 10
-77.596497
 20
97.311398
  0
POINT
  8
寸法
 62
     0
 10
-50.92983
 20
97.311398
  0
TEXT
  7
TextStyle03
  8
寸法
  6
CONTINUOUS
 62
     0
 10
-66.6875
 20
97.675
  1
800
 40
3.0
 72
     5
 11
-61.8125
 21
97.675
  0
ENDBLK
  0
BLOCK
  2
*DIM_0020
 70
    65
 10
0.0
 20
0.0
  0
LINE
  8
寸法
  6
BYBLOCK
 62
     0
 10
-24.263165
 20
68.203325
 11
-24.263165
 21
97.311398
  0
LINE
  8
寸法
  6
BYBLOCK
 62
     0
 10
-50.92983
 20
97.311398
 11
-24.263165
 21
97.311398
  0
POINT
  8
寸法
 62
     0
 10
-24.263165
 20
97.311398
  0
TEXT
  7
TextStyle03
  8
寸法
  6
CONTINUOUS
 62
     0
 10
-40.0125
 20
97.675
  1
800
 40
3.0
 72
     5
 11
-35.1375
 21
97.675
  0
ENDBLK
  0
BLOCK
  2
*DIM_0021
 70
    65
 10
0.0
 20
0.0
  0
LINE
  8
寸法
  6
BYBLOCK
 62
     0
 10
2.403502
 20
68.203325
 11
2.403502
 21
97.311398
  0
LINE
  8
寸法
  6
BYBLOCK
 62
     0
 10
-24.263165
 20
97.311398
 11
2.403502
 21
97.311398
  0
POINT
  8
寸法
 62
     0
 10
2.403502
 20
97.311398
  0
TEXT
  7
TextStyle03
  8
寸法
  6
CONTINUOUS
 62
     0
 10
-13.3375
 20
97.675
  1
800
 40
3.0
 72
     5
 11
-8.4625
 21
97.675
  0
ENDBLK
  0
BLOCK
  2
*GRP_0022
 70
    65
 10
0.0
 20
0.0
  0
LINE
  8
型材断面
  6
DOT
 10
14.070168
 20
-58.270785
 11
14.020168
 21
-58.270785
  0
LINE
  8
型材断面
  6
DOT
 10
12.4035
 20
-57.770785
 11
12.4035
 21
-57.037453
  0
LINE
  8
型材断面
  6
DOT
 10
12.453195
 20
-58.753953
 11
13.899863
 21
-58.753953
  0
LINE
  8
型材断面
  6
DOT
 10
13.899863
 20
-59.203953
 11
13.899863
 21
-58.753953
  0
LINE
  8
型材断面
  6
DOT
 62
    47
 10
14.633195
 20
-61.876645
 11
14.683195
 21
-61.876645
  0
LINE
  8
型材断面
  6
DOT
 62
    47
 10
14.683195
 20
-61.876645
 11
14.683195
 21
-61.54331
  0
LINE
  8
型材断面
  6
DOT
 62
    47
 10
14.683195
 20
-61.54331
 11
13.899863
 21
-61.44331
  0
LINE
  8
型材断面
  6
DOT
 62
    47
 10
13.899863
 20
-61.037285
 11
13.899863
 21
-61.44331
  0
LINE
  8
型材断面
  6
DOT
 62
    47
 10
14.369863
 20
-61.037285
 11
14.369863
 21
-59.203953
  0
LINE
  8
型材断面
  6
DOT
 10
14.070168
 20
-58.270785
 11
14.070168
 21
-57.770785
  0
LINE
  8
型材断面
  6
DOT
 10
12.453195
 20
-58.753953
 11
12.453195
 21
-58.270785
  0
INSERT
  2
*GRP_0023
  8
型材断面
  6
DOT
 10
0.0
 20
0.0
  0
INSERT
  2
*GRP_0024
  8
型材断面
  6
DOT
 10
0.0
 20
0.0
  0
LINE
  8
型材断面
  6
DOT
 10
14.683195
 20
-61.876645
 11
-37.596497
 21
-61.876645
  0
LINE
  8
型材断面
  6
DOT
 10
14.683195
 20
-61.54331
 11
-37.596497
 21
-61.54331
  0
LINE
  8
型材断面
  6
DOT
 10
13.899863
 20
-61.44331
 11
-37.596497
 21
-61.44331
  0
LINE
  8
型材断面
  6
DOT
 10
14.369863
 20
-61.037285
 11
-37.596497
 21
-61.037285
  0
LINE
  8
型材断面
  6
DOT
 10
14.070168
 20
-58.270785
 11
-37.596497
 21
-58.270785
  0
LINE
  8
型材断面
  6
DOT
 10
12.4035
 20
-57.037453
 11
-37.596497
 21
-57.037453
  0
LINE
  8
型材断面
  6
DOT
 10
14.070168
 20
-57.770785
 11
-37.596497
 21
-57.770785
  0
LINE
  8
型材断面
  6
DOT
 10
13.899863
 20
-58.753953
 11
-37.596497
 21
-58.753953
  0
LINE
  8
型材断面
  6
DOT
 10
14.369863
 20
-59.203953
 11
-37.596497
 21
-59.203953
  0
LINE
  8
型材断面
  6
DOT
 10
-89.263162
 20
-58.270785
 11
-89.213162
 21
-58.270785
  0
LINE
  8
型材断面
  6
DOT
 10
-87.596495
 20
-57.770785
 11
-87.596495
 21
-57.037453
  0
LINE
  8
型材断面
  6
DOT
 10
-87.64619
 20
-58.753953
 11
-89.092857
 21
-58.753953
  0
LINE
  8
型材断面
  6
DOT
 10
-89.092857
 20
-59.203953
 11
-89.092857
 21
-58.753953
  0
LINE
  8
型材断面
  6
DOT
 62
    47
 10
-89.82619
 20
-61.876645
 11
-89.87619
 21
-61.876645
  0
LINE
  8
型材断面
  6
DOT
 62
    47
 10
-89.87619
 20
-61.876645
 11
-89.87619
 21
-61.54331
  0
LINE
  8
型材断面
  6
DOT
 62
    47
 10
-89.87619
 20
-61.54331
 11
-89.092857
 21
-61.44331
  0
LINE
  8
型材断面
  6
DOT
 62
    47
 10
-89.092857
 20
-61.037285
 11
-89.092857
 21
-61.44331
  0
LINE
  8
型材断面
  6
DOT
 62
    47
 10
-89.562857
 20
-61.037285
 11
-89.562857
 21
-59.203953
  0
LINE
  8
型材断面
  6
DOT
 10
-89.263162
 20
-58.270785
 11
-89.263162
 21
-57.770785
  0
LINE
  8
型材断面
  6
DOT
 10
-87.64619
 20
-58.753953
 11
-87.64619
 21
-58.270785
  0
INSERT
  2
*GRP_0025
  8
型材断面
  6
DOT
 10
0.0
 20
0.0
  0
INSERT
  2
*GRP_0026
  8
型材断面
  6
DOT
 10
0.0
 20
0.0
  0
LINE
  8
型材断面
  6
DOT
 10
-89.87619
 20
-61.876645
 11
-37.596497
 21
-61.876645
  0
LINE
  8
型材断面
  6
DOT
 10
-89.87619
 20
-61.54331
 11
-37.596497
 21
-61.54331
  0
LINE
  8
型材断面
  6
DOT
 10
-89.092857
 20
-61.44331
 11
-37.596497
 21
-61.44331
  0
LINE
  8
型材断面
  6
DOT
 10
-89.562857
 20
-61.037285
 11
-37.596497
 21
-61.037285
  0
LINE
  8
型材断面
  6
DOT
 10
-89.263162
 20
-58.270785
 11
-37.596497
 21
-58.270785
  0
LINE
  8
型材断面
  6
DOT
 10
-87.596495
 20
-57.037453
 11
-37.596497
 21
-57.037453
  0
LINE
  8
型材断面
  6
DOT
 10
-89.263162
 20
-57.770785
 11
-37.596497
 21
-57.770785
  0
LINE
  8
型材断面
  6
DOT
 10
-89.092857
 20
-58.753953
 11
-37.596497
 21
-58.753953
  0
LINE
  8
型材断面
  6
DOT
 10
-89.562857
 20
-59.203953
 11
-37.596497
 21
-59.203953
  0
ENDBLK
  0
BLOCK
  2
*GRP_0023
 70
    65
 10
0.0
 20
0.0
  0
INSERT
  2
M8横
  8
ゴム等
  6
DOT
 10
13.22986
 20
-58.63062
 50
180.0
 41
0.033333
 42
-0.033333
  0
LINE
  8
ボルト／ビス
  6
DOT
 10
13.096528
 20
-58.42062
 11
13.113192
 21
-58.403955
  0
LINE
  8
ボルト／ビス
  6
DOT
 10
13.346528
 20
-58.403955
 11
13.363192
 21
-58.42062
  0
LINE
  8
ボルト／ビス
  6
DOT
 10
13.363192
 20
-58.42062
 11
13.096528
 21
-58.42062
  0
LINE
  8
ボルト／ビス
  6
DOT
 10
13.346528
 20
-58.403955
 11
13.113192
 21
-58.403955
  0
LINE
  8
ボルト／ビス
  6
DOT
 10
13.113192
 20
-58.403955
 11
13.113192
 21
-58.447285
  0
LINE
  8
ボルト／ビス
  6
DOT
 10
13.096528
 20
-58.42062
 11
13.096528
 21
-58.447285
  0
LINE
  8
ボルト／ビス
  6
DOT
 10
13.363192
 20
-58.42062
 11
13.363192
 21
-58.447285
  0
LINE
  8
ボルト／ビス
  6
DOT
 10
13.346528
 20
-58.403955
 11
13.346528
 21
-58.447285
  0
LINE
  8
ボルト／ビス
  6
DOT
 10
13.596528
 20
-58.63062
 11
12.863192
 21
-58.63062
  0
LINE
  8
ボルト／ビス
  6
DOT
 10
12.813192
 20
-58.67062
 11
12.813192
 21
-58.753953
  0
LINE
  8
ボルト／ビス
  6
DOT
 10
12.813192
 20
-58.753953
 11
13.646528
 21
-58.753953
  0
LINE
  8
ボルト／ビス
  6
DOT
 10
13.646528
 20
-58.753953
 11
13.646528
 21
-58.67062
  0
LINE
  8
ボルト／ビス
  6
DOT
 10
12.813192
 20
-58.67062
 11
13.646528
 21
-58.67062
  0
LINE
  8
ボルト／ビス
  6
DOT
 10
13.596528
 20
-58.63062
 11
13.596528
 21
-58.67062
  0
LINE
  8
ボルト／ビス
  6
DOT
 10
12.863192
 20
-58.63062
 11
12.863192
 21
-58.67062
  0
LINE
  8
ボルト／ビス
  6
DOT
 10
13.22986
 20
-58.68062
 11
13.22986
 21
-58.63062
  0
ENDBLK
  0
BLOCK
  2
*GRP_0024
 70
    65
 10
0.0
 20
0.0
  0
LINE
  8
ボルト／ビス
  6
DOT
 10
13.436528
 20
-57.770785
 11
13.436528
 21
-57.70412
  0
LINE
  8
ボルト／ビス
  6
DOT
 10
13.436528
 20
-57.70412
 11
12.703195
 21
-57.70412
  0
LINE
  8
ボルト／ビス
  6
DOT
 10
12.703195
 20
-57.70412
 11
12.703195
 21
-57.770785
  0
LINE
  8
ボルト／ビス
  6
DOT
 10
13.436528
 20
-57.770785
 11
12.703195
 21
-57.770785
  0
LINE
  8
ボルト／ビス
  6
DOT
 10
13.369863
 20
-57.670785
 11
13.369863
 21
-57.70412
  0
LINE
  8
ボルト／ビス
  6
DOT
 10
13.369863
 20
-57.670785
 11
12.769863
 21
-57.670785
  0
LINE
  8
ボルト／ビス
  6
DOT
 10
12.769863
 20
-57.670785
 11
12.769863
 21
-57.70412
  0
LINE
  8
ボルト／ビス
  6
DOT
 62
    64
 10
13.230237
 20
-57.470785
 11
13.262313
 21
-57.48246
  0
ARC
  8
ボルト／ビス
  6
DOT
 62
    64
 10
13.214199
 20
-57.575764
 40
0.104978
 50
90.0
 51
117.278033
  0
ARC
  8
ボルト／ビス
  6
DOT
 62
    64
 10
13.069861
 20
-57.873188
 40
0.402402
 50
76.165015
 51
103.834998
  0
LINE
  8
ボルト／ビス
  6
DOT
 62
    64
 10
12.909488
 20
-57.470785
 11
12.877412
 21
-57.48246
  0
ARC
  8
ボルト／ビス
  6
DOT
 62
    64
 10
12.925523
 20
-57.575764
 40
0.104978
 50
62.721967
 51
90.0
  0
LINE
  8
ボルト／ビス
  6
DOT
 62
    64
 10
13.230237
 20
-57.470785
 11
12.909488
 21
-57.470785
  0
LINE
  8
ボルト／ビス
  6
DOT
 62
    64
 10
12.877412
 20
-57.48246
 11
12.877412
 21
-57.60412
  0
LINE
  8
ボルト／ビス
  6
DOT
 62
    64
 10
12.973638
 20
-57.48246
 11
12.973638
 21
-57.60412
  0
LINE
  8
ボルト／ビス
  6
DOT
 62
    64
 10
13.262313
 20
-57.48246
 11
13.262313
 21
-57.60412
  0
LINE
  8
ボルト／ビス
  6
DOT
 62
    64
 10
13.166087
 20
-57.48246
 11
13.166087
 21
-57.60412
  0
LINE
  8
ボルト／ビス
  6
DOT
 10
13.262313
 20
-57.60412
 11
12.877412
 21
-57.60412
  0
LINE
  8
ボルト／ビス
  6
DOT
 10
13.269863
 20
-57.60412
 11
13.269863
 21
-57.670785
  0
LINE
  8
ボルト／ビス
  6
DOT
 10
13.269863
 20
-57.60412
 11
12.869863
 21
-57.60412
  0
LINE
  8
ボルト／ビス
  6
DOT
 10
12.869863
 20
-57.60412
 11
12.869863
 21
-57.670785
  0
ENDBLK
  0
BLOCK
  2
*GRP_0025
 70
    65
 10
0.0
 20
0.0
  0
INSERT
  2
M8横
  8
ゴム等
  6
DOT
 10
-88.422855
 20
-58.63062
 41
0.033333
 42
0.033333
  0
LINE
  8
ボルト／ビス
  6
DOT
 10
-88.289523
 20
-58.42062
 11
-88.306188
 21
-58.403955
  0
LINE
  8
ボルト／ビス
  6
DOT
 10
-88.539523
 20
-58.403955
 11
-88.556188
 21
-58.42062
  0
LINE
  8
ボルト／ビス
  6
DOT
 10
-88.556188
 20
-58.42062
 11
-88.289523
 21
-58.42062
  0
LINE
  8
ボルト／ビス
  6
DOT
 10
-88.539523
 20
-58.403955
 11
-88.306188
 21
-58.403955
  0
LINE
  8
ボルト／ビス
  6
DOT
 10
-88.306188
 20
-58.403955
 11
-88.306188
 21
-58.447285
  0
LINE
  8
ボルト／ビス
  6
DOT
 10
-88.289523
 20
-58.42062
 11
-88.289523
 21
-58.447285
  0
LINE
  8
ボルト／ビス
  6
DOT
 10
-88.556188
 20
-58.42062
 11
-88.556188
 21
-58.447285
  0
LINE
  8
ボルト／ビス
  6
DOT
 10
-88.539523
 20
-58.403955
 11
-88.539523
 21
-58.447285
  0
LINE
  8
ボルト／ビス
  6
DOT
 10
-88.789523
 20
-58.63062
 11
-88.056188
 21
-58.63062
  0
LINE
  8
ボルト／ビス
  6
DOT
 10
-88.006188
 20
-58.67062
 11
-88.006188
 21
-58.753953
  0
LINE
  8
ボルト／ビス
  6
DOT
 10
-88.006188
 20
-58.753953
 11
-88.839523
 21
-58.753953
  0
LINE
  8
ボルト／ビス
  6
DOT
 10
-88.839523
 20
-58.753953
 11
-88.839523
 21
-58.67062
  0
LINE
  8
ボルト／ビス
  6
DOT
 10
-88.006188
 20
-58.67062
 11
-88.839523
 21
-58.67062
  0
LINE
  8
ボルト／ビス
  6
DOT
 10
-88.789523
 20
-58.63062
 11
-88.789523
 21
-58.67062
  0
LINE
  8
ボルト／ビス
  6
DOT
 10
-88.056188
 20
-58.63062
 11
-88.056188
 21
-58.67062
  0
LINE
  8
ボルト／ビス
  6
DOT
 10
-88.422855
 20
-58.68062
 11
-88.422855
 21
-58.63062
  0
ENDBLK
  0
BLOCK
  2
*GRP_0026
 70
    65
 10
0.0
 20
0.0
  0
LINE
  8
ボルト／ビス
  6
DOT
 10
-88.629522
 20
-57.770785
 11
-88.629522
 21
-57.70412
  0
LINE
  8
ボルト／ビス
  6
DOT
 10
-88.629522
 20
-57.70412
 11
-87.89619
 21
-57.70412
  0
LINE
  8
ボルト／ビス
  6
DOT
 10
-87.89619
 20
-57.70412
 11
-87.89619
 21
-57.770785
  0
LINE
  8
ボルト／ビス
  6
DOT
 10
-88.629522
 20
-57.770785
 11
-87.89619
 21
-57.770785
  0
LINE
  8
ボルト／ビス
  6
DOT
 10
-88.562857
 20
-57.670785
 11
-88.562857
 21
-57.70412
  0
LINE
  8
ボルト／ビス
  6
DOT
 10
-88.562857
 20
-57.670785
 11
-87.962857
 21
-57.670785
  0
LINE
  8
ボルト／ビス
  6
DOT
 10
-87.962857
 20
-57.670785
 11
-87.962857
 21
-57.70412
  0
LINE
  8
ボルト／ビス
  6
DOT
 62
    64
 10
-88.423232
 20
-57.470785
 11
-88.455307
 21
-57.48246
  0
ARC
  8
ボルト／ビス
  6
DOT
 62
    64
 10
-88.407195
 20
-57.575764
 40
0.104978
 50
62.721967
 51
90.0
  0
ARC
  8
ボルト／ビス
  6
DOT
 62
    64
 10
-88.262858
 20
-57.873188
 40
0.402402
 50
76.165002
 51
103.834985
  0
LINE
  8
ボルト／ビス
  6
DOT
 62
    64
 10
-88.102483
 20
-57.470785
 11
-88.070407
 21
-57.48246
  0
ARC
  8
ボルト／ビス
  6
DOT
 62
    64
 10
-88.11852
 20
-57.575764
 40
0.104978
 50
90.0
 51
117.278033
  0
LINE
  8
ボルト／ビス
  6
DOT
 62
    64
 10
-88.423232
 20
-57.470785
 11
-88.102483
 21
-57.470785
  0
LINE
  8
ボルト／ビス
  6
DOT
 62
    64
 10
-88.070407
 20
-57.48246
 11
-88.070407
 21
-57.60412
  0
LINE
  8
ボルト／ビス
  6
DOT
 62
    64
 10
-88.166633
 20
-57.48246
 11
-88.166633
 21
-57.60412
  0
LINE
  8
ボルト／ビス
  6
DOT
 62
    64
 10
-88.455307
 20
-57.48246
 11
-88.455307
 21
-57.60412
  0
LINE
  8
ボルト／ビス
  6
DOT
 62
    64
 10
-88.359083
 20
-57.48246
 11
-88.359083
 21
-57.60412
  0
LINE
  8
ボルト／ビス
  6
DOT
 10
-88.455307
 20
-57.60412
 11
-88.070407
 21
-57.60412
  0
LINE
  8
ボルト／ビス
  6
DOT
 10
-88.462857
 20
-57.60412
 11
-88.462857
 21
-57.670785
  0
LINE
  8
ボルト／ビス
  6
DOT
 10
-88.462857
 20
-57.60412
 11
-88.062857
 21
-57.60412
  0
LINE
  8
ボルト／ビス
  6
DOT
 10
-88.062857
 20
-57.60412
 11
-88.062857
 21
-57.670785
  0
ENDBLK
  0
BLOCK
  2
*DIM_0027
 70
    65
 10
0.0
 20
0.0
  0
LINE
  8
寸法
  6
CONTINUOUS
 10
17.4035
 20
-68.70412
 11
36.021973
 21
-68.70412
  0
LINE
  8
寸法
  6
CONTINUOUS
 10
17.4035
 20
-57.037453
 11
36.021973
 21
-57.037453
  0
LINE
  8
寸法
  6
CONTINUOUS
 10
36.021973
 20
-68.70412
 11
36.021973
 21
-57.037453
  0
POINT
  8
寸法
 10
36.021973
 20
-68.70412
  0
POINT
  8
寸法
 10
36.021973
 20
-57.037453
  0
TEXT
  7
TextStyle03
  8
寸法
  6
CONTINUOUS
 10
39.0
 20
-71.96875
  1
上昇282以上
 40
3.0
 50
90.0
 72
     5
 11
39.0
 21
-53.78125
  0
ENDBLK
  0
BLOCK
  2
*GRP_0028
 70
    65
 10
0.0
 20
0.0
  0
LINE
  8
補助線
  6
BYBLOCK
 62
    64
 10
-84.199733
 20
-74.29382
 11
-84.327218
 21
-74.40118
  0
LINE
  8
補助線
  6
BYBLOCK
 62
    64
 10
-84.317155
 20
-74.283755
 11
-84.209795
 21
-74.411243
  0
LINE
  8
補助線
  6
BYBLOCK
 62
    64
 10
-75.709315
 20
-67.143797
 11
-75.8368
 21
-67.251152
  0
LINE
  8
補助線
  6
BYBLOCK
 62
    64
 10
-75.826738
 20
-67.133733
 11
-75.719377
 21
-67.261215
  0
LINE
  8
補助線
  6
BYBLOCK
 62
    64
 10
-67.34638
 20
-60.101127
 11
-67.218897
 21
-59.99377
  0
LINE
  8
補助線
  6
BYBLOCK
 62
    64
 10
-67.33632
 20
-59.983705
 11
-67.22896
 21
-60.111193
  0
LINE
  8
型材断面
  6
CONTINUOUS
 10
-85.05523
 20
-73.924798
 11
-85.115607
 21
-74.629323
  0
LINE
  8
型材断面
  6
CONTINUOUS
 10
-85.115607
 20
-74.629323
 11
-84.686175
 21
-75.139257
  0
LINE
  8
型材断面
  6
CONTINUOUS
 10
-84.686175
 20
-75.139257
 11
-83.98165
 21
-75.199635
  0
LINE
  8
型材断面
  6
CONTINUOUS
 10
-67.564462
 20
-59.195317
 11
-66.859937
 21
-59.255695
  0
LINE
  8
型材断面
  6
CONTINUOUS
 10
-66.859937
 20
-59.255695
 11
-66.430505
 21
-59.76563
  0
LINE
  8
型材断面
  6
CONTINUOUS
 10
-66.430505
 20
-59.76563
 11
-66.490883
 21
-60.470155
  0
LINE
  8
型材断面
  6
CONTINUOUS
 10
-85.05523
 20
-73.924798
 11
-67.564462
 21
-59.195317
  0
LINE
  8
型材断面
  6
CONTINUOUS
 10
-83.98165
 20
-75.199635
 11
-66.490883
 21
-60.470155
  0
CIRCLE
  8
ボルト／ビス
  6
CONTINUOUS
 10
-84.263475
 20
-74.3475
 40
0.250185
  0
CIRCLE
  8
ボルト／ビス
  6
CONTINUOUS
 10
-84.263475
 20
-74.3475
 40
0.301025
  0
LINE
  8
ボルト／ビス
  6
CONTINUOUS
 62
    64
 10
-84.509782
 20
-74.391382
 11
-84.42463
 21
-74.156135
  0
LINE
  8
ボルト／ビス
  6
CONTINUOUS
 62
    64
 10
-84.178323
 20
-74.11225
 11
-84.42463
 21
-74.156135
  0
LINE
  8
ボルト／ビス
  6
CONTINUOUS
 62
    64
 10
-84.348628
 20
-74.58275
 11
-84.10232
 21
-74.538865
  0
LINE
  8
ボルト／ビス
  6
CONTINUOUS
 62
    64
 10
-84.017167
 20
-74.303618
 11
-84.10232
 21
-74.538865
  0
LINE
  8
ボルト／ビス
  6
CONTINUOUS
 62
    64
 10
-84.509782
 20
-74.391382
 11
-84.348628
 21
-74.58275
  0
LINE
  8
ボルト／ビス
  6
CONTINUOUS
 62
    64
 10
-84.178323
 20
-74.11225
 11
-84.017167
 21
-74.303618
  0
CIRCLE
  8
ボルト／ビス
  6
CONTINUOUS
 62
    64
 10
-84.263475
 20
-74.3475
 40
0.216668
  0
CIRCLE
  8
ボルト／ビス
  6
CONTINUOUS
 10
-75.773057
 20
-67.197475
 40
0.250185
  0
CIRCLE
  8
ボルト／ビス
  6
CONTINUOUS
 10
-75.773057
 20
-67.197475
 40
0.301025
  0
LINE
  8
ボルト／ビス
  6
CONTINUOUS
 62
    64
 10
-76.019365
 20
-67.241357
 11
-75.934213
 21
-67.006107
  0
LINE
  8
ボルト／ビス
  6
CONTINUOUS
 62
    64
 10
-75.687905
 20
-66.962225
 11
-75.934213
 21
-67.006107
  0
LINE
  8
ボルト／ビス
  6
CONTINUOUS
 62
    64
 10
-75.85821
 20
-67.432725
 11
-75.6119
 21
-67.388843
  0
LINE
  8
ボルト／ビス
  6
CONTINUOUS
 62
    64
 10
-75.52675
 20
-67.153595
 11
-75.6119
 21
-67.388843
  0
LINE
  8
ボルト／ビス
  6
CONTINUOUS
 62
    64
 10
-76.019365
 20
-67.241357
 11
-75.85821
 21
-67.432725
  0
LINE
  8
ボルト／ビス
  6
CONTINUOUS
 62
    64
 10
-75.687905
 20
-66.962225
 11
-75.52675
 21
-67.153595
  0
CIRCLE
  8
ボルト／ビス
  6
CONTINUOUS
 62
    64
 10
-75.773057
 20
-67.197475
 40
0.216668
  0
CIRCLE
  8
ボルト／ビス
  6
CONTINUOUS
 10
-67.282637
 20
-60.04745
 40
0.250185
  0
CIRCLE
  8
ボルト／ビス
  6
CONTINUOUS
 10
-67.282637
 20
-60.04745
 40
0.301025
  0
LINE
  8
ボルト／ビス
  6
CONTINUOUS
 62
    64
 10
-67.197485
 20
-59.8122
 11
-67.443795
 21
-59.856085
  0
LINE
  8
ボルト／ビス
  6
CONTINUOUS
 62
    64
 10
-67.528947
 20
-60.091333
 11
-67.443795
 21
-59.856085
  0
LINE
  8
ボルト／ビス
  6
CONTINUOUS
 62
    64
 10
-67.036333
 20
-60.003568
 11
-67.121482
 21
-60.238815
  0
LINE
  8
ボルト／ビス
  6
CONTINUOUS
 62
    64
 10
-67.367792
 20
-60.2827
 11
-67.121482
 21
-60.238815
  0
LINE
  8
ボルト／ビス
  6
CONTINUOUS
 62
    64
 10
-67.197485
 20
-59.8122
 11
-67.036333
 21
-60.003568
  0
LINE
  8
ボルト／ビス
  6
CONTINUOUS
 62
    64
 10
-67.528947
 20
-60.091333
 11
-67.367792
 21
-60.2827
  0
CIRCLE
  8
ボルト／ビス
  6
CONTINUOUS
 62
    64
 10
-67.282637
 20
-60.04745
 40
0.216668
  0
ENDBLK
  0
BLOCK
  2
*GRP_0029
 70
    65
 10
0.0
 20
0.0
  0
LINE
  8
補助線
  6
BYBLOCK
 62
    64
 10
-67.346382
 20
-74.29382
 11
-67.218897
 21
-74.40118
  0
LINE
  8
補助線
  6
BYBLOCK
 62
    64
 10
-67.22896
 20
-74.283755
 11
-67.33632
 21
-74.411243
  0
LINE
  8
補助線
  6
BYBLOCK
 62
    64
 10
-75.8368
 20
-67.143797
 11
-75.709315
 21
-67.251152
  0
LINE
  8
補助線
  6
BYBLOCK
 62
    64
 10
-75.719377
 20
-67.133733
 11
-75.826738
 21
-67.261215
  0
LINE
  8
補助線
  6
BYBLOCK
 62
    64
 10
-84.199735
 20
-60.101127
 11
-84.327218
 21
-59.99377
  0
LINE
  8
補助線
  6
BYBLOCK
 62
    64
 10
-84.209795
 20
-59.983705
 11
-84.317155
 21
-60.111193
  0
LINE
  8
型材断面
  6
CONTINUOUS
 10
-66.490885
 20
-73.924798
 11
-66.430508
 21
-74.629323
  0
LINE
  8
型材断面
  6
CONTINUOUS
 10
-66.430508
 20
-74.629323
 11
-66.85994
 21
-75.139257
  0
LINE
  8
型材断面
  6
CONTINUOUS
 10
-66.85994
 20
-75.139257
 11
-67.564465
 21
-75.199635
  0
LINE
  8
型材断面
  6
CONTINUOUS
 10
-83.981653
 20
-59.195317
 11
-84.686178
 21
-59.255695
  0
LINE
  8
型材断面
  6
CONTINUOUS
 10
-84.686178
 20
-59.255695
 11
-85.11561
 21
-59.76563
  0
LINE
  8
型材断面
  6
CONTINUOUS
 10
-85.11561
 20
-59.76563
 11
-85.055232
 21
-60.470155
  0
LINE
  8
型材断面
  6
CONTINUOUS
 10
-66.490885
 20
-73.924798
 11
-83.981653
 21
-59.195317
  0
LINE
  8
型材断面
  6
CONTINUOUS
 10
-67.564465
 20
-75.199635
 11
-85.055232
 21
-60.470155
  0
CIRCLE
  8
ボルト／ビス
  6
CONTINUOUS
 10
-67.28264
 20
-74.3475
 40
0.250185
  0
CIRCLE
  8
ボルト／ビス
  6
CONTINUOUS
 10
-67.28264
 20
-74.3475
 40
0.301025
  0
LINE
  8
ボルト／ビス
  6
CONTINUOUS
 62
    64
 10
-67.036333
 20
-74.391382
 11
-67.121485
 21
-74.156135
  0
LINE
  8
ボルト／ビス
  6
CONTINUOUS
 62
    64
 10
-67.367792
 20
-74.11225
 11
-67.121485
 21
-74.156135
  0
LINE
  8
ボルト／ビス
  6
CONTINUOUS
 62
    64
 10
-67.197487
 20
-74.58275
 11
-67.443795
 21
-74.538865
  0
LINE
  8
ボルト／ビス
  6
CONTINUOUS
 62
    64
 10
-67.528947
 20
-74.303618
 11
-67.443795
 21
-74.538865
  0
LINE
  8
ボルト／ビス
  6
CONTINUOUS
 62
    64
 10
-67.036333
 20
-74.391382
 11
-67.197487
 21
-74.58275
  0
LINE
  8
ボルト／ビス
  6
CONTINUOUS
 62
    64
 10
-67.367792
 20
-74.11225
 11
-67.528947
 21
-74.303618
  0
CIRCLE
  8
ボルト／ビス
  6
CONTINUOUS
 62
    64
 10
-67.28264
 20
-74.3475
 40
0.216668
  0
CIRCLE
  8
ボルト／ビス
  6
CONTINUOUS
 10
-75.773057
 20
-67.197475
 40
0.250185
  0
CIRCLE
  8
ボルト／ビス
  6
CONTINUOUS
 10
-75.773057
 20
-67.197475
 40
0.301025
  0
LINE
  8
ボルト／ビス
  6
CONTINUOUS
 62
    64
 10
-75.52675
 20
-67.241357
 11
-75.611902
 21
-67.006107
  0
LINE
  8
ボルト／ビス
  6
CONTINUOUS
 62
    64
 10
-75.85821
 20
-66.962225
 11
-75.611902
 21
-67.006107
  0
LINE
  8
ボルト／ビス
  6
CONTINUOUS
 62
    64
 10
-75.687905
 20
-67.432725
 11
-75.934215
 21
-67.388843
  0
LINE
  8
ボルト／ビス
  6
CONTINUOUS
 62
    64
 10
-76.019365
 20
-67.153595
 11
-75.934215
 21
-67.388843
  0
LINE
  8
ボルト／ビス
  6
CONTINUOUS
 62
    64
 10
-75.52675
 20
-67.241357
 11
-75.687905
 21
-67.432725
  0
LINE
  8
ボルト／ビス
  6
CONTINUOUS
 62
    64
 10
-75.85821
 20
-66.962225
 11
-76.019365
 21
-67.153595
  0
CIRCLE
  8
ボルト／ビス
  6
CONTINUOUS
 62
    64
 10
-75.773057
 20
-67.197475
 40
0.216668
  0
CIRCLE
  8
ボルト／ビス
  6
CONTINUOUS
 10
-84.263478
 20
-60.04745
 40
0.250185
  0
CIRCLE
  8
ボルト／ビス
  6
CONTINUOUS
 10
-84.263478
 20
-60.04745
 40
0.301025
  0
LINE
  8
ボルト／ビス
  6
CONTINUOUS
 62
    64
 10
-84.34863
 20
-59.8122
 11
-84.10232
 21
-59.856085
  0
LINE
  8
ボルト／ビス
  6
CONTINUOUS
 62
    64
 10
-84.017167
 20
-60.091333
 11
-84.10232
 21
-59.856085
  0
LINE
  8
ボルト／ビス
  6
CONTINUOUS
 62
    64
 10
-84.509782
 20
-60.003568
 11
-84.424633
 21
-60.238815
  0
LINE
  8
ボルト／ビス
  6
CONTINUOUS
 62
    64
 10
-84.178323
 20
-60.2827
 11
-84.424633
 21
-60.238815
  0
LINE
  8
ボルト／ビス
  6
CONTINUOUS
 62
    64
 10
-84.34863
 20
-59.8122
 11
-84.509782
 21
-60.003568
  0
LINE
  8
ボルト／ビス
  6
CONTINUOUS
 62
    64
 10
-84.017167
 20
-60.091333
 11
-84.178323
 21
-60.2827
  0
CIRCLE
  8
ボルト／ビス
  6
CONTINUOUS
 62
    64
 10
-84.263478
 20
-60.04745
 40
0.216668
  0
ENDBLK
  0
BLOCK
  2
*GRP_0030
 70
    65
 10
0.0
 20
0.0
  0
LINE
  8
補助線
  6
BYBLOCK
 62
    64
 10
9.006118
 20
-74.29382
 11
9.133603
 21
-74.40118
  0
LINE
  8
補助線
  6
BYBLOCK
 62
    64
 10
9.12354
 20
-74.283755
 11
9.01618
 21
-74.411243
  0
LINE
  8
補助線
  6
BYBLOCK
 62
    64
 10
0.5157
 20
-67.143797
 11
0.643185
 21
-67.251152
  0
LINE
  8
補助線
  6
BYBLOCK
 62
    64
 10
0.633122
 20
-67.133733
 11
0.525763
 21
-67.261215
  0
LINE
  8
補助線
  6
BYBLOCK
 62
    64
 10
-7.847235
 20
-60.101127
 11
-7.974718
 21
-59.99377
  0
LINE
  8
補助線
  6
BYBLOCK
 62
    64
 10
-7.857295
 20
-59.983705
 11
-7.964655
 21
-60.111193
  0
LINE
  8
型材断面
  6
CONTINUOUS
 10
9.861615
 20
-73.924798
 11
9.921992
 21
-74.629323
  0
LINE
  8
型材断面
  6
CONTINUOUS
 10
9.921992
 20
-74.629323
 11
9.49256
 21
-75.139257
  0
LINE
  8
型材断面
  6
CONTINUOUS
 10
9.49256
 20
-75.139257
 11
8.788035
 21
-75.199635
  0
LINE
  8
型材断面
  6
CONTINUOUS
 10
-7.629152
 20
-59.195317
 11
-8.333677
 21
-59.255695
  0
LINE
  8
型材断面
  6
CONTINUOUS
 10
-8.333677
 20
-59.255695
 11
-8.76311
 21
-59.76563
  0
LINE
  8
型材断面
  6
CONTINUOUS
 10
-8.76311
 20
-59.76563
 11
-8.702733
 21
-60.470155
  0
LINE
  8
型材断面
  6
CONTINUOUS
 10
9.861615
 20
-73.924798
 11
-7.629152
 21
-59.195317
  0
LINE
  8
型材断面
  6
CONTINUOUS
 10
8.788035
 20
-75.199635
 11
-8.702733
 21
-60.470155
  0
CIRCLE
  8
ボルト／ビス
  6
CONTINUOUS
 10
9.06986
 20
-74.3475
 40
0.250185
  0
CIRCLE
  8
ボルト／ビス
  6
CONTINUOUS
 10
9.06986
 20
-74.3475
 40
0.301025
  0
LINE
  8
ボルト／ビス
  6
CONTINUOUS
 62
    64
 10
9.316167
 20
-74.391382
 11
9.231015
 21
-74.156135
  0
LINE
  8
ボルト／ビス
  6
CONTINUOUS
 62
    64
 10
8.984707
 20
-74.11225
 11
9.231015
 21
-74.156135
  0
LINE
  8
ボルト／ビス
  6
CONTINUOUS
 62
    64
 10
9.155012
 20
-74.58275
 11
8.908705
 21
-74.538865
  0
LINE
  8
ボルト／ビス
  6
CONTINUOUS
 62
    64
 10
8.823553
 20
-74.303618
 11
8.908705
 21
-74.538865
  0
LINE
  8
ボルト／ビス
  6
CONTINUOUS
 62
    64
 10
9.316167
 20
-74.391382
 11
9.155012
 21
-74.58275
  0
LINE
  8
ボルト／ビス
  6
CONTINUOUS
 62
    64
 10
8.984707
 20
-74.11225
 11
8.823553
 21
-74.303618
  0
CIRCLE
  8
ボルト／ビス
  6
CONTINUOUS
 62
    64
 10
9.06986
 20
-74.3475
 40
0.216668
  0
CIRCLE
  8
ボルト／ビス
  6
CONTINUOUS
 10
0.579443
 20
-67.197475
 40
0.250185
  0
CIRCLE
  8
ボルト／ビス
  6
CONTINUOUS
 10
0.579443
 20
-67.197475
 40
0.301025
  0
LINE
  8
ボルト／ビス
  6
CONTINUOUS
 62
    64
 10
0.82575
 20
-67.241357
 11
0.740597
 21
-67.006107
  0
LINE
  8
ボルト／ビス
  6
CONTINUOUS
 62
    64
 10
0.49429
 20
-66.962225
 11
0.740597
 21
-67.006107
  0
LINE
  8
ボルト／ビス
  6
CONTINUOUS
 62
    64
 10
0.664595
 20
-67.432725
 11
0.418285
 21
-67.388843
  0
LINE
  8
ボルト／ビス
  6
CONTINUOUS
 62
    64
 10
0.333135
 20
-67.153595
 11
0.418285
 21
-67.388843
  0
LINE
  8
ボルト／ビス
  6
CONTINUOUS
 62
    64
 10
0.82575
 20
-67.241357
 11
0.664595
 21
-67.432725
  0
LINE
  8
ボルト／ビス
  6
CONTINUOUS
 62
    64
 10
0.49429
 20
-66.962225
 11
0.333135
 21
-67.153595
  0
CIRCLE
  8
ボルト／ビス
  6
CONTINUOUS
 62
    64
 10
0.579443
 20
-67.197475
 40
0.216668
  0
CIRCLE
  8
ボルト／ビス
  6
CONTINUOUS
 10
-7.910977
 20
-60.04745
 40
0.250185
  0
CIRCLE
  8
ボルト／ビス
  6
CONTINUOUS
 10
-7.910977
 20
-60.04745
 40
0.301025
  0
LINE
  8
ボルト／ビス
  6
CONTINUOUS
 62
    64
 10
-7.99613
 20
-59.8122
 11
-7.74982
 21
-59.856085
  0
LINE
  8
ボルト／ビス
  6
CONTINUOUS
 62
    64
 10
-7.664667
 20
-60.091333
 11
-7.74982
 21
-59.856085
  0
LINE
  8
ボルト／ビス
  6
CONTINUOUS
 62
    64
 10
-8.157283
 20
-60.003568
 11
-8.072133
 21
-60.238815
  0
LINE
  8
ボルト／ビス
  6
CONTINUOUS
 62
    64
 10
-7.825822
 20
-60.2827
 11
-8.072133
 21
-60.238815
  0
LINE
  8
ボルト／ビス
  6
CONTINUOUS
 62
    64
 10
-7.99613
 20
-59.8122
 11
-8.157283
 21
-60.003568
  0
LINE
  8
ボルト／ビス
  6
CONTINUOUS
 62
    64
 10
-7.664667
 20
-60.091333
 11
-7.825822
 21
-60.2827
  0
CIRCLE
  8
ボルト／ビス
  6
CONTINUOUS
 62
    64
 10
-7.910977
 20
-60.04745
 40
0.216668
  0
ENDBLK
  0
BLOCK
  2
*GRP_0031
 70
    65
 10
0.0
 20
0.0
  0
LINE
  8
補助線
  6
BYBLOCK
 62
    64
 10
-7.847232
 20
-74.29382
 11
-7.974718
 21
-74.40118
  0
LINE
  8
補助線
  6
BYBLOCK
 62
    64
 10
-7.964655
 20
-74.283755
 11
-7.857295
 21
-74.411243
  0
LINE
  8
補助線
  6
BYBLOCK
 62
    64
 10
0.643185
 20
-67.143797
 11
0.5157
 21
-67.251152
  0
LINE
  8
補助線
  6
BYBLOCK
 62
    64
 10
0.525763
 20
-67.133733
 11
0.633122
 21
-67.261215
  0
LINE
  8
補助線
  6
BYBLOCK
 62
    64
 10
9.00612
 20
-60.101127
 11
9.133603
 21
-59.99377
  0
LINE
  8
補助線
  6
BYBLOCK
 62
    64
 10
9.01618
 20
-59.983705
 11
9.12354
 21
-60.111193
  0
LINE
  8
型材断面
  6
CONTINUOUS
 10
-8.70273
 20
-73.924798
 11
-8.763108
 21
-74.629323
  0
LINE
  8
型材断面
  6
CONTINUOUS
 10
-8.763108
 20
-74.629323
 11
-8.333675
 21
-75.139257
  0
LINE
  8
型材断面
  6
CONTINUOUS
 10
-8.333675
 20
-75.139257
 11
-7.62915
 21
-75.199635
  0
LINE
  8
型材断面
  6
CONTINUOUS
 10
8.788038
 20
-59.195317
 11
9.492562
 21
-59.255695
  0
LINE
  8
型材断面
  6
CONTINUOUS
 10
9.492562
 20
-59.255695
 11
9.921995
 21
-59.76563
  0
LINE
  8
型材断面
  6
CONTINUOUS
 10
9.921995
 20
-59.76563
 11
9.861617
 21
-60.470155
  0
LINE
  8
型材断面
  6
CONTINUOUS
 10
-8.70273
 20
-73.924798
 11
8.788038
 21
-59.195317
  0
LINE
  8
型材断面
  6
CONTINUOUS
 10
-7.62915
 20
-75.199635
 11
9.861617
 21
-60.470155
  0
CIRCLE
  8
ボルト／ビス
  6
CONTINUOUS
 10
-7.910975
 20
-74.3475
 40
0.250185
  0
CIRCLE
  8
ボルト／ビス
  6
CONTINUOUS
 10
-7.910975
 20
-74.3475
 40
0.301025
  0
LINE
  8
ボルト／ビス
  6
CONTINUOUS
 62
    64
 10
-8.157283
 20
-74.391382
 11
-8.07213
 21
-74.156135
  0
LINE
  8
ボルト／ビス
  6
CONTINUOUS
 62
    64
 10
-7.825822
 20
-74.11225
 11
-8.07213
 21
-74.156135
  0
LINE
  8
ボルト／ビス
  6
CONTINUOUS
 62
    64
 10
-7.996127
 20
-74.58275
 11
-7.74982
 21
-74.538865
  0
LINE
  8
ボルト／ビス
  6
CONTINUOUS
 62
    64
 10
-7.664667
 20
-74.303618
 11
-7.74982
 21
-74.538865
  0
LINE
  8
ボルト／ビス
  6
CONTINUOUS
 62
    64
 10
-8.157283
 20
-74.391382
 11
-7.996127
 21
-74.58275
  0
LINE
  8
ボルト／ビス
  6
CONTINUOUS
 62
    64
 10
-7.825822
 20
-74.11225
 11
-7.664667
 21
-74.303618
  0
CIRCLE
  8
ボルト／ビス
  6
CONTINUOUS
 62
    64
 10
-7.910975
 20
-74.3475
 40
0.216668
  0
CIRCLE
  8
ボルト／ビス
  6
CONTINUOUS
 10
0.579443
 20
-67.197475
 40
0.250185
  0
CIRCLE
  8
ボルト／ビス
  6
CONTINUOUS
 10
0.579443
 20
-67.197475
 40
0.301025
  0
LINE
  8
ボルト／ビス
  6
CONTINUOUS
 62
    64
 10
0.333135
 20
-67.241357
 11
0.418288
 21
-67.006107
  0
LINE
  8
ボルト／ビス
  6
CONTINUOUS
 62
    64
 10
0.664595
 20
-66.962225
 11
0.418288
 21
-67.006107
  0
LINE
  8
ボルト／ビス
  6
CONTINUOUS
 62
    64
 10
0.49429
 20
-67.432725
 11
0.7406
 21
-67.388843
  0
LINE
  8
ボルト／ビス
  6
CONTINUOUS
 62
    64
 10
0.82575
 20
-67.153595
 11
0.7406
 21
-67.388843
  0
LINE
  8
ボルト／ビス
  6
CONTINUOUS
 62
    64
 10
0.333135
 20
-67.241357
 11
0.49429
 21
-67.432725
  0
LINE
  8
ボルト／ビス
  6
CONTINUOUS
 62
    64
 10
0.664595
 20
-66.962225
 11
0.82575
 21
-67.153595
  0
CIRCLE
  8
ボルト／ビス
  6
CONTINUOUS
 62
    64
 10
0.579443
 20
-67.197475
 40
0.216668
  0
CIRCLE
  8
ボルト／ビス
  6
CONTINUOUS
 10
9.069863
 20
-60.04745
 40
0.250185
  0
CIRCLE
  8
ボルト／ビス
  6
CONTINUOUS
 10
9.069863
 20
-60.04745
 40
0.301025
  0
LINE
  8
ボルト／ビス
  6
CONTINUOUS
 62
    64
 10
9.155015
 20
-59.8122
 11
8.908705
 21
-59.856085
  0
LINE
  8
ボルト／ビス
  6
CONTINUOUS
 62
    64
 10
8.823553
 20
-60.091333
 11
8.908705
 21
-59.856085
  0
LINE
  8
ボルト／ビス
  6
CONTINUOUS
 62
    64
 10
9.316167
 20
-60.003568
 11
9.231018
 21
-60.238815
  0
LINE
  8
ボルト／ビス
  6
CONTINUOUS
 62
    64
 10
8.984707
 20
-60.2827
 11
9.231018
 21
-60.238815
  0
LINE
  8
ボルト／ビス
  6
CONTINUOUS
 62
    64
 10
9.155015
 20
-59.8122
 11
9.316167
 21
-60.003568
  0
LINE
  8
ボルト／ビス
  6
CONTINUOUS
 62
    64
 10
8.823553
 20
-60.091333
 11
8.984707
 21
-60.2827
  0
CIRCLE
  8
ボルト／ビス
  6
CONTINUOUS
 62
    64
 10
9.069863
 20
-60.04745
 40
0.216668
  0
ENDBLK
  0
BLOCK
  2
*DIM_0032
 70
    65
 10
0.0
 20
0.0
  0
LINE
  8
寸法
  6
CONTINUOUS
 10
120.737322
 20
-40.824848
 11
120.737322
 21
-32.022785
  0
LINE
  8
寸法
  6
CONTINUOUS
 10
152.950655
 20
-40.824848
 11
152.950655
 21
-32.022785
  0
LINE
  8
寸法
  6
CONTINUOUS
 10
120.737322
 20
-32.022785
 11
152.950655
 21
-32.022785
  0
POINT
  8
寸法
 10
120.737322
 20
-32.022785
  0
POINT
  8
寸法
 10
152.950655
 20
-32.022785
  0
TEXT
  7
TextStyle03
  8
寸法
  6
CONTINUOUS
 10
132.7
 20
-31.65
  1
966.4
 40
3.0
 72
     5
 11
140.95
 21
-31.65
  0
ENDBLK
  0
BLOCK
  2
*DIM_0033
 70
    65
 10
0.0
 20
0.0
  0
LINE
  8
寸法
  6
CONTINUOUS
 10
157.950655
 20
-45.824848
 11
169.268347
 21
-45.824848
  0
LINE
  8
寸法
  6
CONTINUOUS
 10
157.950655
 20
-75.158183
 11
169.268347
 21
-75.158183
  0
LINE
  8
寸法
  6
CONTINUOUS
 10
169.268347
 20
-45.824848
 11
169.268347
 21
-75.158183
  0
POINT
  8
寸法
 10
169.268347
 20
-45.824848
  0
POINT
  8
寸法
 10
169.268347
 20
-75.158183
  0
TEXT
  7
TextStyle03
  8
寸法
  6
CONTINUOUS
 10
168.875
 20
-62.9375
  1
880
 40
3.0
 50
90.0
 72
     5
 11
168.875
 21
-58.0625
  0
ENDBLK
  0
BLOCK
  2
*DIM_0034
 70
    65
 10
0.0
 20
0.0
  0
LINE
  8
寸法
  6
CONTINUOUS
 10
14.683195
 20
-68.209977
 11
14.683195
 21
-32.437345
  0
LINE
  8
寸法
  6
CONTINUOUS
 10
12.4035
 20
-32.437345
 11
14.683195
 21
-32.437345
  0
POINT
  8
寸法
 10
12.4035
 20
-32.437345
  0
POINT
  8
寸法
 10
14.683195
 20
-32.437345
  0
TEXT
  7
TextStyle03
  8
寸法
  6
CONTINUOUS
 10
16.99375
 20
-32.075
  1
68.4
 40
3.0
 72
     5
 11
23.55625
 21
-32.075
  0
ENDBLK
  0
BLOCK
  2
*DIM_0035
 70
    65
 10
0.0
 20
0.0
  0
LINE
  8
寸法
  6
CONTINUOUS
 10
-89.87619
 20
-68.209977
 11
-89.87619
 21
-32.437345
  0
LINE
  8
寸法
  6
CONTINUOUS
 10
-87.596495
 20
-32.437345
 11
-89.87619
 21
-32.437345
  0
POINT
  8
寸法
 10
-87.596495
 20
-32.437345
  0
POINT
  8
寸法
 10
-89.87619
 20
-32.437345
  0
TEXT
  7
TextStyle03
  8
寸法
  6
CONTINUOUS
 10
-98.78125
 20
-32.075
  1
68.4
 40
3.0
 72
     5
 11
-92.21875
 21
-32.075
  0
ENDBLK
  0
BLOCK
  2
*DIM_0036
 70
    65
 10
0.0
 20
0.0
  0
LINE
  8
寸法
  6
CONTINUOUS
 10
12.4035
 20
-32.437345
 11
-87.596495
 21
-32.437345
  0
POINT
  8
寸法
 10
12.4035
 20
-32.437345
  0
POINT
  8
寸法
 10
-87.596495
 20
-32.437345
  0
TEXT
  7
TextStyle03
  8
寸法
  6
CONTINUOUS
 10
-49.31875
 20
-32.075
  1
呼称寸法　3000
 40
3.0
 72
     5
 11
-25.88125
 21
-32.075
  0
ENDBLK
  0
BLOCK
  2
M8横
 70
    64
 10
-88.370132
 20
140.837665
  0
LINE
  8
ボルト／ビス
 10
-95.870132
 20
140.837665
 11
-80.870132
 21
140.837665
  0
LINE
  8
ボルト／ビス
 10
-80.870132
 20
145.837665
 11
-81.370132
 21
146.337665
  0
POLYLINE
  8
ボルト／ビス
 66
     1
  0
VERTEX
  8
ボルト／ビス
 10
-84.120132
 20
146.337665
  0
VERTEX
  8
ボルト／ビス
 10
-84.620132
 20
145.837665
  0
VERTEX
  8
ボルト／ビス
 10
-85.120132
 20
146.337665
  0
SEQEND
  0
POLYLINE
  8
ボルト／ビス
 66
     1
  0
VERTEX
  8
ボルト／ビス
 10
-91.620132
 20
146.337665
  0
VERTEX
  8
ボルト／ビス
 10
-92.120132
 20
145.837665
  0
VERTEX
  8
ボルト／ビス
 10
-92.620132
 20
146.337665
  0
SEQEND
  0
LINE
  8
ボルト／ビス
 10
-95.370132
 20
146.337665
 11
-95.870132
 21
145.837665
  0
LINE
  8
ボルト／ビス
 10
-95.870132
 20
140.837665
 11
-95.870132
 21
145.837665
  0
LINE
  8
ボルト／ビス
 10
-80.870132
 20
140.837665
 11
-80.870132
 21
145.837665
  0
LINE
  8
ボルト／ビス
 10
-95.370132
 20
146.337665
 11
-81.370132
 21
146.337665
  0
LINE
  8
ボルト／ビス
 10
-84.620132
 20
140.837665
 11
-84.620132
 21
145.837665
  0
LINE
  8
ボルト／ビス
 10
-92.120132
 20
140.837665
 11
-92.120132
 21
145.837665
  0
ENDBLK
  0
ENDSEC
  0
SECTION
  2
ENTITIES
  0
POLYLINE
  8
通り芯
  6
CONTINUOUS
 66
     1
 70
     1
  0
VERTEX
  8
通り芯
 10
-210.0
 20
-148.5
  0
VERTEX
  8
通り芯
 10
210.0
 20
-148.5
  0
VERTEX
  8
通り芯
 10
210.0
 20
148.5
  0
VERTEX
  8
通り芯
 10
-210.0
 20
148.5
  0
SEQEND
  0
INSERT
  2
*GRP_0001
  8
型材断面
  6
CONTINUOUS
 10
0.0
 20
0.0
  0
LINE
  8
型材断面
  6
CONTINUOUS
 10
162.97617
 20
66.869993
 11
162.97617
 21
66.819993
  0
LINE
  8
型材断面
  6
CONTINUOUS
 10
162.47617
 20
65.203325
 11
161.742835
 21
65.203325
  0
LINE
  8
型材断面
  6
CONTINUOUS
 62
    47
 10
169.709335
 20
66.60302
 11
169.709335
 21
66.55302
  0
LINE
  8
型材断面
  6
CONTINUOUS
 62
    47
 10
169.709335
 20
66.60302
 11
169.209335
 21
66.60302
  0
LINE
  8
型材断面
  6
CONTINUOUS
 10
163.459335
 20
65.25302
 11
163.459335
 21
66.699688
  0
LINE
  8
型材断面
  6
CONTINUOUS
 10
163.909335
 20
66.699688
 11
163.459335
 21
66.699688
  0
LINE
  8
型材断面
  6
CONTINUOUS
 62
    47
 10
166.582028
 20
67.43302
 11
166.582028
 21
67.48302
  0
LINE
  8
型材断面
  6
CONTINUOUS
 62
    47
 10
166.582028
 20
67.48302
 11
166.248695
 21
67.48302
  0
LINE
  8
型材断面
  6
CONTINUOUS
 62
    47
 10
166.248695
 20
67.48302
 11
166.148695
 21
66.699688
  0
LINE
  8
型材断面
  6
CONTINUOUS
 62
    47
 10
165.74267
 20
66.699688
 11
166.148695
 21
66.699688
  0
LINE
  8
型材断面
  6
CONTINUOUS
 62
    47
 10
165.74267
 20
67.169687
 11
163.909335
 21
67.169687
  0
LINE
  8
型材断面
  6
CONTINUOUS
 10
162.97617
 20
66.869993
 11
162.47617
 21
66.869993
  0
LINE
  8
型材断面
  6
CONTINUOUS
 10
163.459335
 20
65.25302
 11
162.97617
 21
65.25302
  0
LINE
  8
型材断面
  6
CONTINUOUS
 62
    47
 10
169.209335
 20
67.169687
 11
166.582028
 21
67.169687
  0
INSERT
  2
*GRP_0002
  8
型材断面
  6
DOT
 10
0.0
 20
0.0
  0
INSERT
  2
*GRP_0003
  8
型材断面
  6
DOT
 10
0.0
 20
0.0
  0
LINE
  8
型材断面
  6
CONTINUOUS
 10
169.209335
 20
67.169687
 11
169.209335
 21
50.203325
  0
LINE
  8
型材断面
  6
CONTINUOUS
 10
169.709335
 20
66.60302
 11
169.709335
 21
50.203325
  0
LINE
  8
型材断面
  6
CONTINUOUS
 10
166.582028
 20
67.48302
 11
166.582028
 21
50.203325
  0
LINE
  8
型材断面
  6
CONTINUOUS
 10
166.248695
 20
67.48302
 11
166.248695
 21
50.203325
  0
LINE
  8
型材断面
  6
CONTINUOUS
 10
166.148695
 20
66.699688
 11
166.148695
 21
50.203325
  0
LINE
  8
型材断面
  6
CONTINUOUS
 10
165.74267
 20
67.169687
 11
165.74267
 21
50.203325
  0
LINE
  8
型材断面
  6
CONTINUOUS
 10
162.97617
 20
66.869993
 11
162.97617
 21
50.203325
  0
LINE
  8
型材断面
  6
CONTINUOUS
 10
161.742835
 20
65.203325
 11
161.742835
 21
50.203325
  0
LINE
  8
型材断面
  6
CONTINUOUS
 10
162.47617
 20
66.869993
 11
162.47617
 21
50.203325
  0
LINE
  8
型材断面
  6
CONTINUOUS
 10
163.459335
 20
66.699688
 11
163.459335
 21
50.203325
  0
LINE
  8
型材断面
  6
CONTINUOUS
 10
163.909335
 20
67.169687
 11
163.909335
 21
50.203325
  0
LINE
  8
型材断面
  6
DASHDOT
 10
-37.596497
 20
-79.253555
 11
-37.596497
 21
65.203325
  0
LINE
  8
型材断面
  6
CONTINUOUS
 10
162.97617
 20
33.53666
 11
162.97617
 21
33.58666
  0
LINE
  8
型材断面
  6
CONTINUOUS
 10
162.47617
 20
35.203325
 11
161.742835
 21
35.203325
  0
LINE
  8
型材断面
  6
CONTINUOUS
 62
    47
 10
169.709335
 20
33.80363
 11
169.709335
 21
33.85363
  0
LINE
  8
型材断面
  6
CONTINUOUS
 62
    47
 10
169.709335
 20
33.80363
 11
169.209335
 21
33.80363
  0
LINE
  8
型材断面
  6
CONTINUOUS
 10
163.459335
 20
35.15363
 11
163.459335
 21
33.706965
  0
LINE
  8
型材断面
  6
CONTINUOUS
 10
163.909335
 20
33.706965
 11
163.459335
 21
33.706965
  0
LINE
  8
型材断面
  6
CONTINUOUS
 62
    47
 10
166.582028
 20
32.97363
 11
166.582028
 21
32.92363
  0
LINE
  8
型材断面
  6
CONTINUOUS
 62
    47
 10
166.582028
 20
32.92363
 11
166.248695
 21
32.92363
  0
LINE
  8
型材断面
  6
CONTINUOUS
 62
    47
 10
166.248695
 20
32.92363
 11
166.148695
 21
33.706965
  0
LINE
  8
型材断面
  6
CONTINUOUS
 62
    47
 10
165.74267
 20
33.706965
 11
166.148695
 21
33.706965
  0
LINE
  8
型材断面
  6
CONTINUOUS
 62
    47
 10
165.74267
 20
33.236965
 11
163.909335
 21
33.236965
  0
LINE
  8
型材断面
  6
CONTINUOUS
 10
162.97617
 20
33.53666
 11
162.47617
 21
33.53666
  0
LINE
  8
型材断面
  6
CONTINUOUS
 10
163.459335
 20
35.15363
 11
162.97617
 21
35.15363
  0
LINE
  8
型材断面
  6
CONTINUOUS
 62
    47
 10
169.209335
 20
33.236965
 11
166.582028
 21
33.236965
  0
INSERT
  2
*GRP_0004
  8
型材断面
  6
DOT
 10
0.0
 20
0.0
  0
INSERT
  2
*GRP_0005
  8
型材断面
  6
DOT
 10
0.0
 20
0.0
  0
LINE
  8
型材断面
  6
CONTINUOUS
 10
169.209335
 20
33.236965
 11
169.209335
 21
50.203325
  0
LINE
  8
型材断面
  6
CONTINUOUS
 10
169.709335
 20
33.80363
 11
169.709335
 21
50.203325
  0
LINE
  8
型材断面
  6
CONTINUOUS
 10
166.582028
 20
32.92363
 11
166.582028
 21
50.203325
  0
LINE
  8
型材断面
  6
CONTINUOUS
 10
166.248695
 20
32.92363
 11
166.248695
 21
50.203325
  0
LINE
  8
型材断面
  6
CONTINUOUS
 10
166.148695
 20
33.706965
 11
166.148695
 21
50.203325
  0
LINE
  8
型材断面
  6
CONTINUOUS
 10
165.74267
 20
33.236965
 11
165.74267
 21
50.203325
  0
LINE
  8
型材断面
  6
CONTINUOUS
 10
162.97617
 20
33.53666
 11
162.97617
 21
50.203325
  0
LINE
  8
型材断面
  6
CONTINUOUS
 10
161.742835
 20
35.203325
 11
161.742835
 21
50.203325
  0
LINE
  8
型材断面
  6
CONTINUOUS
 10
162.47617
 20
33.53666
 11
162.47617
 21
50.203325
  0
LINE
  8
型材断面
  6
CONTINUOUS
 10
163.459335
 20
33.706965
 11
163.459335
 21
50.203325
  0
LINE
  8
型材断面
  6
CONTINUOUS
 10
163.909335
 20
33.236965
 11
163.909335
 21
50.203325
  0
POLYLINE
  8
型材断面
  6
CONTINUOUS
 66
     1
 70
     1
  0
VERTEX
  8
型材断面
 10
28.91449
 20
-94.850355
  0
VERTEX
  8
型材断面
 10
-19.764185
 20
-94.850355
  0
VERTEX
  8
型材断面
 10
-19.764185
 20
-111.19502
  0
VERTEX
  8
型材断面
 10
28.91449
 20
-111.19502
  0
SEQEND
  0
LINE
  8
型材断面
  6
CONTINUOUS
 10
14.070168
 20
-69.937453
 11
14.020168
 21
-69.937453
  0
LINE
  8
型材断面
  6
CONTINUOUS
 10
12.4035
 20
-69.437453
 11
12.4035
 21
-68.70412
  0
LINE
  8
型材断面
  6
CONTINUOUS
 62
    47
 10
13.803195
 20
-76.67062
 11
13.753195
 21
-76.67062
  0
LINE
  8
型材断面
  6
CONTINUOUS
 62
    47
 10
13.803195
 20
-76.67062
 11
13.803195
 21
-76.17062
  0
LINE
  8
型材断面
  6
CONTINUOUS
 10
12.453195
 20
-70.42062
 11
13.899863
 21
-70.42062
  0
LINE
  8
型材断面
  6
CONTINUOUS
 10
13.899863
 20
-70.87062
 11
13.899863
 21
-70.42062
  0
LINE
  8
型材断面
  6
CONTINUOUS
 62
    47
 10
14.633195
 20
-73.543312
 11
14.683195
 21
-73.543312
  0
LINE
  8
型材断面
  6
CONTINUOUS
 62
    47
 10
14.683195
 20
-73.543312
 11
14.683195
 21
-73.209977
  0
LINE
  8
型材断面
  6
CONTINUOUS
 62
    47
 10
14.683195
 20
-73.209977
 11
13.899863
 21
-73.109977
  0
LINE
  8
型材断面
  6
CONTINUOUS
 62
    47
 10
13.899863
 20
-72.703953
 11
13.899863
 21
-73.109977
  0
LINE
  8
型材断面
  6
CONTINUOUS
 62
    47
 10
14.369863
 20
-72.703953
 11
14.369863
 21
-70.87062
  0
LINE
  8
型材断面
  6
CONTINUOUS
 10
14.070168
 20
-69.937453
 11
14.070168
 21
-69.437453
  0
LINE
  8
型材断面
  6
CONTINUOUS
 10
12.453195
 20
-70.42062
 11
12.453195
 21
-69.937453
  0
LINE
  8
型材断面
  6
CONTINUOUS
 62
    47
 10
14.369863
 20
-76.17062
 11
14.369863
 21
-73.543312
  0
INSERT
  2
*GRP_0010
  8
型材断面
  6
DOT
 10
0.0
 20
0.0
  0
INSERT
  2
*GRP_0011
  8
型材断面
  6
DOT
 10
0.0
 20
0.0
  0
LINE
  8
型材断面
  6
CONTINUOUS
 10
14.369863
 20
-76.17062
 11
-37.596497
 21
-76.17062
  0
LINE
  8
型材断面
  6
CONTINUOUS
 10
13.803195
 20
-76.67062
 11
-37.596497
 21
-76.67062
  0
LINE
  8
型材断面
  6
CONTINUOUS
 10
14.683195
 20
-73.543312
 11
-37.596497
 21
-73.543312
  0
LINE
  8
型材断面
  6
CONTINUOUS
 10
14.683195
 20
-73.209977
 11
-37.596497
 21
-73.209977
  0
LINE
  8
型材断面
  6
CONTINUOUS
 10
13.899863
 20
-73.109977
 11
-37.596497
 21
-73.109977
  0
LINE
  8
型材断面
  6
CONTINUOUS
 10
14.369863
 20
-72.703953
 11
-37.596497
 21
-72.703953
  0
LINE
  8
型材断面
  6
CONTINUOUS
 10
14.070168
 20
-69.937453
 11
-37.596497
 21
-69.937453
  0
LINE
  8
型材断面
  6
CONTINUOUS
 10
12.4035
 20
-68.70412
 11
-37.596497
 21
-68.70412
  0
LINE
  8
型材断面
  6
CONTINUOUS
 10
14.070168
 20
-69.437453
 11
-37.596497
 21
-69.437453
  0
LINE
  8
型材断面
  6
CONTINUOUS
 10
13.899863
 20
-70.42062
 11
-37.596497
 21
-70.42062
  0
LINE
  8
型材断面
  6
CONTINUOUS
 10
14.369863
 20
-70.87062
 11
-37.596497
 21
-70.87062
  0
LINE
  8
型材断面
  6
CONTINUOUS
 10
11.570168
 20
50.619993
 11
12.4035
 21
50.619993
  0
LINE
  8
型材断面
  6
CONTINUOUS
 10
11.570168
 20
49.786658
 11
12.4035
 21
49.786658
  0
LINE
  8
型材断面
  6
CONTINUOUS
 10
11.570168
 20
64.369993
 11
14.683195
 21
67.48302
  0
LINE
  8
型材断面
  6
CONTINUOUS
 10
11.570168
 20
50.619993
 11
11.570168
 21
64.369993
  0
LINE
  8
型材断面
  6
DASHDOT
 10
172.29227
 20
65.203325
 11
12.4035
 21
65.203325
  0
LINE
  8
型材断面
  6
CONTINUOUS
 10
11.570168
 20
36.036658
 11
14.683195
 21
32.92363
  0
LINE
  8
型材断面
  6
CONTINUOUS
 10
11.570168
 20
36.036658
 11
11.570168
 21
49.786658
  0
LINE
  8
型材断面
  6
DASHDOT
 10
172.29227
 20
35.203325
 11
12.4035
 21
35.203325
  0
LINE
  8
型材断面
  6
DASHDOT
 10
12.4035
 20
-79.253555
 11
12.4035
 21
35.203325
  0
LINE
  8
型材断面
  6
CONTINUOUS
 10
12.4035
 20
35.203325
 11
12.4035
 21
65.203325
  0
LINE
  8
型材断面
  6
CONTINUOUS
 10
14.369863
 20
33.236962
 11
14.369863
 21
67.169687
  0
LINE
  8
型材断面
  6
CONTINUOUS
 10
14.683195
 20
32.92363
 11
14.683195
 21
67.48302
  0
LINE
  8
型材断面
  6
CONTINUOUS
 10
14.070168
 20
33.536658
 11
14.070168
 21
66.869993
  0
LINE
  8
型材断面
  6
CONTINUOUS
 10
-89.263162
 20
-69.937453
 11
-89.213162
 21
-69.937453
  0
LINE
  8
型材断面
  6
CONTINUOUS
 10
-87.596495
 20
-69.437453
 11
-87.596495
 21
-68.70412
  0
LINE
  8
型材断面
  6
CONTINUOUS
 62
    47
 10
-88.99619
 20
-76.67062
 11
-88.94619
 21
-76.67062
  0
LINE
  8
型材断面
  6
CONTINUOUS
 62
    47
 10
-88.99619
 20
-76.67062
 11
-88.99619
 21
-76.17062
  0
LINE
  8
型材断面
  6
CONTINUOUS
 10
-87.64619
 20
-70.42062
 11
-89.092857
 21
-70.42062
  0
LINE
  8
型材断面
  6
CONTINUOUS
 10
-89.092857
 20
-70.87062
 11
-89.092857
 21
-70.42062
  0
LINE
  8
型材断面
  6
CONTINUOUS
 62
    47
 10
-89.82619
 20
-73.543312
 11
-89.87619
 21
-73.543312
  0
LINE
  8
型材断面
  6
CONTINUOUS
 62
    47
 10
-89.87619
 20
-73.543312
 11
-89.87619
 21
-73.209977
  0
LINE
  8
型材断面
  6
CONTINUOUS
 62
    47
 10
-89.87619
 20
-73.209977
 11
-89.092857
 21
-73.109977
  0
LINE
  8
型材断面
  6
CONTINUOUS
 62
    47
 10
-89.092857
 20
-72.703953
 11
-89.092857
 21
-73.109977
  0
LINE
  8
型材断面
  6
CONTINUOUS
 62
    47
 10
-89.562857
 20
-72.703953
 11
-89.562857
 21
-70.87062
  0
LINE
  8
型材断面
  6
CONTINUOUS
 10
-89.263162
 20
-69.937453
 11
-89.263162
 21
-69.437453
  0
LINE
  8
型材断面
  6
CONTINUOUS
 10
-87.64619
 20
-70.42062
 11
-87.64619
 21
-69.937453
  0
LINE
  8
型材断面
  6
CONTINUOUS
 62
    47
 10
-89.562857
 20
-76.17062
 11
-89.562857
 21
-73.543312
  0
INSERT
  2
*GRP_0013
  8
型材断面
  6
DOT
 10
0.0
 20
0.0
  0
INSERT
  2
*GRP_0014
  8
型材断面
  6
DOT
 10
0.0
 20
0.0
  0
LINE
  8
型材断面
  6
CONTINUOUS
 10
-89.562857
 20
-76.17062
 11
-37.596497
 21
-76.17062
  0
LINE
  8
型材断面
  6
CONTINUOUS
 10
-88.99619
 20
-76.67062
 11
-37.596497
 21
-76.67062
  0
LINE
  8
型材断面
  6
CONTINUOUS
 10
-89.87619
 20
-73.543312
 11
-37.596497
 21
-73.543312
  0
LINE
  8
型材断面
  6
CONTINUOUS
 10
-89.87619
 20
-73.209977
 11
-37.596497
 21
-73.209977
  0
LINE
  8
型材断面
  6
CONTINUOUS
 10
-89.092857
 20
-73.109977
 11
-37.596497
 21
-73.109977
  0
LINE
  8
型材断面
  6
CONTINUOUS
 10
-89.562857
 20
-72.703953
 11
-37.596497
 21
-72.703953
  0
LINE
  8
型材断面
  6
CONTINUOUS
 10
-89.263162
 20
-69.937453
 11
-37.596497
 21
-69.937453
  0
LINE
  8
型材断面
  6
CONTINUOUS
 10
-87.596495
 20
-68.70412
 11
-37.596497
 21
-68.70412
  0
LINE
  8
型材断面
  6
CONTINUOUS
 10
-89.263162
 20
-69.437453
 11
-37.596497
 21
-69.437453
  0
LINE
  8
型材断面
  6
CONTINUOUS
 10
-89.092857
 20
-70.42062
 11
-37.596497
 21
-70.42062
  0
LINE
  8
型材断面
  6
CONTINUOUS
 10
-89.562857
 20
-70.87062
 11
-37.596497
 21
-70.87062
  0
LINE
  8
型材断面
  6
CONTINUOUS
 10
-86.763162
 20
49.786658
 11
-87.596495
 21
49.786658
  0
LINE
  8
型材断面
  6
CONTINUOUS
 10
-86.763162
 20
50.619993
 11
-87.596495
 21
50.619993
  0
LINE
  8
型材断面
  6
DASHDOT
 10
172.29227
 20
50.203325
 11
-87.596495
 21
50.203325
  0
LINE
  8
型材断面
  6
CONTINUOUS
 10
-86.763162
 20
64.369993
 11
-89.87619
 21
67.48302
  0
LINE
  8
型材断面
  6
CONTINUOUS
 10
-86.763162
 20
50.619993
 11
-86.763162
 21
64.369993
  0
LINE
  8
型材断面
  6
CONTINUOUS
 10
-86.763162
 20
36.036658
 11
-89.87619
 21
32.92363
  0
LINE
  8
型材断面
  6
CONTINUOUS
 10
-86.763162
 20
36.036658
 11
-86.763162
 21
49.786658
  0
LINE
  8
型材断面
  6
DASHDOT
 10
-87.596495
 20
-79.253555
 11
-87.596495
 21
35.203325
  0
LINE
  8
型材断面
  6
CONTINUOUS
 10
-87.596495
 20
35.203325
 11
-87.596495
 21
65.203325
  0
LINE
  8
型材断面
  6
CONTINUOUS
 10
-89.562857
 20
33.236962
 11
-89.562857
 21
67.169687
  0
LINE
  8
型材断面
  6
CONTINUOUS
 10
-89.87619
 20
32.92363
 11
-89.87619
 21
67.48302
  0
LINE
  8
型材断面
  6
CONTINUOUS
 10
-89.263162
 20
33.536658
 11
-89.263162
 21
66.869993
  0
LINE
  8
型材断面
  6
CONTINUOUS
 10
12.4035
 20
65.203325
 11
-87.596495
 21
65.203325
  0
LINE
  8
型材断面
  6
CONTINUOUS
 10
14.369863
 20
67.169687
 11
-89.562857
 21
67.169687
  0
LINE
  8
型材断面
  6
CONTINUOUS
 10
14.683195
 20
67.48302
 11
-89.87619
 21
67.48302
  0
LINE
  8
型材断面
  6
CONTINUOUS
 10
14.070168
 20
66.869993
 11
-89.263162
 21
66.869993
  0
LINE
  8
型材断面
  6
CONTINUOUS
 10
12.4035
 20
35.203325
 11
-87.596495
 21
35.203325
  0
LINE
  8
型材断面
  6
CONTINUOUS
 10
14.369863
 20
33.236962
 11
-89.562857
 21
33.236962
  0
LINE
  8
型材断面
  6
CONTINUOUS
 10
14.683195
 20
32.92363
 11
-89.87619
 21
32.92363
  0
LINE
  8
型材断面
  6
CONTINUOUS
 10
14.070168
 20
33.536658
 11
-89.263162
 21
33.536658
  0
LINE
  8
型材断面
  6
CONTINUOUS
 10
-53.1265
 20
36.86999
 11
-55.6265
 21
36.86999
  0
LINE
  8
型材断面
  6
CONTINUOUS
 10
-70.56983
 20
35.203325
 11
-70.56983
 21
36.036658
  0
LINE
  8
型材断面
  6
CONTINUOUS
 10
-71.403165
 20
35.203325
 11
-71.403165
 21
36.036658
  0
LINE
  8
型材断面
  6
CONTINUOUS
 10
-86.763162
 20
36.036658
 11
-71.403165
 21
36.036658
  0
LINE
  8
型材断面
  6
CONTINUOUS
 10
-37.17983
 20
35.203325
 11
-37.17983
 21
36.036658
  0
LINE
  8
型材断面
  6
CONTINUOUS
 10
-38.013165
 20
35.203325
 11
-38.013165
 21
36.036658
  0
LINE
  8
型材断面
  6
CONTINUOUS
 10
-70.56983
 20
36.036658
 11
-38.013165
 21
36.036658
  0
LINE
  8
型材断面
  6
CONTINUOUS
 10
-53.1265
 20
63.53666
 11
-55.6265
 21
63.53666
  0
LINE
  8
型材断面
  6
CONTINUOUS
 10
-55.6265
 20
36.86999
 11
-55.6265
 21
63.53666
  0
LINE
  8
型材断面
  6
CONTINUOUS
 10
-54.6265
 20
36.86999
 11
-54.6265
 21
63.53666
  0
LINE
  8
型材断面
  6
CONTINUOUS
 10
-54.1265
 20
36.86999
 11
-54.1265
 21
63.53666
  0
LINE
  8
型材断面
  6
CONTINUOUS
 10
-53.1265
 20
36.86999
 11
-53.1265
 21
63.53666
  0
LINE
  8
型材断面
  6
DASHDOT
 10
-54.3765
 20
35.203325
 11
-54.3765
 21
65.203325
  0
LINE
  8
型材断面
  6
CONTINUOUS
 10
-4.623165
 20
35.203325
 11
-4.623165
 21
36.036658
  0
LINE
  8
型材断面
  6
CONTINUOUS
 10
-3.78983
 20
35.203325
 11
-3.78983
 21
36.036658
  0
LINE
  8
型材断面
  6
CONTINUOUS
 10
11.570168
 20
36.036658
 11
-3.78983
 21
36.036658
  0
LINE
  8
型材断面
  6
CONTINUOUS
 10
-37.17983
 20
36.036658
 11
-4.623165
 21
36.036658
  0
LINE
  8
型材断面
  6
CONTINUOUS
 10
-22.066495
 20
36.86999
 11
-19.566495
 21
36.86999
  0
LINE
  8
型材断面
  6
CONTINUOUS
 10
-22.066495
 20
63.53666
 11
-19.566495
 21
63.53666
  0
LINE
  8
型材断面
  6
CONTINUOUS
 10
-19.566495
 20
36.86999
 11
-19.566495
 21
63.53666
  0
LINE
  8
型材断面
  6
CONTINUOUS
 10
-20.566495
 20
36.86999
 11
-20.566495
 21
63.53666
  0
LINE
  8
型材断面
  6
CONTINUOUS
 10
-21.066495
 20
36.86999
 11
-21.066495
 21
63.53666
  0
LINE
  8
型材断面
  6
CONTINUOUS
 10
-22.066495
 20
36.86999
 11
-22.066495
 21
63.53666
  0
LINE
  8
型材断面
  6
DASHDOT
 10
-20.816495
 20
35.203325
 11
-20.816495
 21
65.203325
  0
LINE
  8
型材断面
  6
CONTINUOUS
 10
-70.56983
 20
65.203325
 11
-70.56983
 21
64.369993
  0
LINE
  8
型材断面
  6
CONTINUOUS
 10
-71.403165
 20
65.203325
 11
-71.403165
 21
64.369993
  0
LINE
  8
型材断面
  6
CONTINUOUS
 10
-86.763162
 20
64.369993
 11
-71.403165
 21
64.369993
  0
LINE
  8
型材断面
  6
CONTINUOUS
 10
-37.17983
 20
65.203325
 11
-37.17983
 21
64.369993
  0
LINE
  8
型材断面
  6
CONTINUOUS
 10
-38.013165
 20
65.203325
 11
-38.013165
 21
64.369993
  0
LINE
  8
型材断面
  6
CONTINUOUS
 10
-70.56983
 20
64.369993
 11
-38.013165
 21
64.369993
  0
LINE
  8
型材断面
  6
CONTINUOUS
 10
-4.623165
 20
65.203325
 11
-4.623165
 21
64.369993
  0
LINE
  8
型材断面
  6
CONTINUOUS
 10
-3.78983
 20
65.203325
 11
-3.78983
 21
64.369993
  0
LINE
  8
型材断面
  6
CONTINUOUS
 10
11.570168
 20
64.369993
 11
-3.78983
 21
64.369993
  0
LINE
  8
型材断面
  6
CONTINUOUS
 10
-37.17983
 20
64.369993
 11
-4.623165
 21
64.369993
  0
POLYLINE
  8
型材断面
  6
CONTINUOUS
 66
     1
 70
     1
  0
VERTEX
  8
型材断面
 10
-28.13156
 20
25.427403
  0
VERTEX
  8
型材断面
 10
-46.90349
 20
25.427403
  0
VERTEX
  8
型材断面
 10
-46.90349
 20
20.69056
  0
VERTEX
  8
型材断面
 10
-28.13156
 20
20.69056
  0
SEQEND
  0
POLYLINE
  8
型材断面
  6
CONTINUOUS
 66
     1
 70
     1
  0
VERTEX
  8
型材断面
 10
-28.13156
 20
74.979248
  0
VERTEX
  8
型材断面
 10
-46.90349
 20
74.979248
  0
VERTEX
  8
型材断面
 10
-46.90349
 20
79.71609
  0
VERTEX
  8
型材断面
 10
-28.13156
 20
79.71609
  0
SEQEND
  0
LINE
  8
型材断面
  6
CONTINUOUS
 10
-70.92983
 20
67.833455
 11
-72.42546
 21
70.423963
  0
LINE
  8
型材断面
  6
CONTINUOUS
 10
-70.92983
 20
67.833455
 11
-69.4342
 21
70.423963
  0
LINE
  8
型材断面
  6
CONTINUOUS
 10
-69.4342
 20
70.423963
 11
-72.42546
 21
70.423963
  0
LINE
  8
型材断面
  6
CONTINUOUS
 10
-90.226627
 20
50.203325
 11
-92.817135
 21
51.698955
  0
LINE
  8
型材断面
  6
CONTINUOUS
 10
-90.226627
 20
50.203325
 11
-92.817135
 21
48.707695
  0
LINE
  8
型材断面
  6
CONTINUOUS
 10
-92.817135
 20
48.707695
 11
-92.817135
 21
51.698955
  0
LINE
  8
型材断面
  6
CONTINUOUS
 10
-70.92983
 20
32.573195
 11
-72.42546
 21
29.982688
  0
LINE
  8
型材断面
  6
CONTINUOUS
 10
-70.92983
 20
32.573195
 11
-69.4342
 21
29.982688
  0
LINE
  8
型材断面
  6
CONTINUOUS
 10
-69.4342
 20
29.982688
 11
-72.42546
 21
29.982688
  0
LINE
  8
型材断面
  6
CONTINUOUS
 10
-141.47502
 20
103.180797
 11
-140.878965
 21
100.59029
  0
LINE
  8
型材断面
  6
CONTINUOUS
 10
-141.47502
 20
103.180797
 11
-142.071077
 21
100.59029
  0
LINE
  8
型材断面
  6
CONTINUOUS
 10
-142.071077
 20
100.59029
 11
-140.878965
 21
100.59029
  0
LINE
  8
型材断面
  6
CONTINUOUS
 10
-147.497607
 20
97.311398
 11
-101.25583
 21
97.311398
  0
LINE
  8
型材断面
  6
CONTINUOUS
 10
-141.47502
 20
109.710672
 11
-142.97065
 21
107.120165
  0
LINE
  8
型材断面
  6
CONTINUOUS
 10
-141.47502
 20
109.710672
 11
-139.97939
 21
107.120165
  0
LINE
  8
型材断面
  6
CONTINUOUS
 10
-139.97939
 20
107.120165
 11
-142.97065
 21
107.120165
  0
LINE
  8
型材断面
  6
CONTINUOUS
 10
-147.497607
 20
106.18157
 11
-101.25583
 21
106.18157
  0
LINE
  8
型材断面
  6
CONTINUOUS
 10
-147.497607
 20
91.523365
 11
-101.25583
 21
91.523365
  0
LINE
  8
型材断面
  6
CONTINUOUS
 10
-4.263165
 20
67.833455
 11
-2.767535
 21
70.423963
  0
LINE
  8
型材断面
  6
CONTINUOUS
 10
-4.263165
 20
67.833455
 11
-5.758795
 21
70.423963
  0
LINE
  8
型材断面
  6
CONTINUOUS
 10
-5.758795
 20
70.423963
 11
-2.767535
 21
70.423963
  0
LINE
  8
型材断面
  6
CONTINUOUS
 10
-4.263165
 20
32.573195
 11
-2.767535
 21
29.982688
  0
LINE
  8
型材断面
  6
CONTINUOUS
 10
-4.263165
 20
32.573195
 11
-5.758795
 21
29.982688
  0
LINE
  8
型材断面
  6
CONTINUOUS
 10
-5.758795
 20
29.982688
 11
-2.767535
 21
29.982688
  0
LINE
  8
型材断面
  6
CONTINUOUS
 10
15.03363
 20
61.303325
 11
17.624137
 21
60.707267
  0
LINE
  8
型材断面
  6
CONTINUOUS
 10
15.03363
 20
61.303325
 11
17.624137
 21
61.899382
  0
LINE
  8
型材断面
  6
CONTINUOUS
 10
17.624137
 20
61.899382
 11
17.624137
 21
60.707267
  0
LINE
  8
型材断面
  6
CONTINUOUS
 10
15.03363
 20
39.103325
 11
17.624137
 21
39.699382
  0
LINE
  8
型材断面
  6
CONTINUOUS
 10
15.03363
 20
39.103325
 11
17.624137
 21
38.507267
  0
LINE
  8
型材断面
  6
CONTINUOUS
 10
17.624137
 20
38.507267
 11
17.624137
 21
39.699382
  0
LINE
  8
型材断面
  6
CONTINUOUS
 10
-90.226625
 20
61.303325
 11
-92.817133
 21
60.707267
  0
LINE
  8
型材断面
  6
CONTINUOUS
 10
-90.226625
 20
61.303325
 11
-92.817133
 21
61.899382
  0
LINE
  8
型材断面
  6
CONTINUOUS
 10
-92.817133
 20
61.899382
 11
-92.817133
 21
60.707267
  0
LINE
  8
型材断面
  6
CONTINUOUS
 10
-90.226625
 20
39.103325
 11
-92.817133
 21
39.699382
  0
LINE
  8
型材断面
  6
CONTINUOUS
 10
-90.226625
 20
39.103325
 11
-92.817133
 21
38.507267
  0
LINE
  8
型材断面
  6
CONTINUOUS
 10
-92.817133
 20
38.507267
 11
-92.817133
 21
39.699382
  0
LINE
  8
型材断面
  6
CONTINUOUS
 10
-147.497607
 20
85.735332
 11
-101.25583
 21
85.735332
  0
LINE
  8
型材断面
  6
CONTINUOUS
 10
15.033633
 20
50.203325
 11
17.62414
 21
51.698955
  0
LINE
  8
型材断面
  6
CONTINUOUS
 10
15.033633
 20
50.203325
 11
17.62414
 21
48.707695
  0
LINE
  8
型材断面
  6
CONTINUOUS
 10
17.62414
 20
48.707695
 11
17.62414
 21
51.698955
  0
INSERT
  2
*GRP_0022
  8
型材断面
  6
DOT
 10
0.0
 20
0.0
  0
INSERT
  2
*GRP_0028
  8
型材断面
  6
CONTINUOUS
 10
0.0
 20
0.0
  0
INSERT
  2
*GRP_0029
  8
型材断面
  6
CONTINUOUS
 10
0.0
 20
0.0
  0
INSERT
  2
*GRP_0030
  8
型材断面
  6
CONTINUOUS
 10
0.0
 20
0.0
  0
INSERT
  2
*GRP_0031
  8
型材断面
  6
CONTINUOUS
 10
0.0
 20
0.0
  0
LINE
  8
型材断面
  6
CONTINUOUS
 10
139.91615
 20
-24.714713
 11
119.464263
 21
-24.714713
  0
POLYLINE
  8
ガラス
  6
CONTINUOUS
 66
     1
 70
     1
  0
VERTEX
  8
ガラス
 10
152.950655
 20
-45.824848
  0
VERTEX
  8
ガラス
 10
120.737322
 20
-45.824848
  0
VERTEX
  8
ガラス
 10
120.737322
 20
-75.158183
  0
VERTEX
  8
ガラス
 10
152.950655
 20
-75.158183
  0
SEQEND
  0
TEXT
  7
TextStyle03
  8
文字
  6
CONTINUOUS
 10
-15.45
 20
-100.575
  1
※トップライト枠高さ寸法
 40
3.0
 72
     5
 11
24.675
 21
-100.575
  0
TEXT
  7
TextStyle03
  8
文字
  6
CONTINUOUS
 10
-15.45
 20
-103.95
  1
　シングルガラス：214
 40
3.0
 72
     5
 11
19.8
 21
-103.95
  0
TEXT
  7
TextStyle03
  8
文字
  6
CONTINUOUS
 10
-15.45
 20
-107.325
  1
　ペアガラス：224
 40
3.0
 72
     5
 11
13.05
 21
-107.325
  0
TEXT
  7
TextStyle03
  8
文字
  6
CONTINUOUS
 10
78.1
 20
125.25
  1
シリーズ：ＳＴＤＬ
 40
5.0
 72
     5
 11
128.1
 21
125.25
  0
TEXT
  7
TextStyle03
  8
文字
  6
CONTINUOUS
 10
78.1
 20
119.625
  1
　　　　　（上下可動）900×3000タイプ
 40
5.0
 72
     5
 11
181.5375
 21
119.625
  0
TEXT
  7
TextStyle03
  8
文字
  6
CONTINUOUS
 10
78.1
 20
114.0
  1
図面名　：外観姿図
 40
5.0
 72
     5
 11
128.1
 21
114.0
  0
TEXT
  7
TextStyle03
  8
文字
  6
CONTINUOUS
 10
78.1
 20
108.375
  1
　　　　　　
 40
5.0
 72
     5
 11
111.225
 21
108.375
  0
TEXT
  7
TextStyle03
  8
文字
  6
CONTINUOUS
 10
-45.775
 20
21.7
  1
可動装置側
 40
3.0
 72
     5
 11
-29.275
 21
21.7
  0
TEXT
  7
TextStyle03
  8
文字
  6
CONTINUOUS
 10
-45.775
 20
75.65
  1
可動装置側
 40
3.0
 72
     5
 11
-29.275
 21
75.65
  0
TEXT
  7
TextStyle03
  8
文字
  6
CONTINUOUS
 10
-138.65
 20
101.775
  1
はケーシング位置を示す
 40
3.0
 72
     5
 11
-101.9
 21
101.775
  0
TEXT
  7
TextStyle03
  8
文字
  6
CONTINUOUS
 10
-138.65
 20
98.4
  1
４ヶ所中1ヶ所に設定
 40
3.0
 72
     5
 11
-106.9625
 21
98.4
  0
TEXT
  7
TextStyle03
  8
文字
  6
CONTINUOUS
 10
-138.65
 20
107.3
  1
は排水穴位置を示す
 40
3.0
 72
     5
 11
-108.65
 21
107.3
  0
TEXT
  7
TextStyle03
  8
文字
  6
CONTINUOUS
 10
-108.55
 20
28.65
  1
アンカーピッチ
 40
3.0
 50
90.0
 72
     5
 11
-108.55
 21
51.9
  0
TEXT
  7
TextStyle03
  8
文字
  6
CONTINUOUS
 10
-77.6
 20
102.6
  1
アンカーピッチ
 40
3.0
 72
     5
 11
-54.35
 21
102.6
  0
TEXT
  7
TextStyle03
  8
文字
  6
CONTINUOUS
 10
-142.375
 20
92.425
  1
アンカー数量　１２ヶ所
 40
3.0
 72
     5
 11
-105.625
 21
92.425
  0
TEXT
  7
TextStyle03
  8
文字
  6
CONTINUOUS
 10
-142.425
 20
86.675
  1
アームユニット数　４ヶ所
 40
3.0
 72
     5
 11
-102.3
 21
86.675
  0
TEXT
  7
TextStyle03
  8
文字
  6
CONTINUOUS
 10
120.75
 20
-23.75
  1
ガラス寸法
 40
3.0
 72
     5
 11
137.25
 21
-23.75
  0
TEXT
  7
TextStyle03
  8
文字
  6
CONTINUOUS
 10
139.575
 20
-72.725
  1
×３枚
 40
3.0
 72
     5
 11
149.325
 21
-72.725
  0
INSERT
  2
*DIM_0006
  8
寸法
  6
CONTINUOUS
 10
0.0
 20
0.0
  0
INSERT
  2
*DIM_0007
  8
寸法
  6
CONTINUOUS
 10
0.0
 20
0.0
  0
INSERT
  2
*DIM_0008
  8
寸法
  6
CONTINUOUS
 10
0.0
 20
0.0
  0
INSERT
  2
*DIM_0009
  8
寸法
  6
CONTINUOUS
 10
0.0
 20
0.0
  0
INSERT
  2
*DIM_0012
  8
寸法
  6
CONTINUOUS
 10
0.0
 20
0.0
  0
INSERT
  2
*DIM_0015
  8
寸法
  6
CONTINUOUS
 10
0.0
 20
0.0
  0
INSERT
  2
*DIM_0016
  8
寸法
  6
CONTINUOUS
 10
0.0
 20
0.0
  0
INSERT
  2
*DIM_0017
  8
寸法
  6
CONTINUOUS
 10
0.0
 20
0.0
  0
INSERT
  2
*DIM_0018
  8
寸法
  6
CONTINUOUS
 10
0.0
 20
0.0
  0
INSERT
  2
*DIM_0019
  8
寸法
  6
CONTINUOUS
 10
0.0
 20
0.0
  0
INSERT
  2
*DIM_0020
  8
寸法
  6
CONTINUOUS
 10
0.0
 20
0.0
  0
INSERT
  2
*DIM_0021
  8
寸法
  6
CONTINUOUS
 10
0.0
 20
0.0
  0
INSERT
  2
*DIM_0027
  8
寸法
  6
CONTINUOUS
 10
0.0
 20
0.0
  0
INSERT
  2
*DIM_0032
  8
寸法
  6
CONTINUOUS
 10
0.0
 20
0.0
  0
INSERT
  2
*DIM_0033
  8
寸法
  6
CONTINUOUS
 10
0.0
 20
0.0
  0
INSERT
  2
*DIM_0034
  8
寸法
  6
CONTINUOUS
 10
0.0
 20
0.0
  0
INSERT
  2
*DIM_0035
  8
寸法
  6
CONTINUOUS
 10
0.0
 20
0.0
  0
INSERT
  2
*DIM_0036
  8
寸法
  6
CONTINUOUS
 10
0.0
 20
0.0
  0
LINE
  8
曲げ物
  6
CONTINUOUS
 10
-2.955458
 20
52.128875
 11
-6.65077
 21
48.433562
  0
LINE
  8
曲げ物
  6
CONTINUOUS
 10
-3.658928
 20
50.592765
 11
-5.114657
 21
49.137035
  0
LINE
  8
曲げ物
  6
CONTINUOUS
 10
-4.491568
 20
51.425405
 11
-5.947297
 21
49.969675
  0
LINE
  8
曲げ物
  6
CONTINUOUS
 10
-35.952333
 20
52.128875
 11
-39.647645
 21
48.433562
  0
LINE
  8
曲げ物
  6
CONTINUOUS
 10
-36.655803
 20
50.592765
 11
-38.111532
 21
49.137035
  0
LINE
  8
曲げ物
  6
CONTINUOUS
 10
-37.488443
 20
51.425405
 11
-38.944172
 21
49.969675
  0
LINE
  8
曲げ物
  6
CONTINUOUS
 10
-70.314833
 20
52.128875
 11
-74.010145
 21
48.433562
  0
LINE
  8
曲げ物
  6
CONTINUOUS
 10
-71.018303
 20
50.592765
 11
-72.474032
 21
49.137035
  0
LINE
  8
曲げ物
  6
CONTINUOUS
 10
-71.850943
 20
51.425405
 11
-73.306672
 21
49.969675
  0
ENDSEC
  0
EOF
