  0
SECTION
  2
HEADER
  9
$EXTMIN
 10
-210.0
 20
-148.5
  9
$EXTMAX
 10
210.0
 20
148.5
  9
$PDMODE
 70
    32
  9
$PDSIZE
 40
1.5
  9
$LTSCALE
 40
10.0
  0
ENDSEC
  0
SECTION
  2
TABLES
  0
TABLE
  2
LTYPE
 70
    15
  0
LTYPE
  2
CONTINUOUS
 70
    64
  3
実線
 72
    65
 73
     0
 40
0.0
  0
LTYPE
  2
DASHED
 70
    64
  3
破線A
 72
    65
 73
     2
 40
0.6
 49
0.4
 49
-0.2
  0
LTYPE
  2
DASHEDX2
 70
    64
  3
破線B
 72
    65
 73
     2
 40
1.3
 49
0.9
 49
-0.4
  0
LTYPE
  2
DASHDOT
 70
    64
  3
１点鎖線A
 72
    65
 73
     4
 40
0.5375
 49
0.375
 49
-0.05
 49
0.0625
 49
-0.05
  0
LTYPE
  2
DASHDOTX2
 70
    64
  3
１点鎖線B
 72
    65
 73
     4
 40
1.075
 49
0.75
 49
-0.1
 49
0.125
 49
-0.1
  0
LTYPE
  2
DIVIDE2
 70
    64
  3
２点鎖線A
 72
    65
 73
     6
 40
0.5125
 49
0.3
 49
-0.0375
 49
0.05
 49
-0.0375
 49
0.05
 49
-0.0375
  0
LTYPE
  2
DIVIDE
 70
    64
  3
２点鎖線B
 72
    65
 73
     6
 40
1.05
 49
0.55
 49
-0.1
 49
0.1
 49
-0.1
 49
0.1
 49
-0.1
  0
LTYPE
  2
DOT
 70
    64
  3
点線A
 72
    65
 73
     2
 40
0.1125
 49
0.0625
 49
-0.05
  0
LTYPE
  2
DOTX2
 70
    64
  3
点線B
 72
    65
 73
     2
 40
0.275
 49
0.15
 49
-0.125
  0
LTYPE
  2
CONTINUOUS
 70
    64
  3
実線
 72
    65
 73
     0
 40
0.0
  0
LTYPE
  2
CONTINUOUS
 70
    64
  3
実線
 72
    65
 73
     0
 40
0.0
  0
LTYPE
  2
CONTINUOUS
 70
    64
  3
実線
 72
    65
 73
     0
 40
0.0
  0
LTYPE
  2
CONTINUOUS
 70
    64
  3
実線
 72
    65
 73
     0
 40
0.0
  0
LTYPE
  2
CONTINUOUS
 70
    64
  3
実線
 72
    65
 73
     0
 40
0.0
  0
LTYPE
  2
CONTINUOUS
 70
    64
  3
実線
 72
    65
 73
     0
 40
0.0
  0
ENDTAB
  0
TABLE
  2
LAYER
 70
    34
  0
LAYER
  2
通り芯
 70
     0
 62
    15
  6
CONTINUOUS
  0
LAYER
  2
補助線
 70
     0
 62
    16
  6
DOT
  0
LAYER
  2
躯体
 70
     0
 62
    31
  6
CONTINUOUS
  0
LAYER
  2
型材
 70
     0
 62
    32
  6
CONTINUOUS
  0
LAYER
  2
型材断面
 70
     0
 62
    47
  6
CONTINUOUS
  0
LAYER
  2
ガラス
 70
     0
 62
    48
  6
CONTINUOUS
  0
LAYER
  2
ゴム等
 70
     0
 62
    63
  6
CONTINUOUS
  0
LAYER
  2
ボルト／ビス
 70
     0
 62
    64
  6
CONTINUOUS
  0
LAYER
  2
文字
 70
     0
 62
    79
  6
CONTINUOUS
  0
LAYER
  2
寸法
 70
     0
 62
    80
  6
CONTINUOUS
  0
LAYER
  2
ﾊｯﾁﾝｸﾞ
 70
     0
 62
    95
  6
CONTINUOUS
  0
LAYER
  2
別途部材
 70
     0
 62
    96
  6
CONTINUOUS
  0
LAYER
  2
曲げ物
 70
     0
 62
   111
  6
CONTINUOUS
  0
LAYER
  2
鉄骨等
 70
     0
 62
   112
  6
CONTINUOUS
  0
LAYER
  2
St
 70
     0
 62
   127
  6
CONTINUOUS
  0
LAYER
  2
その他部品等
 70
     0
 62
   128
  6
CONTINUOUS
  0
LAYER
  2
ｶﾞｽｹｯﾄ
 70
     0
 62
   143
  6
CONTINUOUS
  0
LAYER
  2
ｽｹｯﾁ
 70
     0
 62
    14
  6
CONTINUOUS
  0
LAYER
  2
0
 70
     0
 62
    17
  6
CONTINUOUS
  0
LAYER
  2
1
 70
     0
 62
    30
  6
CONTINUOUS
  0
LAYER
  2
4
 70
     0
 62
    33
  6
CONTINUOUS
  0
LAYER
  2
ﾚｲﾔ3
 70
     0
 62
    46
  6
CONTINUOUS
  0
LAYER
  2
外形線
 70
     0
 62
    49
  6
CONTINUOUS
  0
LAYER
  2
部品
 70
     0
 62
    14
  6
CONTINUOUS
  0
LAYER
  2
サッシ芯
 70
     0
 62
    17
  6
DASHDOTX2
  0
LAYER
  2
寸法線
 70
     0
 62
    62
  6
CONTINUOUS
  0
LAYER
  2
姿図外形線
 70
     0
 62
    65
  6
CONTINUOUS
  0
LAYER
  2
姿補助線
 70
     0
 62
    30
  6
CONTINUOUS
  0
LAYER
  2
透視線
 70
     0
 62
    78
  6
DOT
  0
LAYER
  2
用紙
 70
     0
 62
    81
  6
CONTINUOUS
  0
LAYER
  2
実線図枠
 70
     0
 62
    94
  6
CONTINUOUS
  0
LAYER
  2
補助図枠
 70
     0
 62
    97
  6
CONTINUOUS
  0
LAYER
  2
建具記号
 70
     0
 62
   110
  6
CONTINUOUS
  0
LAYER
  2
補助文字
 70
     0
 62
   113
  6
CONTINUOUS
  0
ENDTAB
  0
TABLE
  2
STYLE
 70
    10
  0
STYLE
  2
STANDARD
 70
     0
 40
1.0
 41
1.0
 42
1.0
 50
0.0
 71
     0
  3
TXT
  4
BIGFONT
  0
STYLE
  2
TATE
 70
     4
 40
1.0
 41
1.0
 42
1.0
 50
0.0
 71
     0
  3
TXT
  4
BIGFONT
  0
STYLE
  2
TextStyle03
 70
     0
 40
1.0
 41
1.0
 42
1.0
 50
0.0
 71
     0
  3
MONOTXT
  4
BIGFONT
  0
STYLE
  2
TextStyle04
 70
     0
 40
1.0
 41
1.0
 42
1.0
 50
0.0
 71
     0
  3
MONOTXT
  4
BIGFONT
  0
STYLE
  2
TextStyle05
 70
     0
 40
1.0
 41
1.0
 42
1.0
 50
0.0
 71
     0
  3
MONOTXT
  4
BIGFONT
  0
STYLE
  2
TextStyle06
 70
     0
 40
1.0
 41
1.0
 42
1.0
 50
0.0
 71
     0
  3
MONOTXT
  4
BIGFONT
  0
STYLE
  2
TextStyle07
 70
     0
 40
1.0
 41
1.0
 42
1.0
 50
0.0
 71
     0
  3
MONOTXT
  4
BIGFONT
  0
STYLE
  2
TextStyle08
 70
     0
 40
1.0
 41
1.0
 42
1.0
 50
0.0
 71
     0
  3
MONOTXT
  4
BIGFONT
  0
STYLE
  2
TextStyle09
 70
     0
 40
1.0
 41
1.0
 42
1.0
 50
0.0
 71
     0
  3
MONOTXT
  4
BIGFONT
  0
STYLE
  2
TextStyle10
 70
     0
 40
1.0
 41
1.0
 42
1.0
 50
0.0
 71
     0
  3
MONOTXT
  4
BIGFONT
  0
ENDTAB
  0
ENDSEC
  0
SECTION
  2
BLOCKS
  0
BLOCK
  2
*GRP_0001
 70
    65
 10
0.0
 20
0.0
  0
LINE
  8
型材断面
  6
CONTINUOUS
 10
195.0
 20
133.5
 11
195.0
 21
-133.5
  0
LINE
  8
型材断面
  6
CONTINUOUS
 10
195.0
 20
-133.5
 11
-185.0
 21
-133.5
  0
LINE
  8
型材断面
  6
CONTINUOUS
 10
-185.0
 20
-133.5
 11
-185.0
 21
133.5
  0
LINE
  8
型材断面
  6
CONTINUOUS
 10
195.0
 20
133.5
 11
-185.0
 21
133.5
  0
LINE
  8
型材断面
  6
CONTINUOUS
 10
145.0
 20
-133.5
 11
145.0
 21
-118.5
  0
LINE
  8
型材断面
  6
CONTINUOUS
 10
195.0
 20
-118.5
 11
145.0
 21
-118.5
  0
ENDBLK
  0
BLOCK
  2
*GRP_0002
 70
    65
 10
0.0
 20
0.0
  0
INSERT
  2
M8横
  8
ゴム等
  6
CONTINUOUS
 10
163.336003
 20
66.029685
 50
270.0
 41
0.033333
 42
-0.033333
  0
LINE
  8
ボルト／ビス
  6
CONTINUOUS
 10
163.126005
 20
65.896352
 11
163.109338
 21
65.91302
  0
LINE
  8
ボルト／ビス
  6
CONTINUOUS
 10
163.109338
 20
66.146352
 11
163.126005
 21
66.16302
  0
LINE
  8
ボルト／ビス
  6
CONTINUOUS
 10
163.126005
 20
66.16302
 11
163.126005
 21
65.896352
  0
LINE
  8
ボルト／ビス
  6
CONTINUOUS
 10
163.109338
 20
66.146352
 11
163.109338
 21
65.91302
  0
LINE
  8
ボルト／ビス
  6
CONTINUOUS
 10
163.109338
 20
65.91302
 11
163.15267
 21
65.91302
  0
LINE
  8
ボルト／ビス
  6
CONTINUOUS
 10
163.126005
 20
65.896352
 11
163.15267
 21
65.896352
  0
LINE
  8
ボルト／ビス
  6
CONTINUOUS
 10
163.126005
 20
66.16302
 11
163.15267
 21
66.16302
  0
LINE
  8
ボルト／ビス
  6
CONTINUOUS
 10
163.109338
 20
66.146352
 11
163.15267
 21
66.146352
  0
LINE
  8
ボルト／ビス
  6
CONTINUOUS
 10
163.336003
 20
66.396352
 11
163.336003
 21
65.66302
  0
LINE
  8
ボルト／ビス
  6
CONTINUOUS
 10
163.376002
 20
65.61302
 11
163.459335
 21
65.61302
  0
LINE
  8
ボルト／ビス
  6
CONTINUOUS
 10
163.459335
 20
65.61302
 11
163.459335
 21
66.446352
  0
LINE
  8
ボルト／ビス
  6
CONTINUOUS
 10
163.459335
 20
66.446352
 11
163.376002
 21
66.446352
  0
LINE
  8
ボルト／ビス
  6
CONTINUOUS
 10
163.376002
 20
65.61302
 11
163.376002
 21
66.446352
  0
LINE
  8
ボルト／ビス
  6
CONTINUOUS
 10
163.336003
 20
66.396352
 11
163.376002
 21
66.396352
  0
LINE
  8
ボルト／ビス
  6
CONTINUOUS
 10
163.336003
 20
65.66302
 11
163.376002
 21
65.66302
  0
LINE
  8
ボルト／ビス
  6
CONTINUOUS
 10
163.386002
 20
66.029685
 11
163.336003
 21
66.029685
  0
ENDBLK
  0
BLOCK
  2
*GRP_0003
 70
    65
 10
0.0
 20
0.0
  0
LINE
  8
ボルト／ビス
  6
CONTINUOUS
 10
162.47617
 20
66.236355
 11
162.409503
 21
66.236355
  0
LINE
  8
ボルト／ビス
  6
CONTINUOUS
 10
162.409503
 20
66.236355
 11
162.409503
 21
65.50302
  0
LINE
  8
ボルト／ビス
  6
CONTINUOUS
 10
162.409503
 20
65.50302
 11
162.47617
 21
65.50302
  0
LINE
  8
ボルト／ビス
  6
CONTINUOUS
 10
162.47617
 20
66.236355
 11
162.47617
 21
65.50302
  0
LINE
  8
ボルト／ビス
  6
CONTINUOUS
 10
162.37617
 20
66.169687
 11
162.409503
 21
66.169687
  0
LINE
  8
ボルト／ビス
  6
CONTINUOUS
 10
162.37617
 20
66.169687
 11
162.37617
 21
65.569687
  0
LINE
  8
ボルト／ビス
  6
CONTINUOUS
 10
162.37617
 20
65.569687
 11
162.409503
 21
65.569687
  0
LINE
  8
ボルト／ビス
  6
CONTINUOUS
 62
    64
 10
162.17617
 20
66.030062
 11
162.187845
 21
66.062138
  0
ARC
  8
ボルト／ビス
  6
CONTINUOUS
 62
    64
 10
162.281149
 20
66.014031
 40
0.104978
 50
180.0
 51
207.278033
  0
ARC
  8
ボルト／ビス
  6
CONTINUOUS
 62
    64
 10
162.578573
 20
65.869693
 40
0.402402
 50
166.165015
 51
193.834998
  0
LINE
  8
ボルト／ビス
  6
CONTINUOUS
 62
    64
 10
162.17617
 20
65.709312
 11
162.187845
 21
65.677238
  0
ARC
  8
ボルト／ビス
  6
CONTINUOUS
 62
    64
 10
162.281149
 20
65.725355
 40
0.104978
 50
152.721967
 51
180.0
  0
LINE
  8
ボルト／ビス
  6
CONTINUOUS
 62
    64
 10
162.17617
 20
66.030062
 11
162.17617
 21
65.709312
  0
LINE
  8
ボルト／ビス
  6
CONTINUOUS
 62
    64
 10
162.187845
 20
65.677238
 11
162.309503
 21
65.677238
  0
LINE
  8
ボルト／ビス
  6
CONTINUOUS
 62
    64
 10
162.187845
 20
65.773462
 11
162.309503
 21
65.773462
  0
LINE
  8
ボルト／ビス
  6
CONTINUOUS
 62
    64
 10
162.187845
 20
66.062138
 11
162.309503
 21
66.062138
  0
LINE
  8
ボルト／ビス
  6
CONTINUOUS
 62
    64
 10
162.187845
 20
65.965913
 11
162.309503
 21
65.965913
  0
LINE
  8
ボルト／ビス
  6
CONTINUOUS
 10
162.309503
 20
66.062138
 11
162.309503
 21
65.677238
  0
LINE
  8
ボルト／ビス
  6
CONTINUOUS
 10
162.309503
 20
66.069687
 11
162.37617
 21
66.069687
  0
LINE
  8
ボルト／ビス
  6
CONTINUOUS
 10
162.309503
 20
66.069687
 11
162.309503
 21
65.669687
  0
LINE
  8
ボルト／ビス
  6
CONTINUOUS
 10
162.309503
 20
65.669687
 11
162.37617
 21
65.669687
  0
ENDBLK
  0
BLOCK
  2
*GRP_0004
 70
    65
 10
0.0
 20
0.0
  0
INSERT
  2
M8横
  8
ゴム等
  6
CONTINUOUS
 10
163.336003
 20
34.376965
 50
90.0
 41
0.033333
 42
0.033333
  0
LINE
  8
ボルト／ビス
  6
CONTINUOUS
 10
163.126005
 20
34.5103
 11
163.109338
 21
34.493633
  0
LINE
  8
ボルト／ビス
  6
CONTINUOUS
 10
163.109338
 20
34.2603
 11
163.126005
 21
34.243633
  0
LINE
  8
ボルト／ビス
  6
CONTINUOUS
 10
163.126005
 20
34.243633
 11
163.126005
 21
34.5103
  0
LINE
  8
ボルト／ビス
  6
CONTINUOUS
 10
163.109338
 20
34.2603
 11
163.109338
 21
34.493633
  0
LINE
  8
ボルト／ビス
  6
CONTINUOUS
 10
163.109338
 20
34.493633
 11
163.15267
 21
34.493633
  0
LINE
  8
ボルト／ビス
  6
CONTINUOUS
 10
163.126005
 20
34.5103
 11
163.15267
 21
34.5103
  0
LINE
  8
ボルト／ビス
  6
CONTINUOUS
 10
163.126005
 20
34.243633
 11
163.15267
 21
34.243633
  0
LINE
  8
ボルト／ビス
  6
CONTINUOUS
 10
163.109338
 20
34.2603
 11
163.15267
 21
34.2603
  0
LINE
  8
ボルト／ビス
  6
CONTINUOUS
 10
163.336003
 20
34.0103
 11
163.336003
 21
34.743633
  0
LINE
  8
ボルト／ビス
  6
CONTINUOUS
 10
163.376002
 20
34.793633
 11
163.459335
 21
34.793633
  0
LINE
  8
ボルト／ビス
  6
CONTINUOUS
 10
163.459335
 20
34.793633
 11
163.459335
 21
33.9603
  0
LINE
  8
ボルト／ビス
  6
CONTINUOUS
 10
163.459335
 20
33.9603
 11
163.376002
 21
33.9603
  0
LINE
  8
ボルト／ビス
  6
CONTINUOUS
 10
163.376002
 20
34.793633
 11
163.376002
 21
33.9603
  0
LINE
  8
ボルト／ビス
  6
CONTINUOUS
 10
163.336003
 20
34.0103
 11
163.376002
 21
34.0103
  0
LINE
  8
ボルト／ビス
  6
CONTINUOUS
 10
163.336003
 20
34.743633
 11
163.376002
 21
34.743633
  0
LINE
  8
ボルト／ビス
  6
CONTINUOUS
 10
163.386002
 20
34.376965
 11
163.336003
 21
34.376965
  0
ENDBLK
  0
BLOCK
  2
*GRP_0005
 70
    65
 10
0.0
 20
0.0
  0
LINE
  8
ボルト／ビス
  6
CONTINUOUS
 10
162.47617
 20
34.170298
 11
162.409503
 21
34.170298
  0
LINE
  8
ボルト／ビス
  6
CONTINUOUS
 10
162.409503
 20
34.170298
 11
162.409503
 21
34.90363
  0
LINE
  8
ボルト／ビス
  6
CONTINUOUS
 10
162.409503
 20
34.90363
 11
162.47617
 21
34.90363
  0
LINE
  8
ボルト／ビス
  6
CONTINUOUS
 10
162.47617
 20
34.170298
 11
162.47617
 21
34.90363
  0
LINE
  8
ボルト／ビス
  6
CONTINUOUS
 10
162.37617
 20
34.236965
 11
162.409503
 21
34.236965
  0
LINE
  8
ボルト／ビス
  6
CONTINUOUS
 10
162.37617
 20
34.236965
 11
162.37617
 21
34.836965
  0
LINE
  8
ボルト／ビス
  6
CONTINUOUS
 10
162.37617
 20
34.836965
 11
162.409503
 21
34.836965
  0
LINE
  8
ボルト／ビス
  6
CONTINUOUS
 62
    64
 10
162.17617
 20
34.37659
 11
162.187845
 21
34.344515
  0
ARC
  8
ボルト／ビス
  6
CONTINUOUS
 62
    64
 10
162.281149
 20
34.392632
 40
0.104978
 50
152.721967
 51
180.0
  0
ARC
  8
ボルト／ビス
  6
CONTINUOUS
 62
    64
 10
162.578573
 20
34.536969
 40
0.402402
 50
166.165002
 51
193.834985
  0
LINE
  8
ボルト／ビス
  6
CONTINUOUS
 62
    64
 10
162.17617
 20
34.69734
 11
162.187845
 21
34.729415
  0
ARC
  8
ボルト／ビス
  6
CONTINUOUS
 62
    64
 10
162.281149
 20
34.681307
 40
0.104978
 50
180.0
 51
207.278033
  0
LINE
  8
ボルト／ビス
  6
CONTINUOUS
 62
    64
 10
162.17617
 20
34.37659
 11
162.17617
 21
34.69734
  0
LINE
  8
ボルト／ビス
  6
CONTINUOUS
 62
    64
 10
162.187845
 20
34.729415
 11
162.309503
 21
34.729415
  0
LINE
  8
ボルト／ビス
  6
CONTINUOUS
 62
    64
 10
162.187845
 20
34.63319
 11
162.309503
 21
34.63319
  0
LINE
  8
ボルト／ビス
  6
CONTINUOUS
 62
    64
 10
162.187845
 20
34.344515
 11
162.309503
 21
34.344515
  0
LINE
  8
ボルト／ビス
  6
CONTINUOUS
 62
    64
 10
162.187845
 20
34.44074
 11
162.309503
 21
34.44074
  0
LINE
  8
ボルト／ビス
  6
CONTINUOUS
 10
162.309503
 20
34.344515
 11
162.309503
 21
34.729415
  0
LINE
  8
ボルト／ビス
  6
CONTINUOUS
 10
162.309503
 20
34.336965
 11
162.37617
 21
34.336965
  0
LINE
  8
ボルト／ビス
  6
CONTINUOUS
 10
162.309503
 20
34.336965
 11
162.309503
 21
34.736965
  0
LINE
  8
ボルト／ビス
  6
CONTINUOUS
 10
162.309503
 20
34.736965
 11
162.37617
 21
34.736965
  0
ENDBLK
  0
BLOCK
  2
*DIM_0006
 70
    65
 10
0.0
 20
0.0
  0
LINE
  8
寸法
  6
CONTINUOUS
 10
161.248695
 20
32.92363
 11
142.14273
 21
32.92363
  0
LINE
  8
寸法
  6
CONTINUOUS
 10
142.14273
 20
35.203325
 11
142.14273
 21
32.92363
  0
POINT
  8
寸法
 10
142.14273
 20
35.203325
  0
POINT
  8
寸法
 10
142.14273
 20
32.92363
  0
TEXT
  7
TextStyle03
  8
寸法
  6
CONTINUOUS
 10
141.75
 20
24.01875
  1
68.4
 40
3.0
 50
90.0
 72
     5
 11
141.75
 21
30.58125
  0
ENDBLK
  0
BLOCK
  2
*DIM_0007
 70
    65
 10
0.0
 20
0.0
  0
LINE
  8
寸法
  6
CONTINUOUS
 10
142.14273
 20
65.203325
 11
142.14273
 21
35.203325
  0
POINT
  8
寸法
 10
142.14273
 20
65.203325
  0
POINT
  8
寸法
 10
142.14273
 20
35.203325
  0
TEXT
  7
TextStyle03
  8
寸法
  6
CONTINUOUS
 10
141.75
 20
39.325
  1
呼称寸法　900
 40
3.0
 50
90.0
 72
     5
 11
141.75
 21
61.075
  0
ENDBLK
  0
BLOCK
  2
*DIM_0008
 70
    65
 10
0.0
 20
0.0
  0
LINE
  8
寸法
  6
CONTINUOUS
 10
161.248695
 20
67.48302
 11
142.14273
 21
67.48302
  0
LINE
  8
寸法
  6
CONTINUOUS
 10
142.14273
 20
65.203325
 11
142.14273
 21
67.48302
  0
POINT
  8
寸法
 10
142.14273
 20
65.203325
  0
POINT
  8
寸法
 10
142.14273
 20
67.48302
  0
TEXT
  7
TextStyle03
  8
寸法
  6
CONTINUOUS
 10
141.75
 20
69.79375
  1
68.4
 40
3.0
 50
90.0
 72
     5
 11
141.75
 21
76.35625
  0
ENDBLK
  0
BLOCK
  2
*GRP_0009
 70
    65
 10
0.0
 20
0.0
  0
INSERT
  2
M8横
  8
ゴム等
  6
CONTINUOUS
 10
4.896528
 20
-70.297288
 50
180.0
 41
0.033333
 42
-0.033333
  0
LINE
  8
ボルト／ビス
  6
CONTINUOUS
 10
4.763195
 20
-70.087288
 11
4.77986
 21
-70.070622
  0
LINE
  8
ボルト／ビス
  6
CONTINUOUS
 10
5.013195
 20
-70.070622
 11
5.02986
 21
-70.087288
  0
LINE
  8
ボルト／ビス
  6
CONTINUOUS
 10
5.02986
 20
-70.087288
 11
4.763195
 21
-70.087288
  0
LINE
  8
ボルト／ビス
  6
CONTINUOUS
 10
5.013195
 20
-70.070622
 11
4.77986
 21
-70.070622
  0
LINE
  8
ボルト／ビス
  6
CONTINUOUS
 10
4.77986
 20
-70.070622
 11
4.77986
 21
-70.113952
  0
LINE
  8
ボルト／ビス
  6
CONTINUOUS
 10
4.763195
 20
-70.087288
 11
4.763195
 21
-70.113952
  0
LINE
  8
ボルト／ビス
  6
CONTINUOUS
 10
5.02986
 20
-70.087288
 11
5.02986
 21
-70.113952
  0
LINE
  8
ボルト／ビス
  6
CONTINUOUS
 10
5.013195
 20
-70.070622
 11
5.013195
 21
-70.113952
  0
LINE
  8
ボルト／ビス
  6
CONTINUOUS
 10
5.263195
 20
-70.297288
 11
4.52986
 21
-70.297288
  0
LINE
  8
ボルト／ビス
  6
CONTINUOUS
 10
4.47986
 20
-70.337288
 11
4.47986
 21
-70.42062
  0
LINE
  8
ボルト／ビス
  6
CONTINUOUS
 10
4.47986
 20
-70.42062
 11
5.313195
 21
-70.42062
  0
LINE
  8
ボルト／ビス
  6
CONTINUOUS
 10
5.313195
 20
-70.42062
 11
5.313195
 21
-70.337288
  0
LINE
  8
ボルト／ビス
  6
CONTINUOUS
 10
4.47986
 20
-70.337288
 11
5.313195
 21
-70.337288
  0
LINE
  8
ボルト／ビス
  6
CONTINUOUS
 10
5.263195
 20
-70.297288
 11
5.263195
 21
-70.337288
  0
LINE
  8
ボルト／ビス
  6
CONTINUOUS
 10
4.52986
 20
-70.297288
 11
4.52986
 21
-70.337288
  0
LINE
  8
ボルト／ビス
  6
CONTINUOUS
 10
4.896528
 20
-70.347288
 11
4.896528
 21
-70.297288
  0
ENDBLK
  0
BLOCK
  2
*GRP_0010
 70
    65
 10
0.0
 20
0.0
  0
LINE
  8
ボルト／ビス
  6
CONTINUOUS
 10
5.103195
 20
-69.437453
 11
5.103195
 21
-69.370788
  0
LINE
  8
ボルト／ビス
  6
CONTINUOUS
 10
5.103195
 20
-69.370788
 11
4.369863
 21
-69.370788
  0
LINE
  8
ボルト／ビス
  6
CONTINUOUS
 10
4.369863
 20
-69.370788
 11
4.369863
 21
-69.437453
  0
LINE
  8
ボルト／ビス
  6
CONTINUOUS
 10
5.103195
 20
-69.437453
 11
4.369863
 21
-69.437453
  0
LINE
  8
ボルト／ビス
  6
CONTINUOUS
 10
5.03653
 20
-69.337453
 11
5.03653
 21
-69.370788
  0
LINE
  8
ボルト／ビス
  6
CONTINUOUS
 10
5.03653
 20
-69.337453
 11
4.43653
 21
-69.337453
  0
LINE
  8
ボルト／ビス
  6
CONTINUOUS
 10
4.43653
 20
-69.337453
 11
4.43653
 21
-69.370788
  0
LINE
  8
ボルト／ビス
  6
CONTINUOUS
 62
    64
 10
4.896905
 20
-69.137453
 11
4.92898
 21
-69.149128
  0
ARC
  8
ボルト／ビス
  6
CONTINUOUS
 62
    64
 10
4.880866
 20
-69.242431
 40
0.104978
 50
90.0
 51
117.278033
  0
ARC
  8
ボルト／ビス
  6
CONTINUOUS
 62
    64
 10
4.736529
 20
-69.539855
 40
0.402402
 50
76.165015
 51
103.834998
  0
LINE
  8
ボルト／ビス
  6
CONTINUOUS
 62
    64
 10
4.576155
 20
-69.137453
 11
4.54408
 21
-69.149128
  0
ARC
  8
ボルト／ビス
  6
CONTINUOUS
 62
    64
 10
4.592191
 20
-69.242431
 40
0.104978
 50
62.721967
 51
90.0
  0
LINE
  8
ボルト／ビス
  6
CONTINUOUS
 62
    64
 10
4.896905
 20
-69.137453
 11
4.576155
 21
-69.137453
  0
LINE
  8
ボルト／ビス
  6
CONTINUOUS
 62
    64
 10
4.54408
 20
-69.149128
 11
4.54408
 21
-69.270788
  0
LINE
  8
ボルト／ビス
  6
CONTINUOUS
 62
    64
 10
4.640305
 20
-69.149128
 11
4.640305
 21
-69.270788
  0
LINE
  8
ボルト／ビス
  6
CONTINUOUS
 62
    64
 10
4.92898
 20
-69.149128
 11
4.92898
 21
-69.270788
  0
LINE
  8
ボルト／ビス
  6
CONTINUOUS
 62
    64
 10
4.832755
 20
-69.149128
 11
4.832755
 21
-69.270788
  0
LINE
  8
ボルト／ビス
  6
CONTINUOUS
 10
4.92898
 20
-69.270788
 11
4.54408
 21
-69.270788
  0
LINE
  8
ボルト／ビス
  6
CONTINUOUS
 10
4.93653
 20
-69.270788
 11
4.93653
 21
-69.337453
  0
LINE
  8
ボルト／ビス
  6
CONTINUOUS
 10
4.93653
 20
-69.270788
 11
4.53653
 21
-69.270788
  0
LINE
  8
ボルト／ビス
  6
CONTINUOUS
 10
4.53653
 20
-69.270788
 11
4.53653
 21
-69.337453
  0
ENDBLK
  0
BLOCK
  2
*GRP_0011
 70
    65
 10
0.0
 20
0.0
  0
INSERT
  2
M8横
  8
ゴム等
  6
CONTINUOUS
 10
-80.089523
 20
-70.297288
 41
0.033333
 42
0.033333
  0
LINE
  8
ボルト／ビス
  6
CONTINUOUS
 10
-79.95619
 20
-70.087288
 11
-79.972855
 21
-70.070622
  0
LINE
  8
ボルト／ビス
  6
CONTINUOUS
 10
-80.20619
 20
-70.070622
 11
-80.222855
 21
-70.087288
  0
LINE
  8
ボルト／ビス
  6
CONTINUOUS
 10
-80.222855
 20
-70.087288
 11
-79.95619
 21
-70.087288
  0
LINE
  8
ボルト／ビス
  6
CONTINUOUS
 10
-80.20619
 20
-70.070622
 11
-79.972855
 21
-70.070622
  0
LINE
  8
ボルト／ビス
  6
CONTINUOUS
 10
-79.972855
 20
-70.070622
 11
-79.972855
 21
-70.113952
  0
LINE
  8
ボルト／ビス
  6
CONTINUOUS
 10
-79.95619
 20
-70.087288
 11
-79.95619
 21
-70.113952
  0
LINE
  8
ボルト／ビス
  6
CONTINUOUS
 10
-80.222855
 20
-70.087288
 11
-80.222855
 21
-70.113952
  0
LINE
  8
ボルト／ビス
  6
CONTINUOUS
 10
-80.20619
 20
-70.070622
 11
-80.20619
 21
-70.113952
  0
LINE
  8
ボルト／ビス
  6
CONTINUOUS
 10
-80.45619
 20
-70.297288
 11
-79.722855
 21
-70.297288
  0
LINE
  8
ボルト／ビス
  6
CONTINUOUS
 10
-79.672855
 20
-70.337288
 11
-79.672855
 21
-70.42062
  0
LINE
  8
ボルト／ビス
  6
CONTINUOUS
 10
-79.672855
 20
-70.42062
 11
-80.50619
 21
-70.42062
  0
LINE
  8
ボルト／ビス
  6
CONTINUOUS
 10
-80.50619
 20
-70.42062
 11
-80.50619
 21
-70.337288
  0
LINE
  8
ボルト／ビス
  6
CONTINUOUS
 10
-79.672855
 20
-70.337288
 11
-80.50619
 21
-70.337288
  0
LINE
  8
ボルト／ビス
  6
CONTINUOUS
 10
-80.45619
 20
-70.297288
 11
-80.45619
 21
-70.337288
  0
LINE
  8
ボルト／ビス
  6
CONTINUOUS
 10
-79.722855
 20
-70.297288
 11
-79.722855
 21
-70.337288
  0
LINE
  8
ボルト／ビス
  6
CONTINUOUS
 10
-80.089523
 20
-70.347288
 11
-80.089523
 21
-70.297288
  0
ENDBLK
  0
BLOCK
  2
*GRP_0012
 70
    65
 10
0.0
 20
0.0
  0
LINE
  8
ボルト／ビス
  6
CONTINUOUS
 10
-80.29619
 20
-69.437453
 11
-80.29619
 21
-69.370788
  0
LINE
  8
ボルト／ビス
  6
CONTINUOUS
 10
-80.29619
 20
-69.370788
 11
-79.562857
 21
-69.370788
  0
LINE
  8
ボルト／ビス
  6
CONTINUOUS
 10
-79.562857
 20
-69.370788
 11
-79.562857
 21
-69.437453
  0
LINE
  8
ボルト／ビス
  6
CONTINUOUS
 10
-80.29619
 20
-69.437453
 11
-79.562857
 21
-69.437453
  0
LINE
  8
ボルト／ビス
  6
CONTINUOUS
 10
-80.229525
 20
-69.337453
 11
-80.229525
 21
-69.370788
  0
LINE
  8
ボルト／ビス
  6
CONTINUOUS
 10
-80.229525
 20
-69.337453
 11
-79.629525
 21
-69.337453
  0
LINE
  8
ボルト／ビス
  6
CONTINUOUS
 10
-79.629525
 20
-69.337453
 11
-79.629525
 21
-69.370788
  0
LINE
  8
ボルト／ビス
  6
CONTINUOUS
 62
    64
 10
-80.0899
 20
-69.137453
 11
-80.121975
 21
-69.149128
  0
ARC
  8
ボルト／ビス
  6
CONTINUOUS
 62
    64
 10
-80.073863
 20
-69.242431
 40
0.104978
 50
62.721967
 51
90.0
  0
ARC
  8
ボルト／ビス
  6
CONTINUOUS
 62
    64
 10
-79.929525
 20
-69.539855
 40
0.402402
 50
76.165002
 51
103.834985
  0
LINE
  8
ボルト／ビス
  6
CONTINUOUS
 62
    64
 10
-79.76915
 20
-69.137453
 11
-79.737075
 21
-69.149128
  0
ARC
  8
ボルト／ビス
  6
CONTINUOUS
 62
    64
 10
-79.785188
 20
-69.242431
 40
0.104978
 50
90.0
 51
117.278033
  0
LINE
  8
ボルト／ビス
  6
CONTINUOUS
 62
    64
 10
-80.0899
 20
-69.137453
 11
-79.76915
 21
-69.137453
  0
LINE
  8
ボルト／ビス
  6
CONTINUOUS
 62
    64
 10
-79.737075
 20
-69.149128
 11
-79.737075
 21
-69.270788
  0
LINE
  8
ボルト／ビス
  6
CONTINUOUS
 62
    64
 10
-79.8333
 20
-69.149128
 11
-79.8333
 21
-69.270788
  0
LINE
  8
ボルト／ビス
  6
CONTINUOUS
 62
    64
 10
-80.121975
 20
-69.149128
 11
-80.121975
 21
-69.270788
  0
LINE
  8
ボルト／ビス
  6
CONTINUOUS
 62
    64
 10
-80.02575
 20
-69.149128
 11
-80.02575
 21
-69.270788
  0
LINE
  8
ボルト／ビス
  6
CONTINUOUS
 10
-80.121975
 20
-69.270788
 11
-79.737075
 21
-69.270788
  0
LINE
  8
ボルト／ビス
  6
CONTINUOUS
 10
-80.129525
 20
-69.270788
 11
-80.129525
 21
-69.337453
  0
LINE
  8
ボルト／ビス
  6
CONTINUOUS
 10
-80.129525
 20
-69.270788
 11
-79.729525
 21
-69.270788
  0
LINE
  8
ボルト／ビス
  6
CONTINUOUS
 10
-79.729525
 20
-69.270788
 11
-79.729525
 21
-69.337453
  0
ENDBLK
  0
BLOCK
  2
*DIM_0013
 70
    65
 10
0.0
 20
0.0
  0
LINE
  8
寸法
  6
CONTINUOUS
 10
9.070168
 20
-68.70412
 11
27.68864
 21
-68.70412
  0
LINE
  8
寸法
  6
CONTINUOUS
 10
11.03653
 20
-76.17062
 11
27.68864
 21
-76.17062
  0
LINE
  8
寸法
  6
CONTINUOUS
 10
27.68864
 20
-68.70412
 11
27.68864
 21
-76.17062
  0
POINT
  8
寸法
 10
27.68864
 20
-68.70412
  0
POINT
  8
寸法
 10
27.68864
 20
-76.17062
  0
TEXT
  7
TextStyle03
  8
寸法
  6
CONTINUOUS
 10
27.3
 20
-74.8875
  1
224
 40
3.0
 50
90.0
 72
     5
 11
27.3
 21
-70.0125
  0
ENDBLK
  0
BLOCK
  2
*DIM_0014
 70
    65
 10
0.0
 20
0.0
  0
LINE
  8
寸法
  6
CONTINUOUS
 10
169.209335
 20
28.236965
 11
169.209335
 21
20.327945
  0
LINE
  8
寸法
  6
CONTINUOUS
 10
161.742835
 20
30.203325
 11
161.742835
 21
20.327945
  0
LINE
  8
寸法
  6
CONTINUOUS
 10
169.209335
 20
20.327945
 11
161.742835
 21
20.327945
  0
POINT
  8
寸法
 10
169.209335
 20
20.327945
  0
POINT
  8
寸法
 10
161.742835
 20
20.327945
  0
TEXT
  7
TextStyle03
  8
寸法
  6
CONTINUOUS
 10
163.0375
 20
20.7
  1
224
 40
3.0
 72
     5
 11
167.9125
 21
20.7
  0
ENDBLK
  0
BLOCK
  2
*DIM_0015
 70
    65
 10
0.0
 20
0.0
  0
LINE
  8
寸法
  6
BYBLOCK
 62
     0
 10
-62.596495
 20
31.573195
 11
-62.596495
 21
26.407712
  0
LINE
  8
寸法
  6
BYBLOCK
 62
     0
 10
-12.5965
 20
31.573195
 11
-12.5965
 21
26.407712
  0
LINE
  8
寸法
  6
BYBLOCK
 62
     0
 10
-62.596495
 20
26.407712
 11
-12.5965
 21
26.407712
  0
POINT
  8
寸法
 62
     0
 10
-62.596495
 20
26.407712
  0
POINT
  8
寸法
 62
     0
 10
-12.5965
 20
26.407712
  0
TEXT
  7
TextStyle03
  8
寸法
  6
CONTINUOUS
 62
     0
 10
-40.88125
 20
26.75
  1
1500
 40
3.0
 72
     5
 11
-34.31875
 21
26.75
  0
ENDBLK
  0
BLOCK
  2
*DIM_0016
 70
    65
 10
0.0
 20
0.0
  0
LINE
  8
寸法
  6
BYBLOCK
 62
     0
 10
7.700297
 20
61.303325
 11
14.47759
 21
61.303325
  0
LINE
  8
寸法
  6
BYBLOCK
 62
     0
 10
14.47759
 20
65.203325
 11
14.47759
 21
61.303325
  0
POINT
  8
寸法
 62
     0
 10
14.47759
 20
65.203325
  0
POINT
  8
寸法
 62
     0
 10
14.47759
 20
61.303325
  0
TEXT
  7
TextStyle03
  8
寸法
  6
CONTINUOUS
 62
     0
 10
14.2
 20
65.8625
  1
117
 40
3.0
 50
90.0
 72
     5
 11
14.2
 21
70.7375
  0
ENDBLK
  0
BLOCK
  2
*DIM_0017
 70
    65
 10
0.0
 20
0.0
  0
LINE
  8
寸法
  6
BYBLOCK
 62
     0
 10
7.700297
 20
39.103325
 11
14.47759
 21
39.103325
  0
LINE
  8
寸法
  6
BYBLOCK
 62
     0
 10
14.47759
 20
35.203325
 11
14.47759
 21
39.103325
  0
POINT
  8
寸法
 62
     0
 10
14.47759
 20
35.203325
  0
POINT
  8
寸法
 62
     0
 10
14.47759
 20
39.103325
  0
TEXT
  7
TextStyle03
  8
寸法
  6
CONTINUOUS
 62
     0
 10
14.575
 20
29.5875
  1
117
 40
3.0
 50
90.0
 72
     5
 11
14.575
 21
34.4625
  0
ENDBLK
  0
BLOCK
  2
*DIM_0018
 70
    65
 10
0.0
 20
0.0
  0
LINE
  8
寸法
  6
BYBLOCK
 62
     0
 10
-82.263162
 20
60.203325
 11
-95.556
 21
60.203325
  0
LINE
  8
寸法
  6
BYBLOCK
 62
     0
 10
-82.263162
 20
40.203325
 11
-95.556
 21
40.203325
  0
LINE
  8
寸法
  6
BYBLOCK
 62
     0
 10
-95.556
 20
60.203325
 11
-95.556
 21
40.203325
  0
POINT
  8
寸法
 62
     0
 10
-95.556
 20
60.203325
  0
POINT
  8
寸法
 62
     0
 10
-95.556
 20
40.203325
  0
TEXT
  7
TextStyle03
  8
寸法
  6
CONTINUOUS
 62
     0
 10
-95.925
 20
47.7375
  1
600
 40
3.0
 50
90.0
 72
     5
 11
-95.925
 21
52.6125
  0
ENDBLK
  0
BLOCK
  2
*DIM_0019
 70
    65
 10
0.0
 20
0.0
  0
LINE
  8
寸法
  6
BYBLOCK
 62
     0
 10
-72.596497
 20
68.203325
 11
-72.596497
 21
97.950945
  0
LINE
  8
寸法
  6
BYBLOCK
 62
     0
 10
-49.263165
 20
68.203325
 11
-49.263165
 21
97.950945
  0
LINE
  8
寸法
  6
BYBLOCK
 62
     0
 10
-72.596497
 20
97.950945
 11
-49.263165
 21
97.950945
  0
POINT
  8
寸法
 62
     0
 10
-72.596497
 20
97.950945
  0
POINT
  8
寸法
 62
     0
 10
-49.263165
 20
97.950945
  0
TEXT
  7
TextStyle03
  8
寸法
  6
CONTINUOUS
 62
     0
 10
-63.3625
 20
98.325
  1
700
 40
3.0
 72
     5
 11
-58.4875
 21
98.325
  0
ENDBLK
  0
BLOCK
  2
*DIM_0020
 70
    65
 10
0.0
 20
0.0
  0
LINE
  8
寸法
  6
BYBLOCK
 62
     0
 10
-25.92983
 20
68.203325
 11
-25.92983
 21
97.950945
  0
LINE
  8
寸法
  6
BYBLOCK
 62
     0
 10
-49.263165
 20
97.950945
 11
-25.92983
 21
97.950945
  0
POINT
  8
寸法
 62
     0
 10
-25.92983
 20
97.950945
  0
TEXT
  7
TextStyle03
  8
寸法
  6
CONTINUOUS
 62
     0
 10
-40.0375
 20
98.325
  1
700
 40
3.0
 72
     5
 11
-35.1625
 21
98.325
  0
ENDBLK
  0
BLOCK
  2
*DIM_0021
 70
    65
 10
0.0
 20
0.0
  0
LINE
  8
寸法
  6
BYBLOCK
 62
     0
 10
-2.596497
 20
68.203325
 11
-2.596497
 21
97.950945
  0
LINE
  8
寸法
  6
BYBLOCK
 62
     0
 10
-25.92983
 20
97.950945
 11
-2.596497
 21
97.950945
  0
POINT
  8
寸法
 62
     0
 10
-2.596497
 20
97.950945
  0
TEXT
  7
TextStyle03
  8
寸法
  6
CONTINUOUS
 62
     0
 10
-16.6875
 20
98.325
  1
700
 40
3.0
 72
     5
 11
-11.8125
 21
98.325
  0
ENDBLK
  0
BLOCK
  2
*GRP_0022
 70
    65
 10
0.0
 20
0.0
  0
LINE
  8
補助線
  6
BYBLOCK
 62
    64
 10
-75.861615
 20
-74.300078
 11
-75.998665
 21
-74.394923
  0
LINE
  8
補助線
  6
BYBLOCK
 62
    64
 10
-75.977563
 20
-74.278972
 11
-75.882718
 21
-74.416025
  0
LINE
  8
補助線
  6
BYBLOCK
 62
    64
 10
-66.734213
 20
-67.983388
 11
-66.871263
 21
-68.07823
  0
LINE
  8
補助線
  6
BYBLOCK
 62
    64
 10
-66.85016
 20
-67.962283
 11
-66.755315
 21
-68.099333
  0
LINE
  8
補助線
  6
BYBLOCK
 62
    64
 10
-57.74386
 20
-61.76154
 11
-57.606812
 21
-61.666695
  0
LINE
  8
補助線
  6
BYBLOCK
 62
    64
 10
-57.72276
 20
-61.64559
 11
-57.627913
 21
-61.782643
  0
LINE
  8
型材断面
  6
CONTINUOUS
 10
-76.67846
 20
-73.851952
 11
-76.80507
 21
-74.547632
  0
LINE
  8
型材断面
  6
CONTINUOUS
 10
-76.80507
 20
-74.547632
 11
-76.425688
 21
-75.095823
  0
LINE
  8
型材断面
  6
CONTINUOUS
 10
-76.425688
 20
-75.095823
 11
-75.730008
 21
-75.222433
  0
LINE
  8
型材断面
  6
CONTINUOUS
 10
-57.875468
 20
-60.839188
 11
-57.179788
 21
-60.965798
  0
LINE
  8
型材断面
  6
CONTINUOUS
 10
-57.179788
 20
-60.965798
 11
-56.800405
 21
-61.513987
  0
LINE
  8
型材断面
  6
CONTINUOUS
 10
-56.800405
 20
-61.513987
 11
-56.927015
 21
-62.209667
  0
LINE
  8
型材断面
  6
CONTINUOUS
 10
-76.67846
 20
-73.851952
 11
-57.875468
 21
-60.839188
  0
LINE
  8
型材断面
  6
CONTINUOUS
 10
-75.730008
 20
-75.222433
 11
-56.927015
 21
-62.209667
  0
CIRCLE
  8
ボルト／ビス
  6
CONTINUOUS
 10
-75.93014
 20
-74.3475
 40
0.250185
  0
CIRCLE
  8
ボルト／ビス
  6
CONTINUOUS
 10
-75.93014
 20
-74.3475
 40
0.301025
  0
LINE
  8
ボルト／ビス
  6
CONTINUOUS
 62
    64
 10
-76.17949
 20
-74.367937
 11
-76.072512
 21
-74.141777
  0
LINE
  8
ボルト／ビス
  6
CONTINUOUS
 62
    64
 10
-75.823163
 20
-74.12134
 11
-76.072512
 21
-74.141777
  0
LINE
  8
ボルト／ビス
  6
CONTINUOUS
 62
    64
 10
-76.037118
 20
-74.57366
 11
-75.787767
 21
-74.553222
  0
LINE
  8
ボルト／ビス
  6
CONTINUOUS
 62
    64
 10
-75.68079
 20
-74.327063
 11
-75.787767
 21
-74.553222
  0
LINE
  8
ボルト／ビス
  6
CONTINUOUS
 62
    64
 10
-76.17949
 20
-74.367937
 11
-76.037118
 21
-74.57366
  0
LINE
  8
ボルト／ビス
  6
CONTINUOUS
 62
    64
 10
-75.823163
 20
-74.12134
 11
-75.68079
 21
-74.327063
  0
CIRCLE
  8
ボルト／ビス
  6
CONTINUOUS
 62
    64
 10
-75.93014
 20
-74.3475
 40
0.216668
  0
CIRCLE
  8
ボルト／ビス
  6
CONTINUOUS
 10
-66.802737
 20
-68.030807
 40
0.250185
  0
CIRCLE
  8
ボルト／ビス
  6
CONTINUOUS
 10
-66.802737
 20
-68.030807
 40
0.301025
  0
LINE
  8
ボルト／ビス
  6
CONTINUOUS
 62
    64
 10
-67.05209
 20
-68.051245
 11
-66.945112
 21
-67.825085
  0
LINE
  8
ボルト／ビス
  6
CONTINUOUS
 62
    64
 10
-66.69576
 20
-67.804648
 11
-66.945112
 21
-67.825085
  0
LINE
  8
ボルト／ビス
  6
CONTINUOUS
 62
    64
 10
-66.909715
 20
-68.25697
 11
-66.660365
 21
-68.236532
  0
LINE
  8
ボルト／ビス
  6
CONTINUOUS
 62
    64
 10
-66.55339
 20
-68.010372
 11
-66.660365
 21
-68.236532
  0
LINE
  8
ボルト／ビス
  6
CONTINUOUS
 62
    64
 10
-67.05209
 20
-68.051245
 11
-66.909715
 21
-68.25697
  0
LINE
  8
ボルト／ビス
  6
CONTINUOUS
 62
    64
 10
-66.69576
 20
-67.804648
 11
-66.55339
 21
-68.010372
  0
CIRCLE
  8
ボルト／ビス
  6
CONTINUOUS
 62
    64
 10
-66.802737
 20
-68.030807
 40
0.216668
  0
CIRCLE
  8
ボルト／ビス
  6
CONTINUOUS
 10
-57.675335
 20
-61.714117
 40
0.250185
  0
CIRCLE
  8
ボルト／ビス
  6
CONTINUOUS
 10
-57.675335
 20
-61.714117
 40
0.301025
  0
LINE
  8
ボルト／ビス
  6
CONTINUOUS
 62
    64
 10
-57.568358
 20
-61.487955
 11
-57.817707
 21
-61.508395
  0
LINE
  8
ボルト／ビス
  6
CONTINUOUS
 62
    64
 10
-57.924685
 20
-61.734555
 11
-57.817707
 21
-61.508395
  0
LINE
  8
ボルト／ビス
  6
CONTINUOUS
 62
    64
 10
-57.425987
 20
-61.69368
 11
-57.532963
 21
-61.91984
  0
LINE
  8
ボルト／ビス
  6
CONTINUOUS
 62
    64
 10
-57.782312
 20
-61.940277
 11
-57.532963
 21
-61.91984
  0
LINE
  8
ボルト／ビス
  6
CONTINUOUS
 62
    64
 10
-57.568358
 20
-61.487955
 11
-57.425987
 21
-61.69368
  0
LINE
  8
ボルト／ビス
  6
CONTINUOUS
 62
    64
 10
-57.924685
 20
-61.734555
 11
-57.782312
 21
-61.940277
  0
CIRCLE
  8
ボルト／ビス
  6
CONTINUOUS
 62
    64
 10
-57.675335
 20
-61.714117
 40
0.216668
  0
ENDBLK
  0
BLOCK
  2
*GRP_0023
 70
    65
 10
0.0
 20
0.0
  0
LINE
  8
補助線
  6
BYBLOCK
 62
    64
 10
-57.74386
 20
-74.300078
 11
-57.60681
 21
-74.394923
  0
LINE
  8
補助線
  6
BYBLOCK
 62
    64
 10
-57.627913
 20
-74.278972
 11
-57.722757
 21
-74.416025
  0
LINE
  8
補助線
  6
BYBLOCK
 62
    64
 10
-66.871263
 20
-67.983388
 11
-66.734213
 21
-68.07823
  0
LINE
  8
補助線
  6
BYBLOCK
 62
    64
 10
-66.755315
 20
-67.962283
 11
-66.85016
 21
-68.099333
  0
LINE
  8
補助線
  6
BYBLOCK
 62
    64
 10
-75.861615
 20
-61.76154
 11
-75.998662
 21
-61.666695
  0
LINE
  8
補助線
  6
BYBLOCK
 62
    64
 10
-75.882715
 20
-61.64559
 11
-75.977563
 21
-61.782643
  0
LINE
  8
型材断面
  6
CONTINUOUS
 10
-56.927015
 20
-73.851952
 11
-56.800405
 21
-74.547632
  0
LINE
  8
型材断面
  6
CONTINUOUS
 10
-56.800405
 20
-74.547632
 11
-57.179788
 21
-75.095823
  0
LINE
  8
型材断面
  6
CONTINUOUS
 10
-57.179788
 20
-75.095823
 11
-57.875468
 21
-75.222433
  0
LINE
  8
型材断面
  6
CONTINUOUS
 10
-75.730008
 20
-60.839188
 11
-76.425688
 21
-60.965798
  0
LINE
  8
型材断面
  6
CONTINUOUS
 10
-76.425688
 20
-60.965798
 11
-76.80507
 21
-61.513987
  0
LINE
  8
型材断面
  6
CONTINUOUS
 10
-76.80507
 20
-61.513987
 11
-76.67846
 21
-62.209667
  0
LINE
  8
型材断面
  6
CONTINUOUS
 10
-56.927015
 20
-73.851952
 11
-75.730008
 21
-60.839188
  0
LINE
  8
型材断面
  6
CONTINUOUS
 10
-57.875468
 20
-75.222433
 11
-76.67846
 21
-62.209667
  0
CIRCLE
  8
ボルト／ビス
  6
CONTINUOUS
 10
-57.675335
 20
-74.3475
 40
0.250185
  0
CIRCLE
  8
ボルト／ビス
  6
CONTINUOUS
 10
-57.675335
 20
-74.3475
 40
0.301025
  0
LINE
  8
ボルト／ビス
  6
CONTINUOUS
 62
    64
 10
-57.425985
 20
-74.367937
 11
-57.532963
 21
-74.141777
  0
LINE
  8
ボルト／ビス
  6
CONTINUOUS
 62
    64
 10
-57.782312
 20
-74.12134
 11
-57.532963
 21
-74.141777
  0
LINE
  8
ボルト／ビス
  6
CONTINUOUS
 62
    64
 10
-57.568358
 20
-74.57366
 11
-57.817707
 21
-74.553222
  0
LINE
  8
ボルト／ビス
  6
CONTINUOUS
 62
    64
 10
-57.924685
 20
-74.327063
 11
-57.817707
 21
-74.553222
  0
LINE
  8
ボルト／ビス
  6
CONTINUOUS
 62
    64
 10
-57.425985
 20
-74.367937
 11
-57.568358
 21
-74.57366
  0
LINE
  8
ボルト／ビス
  6
CONTINUOUS
 62
    64
 10
-57.782312
 20
-74.12134
 11
-57.924685
 21
-74.327063
  0
CIRCLE
  8
ボルト／ビス
  6
CONTINUOUS
 62
    64
 10
-57.675335
 20
-74.3475
 40
0.216668
  0
CIRCLE
  8
ボルト／ビス
  6
CONTINUOUS
 10
-66.802737
 20
-68.030807
 40
0.250185
  0
CIRCLE
  8
ボルト／ビス
  6
CONTINUOUS
 10
-66.802737
 20
-68.030807
 40
0.301025
  0
LINE
  8
ボルト／ビス
  6
CONTINUOUS
 62
    64
 10
-66.553385
 20
-68.051245
 11
-66.660362
 21
-67.825085
  0
LINE
  8
ボルト／ビス
  6
CONTINUOUS
 62
    64
 10
-66.909715
 20
-67.804648
 11
-66.660362
 21
-67.825085
  0
LINE
  8
ボルト／ビス
  6
CONTINUOUS
 62
    64
 10
-66.69576
 20
-68.25697
 11
-66.94511
 21
-68.236532
  0
LINE
  8
ボルト／ビス
  6
CONTINUOUS
 62
    64
 10
-67.052085
 20
-68.010372
 11
-66.94511
 21
-68.236532
  0
LINE
  8
ボルト／ビス
  6
CONTINUOUS
 62
    64
 10
-66.553385
 20
-68.051245
 11
-66.69576
 21
-68.25697
  0
LINE
  8
ボルト／ビス
  6
CONTINUOUS
 62
    64
 10
-66.909715
 20
-67.804648
 11
-67.052085
 21
-68.010372
  0
CIRCLE
  8
ボルト／ビス
  6
CONTINUOUS
 62
    64
 10
-66.802737
 20
-68.030807
 40
0.216668
  0
CIRCLE
  8
ボルト／ビス
  6
CONTINUOUS
 10
-75.93014
 20
-61.714117
 40
0.250185
  0
CIRCLE
  8
ボルト／ビス
  6
CONTINUOUS
 10
-75.93014
 20
-61.714117
 40
0.301025
  0
LINE
  8
ボルト／ビス
  6
CONTINUOUS
 62
    64
 10
-76.037118
 20
-61.487955
 11
-75.787767
 21
-61.508395
  0
LINE
  8
ボルト／ビス
  6
CONTINUOUS
 62
    64
 10
-75.68079
 20
-61.734555
 11
-75.787767
 21
-61.508395
  0
LINE
  8
ボルト／ビス
  6
CONTINUOUS
 62
    64
 10
-76.179487
 20
-61.69368
 11
-76.072512
 21
-61.91984
  0
LINE
  8
ボルト／ビス
  6
CONTINUOUS
 62
    64
 10
-75.823163
 20
-61.940277
 11
-76.072512
 21
-61.91984
  0
LINE
  8
ボルト／ビス
  6
CONTINUOUS
 62
    64
 10
-76.037118
 20
-61.487955
 11
-76.179487
 21
-61.69368
  0
LINE
  8
ボルト／ビス
  6
CONTINUOUS
 62
    64
 10
-75.68079
 20
-61.734555
 11
-75.823163
 21
-61.940277
  0
CIRCLE
  8
ボルト／ビス
  6
CONTINUOUS
 62
    64
 10
-75.93014
 20
-61.714117
 40
0.216668
  0
ENDBLK
  0
BLOCK
  2
*GRP_0024
 70
    65
 10
0.0
 20
0.0
  0
LINE
  8
補助線
  6
BYBLOCK
 62
    64
 10
0.668005
 20
-74.300078
 11
0.805055
 21
-74.394923
  0
LINE
  8
補助線
  6
BYBLOCK
 62
    64
 10
0.783952
 20
-74.278972
 11
0.689107
 21
-74.416025
  0
LINE
  8
補助線
  6
BYBLOCK
 62
    64
 10
-8.459397
 20
-67.983388
 11
-8.322347
 21
-68.07823
  0
LINE
  8
補助線
  6
BYBLOCK
 62
    64
 10
-8.34345
 20
-67.962283
 11
-8.438295
 21
-68.099333
  0
LINE
  8
補助線
  6
BYBLOCK
 62
    64
 10
-17.44975
 20
-61.76154
 11
-17.586798
 21
-61.666695
  0
LINE
  8
補助線
  6
BYBLOCK
 62
    64
 10
-17.47085
 20
-61.64559
 11
-17.565697
 21
-61.782643
  0
LINE
  8
型材断面
  6
CONTINUOUS
 10
1.48485
 20
-73.851952
 11
1.61146
 21
-74.547632
  0
LINE
  8
型材断面
  6
CONTINUOUS
 10
1.61146
 20
-74.547632
 11
1.232078
 21
-75.095823
  0
LINE
  8
型材断面
  6
CONTINUOUS
 10
1.232078
 20
-75.095823
 11
0.536398
 21
-75.222433
  0
LINE
  8
型材断面
  6
CONTINUOUS
 10
-17.318142
 20
-60.839188
 11
-18.013822
 21
-60.965798
  0
LINE
  8
型材断面
  6
CONTINUOUS
 10
-18.013822
 20
-60.965798
 11
-18.393205
 21
-61.513987
  0
LINE
  8
型材断面
  6
CONTINUOUS
 10
-18.393205
 20
-61.513987
 11
-18.266595
 21
-62.209667
  0
LINE
  8
型材断面
  6
CONTINUOUS
 10
1.48485
 20
-73.851952
 11
-17.318142
 21
-60.839188
  0
LINE
  8
型材断面
  6
CONTINUOUS
 10
0.536398
 20
-75.222433
 11
-18.266595
 21
-62.209667
  0
CIRCLE
  8
ボルト／ビス
  6
CONTINUOUS
 10
0.73653
 20
-74.3475
 40
0.250185
  0
CIRCLE
  8
ボルト／ビス
  6
CONTINUOUS
 10
0.73653
 20
-74.3475
 40
0.301025
  0
LINE
  8
ボルト／ビス
  6
CONTINUOUS
 62
    64
 10
0.98588
 20
-74.367937
 11
0.878903
 21
-74.141777
  0
LINE
  8
ボルト／ビス
  6
CONTINUOUS
 62
    64
 10
0.629552
 20
-74.12134
 11
0.878903
 21
-74.141777
  0
LINE
  8
ボルト／ビス
  6
CONTINUOUS
 62
    64
 10
0.843507
 20
-74.57366
 11
0.594158
 21
-74.553222
  0
LINE
  8
ボルト／ビス
  6
CONTINUOUS
 62
    64
 10
0.48718
 20
-74.327063
 11
0.594158
 21
-74.553222
  0
LINE
  8
ボルト／ビス
  6
CONTINUOUS
 62
    64
 10
0.98588
 20
-74.367937
 11
0.843507
 21
-74.57366
  0
LINE
  8
ボルト／ビス
  6
CONTINUOUS
 62
    64
 10
0.629552
 20
-74.12134
 11
0.48718
 21
-74.327063
  0
CIRCLE
  8
ボルト／ビス
  6
CONTINUOUS
 62
    64
 10
0.73653
 20
-74.3475
 40
0.216668
  0
CIRCLE
  8
ボルト／ビス
  6
CONTINUOUS
 10
-8.390873
 20
-68.030807
 40
0.250185
  0
CIRCLE
  8
ボルト／ビス
  6
CONTINUOUS
 10
-8.390873
 20
-68.030807
 40
0.301025
  0
LINE
  8
ボルト／ビス
  6
CONTINUOUS
 62
    64
 10
-8.14152
 20
-68.051245
 11
-8.248498
 21
-67.825085
  0
LINE
  8
ボルト／ビス
  6
CONTINUOUS
 62
    64
 10
-8.49785
 20
-67.804648
 11
-8.248498
 21
-67.825085
  0
LINE
  8
ボルト／ビス
  6
CONTINUOUS
 62
    64
 10
-8.283895
 20
-68.25697
 11
-8.533245
 21
-68.236532
  0
LINE
  8
ボルト／ビス
  6
CONTINUOUS
 62
    64
 10
-8.64022
 20
-68.010372
 11
-8.533245
 21
-68.236532
  0
LINE
  8
ボルト／ビス
  6
CONTINUOUS
 62
    64
 10
-8.14152
 20
-68.051245
 11
-8.283895
 21
-68.25697
  0
LINE
  8
ボルト／ビス
  6
CONTINUOUS
 62
    64
 10
-8.49785
 20
-67.804648
 11
-8.64022
 21
-68.010372
  0
CIRCLE
  8
ボルト／ビス
  6
CONTINUOUS
 62
    64
 10
-8.390873
 20
-68.030807
 40
0.216668
  0
CIRCLE
  8
ボルト／ビス
  6
CONTINUOUS
 10
-17.518275
 20
-61.714117
 40
0.250185
  0
CIRCLE
  8
ボルト／ビス
  6
CONTINUOUS
 10
-17.518275
 20
-61.714117
 40
0.301025
  0
LINE
  8
ボルト／ビス
  6
CONTINUOUS
 62
    64
 10
-17.625252
 20
-61.487955
 11
-17.375903
 21
-61.508395
  0
LINE
  8
ボルト／ビス
  6
CONTINUOUS
 62
    64
 10
-17.268925
 20
-61.734555
 11
-17.375903
 21
-61.508395
  0
LINE
  8
ボルト／ビス
  6
CONTINUOUS
 62
    64
 10
-17.767623
 20
-61.69368
 11
-17.660647
 21
-61.91984
  0
LINE
  8
ボルト／ビス
  6
CONTINUOUS
 62
    64
 10
-17.411298
 20
-61.940277
 11
-17.660647
 21
-61.91984
  0
LINE
  8
ボルト／ビス
  6
CONTINUOUS
 62
    64
 10
-17.625252
 20
-61.487955
 11
-17.767623
 21
-61.69368
  0
LINE
  8
ボルト／ビス
  6
CONTINUOUS
 62
    64
 10
-17.268925
 20
-61.734555
 11
-17.411298
 21
-61.940277
  0
CIRCLE
  8
ボルト／ビス
  6
CONTINUOUS
 62
    64
 10
-17.518275
 20
-61.714117
 40
0.216668
  0
ENDBLK
  0
BLOCK
  2
*GRP_0025
 70
    65
 10
0.0
 20
0.0
  0
LINE
  8
補助線
  6
BYBLOCK
 62
    64
 10
-17.44975
 20
-74.300078
 11
-17.5868
 21
-74.394923
  0
LINE
  8
補助線
  6
BYBLOCK
 62
    64
 10
-17.565697
 20
-74.278972
 11
-17.470852
 21
-74.416025
  0
LINE
  8
補助線
  6
BYBLOCK
 62
    64
 10
-8.322347
 20
-67.983388
 11
-8.459397
 21
-68.07823
  0
LINE
  8
補助線
  6
BYBLOCK
 62
    64
 10
-8.438295
 20
-67.962283
 11
-8.34345
 21
-68.099333
  0
LINE
  8
補助線
  6
BYBLOCK
 62
    64
 10
0.668005
 20
-61.76154
 11
0.805053
 21
-61.666695
  0
LINE
  8
補助線
  6
BYBLOCK
 62
    64
 10
0.689105
 20
-61.64559
 11
0.783952
 21
-61.782643
  0
LINE
  8
型材断面
  6
CONTINUOUS
 10
-18.266595
 20
-73.851952
 11
-18.393205
 21
-74.547632
  0
LINE
  8
型材断面
  6
CONTINUOUS
 10
-18.393205
 20
-74.547632
 11
-18.013822
 21
-75.095823
  0
LINE
  8
型材断面
  6
CONTINUOUS
 10
-18.013822
 20
-75.095823
 11
-17.318142
 21
-75.222433
  0
LINE
  8
型材断面
  6
CONTINUOUS
 10
0.536398
 20
-60.839188
 11
1.232078
 21
-60.965798
  0
LINE
  8
型材断面
  6
CONTINUOUS
 10
1.232078
 20
-60.965798
 11
1.61146
 21
-61.513987
  0
LINE
  8
型材断面
  6
CONTINUOUS
 10
1.61146
 20
-61.513987
 11
1.48485
 21
-62.209667
  0
LINE
  8
型材断面
  6
CONTINUOUS
 10
-18.266595
 20
-73.851952
 11
0.536398
 21
-60.839188
  0
LINE
  8
型材断面
  6
CONTINUOUS
 10
-17.318142
 20
-75.222433
 11
1.48485
 21
-62.209667
  0
CIRCLE
  8
ボルト／ビス
  6
CONTINUOUS
 10
-17.518275
 20
-74.3475
 40
0.250185
  0
CIRCLE
  8
ボルト／ビス
  6
CONTINUOUS
 10
-17.518275
 20
-74.3475
 40
0.301025
  0
LINE
  8
ボルト／ビス
  6
CONTINUOUS
 62
    64
 10
-17.767625
 20
-74.367937
 11
-17.660647
 21
-74.141777
  0
LINE
  8
ボルト／ビス
  6
CONTINUOUS
 62
    64
 10
-17.411298
 20
-74.12134
 11
-17.660647
 21
-74.141777
  0
LINE
  8
ボルト／ビス
  6
CONTINUOUS
 62
    64
 10
-17.625252
 20
-74.57366
 11
-17.375903
 21
-74.553222
  0
LINE
  8
ボルト／ビス
  6
CONTINUOUS
 62
    64
 10
-17.268925
 20
-74.327063
 11
-17.375903
 21
-74.553222
  0
LINE
  8
ボルト／ビス
  6
CONTINUOUS
 62
    64
 10
-17.767625
 20
-74.367937
 11
-17.625252
 21
-74.57366
  0
LINE
  8
ボルト／ビス
  6
CONTINUOUS
 62
    64
 10
-17.411298
 20
-74.12134
 11
-17.268925
 21
-74.327063
  0
CIRCLE
  8
ボルト／ビス
  6
CONTINUOUS
 62
    64
 10
-17.518275
 20
-74.3475
 40
0.216668
  0
CIRCLE
  8
ボルト／ビス
  6
CONTINUOUS
 10
-8.390873
 20
-68.030807
 40
0.250185
  0
CIRCLE
  8
ボルト／ビス
  6
CONTINUOUS
 10
-8.390873
 20
-68.030807
 40
0.301025
  0
LINE
  8
ボルト／ビス
  6
CONTINUOUS
 62
    64
 10
-8.640225
 20
-68.051245
 11
-8.533248
 21
-67.825085
  0
LINE
  8
ボルト／ビス
  6
CONTINUOUS
 62
    64
 10
-8.283895
 20
-67.804648
 11
-8.533248
 21
-67.825085
  0
LINE
  8
ボルト／ビス
  6
CONTINUOUS
 62
    64
 10
-8.49785
 20
-68.25697
 11
-8.2485
 21
-68.236532
  0
LINE
  8
ボルト／ビス
  6
CONTINUOUS
 62
    64
 10
-8.141525
 20
-68.010372
 11
-8.2485
 21
-68.236532
  0
LINE
  8
ボルト／ビス
  6
CONTINUOUS
 62
    64
 10
-8.640225
 20
-68.051245
 11
-8.49785
 21
-68.25697
  0
LINE
  8
ボルト／ビス
  6
CONTINUOUS
 62
    64
 10
-8.283895
 20
-67.804648
 11
-8.141525
 21
-68.010372
  0
CIRCLE
  8
ボルト／ビス
  6
CONTINUOUS
 62
    64
 10
-8.390873
 20
-68.030807
 40
0.216668
  0
CIRCLE
  8
ボルト／ビス
  6
CONTINUOUS
 10
0.73653
 20
-61.714117
 40
0.250185
  0
CIRCLE
  8
ボルト／ビス
  6
CONTINUOUS
 10
0.73653
 20
-61.714117
 40
0.301025
  0
LINE
  8
ボルト／ビス
  6
CONTINUOUS
 62
    64
 10
0.843507
 20
-61.487955
 11
0.594158
 21
-61.508395
  0
LINE
  8
ボルト／ビス
  6
CONTINUOUS
 62
    64
 10
0.48718
 20
-61.734555
 11
0.594158
 21
-61.508395
  0
LINE
  8
ボルト／ビス
  6
CONTINUOUS
 62
    64
 10
0.985878
 20
-61.69368
 11
0.878903
 21
-61.91984
  0
LINE
  8
ボルト／ビス
  6
CONTINUOUS
 62
    64
 10
0.629552
 20
-61.940277
 11
0.878903
 21
-61.91984
  0
LINE
  8
ボルト／ビス
  6
CONTINUOUS
 62
    64
 10
0.843507
 20
-61.487955
 11
0.985878
 21
-61.69368
  0
LINE
  8
ボルト／ビス
  6
CONTINUOUS
 62
    64
 10
0.48718
 20
-61.734555
 11
0.629552
 21
-61.940277
  0
CIRCLE
  8
ボルト／ビス
  6
CONTINUOUS
 62
    64
 10
0.73653
 20
-61.714117
 40
0.216668
  0
ENDBLK
  0
BLOCK
  2
*GRP_0026
 70
    65
 10
0.0
 20
0.0
  0
LINE
  8
型材断面
  6
DOT
 10
5.736835
 20
-59.937453
 11
5.686835
 21
-59.937453
  0
LINE
  8
型材断面
  6
DOT
 10
4.070168
 20
-59.437453
 11
4.070168
 21
-58.70412
  0
LINE
  8
型材断面
  6
DOT
 10
4.119863
 20
-60.42062
 11
5.56653
 21
-60.42062
  0
LINE
  8
型材断面
  6
DOT
 10
5.56653
 20
-60.87062
 11
5.56653
 21
-60.42062
  0
LINE
  8
型材断面
  6
DOT
 62
    47
 10
6.299863
 20
-63.543312
 11
6.349863
 21
-63.543312
  0
LINE
  8
型材断面
  6
DOT
 62
    47
 10
6.349863
 20
-63.543312
 11
6.349863
 21
-63.209977
  0
LINE
  8
型材断面
  6
DOT
 62
    47
 10
6.349863
 20
-63.209977
 11
5.56653
 21
-63.109977
  0
LINE
  8
型材断面
  6
DOT
 62
    47
 10
5.56653
 20
-62.703953
 11
5.56653
 21
-63.109977
  0
LINE
  8
型材断面
  6
DOT
 62
    47
 10
6.03653
 20
-62.703953
 11
6.03653
 21
-60.87062
  0
LINE
  8
型材断面
  6
DOT
 10
5.736835
 20
-59.937453
 11
5.736835
 21
-59.437453
  0
LINE
  8
型材断面
  6
DOT
 10
4.119863
 20
-60.42062
 11
4.119863
 21
-59.937453
  0
INSERT
  2
*GRP_0027
  8
型材断面
  6
DOT
 10
0.0
 20
0.0
  0
INSERT
  2
*GRP_0028
  8
型材断面
  6
DOT
 10
0.0
 20
0.0
  0
LINE
  8
型材断面
  6
DOT
 10
6.349863
 20
-63.543312
 11
-37.596497
 21
-63.543312
  0
LINE
  8
型材断面
  6
DOT
 10
6.349863
 20
-63.209977
 11
-37.596497
 21
-63.209977
  0
LINE
  8
型材断面
  6
DOT
 10
5.56653
 20
-63.109977
 11
-37.596497
 21
-63.109977
  0
LINE
  8
型材断面
  6
DOT
 10
6.03653
 20
-62.703953
 11
-37.596497
 21
-62.703953
  0
LINE
  8
型材断面
  6
DOT
 10
5.736835
 20
-59.937453
 11
-37.596497
 21
-59.937453
  0
LINE
  8
型材断面
  6
DOT
 10
4.070168
 20
-58.70412
 11
-37.596497
 21
-58.70412
  0
LINE
  8
型材断面
  6
DOT
 10
5.736835
 20
-59.437453
 11
-37.596497
 21
-59.437453
  0
LINE
  8
型材断面
  6
DOT
 10
5.56653
 20
-60.42062
 11
-37.596497
 21
-60.42062
  0
LINE
  8
型材断面
  6
DOT
 10
6.03653
 20
-60.87062
 11
-37.596497
 21
-60.87062
  0
LINE
  8
型材断面
  6
DOT
 10
-80.92983
 20
-59.937453
 11
-80.87983
 21
-59.937453
  0
LINE
  8
型材断面
  6
DOT
 10
-79.263162
 20
-59.437453
 11
-79.263162
 21
-58.70412
  0
LINE
  8
型材断面
  6
DOT
 10
-79.312857
 20
-60.42062
 11
-80.759525
 21
-60.42062
  0
LINE
  8
型材断面
  6
DOT
 10
-80.759525
 20
-60.87062
 11
-80.759525
 21
-60.42062
  0
LINE
  8
型材断面
  6
DOT
 62
    47
 10
-81.492857
 20
-63.543312
 11
-81.542857
 21
-63.543312
  0
LINE
  8
型材断面
  6
DOT
 62
    47
 10
-81.542857
 20
-63.543312
 11
-81.542857
 21
-63.209977
  0
LINE
  8
型材断面
  6
DOT
 62
    47
 10
-81.542857
 20
-63.209977
 11
-80.759525
 21
-63.109977
  0
LINE
  8
型材断面
  6
DOT
 62
    47
 10
-80.759525
 20
-62.703953
 11
-80.759525
 21
-63.109977
  0
LINE
  8
型材断面
  6
DOT
 62
    47
 10
-81.229525
 20
-62.703953
 11
-81.229525
 21
-60.87062
  0
LINE
  8
型材断面
  6
DOT
 10
-80.92983
 20
-59.937453
 11
-80.92983
 21
-59.437453
  0
LINE
  8
型材断面
  6
DOT
 10
-79.312857
 20
-60.42062
 11
-79.312857
 21
-59.937453
  0
INSERT
  2
*GRP_0029
  8
型材断面
  6
DOT
 10
0.0
 20
0.0
  0
INSERT
  2
*GRP_0030
  8
型材断面
  6
DOT
 10
0.0
 20
0.0
  0
LINE
  8
型材断面
  6
DOT
 10
-81.542857
 20
-63.543312
 11
-37.596497
 21
-63.543312
  0
LINE
  8
型材断面
  6
DOT
 10
-81.542857
 20
-63.209977
 11
-37.596497
 21
-63.209977
  0
LINE
  8
型材断面
  6
DOT
 10
-80.759525
 20
-63.109977
 11
-37.596497
 21
-63.109977
  0
LINE
  8
型材断面
  6
DOT
 10
-81.229525
 20
-62.703953
 11
-37.596497
 21
-62.703953
  0
LINE
  8
型材断面
  6
DOT
 10
-80.92983
 20
-59.937453
 11
-37.596497
 21
-59.937453
  0
LINE
  8
型材断面
  6
DOT
 10
-79.263162
 20
-58.70412
 11
-37.596497
 21
-58.70412
  0
LINE
  8
型材断面
  6
DOT
 10
-80.92983
 20
-59.437453
 11
-37.596497
 21
-59.437453
  0
LINE
  8
型材断面
  6
DOT
 10
-80.759525
 20
-60.42062
 11
-37.596497
 21
-60.42062
  0
LINE
  8
型材断面
  6
DOT
 10
-81.229525
 20
-60.87062
 11
-37.596497
 21
-60.87062
  0
ENDBLK
  0
BLOCK
  2
*GRP_0027
 70
    65
 10
0.0
 20
0.0
  0
INSERT
  2
M8横
  8
ゴム等
  6
DOT
 10
4.896528
 20
-60.297288
 50
180.0
 41
0.033333
 42
-0.033333
  0
LINE
  8
ボルト／ビス
  6
DOT
 10
4.763195
 20
-60.087288
 11
4.77986
 21
-60.070622
  0
LINE
  8
ボルト／ビス
  6
DOT
 10
5.013195
 20
-60.070622
 11
5.02986
 21
-60.087288
  0
LINE
  8
ボルト／ビス
  6
DOT
 10
5.02986
 20
-60.087288
 11
4.763195
 21
-60.087288
  0
LINE
  8
ボルト／ビス
  6
DOT
 10
5.013195
 20
-60.070622
 11
4.77986
 21
-60.070622
  0
LINE
  8
ボルト／ビス
  6
DOT
 10
4.77986
 20
-60.070622
 11
4.77986
 21
-60.113952
  0
LINE
  8
ボルト／ビス
  6
DOT
 10
4.763195
 20
-60.087288
 11
4.763195
 21
-60.113952
  0
LINE
  8
ボルト／ビス
  6
DOT
 10
5.02986
 20
-60.087288
 11
5.02986
 21
-60.113952
  0
LINE
  8
ボルト／ビス
  6
DOT
 10
5.013195
 20
-60.070622
 11
5.013195
 21
-60.113952
  0
LINE
  8
ボルト／ビス
  6
DOT
 10
5.263195
 20
-60.297288
 11
4.52986
 21
-60.297288
  0
LINE
  8
ボルト／ビス
  6
DOT
 10
4.47986
 20
-60.337288
 11
4.47986
 21
-60.42062
  0
LINE
  8
ボルト／ビス
  6
DOT
 10
4.47986
 20
-60.42062
 11
5.313195
 21
-60.42062
  0
LINE
  8
ボルト／ビス
  6
DOT
 10
5.313195
 20
-60.42062
 11
5.313195
 21
-60.337288
  0
LINE
  8
ボルト／ビス
  6
DOT
 10
4.47986
 20
-60.337288
 11
5.313195
 21
-60.337288
  0
LINE
  8
ボルト／ビス
  6
DOT
 10
5.263195
 20
-60.297288
 11
5.263195
 21
-60.337288
  0
LINE
  8
ボルト／ビス
  6
DOT
 10
4.52986
 20
-60.297288
 11
4.52986
 21
-60.337288
  0
LINE
  8
ボルト／ビス
  6
DOT
 10
4.896528
 20
-60.347288
 11
4.896528
 21
-60.297288
  0
ENDBLK
  0
BLOCK
  2
*GRP_0028
 70
    65
 10
0.0
 20
0.0
  0
LINE
  8
ボルト／ビス
  6
DOT
 10
5.103195
 20
-59.437453
 11
5.103195
 21
-59.370788
  0
LINE
  8
ボルト／ビス
  6
DOT
 10
5.103195
 20
-59.370788
 11
4.369863
 21
-59.370788
  0
LINE
  8
ボルト／ビス
  6
DOT
 10
4.369863
 20
-59.370788
 11
4.369863
 21
-59.437453
  0
LINE
  8
ボルト／ビス
  6
DOT
 10
5.103195
 20
-59.437453
 11
4.369863
 21
-59.437453
  0
LINE
  8
ボルト／ビス
  6
DOT
 10
5.03653
 20
-59.337453
 11
5.03653
 21
-59.370788
  0
LINE
  8
ボルト／ビス
  6
DOT
 10
5.03653
 20
-59.337453
 11
4.43653
 21
-59.337453
  0
LINE
  8
ボルト／ビス
  6
DOT
 10
4.43653
 20
-59.337453
 11
4.43653
 21
-59.370788
  0
LINE
  8
ボルト／ビス
  6
DOT
 62
    64
 10
4.896905
 20
-59.137453
 11
4.92898
 21
-59.149128
  0
ARC
  8
ボルト／ビス
  6
DOT
 62
    64
 10
4.880866
 20
-59.242431
 40
0.104978
 50
90.0
 51
117.278033
  0
ARC
  8
ボルト／ビス
  6
DOT
 62
    64
 10
4.736529
 20
-59.539855
 40
0.402402
 50
76.165015
 51
103.834998
  0
LINE
  8
ボルト／ビス
  6
DOT
 62
    64
 10
4.576155
 20
-59.137453
 11
4.54408
 21
-59.149128
  0
ARC
  8
ボルト／ビス
  6
DOT
 62
    64
 10
4.592191
 20
-59.242431
 40
0.104978
 50
62.721967
 51
90.0
  0
LINE
  8
ボルト／ビス
  6
DOT
 62
    64
 10
4.896905
 20
-59.137453
 11
4.576155
 21
-59.137453
  0
LINE
  8
ボルト／ビス
  6
DOT
 62
    64
 10
4.54408
 20
-59.149128
 11
4.54408
 21
-59.270788
  0
LINE
  8
ボルト／ビス
  6
DOT
 62
    64
 10
4.640305
 20
-59.149128
 11
4.640305
 21
-59.270788
  0
LINE
  8
ボルト／ビス
  6
DOT
 62
    64
 10
4.92898
 20
-59.149128
 11
4.92898
 21
-59.270788
  0
LINE
  8
ボルト／ビス
  6
DOT
 62
    64
 10
4.832755
 20
-59.149128
 11
4.832755
 21
-59.270788
  0
LINE
  8
ボルト／ビス
  6
DOT
 10
4.92898
 20
-59.270788
 11
4.54408
 21
-59.270788
  0
LINE
  8
ボルト／ビス
  6
DOT
 10
4.93653
 20
-59.270788
 11
4.93653
 21
-59.337453
  0
LINE
  8
ボルト／ビス
  6
DOT
 10
4.93653
 20
-59.270788
 11
4.53653
 21
-59.270788
  0
LINE
  8
ボルト／ビス
  6
DOT
 10
4.53653
 20
-59.270788
 11
4.53653
 21
-59.337453
  0
ENDBLK
  0
BLOCK
  2
*GRP_0029
 70
    65
 10
0.0
 20
0.0
  0
INSERT
  2
M8横
  8
ゴム等
  6
DOT
 10
-80.089523
 20
-60.297288
 41
0.033333
 42
0.033333
  0
LINE
  8
ボルト／ビス
  6
DOT
 10
-79.95619
 20
-60.087288
 11
-79.972855
 21
-60.070622
  0
LINE
  8
ボルト／ビス
  6
DOT
 10
-80.20619
 20
-60.070622
 11
-80.222855
 21
-60.087288
  0
LINE
  8
ボルト／ビス
  6
DOT
 10
-80.222855
 20
-60.087288
 11
-79.95619
 21
-60.087288
  0
LINE
  8
ボルト／ビス
  6
DOT
 10
-80.20619
 20
-60.070622
 11
-79.972855
 21
-60.070622
  0
LINE
  8
ボルト／ビス
  6
DOT
 10
-79.972855
 20
-60.070622
 11
-79.972855
 21
-60.113952
  0
LINE
  8
ボルト／ビス
  6
DOT
 10
-79.95619
 20
-60.087288
 11
-79.95619
 21
-60.113952
  0
LINE
  8
ボルト／ビス
  6
DOT
 10
-80.222855
 20
-60.087288
 11
-80.222855
 21
-60.113952
  0
LINE
  8
ボルト／ビス
  6
DOT
 10
-80.20619
 20
-60.070622
 11
-80.20619
 21
-60.113952
  0
LINE
  8
ボルト／ビス
  6
DOT
 10
-80.45619
 20
-60.297288
 11
-79.722855
 21
-60.297288
  0
LINE
  8
ボルト／ビス
  6
DOT
 10
-79.672855
 20
-60.337288
 11
-79.672855
 21
-60.42062
  0
LINE
  8
ボルト／ビス
  6
DOT
 10
-79.672855
 20
-60.42062
 11
-80.50619
 21
-60.42062
  0
LINE
  8
ボルト／ビス
  6
DOT
 10
-80.50619
 20
-60.42062
 11
-80.50619
 21
-60.337288
  0
LINE
  8
ボルト／ビス
  6
DOT
 10
-79.672855
 20
-60.337288
 11
-80.50619
 21
-60.337288
  0
LINE
  8
ボルト／ビス
  6
DOT
 10
-80.45619
 20
-60.297288
 11
-80.45619
 21
-60.337288
  0
LINE
  8
ボルト／ビス
  6
DOT
 10
-79.722855
 20
-60.297288
 11
-79.722855
 21
-60.337288
  0
LINE
  8
ボルト／ビス
  6
DOT
 10
-80.089523
 20
-60.347288
 11
-80.089523
 21
-60.297288
  0
ENDBLK
  0
BLOCK
  2
*GRP_0030
 70
    65
 10
0.0
 20
0.0
  0
LINE
  8
ボルト／ビス
  6
DOT
 10
-80.29619
 20
-59.437453
 11
-80.29619
 21
-59.370788
  0
LINE
  8
ボルト／ビス
  6
DOT
 10
-80.29619
 20
-59.370788
 11
-79.562857
 21
-59.370788
  0
LINE
  8
ボルト／ビス
  6
DOT
 10
-79.562857
 20
-59.370788
 11
-79.562857
 21
-59.437453
  0
LINE
  8
ボルト／ビス
  6
DOT
 10
-80.29619
 20
-59.437453
 11
-79.562857
 21
-59.437453
  0
LINE
  8
ボルト／ビス
  6
DOT
 10
-80.229525
 20
-59.337453
 11
-80.229525
 21
-59.370788
  0
LINE
  8
ボルト／ビス
  6
DOT
 10
-80.229525
 20
-59.337453
 11
-79.629525
 21
-59.337453
  0
LINE
  8
ボルト／ビス
  6
DOT
 10
-79.629525
 20
-59.337453
 11
-79.629525
 21
-59.370788
  0
LINE
  8
ボルト／ビス
  6
DOT
 62
    64
 10
-80.0899
 20
-59.137453
 11
-80.121975
 21
-59.149128
  0
ARC
  8
ボルト／ビス
  6
DOT
 62
    64
 10
-80.073863
 20
-59.242431
 40
0.104978
 50
62.721967
 51
90.0
  0
ARC
  8
ボルト／ビス
  6
DOT
 62
    64
 10
-79.929525
 20
-59.539855
 40
0.402402
 50
76.165002
 51
103.834985
  0
LINE
  8
ボルト／ビス
  6
DOT
 62
    64
 10
-79.76915
 20
-59.137453
 11
-79.737075
 21
-59.149128
  0
ARC
  8
ボルト／ビス
  6
DOT
 62
    64
 10
-79.785188
 20
-59.242431
 40
0.104978
 50
90.0
 51
117.278033
  0
LINE
  8
ボルト／ビス
  6
DOT
 62
    64
 10
-80.0899
 20
-59.137453
 11
-79.76915
 21
-59.137453
  0
LINE
  8
ボルト／ビス
  6
DOT
 62
    64
 10
-79.737075
 20
-59.149128
 11
-79.737075
 21
-59.270788
  0
LINE
  8
ボルト／ビス
  6
DOT
 62
    64
 10
-79.8333
 20
-59.149128
 11
-79.8333
 21
-59.270788
  0
LINE
  8
ボルト／ビス
  6
DOT
 62
    64
 10
-80.121975
 20
-59.149128
 11
-80.121975
 21
-59.270788
  0
LINE
  8
ボルト／ビス
  6
DOT
 62
    64
 10
-80.02575
 20
-59.149128
 11
-80.02575
 21
-59.270788
  0
LINE
  8
ボルト／ビス
  6
DOT
 10
-80.121975
 20
-59.270788
 11
-79.737075
 21
-59.270788
  0
LINE
  8
ボルト／ビス
  6
DOT
 10
-80.129525
 20
-59.270788
 11
-80.129525
 21
-59.337453
  0
LINE
  8
ボルト／ビス
  6
DOT
 10
-80.129525
 20
-59.270788
 11
-79.729525
 21
-59.270788
  0
LINE
  8
ボルト／ビス
  6
DOT
 10
-79.729525
 20
-59.270788
 11
-79.729525
 21
-59.337453
  0
ENDBLK
  0
BLOCK
  2
*DIM_0031
 70
    65
 10
0.0
 20
0.0
  0
LINE
  8
寸法
  6
CONTINUOUS
 10
9.070168
 20
-68.70412
 11
27.68864
 21
-68.70412
  0
LINE
  8
寸法
  6
CONTINUOUS
 10
9.070168
 20
-58.70412
 11
27.68864
 21
-58.70412
  0
LINE
  8
寸法
  6
CONTINUOUS
 10
27.68864
 20
-68.70412
 11
27.68864
 21
-58.70412
  0
POINT
  8
寸法
 10
27.68864
 20
-68.70412
  0
POINT
  8
寸法
 10
27.68864
 20
-58.70412
  0
TEXT
  7
TextStyle03
  8
寸法
  6
CONTINUOUS
 10
30.675
 20
-72.81875
  1
上昇266以上
 40
3.0
 50
90.0
 72
     5
 11
30.675
 21
-54.63125
  0
ENDBLK
  0
BLOCK
  2
*DIM_0032
 70
    65
 10
0.0
 20
0.0
  0
LINE
  8
寸法
  6
CONTINUOUS
 10
112.326922
 20
-42.772437
 11
112.326922
 21
-31.248078
  0
LINE
  8
寸法
  6
CONTINUOUS
 10
152.986923
 20
-42.772437
 11
152.986923
 21
-31.248078
  0
LINE
  8
寸法
  6
CONTINUOUS
 10
112.326922
 20
-31.248078
 11
152.986923
 21
-31.248078
  0
POINT
  8
寸法
 10
112.326922
 20
-31.248078
  0
POINT
  8
寸法
 10
152.986923
 20
-31.248078
  0
TEXT
  7
TextStyle03
  8
寸法
  6
CONTINUOUS
 10
127.68125
 20
-30.875
  1
1219.8
 40
3.0
 72
     5
 11
137.61875
 21
-30.875
  0
ENDBLK
  0
BLOCK
  2
*DIM_0033
 70
    65
 10
0.0
 20
0.0
  0
LINE
  8
寸法
  6
CONTINUOUS
 10
157.986923
 20
-47.772437
 11
167.709615
 21
-47.772437
  0
LINE
  8
寸法
  6
CONTINUOUS
 10
157.986923
 20
-77.10577
 11
167.709615
 21
-77.10577
  0
LINE
  8
寸法
  6
CONTINUOUS
 10
167.709615
 20
-47.772437
 11
167.709615
 21
-77.10577
  0
POINT
  8
寸法
 10
167.709615
 20
-47.772437
  0
POINT
  8
寸法
 10
167.709615
 20
-77.10577
  0
TEXT
  7
TextStyle03
  8
寸法
  6
CONTINUOUS
 10
167.325
 20
-64.8875
  1
880
 40
3.0
 50
90.0
 72
     5
 11
167.325
 21
-60.0125
  0
ENDBLK
  0
BLOCK
  2
*DIM_0034
 70
    65
 10
0.0
 20
0.0
  0
LINE
  8
寸法
  6
CONTINUOUS
 10
6.349863
 20
-68.209977
 11
6.349863
 21
-32.437345
  0
LINE
  8
寸法
  6
CONTINUOUS
 10
4.070168
 20
-32.437345
 11
6.349863
 21
-32.437345
  0
POINT
  8
寸法
 10
4.070168
 20
-32.437345
  0
POINT
  8
寸法
 10
6.349863
 20
-32.437345
  0
TEXT
  7
TextStyle03
  8
寸法
  6
CONTINUOUS
 10
8.66875
 20
-32.075
  1
68.4
 40
3.0
 72
     5
 11
15.23125
 21
-32.075
  0
ENDBLK
  0
BLOCK
  2
*DIM_0035
 70
    65
 10
0.0
 20
0.0
  0
LINE
  8
寸法
  6
CONTINUOUS
 10
-81.542857
 20
-68.209977
 11
-81.542857
 21
-32.437345
  0
LINE
  8
寸法
  6
CONTINUOUS
 10
-79.263162
 20
-32.437345
 11
-81.542857
 21
-32.437345
  0
POINT
  8
寸法
 10
-79.263162
 20
-32.437345
  0
POINT
  8
寸法
 10
-81.542857
 20
-32.437345
  0
TEXT
  7
TextStyle03
  8
寸法
  6
CONTINUOUS
 10
-90.45625
 20
-32.075
  1
68.4
 40
3.0
 72
     5
 11
-83.89375
 21
-32.075
  0
ENDBLK
  0
BLOCK
  2
*DIM_0036
 70
    65
 10
0.0
 20
0.0
  0
LINE
  8
寸法
  6
CONTINUOUS
 10
4.070168
 20
-32.437345
 11
-79.263162
 21
-32.437345
  0
POINT
  8
寸法
 10
4.070168
 20
-32.437345
  0
POINT
  8
寸法
 10
-79.263162
 20
-32.437345
  0
TEXT
  7
TextStyle03
  8
寸法
  6
CONTINUOUS
 10
-49.31875
 20
-32.075
  1
呼称寸法　2500
 40
3.0
 72
     5
 11
-25.88125
 21
-32.075
  0
ENDBLK
  0
BLOCK
  2
M8横
 70
    64
 10
-88.370132
 20
140.837665
  0
LINE
  8
ボルト／ビス
 10
-95.870132
 20
140.837665
 11
-80.870132
 21
140.837665
  0
LINE
  8
ボルト／ビス
 10
-80.870132
 20
145.837665
 11
-81.370132
 21
146.337665
  0
POLYLINE
  8
ボルト／ビス
 66
     1
  0
VERTEX
  8
ボルト／ビス
 10
-84.120132
 20
146.337665
  0
VERTEX
  8
ボルト／ビス
 10
-84.620132
 20
145.837665
  0
VERTEX
  8
ボルト／ビス
 10
-85.120132
 20
146.337665
  0
SEQEND
  0
POLYLINE
  8
ボルト／ビス
 66
     1
  0
VERTEX
  8
ボルト／ビス
 10
-91.620132
 20
146.337665
  0
VERTEX
  8
ボルト／ビス
 10
-92.120132
 20
145.837665
  0
VERTEX
  8
ボルト／ビス
 10
-92.620132
 20
146.337665
  0
SEQEND
  0
LINE
  8
ボルト／ビス
 10
-95.370132
 20
146.337665
 11
-95.870132
 21
145.837665
  0
LINE
  8
ボルト／ビス
 10
-95.870132
 20
140.837665
 11
-95.870132
 21
145.837665
  0
LINE
  8
ボルト／ビス
 10
-80.870132
 20
140.837665
 11
-80.870132
 21
145.837665
  0
LINE
  8
ボルト／ビス
 10
-95.370132
 20
146.337665
 11
-81.370132
 21
146.337665
  0
LINE
  8
ボルト／ビス
 10
-84.620132
 20
140.837665
 11
-84.620132
 21
145.837665
  0
LINE
  8
ボルト／ビス
 10
-92.120132
 20
140.837665
 11
-92.120132
 21
145.837665
  0
ENDBLK
  0
ENDSEC
  0
SECTION
  2
ENTITIES
  0
POLYLINE
  8
通り芯
  6
CONTINUOUS
 66
     1
 70
     1
  0
VERTEX
  8
通り芯
 10
-210.0
 20
-148.5
  0
VERTEX
  8
通り芯
 10
210.0
 20
-148.5
  0
VERTEX
  8
通り芯
 10
210.0
 20
148.5
  0
VERTEX
  8
通り芯
 10
-210.0
 20
148.5
  0
SEQEND
  0
INSERT
  2
*GRP_0001
  8
型材断面
  6
CONTINUOUS
 10
0.0
 20
0.0
  0
LINE
  8
型材断面
  6
CONTINUOUS
 10
162.97617
 20
66.869993
 11
162.97617
 21
66.819993
  0
LINE
  8
型材断面
  6
CONTINUOUS
 10
162.47617
 20
65.203325
 11
161.742835
 21
65.203325
  0
LINE
  8
型材断面
  6
CONTINUOUS
 62
    47
 10
169.709335
 20
66.60302
 11
169.709335
 21
66.55302
  0
LINE
  8
型材断面
  6
CONTINUOUS
 62
    47
 10
169.709335
 20
66.60302
 11
169.209335
 21
66.60302
  0
LINE
  8
型材断面
  6
CONTINUOUS
 10
163.459335
 20
65.25302
 11
163.459335
 21
66.699688
  0
LINE
  8
型材断面
  6
CONTINUOUS
 10
163.909335
 20
66.699688
 11
163.459335
 21
66.699688
  0
LINE
  8
型材断面
  6
CONTINUOUS
 62
    47
 10
166.582028
 20
67.43302
 11
166.582028
 21
67.48302
  0
LINE
  8
型材断面
  6
CONTINUOUS
 62
    47
 10
166.582028
 20
67.48302
 11
166.248695
 21
67.48302
  0
LINE
  8
型材断面
  6
CONTINUOUS
 62
    47
 10
166.248695
 20
67.48302
 11
166.148695
 21
66.699688
  0
LINE
  8
型材断面
  6
CONTINUOUS
 62
    47
 10
165.74267
 20
66.699688
 11
166.148695
 21
66.699688
  0
LINE
  8
型材断面
  6
CONTINUOUS
 62
    47
 10
165.74267
 20
67.169687
 11
163.909335
 21
67.169687
  0
LINE
  8
型材断面
  6
CONTINUOUS
 10
162.97617
 20
66.869993
 11
162.47617
 21
66.869993
  0
LINE
  8
型材断面
  6
CONTINUOUS
 10
163.459335
 20
65.25302
 11
162.97617
 21
65.25302
  0
LINE
  8
型材断面
  6
CONTINUOUS
 62
    47
 10
169.209335
 20
67.169687
 11
166.582028
 21
67.169687
  0
INSERT
  2
*GRP_0002
  8
型材断面
  6
DOT
 10
0.0
 20
0.0
  0
INSERT
  2
*GRP_0003
  8
型材断面
  6
DOT
 10
0.0
 20
0.0
  0
LINE
  8
型材断面
  6
CONTINUOUS
 10
169.209335
 20
67.169687
 11
169.209335
 21
50.203325
  0
LINE
  8
型材断面
  6
CONTINUOUS
 10
169.709335
 20
66.60302
 11
169.709335
 21
50.203325
  0
LINE
  8
型材断面
  6
CONTINUOUS
 10
166.582028
 20
67.48302
 11
166.582028
 21
50.203325
  0
LINE
  8
型材断面
  6
CONTINUOUS
 10
166.248695
 20
67.48302
 11
166.248695
 21
50.203325
  0
LINE
  8
型材断面
  6
CONTINUOUS
 10
166.148695
 20
66.699688
 11
166.148695
 21
50.203325
  0
LINE
  8
型材断面
  6
CONTINUOUS
 10
165.74267
 20
67.169687
 11
165.74267
 21
50.203325
  0
LINE
  8
型材断面
  6
CONTINUOUS
 10
162.97617
 20
66.869993
 11
162.97617
 21
50.203325
  0
LINE
  8
型材断面
  6
CONTINUOUS
 10
161.742835
 20
65.203325
 11
161.742835
 21
50.203325
  0
LINE
  8
型材断面
  6
CONTINUOUS
 10
162.47617
 20
66.869993
 11
162.47617
 21
50.203325
  0
LINE
  8
型材断面
  6
CONTINUOUS
 10
163.459335
 20
66.699688
 11
163.459335
 21
50.203325
  0
LINE
  8
型材断面
  6
CONTINUOUS
 10
163.909335
 20
67.169687
 11
163.909335
 21
50.203325
  0
LINE
  8
型材断面
  6
DASHDOT
 10
-37.596497
 20
-79.253555
 11
-37.596497
 21
65.203325
  0
LINE
  8
型材断面
  6
CONTINUOUS
 10
-36.346497
 20
63.53666
 11
-38.846497
 21
63.53666
  0
LINE
  8
型材断面
  6
CONTINUOUS
 10
162.97617
 20
33.53666
 11
162.97617
 21
33.58666
  0
LINE
  8
型材断面
  6
CONTINUOUS
 10
162.47617
 20
35.203325
 11
161.742835
 21
35.203325
  0
LINE
  8
型材断面
  6
CONTINUOUS
 62
    47
 10
169.709335
 20
33.80363
 11
169.709335
 21
33.85363
  0
LINE
  8
型材断面
  6
CONTINUOUS
 62
    47
 10
169.709335
 20
33.80363
 11
169.209335
 21
33.80363
  0
LINE
  8
型材断面
  6
CONTINUOUS
 10
163.459335
 20
35.15363
 11
163.459335
 21
33.706965
  0
LINE
  8
型材断面
  6
CONTINUOUS
 10
163.909335
 20
33.706965
 11
163.459335
 21
33.706965
  0
LINE
  8
型材断面
  6
CONTINUOUS
 62
    47
 10
166.582028
 20
32.97363
 11
166.582028
 21
32.92363
  0
LINE
  8
型材断面
  6
CONTINUOUS
 62
    47
 10
166.582028
 20
32.92363
 11
166.248695
 21
32.92363
  0
LINE
  8
型材断面
  6
CONTINUOUS
 62
    47
 10
166.248695
 20
32.92363
 11
166.148695
 21
33.706965
  0
LINE
  8
型材断面
  6
CONTINUOUS
 62
    47
 10
165.74267
 20
33.706965
 11
166.148695
 21
33.706965
  0
LINE
  8
型材断面
  6
CONTINUOUS
 62
    47
 10
165.74267
 20
33.236965
 11
163.909335
 21
33.236965
  0
LINE
  8
型材断面
  6
CONTINUOUS
 10
162.97617
 20
33.53666
 11
162.47617
 21
33.53666
  0
LINE
  8
型材断面
  6
CONTINUOUS
 10
163.459335
 20
35.15363
 11
162.97617
 21
35.15363
  0
LINE
  8
型材断面
  6
CONTINUOUS
 62
    47
 10
169.209335
 20
33.236965
 11
166.582028
 21
33.236965
  0
INSERT
  2
*GRP_0004
  8
型材断面
  6
DOT
 10
0.0
 20
0.0
  0
INSERT
  2
*GRP_0005
  8
型材断面
  6
DOT
 10
0.0
 20
0.0
  0
LINE
  8
型材断面
  6
CONTINUOUS
 10
169.209335
 20
33.236965
 11
169.209335
 21
50.203325
  0
LINE
  8
型材断面
  6
CONTINUOUS
 10
169.709335
 20
33.80363
 11
169.709335
 21
50.203325
  0
LINE
  8
型材断面
  6
CONTINUOUS
 10
166.582028
 20
32.92363
 11
166.582028
 21
50.203325
  0
LINE
  8
型材断面
  6
CONTINUOUS
 10
166.248695
 20
32.92363
 11
166.248695
 21
50.203325
  0
LINE
  8
型材断面
  6
CONTINUOUS
 10
166.148695
 20
33.706965
 11
166.148695
 21
50.203325
  0
LINE
  8
型材断面
  6
CONTINUOUS
 10
165.74267
 20
33.236965
 11
165.74267
 21
50.203325
  0
LINE
  8
型材断面
  6
CONTINUOUS
 10
162.97617
 20
33.53666
 11
162.97617
 21
50.203325
  0
LINE
  8
型材断面
  6
CONTINUOUS
 10
161.742835
 20
35.203325
 11
161.742835
 21
50.203325
  0
LINE
  8
型材断面
  6
CONTINUOUS
 10
162.47617
 20
33.53666
 11
162.47617
 21
50.203325
  0
LINE
  8
型材断面
  6
CONTINUOUS
 10
163.459335
 20
33.706965
 11
163.459335
 21
50.203325
  0
LINE
  8
型材断面
  6
CONTINUOUS
 10
163.909335
 20
33.236965
 11
163.909335
 21
50.203325
  0
LINE
  8
型材断面
  6
CONTINUOUS
 10
-36.346497
 20
36.86999
 11
-38.846497
 21
36.86999
  0
LINE
  8
型材断面
  6
CONTINUOUS
 10
-36.346497
 20
36.86999
 11
-36.346497
 21
63.53666
  0
LINE
  8
型材断面
  6
CONTINUOUS
 10
-37.346497
 20
36.86999
 11
-37.346497
 21
63.53666
  0
LINE
  8
型材断面
  6
CONTINUOUS
 10
-37.846497
 20
36.86999
 11
-37.846497
 21
63.53666
  0
LINE
  8
型材断面
  6
CONTINUOUS
 10
-38.846497
 20
36.86999
 11
-38.846497
 21
63.53666
  0
LINE
  8
型材断面
  6
CONTINUOUS
 10
5.736835
 20
-69.937453
 11
5.686835
 21
-69.937453
  0
LINE
  8
型材断面
  6
CONTINUOUS
 10
4.070168
 20
-69.437453
 11
4.070168
 21
-68.70412
  0
LINE
  8
型材断面
  6
CONTINUOUS
 62
    47
 10
5.469863
 20
-76.67062
 11
5.419863
 21
-76.67062
  0
LINE
  8
型材断面
  6
CONTINUOUS
 62
    47
 10
5.469863
 20
-76.67062
 11
5.469863
 21
-76.17062
  0
LINE
  8
型材断面
  6
CONTINUOUS
 10
4.119863
 20
-70.42062
 11
5.56653
 21
-70.42062
  0
LINE
  8
型材断面
  6
CONTINUOUS
 10
5.56653
 20
-70.87062
 11
5.56653
 21
-70.42062
  0
LINE
  8
型材断面
  6
CONTINUOUS
 62
    47
 10
6.299863
 20
-73.543312
 11
6.349863
 21
-73.543312
  0
LINE
  8
型材断面
  6
CONTINUOUS
 62
    47
 10
6.349863
 20
-73.543312
 11
6.349863
 21
-73.209977
  0
LINE
  8
型材断面
  6
CONTINUOUS
 62
    47
 10
6.349863
 20
-73.209977
 11
5.56653
 21
-73.109977
  0
LINE
  8
型材断面
  6
CONTINUOUS
 62
    47
 10
5.56653
 20
-72.703953
 11
5.56653
 21
-73.109977
  0
LINE
  8
型材断面
  6
CONTINUOUS
 62
    47
 10
6.03653
 20
-72.703953
 11
6.03653
 21
-70.87062
  0
LINE
  8
型材断面
  6
CONTINUOUS
 10
5.736835
 20
-69.937453
 11
5.736835
 21
-69.437453
  0
LINE
  8
型材断面
  6
CONTINUOUS
 10
4.119863
 20
-70.42062
 11
4.119863
 21
-69.937453
  0
LINE
  8
型材断面
  6
CONTINUOUS
 62
    47
 10
6.03653
 20
-76.17062
 11
6.03653
 21
-73.543312
  0
INSERT
  2
*GRP_0009
  8
型材断面
  6
DOT
 10
0.0
 20
0.0
  0
INSERT
  2
*GRP_0010
  8
型材断面
  6
DOT
 10
0.0
 20
0.0
  0
LINE
  8
型材断面
  6
CONTINUOUS
 10
6.03653
 20
-76.17062
 11
-37.596497
 21
-76.17062
  0
LINE
  8
型材断面
  6
CONTINUOUS
 10
5.469863
 20
-76.67062
 11
-37.596497
 21
-76.67062
  0
LINE
  8
型材断面
  6
CONTINUOUS
 10
6.349863
 20
-73.543312
 11
-37.596497
 21
-73.543312
  0
LINE
  8
型材断面
  6
CONTINUOUS
 10
6.349863
 20
-73.209977
 11
-37.596497
 21
-73.209977
  0
LINE
  8
型材断面
  6
CONTINUOUS
 10
5.56653
 20
-73.109977
 11
-37.596497
 21
-73.109977
  0
LINE
  8
型材断面
  6
CONTINUOUS
 10
6.03653
 20
-72.703953
 11
-37.596497
 21
-72.703953
  0
LINE
  8
型材断面
  6
CONTINUOUS
 10
5.736835
 20
-69.937453
 11
-37.596497
 21
-69.937453
  0
LINE
  8
型材断面
  6
CONTINUOUS
 10
4.070168
 20
-68.70412
 11
-37.596497
 21
-68.70412
  0
LINE
  8
型材断面
  6
CONTINUOUS
 10
5.736835
 20
-69.437453
 11
-37.596497
 21
-69.437453
  0
LINE
  8
型材断面
  6
CONTINUOUS
 10
5.56653
 20
-70.42062
 11
-37.596497
 21
-70.42062
  0
LINE
  8
型材断面
  6
CONTINUOUS
 10
6.03653
 20
-70.87062
 11
-37.596497
 21
-70.87062
  0
LINE
  8
型材断面
  6
CONTINUOUS
 10
3.236835
 20
50.619993
 11
4.070168
 21
50.619993
  0
LINE
  8
型材断面
  6
CONTINUOUS
 10
3.236835
 20
49.786658
 11
4.070168
 21
49.786658
  0
LINE
  8
型材断面
  6
CONTINUOUS
 10
3.236835
 20
64.369993
 11
6.349863
 21
67.48302
  0
LINE
  8
型材断面
  6
CONTINUOUS
 10
3.236835
 20
50.619993
 11
3.236835
 21
64.369993
  0
LINE
  8
型材断面
  6
DASHDOT
 10
172.29227
 20
65.203325
 11
4.070168
 21
65.203325
  0
LINE
  8
型材断面
  6
CONTINUOUS
 10
3.236835
 20
36.036658
 11
6.349863
 21
32.92363
  0
LINE
  8
型材断面
  6
CONTINUOUS
 10
3.236835
 20
36.036658
 11
3.236835
 21
49.786658
  0
LINE
  8
型材断面
  6
DASHDOT
 10
172.29227
 20
35.203325
 11
4.070168
 21
35.203325
  0
LINE
  8
型材断面
  6
DASHDOT
 10
4.070168
 20
-79.253555
 11
4.070168
 21
35.203325
  0
LINE
  8
型材断面
  6
CONTINUOUS
 10
4.070168
 20
35.203325
 11
4.070168
 21
65.203325
  0
LINE
  8
型材断面
  6
CONTINUOUS
 10
6.03653
 20
33.236962
 11
6.03653
 21
67.169687
  0
LINE
  8
型材断面
  6
CONTINUOUS
 10
6.349863
 20
32.92363
 11
6.349863
 21
67.48302
  0
LINE
  8
型材断面
  6
CONTINUOUS
 10
5.736835
 20
33.536658
 11
5.736835
 21
66.869993
  0
LINE
  8
型材断面
  6
CONTINUOUS
 10
-80.92983
 20
-69.937453
 11
-80.87983
 21
-69.937453
  0
LINE
  8
型材断面
  6
CONTINUOUS
 10
-79.263162
 20
-69.437453
 11
-79.263162
 21
-68.70412
  0
LINE
  8
型材断面
  6
CONTINUOUS
 62
    47
 10
-80.662857
 20
-76.67062
 11
-80.612857
 21
-76.67062
  0
LINE
  8
型材断面
  6
CONTINUOUS
 62
    47
 10
-80.662857
 20
-76.67062
 11
-80.662857
 21
-76.17062
  0
LINE
  8
型材断面
  6
CONTINUOUS
 10
-79.312857
 20
-70.42062
 11
-80.759525
 21
-70.42062
  0
LINE
  8
型材断面
  6
CONTINUOUS
 10
-80.759525
 20
-70.87062
 11
-80.759525
 21
-70.42062
  0
LINE
  8
型材断面
  6
CONTINUOUS
 62
    47
 10
-81.492857
 20
-73.543312
 11
-81.542857
 21
-73.543312
  0
LINE
  8
型材断面
  6
CONTINUOUS
 62
    47
 10
-81.542857
 20
-73.543312
 11
-81.542857
 21
-73.209977
  0
LINE
  8
型材断面
  6
CONTINUOUS
 62
    47
 10
-81.542857
 20
-73.209977
 11
-80.759525
 21
-73.109977
  0
LINE
  8
型材断面
  6
CONTINUOUS
 62
    47
 10
-80.759525
 20
-72.703953
 11
-80.759525
 21
-73.109977
  0
LINE
  8
型材断面
  6
CONTINUOUS
 62
    47
 10
-81.229525
 20
-72.703953
 11
-81.229525
 21
-70.87062
  0
LINE
  8
型材断面
  6
CONTINUOUS
 10
-80.92983
 20
-69.937453
 11
-80.92983
 21
-69.437453
  0
LINE
  8
型材断面
  6
CONTINUOUS
 10
-79.312857
 20
-70.42062
 11
-79.312857
 21
-69.937453
  0
LINE
  8
型材断面
  6
CONTINUOUS
 62
    47
 10
-81.229525
 20
-76.17062
 11
-81.229525
 21
-73.543312
  0
INSERT
  2
*GRP_0011
  8
型材断面
  6
DOT
 10
0.0
 20
0.0
  0
INSERT
  2
*GRP_0012
  8
型材断面
  6
DOT
 10
0.0
 20
0.0
  0
LINE
  8
型材断面
  6
CONTINUOUS
 10
-81.229525
 20
-76.17062
 11
-37.596497
 21
-76.17062
  0
LINE
  8
型材断面
  6
CONTINUOUS
 10
-80.662857
 20
-76.67062
 11
-37.596497
 21
-76.67062
  0
LINE
  8
型材断面
  6
CONTINUOUS
 10
-81.542857
 20
-73.543312
 11
-37.596497
 21
-73.543312
  0
LINE
  8
型材断面
  6
CONTINUOUS
 10
-81.542857
 20
-73.209977
 11
-37.596497
 21
-73.209977
  0
LINE
  8
型材断面
  6
CONTINUOUS
 10
-80.759525
 20
-73.109977
 11
-37.596497
 21
-73.109977
  0
LINE
  8
型材断面
  6
CONTINUOUS
 10
-81.229525
 20
-72.703953
 11
-37.596497
 21
-72.703953
  0
LINE
  8
型材断面
  6
CONTINUOUS
 10
-80.92983
 20
-69.937453
 11
-37.596497
 21
-69.937453
  0
LINE
  8
型材断面
  6
CONTINUOUS
 10
-79.263162
 20
-68.70412
 11
-37.596497
 21
-68.70412
  0
LINE
  8
型材断面
  6
CONTINUOUS
 10
-80.92983
 20
-69.437453
 11
-37.596497
 21
-69.437453
  0
LINE
  8
型材断面
  6
CONTINUOUS
 10
-80.759525
 20
-70.42062
 11
-37.596497
 21
-70.42062
  0
LINE
  8
型材断面
  6
CONTINUOUS
 10
-81.229525
 20
-70.87062
 11
-37.596497
 21
-70.87062
  0
LINE
  8
型材断面
  6
CONTINUOUS
 10
-78.42983
 20
49.786658
 11
-79.263162
 21
49.786658
  0
LINE
  8
型材断面
  6
CONTINUOUS
 10
-78.42983
 20
50.619993
 11
-79.263162
 21
50.619993
  0
LINE
  8
型材断面
  6
DASHDOT
 10
172.29227
 20
50.203325
 11
-79.263162
 21
50.203325
  0
LINE
  8
型材断面
  6
CONTINUOUS
 10
-78.42983
 20
64.369993
 11
-81.542857
 21
67.48302
  0
LINE
  8
型材断面
  6
CONTINUOUS
 10
-78.42983
 20
50.619993
 11
-78.42983
 21
64.369993
  0
LINE
  8
型材断面
  6
CONTINUOUS
 10
-78.42983
 20
36.036658
 11
-81.542857
 21
32.92363
  0
LINE
  8
型材断面
  6
CONTINUOUS
 10
-78.42983
 20
36.036658
 11
-78.42983
 21
49.786658
  0
LINE
  8
型材断面
  6
DASHDOT
 10
-79.263162
 20
-79.253555
 11
-79.263162
 21
35.203325
  0
LINE
  8
型材断面
  6
CONTINUOUS
 10
-79.263162
 20
35.203325
 11
-79.263162
 21
65.203325
  0
LINE
  8
型材断面
  6
CONTINUOUS
 10
-81.229525
 20
33.236962
 11
-81.229525
 21
67.169687
  0
LINE
  8
型材断面
  6
CONTINUOUS
 10
-81.542857
 20
32.92363
 11
-81.542857
 21
67.48302
  0
LINE
  8
型材断面
  6
CONTINUOUS
 10
-80.92983
 20
33.536658
 11
-80.92983
 21
66.869993
  0
LINE
  8
型材断面
  6
CONTINUOUS
 10
4.070168
 20
65.203325
 11
-79.263162
 21
65.203325
  0
LINE
  8
型材断面
  6
CONTINUOUS
 10
6.03653
 20
67.169687
 11
-81.229525
 21
67.169687
  0
LINE
  8
型材断面
  6
CONTINUOUS
 10
6.349863
 20
67.48302
 11
-81.542857
 21
67.48302
  0
LINE
  8
型材断面
  6
CONTINUOUS
 10
5.736835
 20
66.869993
 11
-80.92983
 21
66.869993
  0
LINE
  8
型材断面
  6
CONTINUOUS
 10
4.070168
 20
35.203325
 11
-79.263162
 21
35.203325
  0
LINE
  8
型材断面
  6
CONTINUOUS
 10
6.03653
 20
33.236962
 11
-81.229525
 21
33.236962
  0
LINE
  8
型材断面
  6
CONTINUOUS
 10
6.349863
 20
32.92363
 11
-81.542857
 21
32.92363
  0
LINE
  8
型材断面
  6
CONTINUOUS
 10
5.736835
 20
33.536658
 11
-80.92983
 21
33.536658
  0
POLYLINE
  8
型材断面
  6
CONTINUOUS
 66
     1
 70
     1
  0
VERTEX
  8
型材断面
 10
28.91449
 20
-94.850355
  0
VERTEX
  8
型材断面
 10
-19.764185
 20
-94.850355
  0
VERTEX
  8
型材断面
 10
-19.764185
 20
-111.19502
  0
VERTEX
  8
型材断面
 10
28.91449
 20
-111.19502
  0
SEQEND
  0
LINE
  8
型材断面
  6
CONTINUOUS
 10
-58.013163
 20
35.203325
 11
-58.013163
 21
36.036658
  0
LINE
  8
型材断面
  6
CONTINUOUS
 10
-58.846497
 20
35.203325
 11
-58.846497
 21
36.036658
  0
LINE
  8
型材断面
  6
CONTINUOUS
 10
-78.42983
 20
36.036658
 11
-58.846497
 21
36.036658
  0
LINE
  8
型材断面
  6
CONTINUOUS
 10
-17.179832
 20
35.203325
 11
-17.179832
 21
36.036658
  0
LINE
  8
型材断面
  6
CONTINUOUS
 10
-16.346497
 20
35.203325
 11
-16.346497
 21
36.036658
  0
LINE
  8
型材断面
  6
CONTINUOUS
 10
3.236835
 20
36.036658
 11
-16.346497
 21
36.036658
  0
LINE
  8
型材断面
  6
CONTINUOUS
 10
-58.013163
 20
36.036658
 11
-17.179832
 21
36.036658
  0
LINE
  8
型材断面
  6
CONTINUOUS
 10
-58.013163
 20
65.203325
 11
-58.013163
 21
64.369993
  0
LINE
  8
型材断面
  6
CONTINUOUS
 10
-58.846497
 20
65.203325
 11
-58.846497
 21
64.369993
  0
LINE
  8
型材断面
  6
CONTINUOUS
 10
-78.42983
 20
64.369993
 11
-58.846497
 21
64.369993
  0
LINE
  8
型材断面
  6
CONTINUOUS
 10
-17.179832
 20
65.203325
 11
-17.179832
 21
64.369993
  0
LINE
  8
型材断面
  6
CONTINUOUS
 10
-16.346497
 20
65.203325
 11
-16.346497
 21
64.369993
  0
LINE
  8
型材断面
  6
CONTINUOUS
 10
3.236835
 20
64.369993
 11
-16.346497
 21
64.369993
  0
LINE
  8
型材断面
  6
CONTINUOUS
 10
-58.013163
 20
64.369993
 11
-17.179832
 21
64.369993
  0
POLYLINE
  8
型材断面
  6
CONTINUOUS
 66
     1
 70
     1
  0
VERTEX
  8
型材断面
 10
-28.112085
 20
25.427403
  0
VERTEX
  8
型材断面
 10
-46.884015
 20
25.427403
  0
VERTEX
  8
型材断面
 10
-46.884015
 20
20.69056
  0
VERTEX
  8
型材断面
 10
-28.112085
 20
20.69056
  0
SEQEND
  0
POLYLINE
  8
型材断面
  6
CONTINUOUS
 66
     1
 70
     1
  0
VERTEX
  8
型材断面
 10
-28.112085
 20
74.979248
  0
VERTEX
  8
型材断面
 10
-46.884015
 20
74.979248
  0
VERTEX
  8
型材断面
 10
-46.884015
 20
79.71609
  0
VERTEX
  8
型材断面
 10
-28.112085
 20
79.71609
  0
SEQEND
  0
LINE
  8
型材断面
  6
CONTINUOUS
 10
-62.596495
 20
67.833455
 11
-64.092125
 21
70.423963
  0
LINE
  8
型材断面
  6
CONTINUOUS
 10
-62.596495
 20
67.833455
 11
-61.100865
 21
70.423963
  0
LINE
  8
型材断面
  6
CONTINUOUS
 10
-61.100865
 20
70.423963
 11
-64.092125
 21
70.423963
  0
LINE
  8
型材断面
  6
CONTINUOUS
 10
-81.893293
 20
50.203325
 11
-84.4838
 21
51.698955
  0
LINE
  8
型材断面
  6
CONTINUOUS
 10
-81.893293
 20
50.203325
 11
-84.4838
 21
48.707695
  0
LINE
  8
型材断面
  6
CONTINUOUS
 10
-84.4838
 20
48.707695
 11
-84.4838
 21
51.698955
  0
LINE
  8
型材断面
  6
CONTINUOUS
 10
-62.596495
 20
32.573195
 11
-64.092125
 21
29.982688
  0
LINE
  8
型材断面
  6
CONTINUOUS
 10
-62.596495
 20
32.573195
 11
-61.100865
 21
29.982688
  0
LINE
  8
型材断面
  6
CONTINUOUS
 10
-61.100865
 20
29.982688
 11
-64.092125
 21
29.982688
  0
LINE
  8
型材断面
  6
CONTINUOUS
 10
-133.141685
 20
103.180797
 11
-132.54563
 21
100.59029
  0
LINE
  8
型材断面
  6
CONTINUOUS
 10
-133.141685
 20
103.180797
 11
-133.737742
 21
100.59029
  0
LINE
  8
型材断面
  6
CONTINUOUS
 10
-133.737742
 20
100.59029
 11
-132.54563
 21
100.59029
  0
LINE
  8
型材断面
  6
CONTINUOUS
 10
-139.164272
 20
97.311398
 11
-92.922495
 21
97.311398
  0
LINE
  8
型材断面
  6
CONTINUOUS
 10
-133.141685
 20
109.710672
 11
-134.637315
 21
107.120165
  0
LINE
  8
型材断面
  6
CONTINUOUS
 10
-133.141685
 20
109.710672
 11
-131.646055
 21
107.120165
  0
LINE
  8
型材断面
  6
CONTINUOUS
 10
-131.646055
 20
107.120165
 11
-134.637315
 21
107.120165
  0
LINE
  8
型材断面
  6
CONTINUOUS
 10
-139.164272
 20
106.18157
 11
-92.922495
 21
106.18157
  0
LINE
  8
型材断面
  6
CONTINUOUS
 10
-139.164272
 20
91.523365
 11
-92.922495
 21
91.523365
  0
LINE
  8
型材断面
  6
CONTINUOUS
 10
-12.5965
 20
67.833455
 11
-11.10087
 21
70.423963
  0
LINE
  8
型材断面
  6
CONTINUOUS
 10
-12.5965
 20
67.833455
 11
-14.09213
 21
70.423963
  0
LINE
  8
型材断面
  6
CONTINUOUS
 10
-14.09213
 20
70.423963
 11
-11.10087
 21
70.423963
  0
LINE
  8
型材断面
  6
CONTINUOUS
 10
6.700297
 20
50.203325
 11
9.290805
 21
51.698955
  0
LINE
  8
型材断面
  6
CONTINUOUS
 10
6.700297
 20
50.203325
 11
9.290805
 21
48.707695
  0
LINE
  8
型材断面
  6
CONTINUOUS
 10
9.290805
 20
48.707695
 11
9.290805
 21
51.698955
  0
LINE
  8
型材断面
  6
CONTINUOUS
 10
-12.5965
 20
32.573195
 11
-11.10087
 21
29.982688
  0
LINE
  8
型材断面
  6
CONTINUOUS
 10
-12.5965
 20
32.573195
 11
-14.09213
 21
29.982688
  0
LINE
  8
型材断面
  6
CONTINUOUS
 10
-14.09213
 20
29.982688
 11
-11.10087
 21
29.982688
  0
LINE
  8
型材断面
  6
CONTINUOUS
 10
6.700297
 20
61.303325
 11
9.290805
 21
60.707267
  0
LINE
  8
型材断面
  6
CONTINUOUS
 10
6.700297
 20
61.303325
 11
9.290805
 21
61.899382
  0
LINE
  8
型材断面
  6
CONTINUOUS
 10
9.290805
 20
61.899382
 11
9.290805
 21
60.707267
  0
LINE
  8
型材断面
  6
CONTINUOUS
 10
6.700297
 20
39.103325
 11
9.290805
 21
39.699382
  0
LINE
  8
型材断面
  6
CONTINUOUS
 10
6.700297
 20
39.103325
 11
9.290805
 21
38.507267
  0
LINE
  8
型材断面
  6
CONTINUOUS
 10
9.290805
 20
38.507267
 11
9.290805
 21
39.699382
  0
LINE
  8
型材断面
  6
CONTINUOUS
 10
-81.893293
 20
61.303325
 11
-84.4838
 21
60.707267
  0
LINE
  8
型材断面
  6
CONTINUOUS
 10
-81.893293
 20
61.303325
 11
-84.4838
 21
61.899382
  0
LINE
  8
型材断面
  6
CONTINUOUS
 10
-84.4838
 20
61.899382
 11
-84.4838
 21
60.707267
  0
LINE
  8
型材断面
  6
CONTINUOUS
 10
-81.893293
 20
39.103325
 11
-84.4838
 21
39.699382
  0
LINE
  8
型材断面
  6
CONTINUOUS
 10
-81.893293
 20
39.103325
 11
-84.4838
 21
38.507267
  0
LINE
  8
型材断面
  6
CONTINUOUS
 10
-84.4838
 20
38.507267
 11
-84.4838
 21
39.699382
  0
LINE
  8
型材断面
  6
CONTINUOUS
 10
-139.164272
 20
85.735332
 11
-92.922495
 21
85.735332
  0
INSERT
  2
*GRP_0022
  8
型材断面
  6
CONTINUOUS
 10
0.0
 20
0.0
  0
INSERT
  2
*GRP_0023
  8
型材断面
  6
CONTINUOUS
 10
0.0
 20
0.0
  0
INSERT
  2
*GRP_0024
  8
型材断面
  6
CONTINUOUS
 10
0.0
 20
0.0
  0
INSERT
  2
*GRP_0025
  8
型材断面
  6
CONTINUOUS
 10
0.0
 20
0.0
  0
INSERT
  2
*GRP_0026
  8
型材断面
  6
DOT
 10
0.0
 20
0.0
  0
LINE
  8
型材断面
  6
CONTINUOUS
 10
131.527885
 20
-23.450962
 11
109.36923
 21
-23.450962
  0
POLYLINE
  8
ガラス
  6
CONTINUOUS
 66
     1
 70
     1
  0
VERTEX
  8
ガラス
 10
152.986923
 20
-47.772437
  0
VERTEX
  8
ガラス
 10
112.326922
 20
-47.772437
  0
VERTEX
  8
ガラス
 10
112.326922
 20
-77.10577
  0
VERTEX
  8
ガラス
 10
152.986923
 20
-77.10577
  0
SEQEND
  0
TEXT
  7
TextStyle03
  8
文字
  6
CONTINUOUS
 10
78.1
 20
125.25
  1
シリーズ：ＳＴＤＬ
 40
5.0
 72
     5
 11
128.1
 21
125.25
  0
TEXT
  7
TextStyle03
  8
文字
  6
CONTINUOUS
 10
78.1
 20
119.625
  1
　　　　　（上下可動）900×2500タイプ
 40
5.0
 72
     5
 11
181.5375
 21
119.625
  0
TEXT
  7
TextStyle03
  8
文字
  6
CONTINUOUS
 10
78.1
 20
114.0
  1
図面名　：外観姿図
 40
5.0
 72
     5
 11
128.1
 21
114.0
  0
TEXT
  7
TextStyle03
  8
文字
  6
CONTINUOUS
 10
78.1
 20
108.375
  1
　　　　　　
 40
5.0
 72
     5
 11
111.225
 21
108.375
  0
TEXT
  7
TextStyle03
  8
文字
  6
CONTINUOUS
 10
-15.45
 20
-100.575
  1
※トップライト枠高さ寸法
 40
3.0
 72
     5
 11
24.675
 21
-100.575
  0
TEXT
  7
TextStyle03
  8
文字
  6
CONTINUOUS
 10
-15.45
 20
-103.95
  1
　シングルガラス：214
 40
3.0
 72
     5
 11
19.8
 21
-103.95
  0
TEXT
  7
TextStyle03
  8
文字
  6
CONTINUOUS
 10
-15.45
 20
-107.325
  1
　ペアガラス：224
 40
3.0
 72
     5
 11
13.05
 21
-107.325
  0
TEXT
  7
TextStyle03
  8
文字
  6
CONTINUOUS
 10
-45.775
 20
21.7
  1
可動装置側
 40
3.0
 72
     5
 11
-29.275
 21
21.7
  0
TEXT
  7
TextStyle03
  8
文字
  6
CONTINUOUS
 10
-45.775
 20
75.65
  1
可動装置側
 40
3.0
 72
     5
 11
-29.275
 21
75.65
  0
TEXT
  7
TextStyle03
  8
文字
  6
CONTINUOUS
 10
-130.35
 20
101.775
  1
はケーシング位置を示す
 40
3.0
 72
     5
 11
-93.6
 21
101.775
  0
TEXT
  7
TextStyle03
  8
文字
  6
CONTINUOUS
 10
-130.35
 20
98.4
  1
４ヶ所中1ヶ所に設定
 40
3.0
 72
     5
 11
-98.6625
 21
98.4
  0
TEXT
  7
TextStyle03
  8
文字
  6
CONTINUOUS
 10
-130.35
 20
107.3
  1
は排水穴位置を示す
 40
3.0
 72
     5
 11
-100.35
 21
107.3
  0
TEXT
  7
TextStyle03
  8
文字
  6
CONTINUOUS
 10
-100.25
 20
28.65
  1
アンカーピッチ
 40
3.0
 50
90.0
 72
     5
 11
-100.25
 21
51.9
  0
TEXT
  7
TextStyle03
  8
文字
  6
CONTINUOUS
 10
-72.625
 20
103.225
  1
アンカーピッチ
 40
3.0
 72
     5
 11
-49.375
 21
103.225
  0
TEXT
  7
TextStyle03
  8
文字
  6
CONTINUOUS
 10
-134.075
 20
92.425
  1
アンカー数量　１２ヶ所
 40
3.0
 72
     5
 11
-97.325
 21
92.425
  0
TEXT
  7
TextStyle03
  8
文字
  6
CONTINUOUS
 10
-139.075
 20
81.725
  1
※重量に依るのでご相談ください
 40
3.0
 72
     5
 11
-88.825
 21
81.725
  0
TEXT
  7
TextStyle03
  8
文字
  6
CONTINUOUS
 10
-139.075
 20
86.675
  1
アームユニット数　※２～４ヶ所
 40
3.0
 72
     5
 11
-88.825
 21
86.675
  0
TEXT
  7
TextStyle03
  8
文字
  6
CONTINUOUS
 10
111.9
 20
-22.625
  1
ガラス寸法
 40
3.0
 72
     5
 11
128.4
 21
-22.625
  0
TEXT
  7
TextStyle03
  8
文字
  6
CONTINUOUS
 10
138.95
 20
-74.225
  1
×２枚
 40
3.0
 72
     5
 11
148.7
 21
-74.225
  0
INSERT
  2
*DIM_0006
  8
寸法
  6
CONTINUOUS
 10
0.0
 20
0.0
  0
INSERT
  2
*DIM_0007
  8
寸法
  6
CONTINUOUS
 10
0.0
 20
0.0
  0
INSERT
  2
*DIM_0008
  8
寸法
  6
CONTINUOUS
 10
0.0
 20
0.0
  0
INSERT
  2
*DIM_0013
  8
寸法
  6
CONTINUOUS
 10
0.0
 20
0.0
  0
INSERT
  2
*DIM_0014
  8
寸法
  6
CONTINUOUS
 10
0.0
 20
0.0
  0
INSERT
  2
*DIM_0015
  8
寸法
  6
CONTINUOUS
 10
0.0
 20
0.0
  0
INSERT
  2
*DIM_0016
  8
寸法
  6
CONTINUOUS
 10
0.0
 20
0.0
  0
INSERT
  2
*DIM_0017
  8
寸法
  6
CONTINUOUS
 10
0.0
 20
0.0
  0
INSERT
  2
*DIM_0018
  8
寸法
  6
CONTINUOUS
 10
0.0
 20
0.0
  0
INSERT
  2
*DIM_0019
  8
寸法
  6
CONTINUOUS
 10
0.0
 20
0.0
  0
INSERT
  2
*DIM_0020
  8
寸法
  6
CONTINUOUS
 10
0.0
 20
0.0
  0
INSERT
  2
*DIM_0021
  8
寸法
  6
CONTINUOUS
 10
0.0
 20
0.0
  0
INSERT
  2
*DIM_0031
  8
寸法
  6
CONTINUOUS
 10
0.0
 20
0.0
  0
INSERT
  2
*DIM_0032
  8
寸法
  6
CONTINUOUS
 10
0.0
 20
0.0
  0
INSERT
  2
*DIM_0033
  8
寸法
  6
CONTINUOUS
 10
0.0
 20
0.0
  0
INSERT
  2
*DIM_0034
  8
寸法
  6
CONTINUOUS
 10
0.0
 20
0.0
  0
INSERT
  2
*DIM_0035
  8
寸法
  6
CONTINUOUS
 10
0.0
 20
0.0
  0
INSERT
  2
*DIM_0036
  8
寸法
  6
CONTINUOUS
 10
0.0
 20
0.0
  0
LINE
  8
曲げ物
  6
CONTINUOUS
 10
-14.447055
 20
52.128875
 11
-18.142367
 21
48.433562
  0
LINE
  8
曲げ物
  6
CONTINUOUS
 10
-15.150525
 20
50.592765
 11
-16.606255
 21
49.137035
  0
LINE
  8
曲げ物
  6
CONTINUOUS
 10
-15.983165
 20
51.425405
 11
-17.438895
 21
49.969675
  0
LINE
  8
曲げ物
  6
CONTINUOUS
 10
-56.538915
 20
52.128875
 11
-60.234227
 21
48.433562
  0
LINE
  8
曲げ物
  6
CONTINUOUS
 10
-57.242385
 20
50.592765
 11
-58.698115
 21
49.137035
  0
LINE
  8
曲げ物
  6
CONTINUOUS
 10
-58.075025
 20
51.425405
 11
-59.530755
 21
49.969675
  0
ENDSEC
  0
EOF
