  0
SECTION
  2
HEADER
  9
$EXTMIN
 10
-210.0
 20
-148.5
  9
$EXTMAX
 10
210.0
 20
148.5
  9
$PDMODE
 70
    32
  9
$PDSIZE
 40
1.5
  9
$LTSCALE
 40
10.0
  0
ENDSEC
  0
SECTION
  2
TABLES
  0
TABLE
  2
LTYPE
 70
    15
  0
LTYPE
  2
CONTINUOUS
 70
    64
  3
実線
 72
    65
 73
     0
 40
0.0
  0
LTYPE
  2
DASHED
 70
    64
  3
破線A
 72
    65
 73
     2
 40
0.6
 49
0.4
 49
-0.2
  0
LTYPE
  2
DASHEDX2
 70
    64
  3
破線B
 72
    65
 73
     2
 40
1.3
 49
0.9
 49
-0.4
  0
LTYPE
  2
DASHDOT
 70
    64
  3
１点鎖線A
 72
    65
 73
     4
 40
0.5375
 49
0.375
 49
-0.05
 49
0.0625
 49
-0.05
  0
LTYPE
  2
DASHDOTX2
 70
    64
  3
１点鎖線B
 72
    65
 73
     4
 40
1.075
 49
0.75
 49
-0.1
 49
0.125
 49
-0.1
  0
LTYPE
  2
DIVIDE2
 70
    64
  3
２点鎖線A
 72
    65
 73
     6
 40
0.5125
 49
0.3
 49
-0.0375
 49
0.05
 49
-0.0375
 49
0.05
 49
-0.0375
  0
LTYPE
  2
DIVIDE
 70
    64
  3
２点鎖線B
 72
    65
 73
     6
 40
1.05
 49
0.55
 49
-0.1
 49
0.1
 49
-0.1
 49
0.1
 49
-0.1
  0
LTYPE
  2
DOT
 70
    64
  3
点線A
 72
    65
 73
     2
 40
0.1125
 49
0.0625
 49
-0.05
  0
LTYPE
  2
DOTX2
 70
    64
  3
点線B
 72
    65
 73
     2
 40
0.275
 49
0.15
 49
-0.125
  0
LTYPE
  2
CONTINUOUS
 70
    64
  3
実線
 72
    65
 73
     0
 40
0.0
  0
LTYPE
  2
CONTINUOUS
 70
    64
  3
実線
 72
    65
 73
     0
 40
0.0
  0
LTYPE
  2
CONTINUOUS
 70
    64
  3
実線
 72
    65
 73
     0
 40
0.0
  0
LTYPE
  2
CONTINUOUS
 70
    64
  3
実線
 72
    65
 73
     0
 40
0.0
  0
LTYPE
  2
CONTINUOUS
 70
    64
  3
実線
 72
    65
 73
     0
 40
0.0
  0
LTYPE
  2
CONTINUOUS
 70
    64
  3
実線
 72
    65
 73
     0
 40
0.0
  0
ENDTAB
  0
TABLE
  2
LAYER
 70
    34
  0
LAYER
  2
通り芯
 70
     0
 62
    15
  6
CONTINUOUS
  0
LAYER
  2
補助線
 70
     0
 62
    16
  6
DOT
  0
LAYER
  2
躯体
 70
     0
 62
    31
  6
CONTINUOUS
  0
LAYER
  2
型材
 70
     0
 62
    32
  6
CONTINUOUS
  0
LAYER
  2
型材断面
 70
     0
 62
    47
  6
CONTINUOUS
  0
LAYER
  2
ガラス
 70
     0
 62
    48
  6
CONTINUOUS
  0
LAYER
  2
ゴム等
 70
     0
 62
    63
  6
CONTINUOUS
  0
LAYER
  2
ボルト／ビス
 70
     0
 62
    64
  6
CONTINUOUS
  0
LAYER
  2
文字
 70
     0
 62
    79
  6
CONTINUOUS
  0
LAYER
  2
寸法
 70
     0
 62
    80
  6
CONTINUOUS
  0
LAYER
  2
ﾊｯﾁﾝｸﾞ
 70
     0
 62
    95
  6
CONTINUOUS
  0
LAYER
  2
別途部材
 70
     0
 62
    96
  6
CONTINUOUS
  0
LAYER
  2
曲げ物
 70
     0
 62
   111
  6
CONTINUOUS
  0
LAYER
  2
鉄骨等
 70
     0
 62
   112
  6
CONTINUOUS
  0
LAYER
  2
St
 70
     0
 62
   127
  6
CONTINUOUS
  0
LAYER
  2
その他部品等
 70
     0
 62
   128
  6
CONTINUOUS
  0
LAYER
  2
ｶﾞｽｹｯﾄ
 70
     0
 62
   143
  6
CONTINUOUS
  0
LAYER
  2
ｽｹｯﾁ
 70
     0
 62
    14
  6
CONTINUOUS
  0
LAYER
  2
0
 70
     0
 62
    17
  6
CONTINUOUS
  0
LAYER
  2
1
 70
     0
 62
    30
  6
CONTINUOUS
  0
LAYER
  2
4
 70
     0
 62
    33
  6
CONTINUOUS
  0
LAYER
  2
ﾚｲﾔ3
 70
     0
 62
    46
  6
CONTINUOUS
  0
LAYER
  2
外形線
 70
     0
 62
    49
  6
CONTINUOUS
  0
LAYER
  2
部品
 70
     0
 62
    14
  6
CONTINUOUS
  0
LAYER
  2
サッシ芯
 70
     0
 62
    17
  6
DASHDOTX2
  0
LAYER
  2
寸法線
 70
     0
 62
    62
  6
CONTINUOUS
  0
LAYER
  2
姿図外形線
 70
     0
 62
    65
  6
CONTINUOUS
  0
LAYER
  2
姿補助線
 70
     0
 62
    30
  6
CONTINUOUS
  0
LAYER
  2
透視線
 70
     0
 62
    78
  6
DOT
  0
LAYER
  2
用紙
 70
     0
 62
    81
  6
CONTINUOUS
  0
LAYER
  2
実線図枠
 70
     0
 62
    94
  6
CONTINUOUS
  0
LAYER
  2
補助図枠
 70
     0
 62
    97
  6
CONTINUOUS
  0
LAYER
  2
建具記号
 70
     0
 62
   110
  6
CONTINUOUS
  0
LAYER
  2
補助文字
 70
     0
 62
   113
  6
CONTINUOUS
  0
ENDTAB
  0
TABLE
  2
STYLE
 70
    10
  0
STYLE
  2
STANDARD
 70
     0
 40
1.0
 41
1.0
 42
1.0
 50
0.0
 71
     0
  3
TXT
  4
BIGFONT
  0
STYLE
  2
TATE
 70
     4
 40
1.0
 41
1.0
 42
1.0
 50
0.0
 71
     0
  3
TXT
  4
BIGFONT
  0
STYLE
  2
TextStyle03
 70
     0
 40
1.0
 41
1.0
 42
1.0
 50
0.0
 71
     0
  3
MONOTXT
  4
BIGFONT
  0
STYLE
  2
TextStyle04
 70
     0
 40
1.0
 41
1.0
 42
1.0
 50
0.0
 71
     0
  3
MONOTXT
  4
BIGFONT
  0
STYLE
  2
TextStyle05
 70
     0
 40
1.0
 41
1.0
 42
1.0
 50
0.0
 71
     0
  3
MONOTXT
  4
BIGFONT
  0
STYLE
  2
TextStyle06
 70
     0
 40
1.0
 41
1.0
 42
1.0
 50
0.0
 71
     0
  3
MONOTXT
  4
BIGFONT
  0
STYLE
  2
TextStyle07
 70
     0
 40
1.0
 41
1.0
 42
1.0
 50
0.0
 71
     0
  3
MONOTXT
  4
BIGFONT
  0
STYLE
  2
TextStyle08
 70
     0
 40
1.0
 41
1.0
 42
1.0
 50
0.0
 71
     0
  3
MONOTXT
  4
BIGFONT
  0
STYLE
  2
TextStyle09
 70
     0
 40
1.0
 41
1.0
 42
1.0
 50
0.0
 71
     0
  3
MONOTXT
  4
BIGFONT
  0
STYLE
  2
TextStyle10
 70
     0
 40
1.0
 41
1.0
 42
1.0
 50
0.0
 71
     0
  3
MONOTXT
  4
BIGFONT
  0
ENDTAB
  0
ENDSEC
  0
SECTION
  2
BLOCKS
  0
BLOCK
  2
*GRP_0001
 70
    65
 10
0.0
 20
0.0
  0
LINE
  8
型材断面
  6
CONTINUOUS
 10
195.0
 20
133.5
 11
195.0
 21
-133.5
  0
LINE
  8
型材断面
  6
CONTINUOUS
 10
195.0
 20
-133.5
 11
-185.0
 21
-133.5
  0
LINE
  8
型材断面
  6
CONTINUOUS
 10
-185.0
 20
-133.5
 11
-185.0
 21
133.5
  0
LINE
  8
型材断面
  6
CONTINUOUS
 10
195.0
 20
133.5
 11
-185.0
 21
133.5
  0
LINE
  8
型材断面
  6
CONTINUOUS
 10
145.0
 20
-133.5
 11
145.0
 21
-118.5
  0
LINE
  8
型材断面
  6
CONTINUOUS
 10
195.0
 20
-118.5
 11
145.0
 21
-118.5
  0
ENDBLK
  0
BLOCK
  2
*GRP_0002
 70
    65
 10
0.0
 20
0.0
  0
INSERT
  2
M8横
  8
ゴム等
  6
CONTINUOUS
 10
-3.436805
 20
-70.297288
 50
180.0
 41
0.033333
 42
-0.033333
  0
LINE
  8
ボルト／ビス
  6
CONTINUOUS
 10
-3.570137
 20
-70.087288
 11
-3.553473
 21
-70.070622
  0
LINE
  8
ボルト／ビス
  6
CONTINUOUS
 10
-3.320137
 20
-70.070622
 11
-3.303473
 21
-70.087288
  0
LINE
  8
ボルト／ビス
  6
CONTINUOUS
 10
-3.303473
 20
-70.087288
 11
-3.570137
 21
-70.087288
  0
LINE
  8
ボルト／ビス
  6
CONTINUOUS
 10
-3.320137
 20
-70.070622
 11
-3.553473
 21
-70.070622
  0
LINE
  8
ボルト／ビス
  6
CONTINUOUS
 10
-3.553473
 20
-70.070622
 11
-3.553473
 21
-70.113952
  0
LINE
  8
ボルト／ビス
  6
CONTINUOUS
 10
-3.570137
 20
-70.087288
 11
-3.570137
 21
-70.113952
  0
LINE
  8
ボルト／ビス
  6
CONTINUOUS
 10
-3.303473
 20
-70.087288
 11
-3.303473
 21
-70.113952
  0
LINE
  8
ボルト／ビス
  6
CONTINUOUS
 10
-3.320137
 20
-70.070622
 11
-3.320137
 21
-70.113952
  0
LINE
  8
ボルト／ビス
  6
CONTINUOUS
 10
-3.070137
 20
-70.297288
 11
-3.803473
 21
-70.297288
  0
LINE
  8
ボルト／ビス
  6
CONTINUOUS
 10
-3.853473
 20
-70.337288
 11
-3.853473
 21
-70.42062
  0
LINE
  8
ボルト／ビス
  6
CONTINUOUS
 10
-3.853473
 20
-70.42062
 11
-3.020137
 21
-70.42062
  0
LINE
  8
ボルト／ビス
  6
CONTINUOUS
 10
-3.020137
 20
-70.42062
 11
-3.020137
 21
-70.337288
  0
LINE
  8
ボルト／ビス
  6
CONTINUOUS
 10
-3.853473
 20
-70.337288
 11
-3.020137
 21
-70.337288
  0
LINE
  8
ボルト／ビス
  6
CONTINUOUS
 10
-3.070137
 20
-70.297288
 11
-3.070137
 21
-70.337288
  0
LINE
  8
ボルト／ビス
  6
CONTINUOUS
 10
-3.803473
 20
-70.297288
 11
-3.803473
 21
-70.337288
  0
LINE
  8
ボルト／ビス
  6
CONTINUOUS
 10
-3.436805
 20
-70.347288
 11
-3.436805
 21
-70.297288
  0
ENDBLK
  0
BLOCK
  2
*GRP_0003
 70
    65
 10
0.0
 20
0.0
  0
LINE
  8
ボルト／ビス
  6
CONTINUOUS
 10
-3.230138
 20
-69.437453
 11
-3.230138
 21
-69.370788
  0
LINE
  8
ボルト／ビス
  6
CONTINUOUS
 10
-3.230138
 20
-69.370788
 11
-3.96347
 21
-69.370788
  0
LINE
  8
ボルト／ビス
  6
CONTINUOUS
 10
-3.96347
 20
-69.370788
 11
-3.96347
 21
-69.437453
  0
LINE
  8
ボルト／ビス
  6
CONTINUOUS
 10
-3.230138
 20
-69.437453
 11
-3.96347
 21
-69.437453
  0
LINE
  8
ボルト／ビス
  6
CONTINUOUS
 10
-3.296803
 20
-69.337453
 11
-3.296803
 21
-69.370788
  0
LINE
  8
ボルト／ビス
  6
CONTINUOUS
 10
-3.296803
 20
-69.337453
 11
-3.896803
 21
-69.337453
  0
LINE
  8
ボルト／ビス
  6
CONTINUOUS
 10
-3.896803
 20
-69.337453
 11
-3.896803
 21
-69.370788
  0
LINE
  8
ボルト／ビス
  6
CONTINUOUS
 62
    64
 10
-3.436427
 20
-69.137453
 11
-3.404353
 21
-69.149128
  0
ARC
  8
ボルト／ビス
  6
CONTINUOUS
 62
    64
 10
-3.452466
 20
-69.242431
 40
0.104978
 50
90.0
 51
117.278033
  0
ARC
  8
ボルト／ビス
  6
CONTINUOUS
 62
    64
 10
-3.596804
 20
-69.539855
 40
0.402402
 50
76.165015
 51
103.834998
  0
LINE
  8
ボルト／ビス
  6
CONTINUOUS
 62
    64
 10
-3.757178
 20
-69.137453
 11
-3.789253
 21
-69.149128
  0
ARC
  8
ボルト／ビス
  6
CONTINUOUS
 62
    64
 10
-3.741142
 20
-69.242431
 40
0.104978
 50
62.721967
 51
90.0
  0
LINE
  8
ボルト／ビス
  6
CONTINUOUS
 62
    64
 10
-3.436427
 20
-69.137453
 11
-3.757178
 21
-69.137453
  0
LINE
  8
ボルト／ビス
  6
CONTINUOUS
 62
    64
 10
-3.789253
 20
-69.149128
 11
-3.789253
 21
-69.270788
  0
LINE
  8
ボルト／ビス
  6
CONTINUOUS
 62
    64
 10
-3.693027
 20
-69.149128
 11
-3.693027
 21
-69.270788
  0
LINE
  8
ボルト／ビス
  6
CONTINUOUS
 62
    64
 10
-3.404353
 20
-69.149128
 11
-3.404353
 21
-69.270788
  0
LINE
  8
ボルト／ビス
  6
CONTINUOUS
 62
    64
 10
-3.500577
 20
-69.149128
 11
-3.500577
 21
-69.270788
  0
LINE
  8
ボルト／ビス
  6
CONTINUOUS
 10
-3.404353
 20
-69.270788
 11
-3.789253
 21
-69.270788
  0
LINE
  8
ボルト／ビス
  6
CONTINUOUS
 10
-3.396803
 20
-69.270788
 11
-3.396803
 21
-69.337453
  0
LINE
  8
ボルト／ビス
  6
CONTINUOUS
 10
-3.396803
 20
-69.270788
 11
-3.796803
 21
-69.270788
  0
LINE
  8
ボルト／ビス
  6
CONTINUOUS
 10
-3.796803
 20
-69.270788
 11
-3.796803
 21
-69.337453
  0
ENDBLK
  0
BLOCK
  2
*GRP_0004
 70
    65
 10
0.0
 20
0.0
  0
INSERT
  2
M8横
  8
ゴム等
  6
CONTINUOUS
 10
-71.75619
 20
-70.297288
 41
0.033333
 42
0.033333
  0
LINE
  8
ボルト／ビス
  6
CONTINUOUS
 10
-71.622858
 20
-70.087288
 11
-71.639523
 21
-70.070622
  0
LINE
  8
ボルト／ビス
  6
CONTINUOUS
 10
-71.872858
 20
-70.070622
 11
-71.889523
 21
-70.087288
  0
LINE
  8
ボルト／ビス
  6
CONTINUOUS
 10
-71.889523
 20
-70.087288
 11
-71.622858
 21
-70.087288
  0
LINE
  8
ボルト／ビス
  6
CONTINUOUS
 10
-71.872858
 20
-70.070622
 11
-71.639523
 21
-70.070622
  0
LINE
  8
ボルト／ビス
  6
CONTINUOUS
 10
-71.639523
 20
-70.070622
 11
-71.639523
 21
-70.113952
  0
LINE
  8
ボルト／ビス
  6
CONTINUOUS
 10
-71.622858
 20
-70.087288
 11
-71.622858
 21
-70.113952
  0
LINE
  8
ボルト／ビス
  6
CONTINUOUS
 10
-71.889523
 20
-70.087288
 11
-71.889523
 21
-70.113952
  0
LINE
  8
ボルト／ビス
  6
CONTINUOUS
 10
-71.872858
 20
-70.070622
 11
-71.872858
 21
-70.113952
  0
LINE
  8
ボルト／ビス
  6
CONTINUOUS
 10
-72.122858
 20
-70.297288
 11
-71.389523
 21
-70.297288
  0
LINE
  8
ボルト／ビス
  6
CONTINUOUS
 10
-71.339523
 20
-70.337288
 11
-71.339523
 21
-70.42062
  0
LINE
  8
ボルト／ビス
  6
CONTINUOUS
 10
-71.339523
 20
-70.42062
 11
-72.172858
 21
-70.42062
  0
LINE
  8
ボルト／ビス
  6
CONTINUOUS
 10
-72.172858
 20
-70.42062
 11
-72.172858
 21
-70.337288
  0
LINE
  8
ボルト／ビス
  6
CONTINUOUS
 10
-71.339523
 20
-70.337288
 11
-72.172858
 21
-70.337288
  0
LINE
  8
ボルト／ビス
  6
CONTINUOUS
 10
-72.122858
 20
-70.297288
 11
-72.122858
 21
-70.337288
  0
LINE
  8
ボルト／ビス
  6
CONTINUOUS
 10
-71.389523
 20
-70.297288
 11
-71.389523
 21
-70.337288
  0
LINE
  8
ボルト／ビス
  6
CONTINUOUS
 10
-71.75619
 20
-70.347288
 11
-71.75619
 21
-70.297288
  0
ENDBLK
  0
BLOCK
  2
*GRP_0005
 70
    65
 10
0.0
 20
0.0
  0
LINE
  8
ボルト／ビス
  6
CONTINUOUS
 10
-71.962857
 20
-69.437453
 11
-71.962857
 21
-69.370788
  0
LINE
  8
ボルト／ビス
  6
CONTINUOUS
 10
-71.962857
 20
-69.370788
 11
-71.229525
 21
-69.370788
  0
LINE
  8
ボルト／ビス
  6
CONTINUOUS
 10
-71.229525
 20
-69.370788
 11
-71.229525
 21
-69.437453
  0
LINE
  8
ボルト／ビス
  6
CONTINUOUS
 10
-71.962857
 20
-69.437453
 11
-71.229525
 21
-69.437453
  0
LINE
  8
ボルト／ビス
  6
CONTINUOUS
 10
-71.896192
 20
-69.337453
 11
-71.896192
 21
-69.370788
  0
LINE
  8
ボルト／ビス
  6
CONTINUOUS
 10
-71.896192
 20
-69.337453
 11
-71.296192
 21
-69.337453
  0
LINE
  8
ボルト／ビス
  6
CONTINUOUS
 10
-71.296192
 20
-69.337453
 11
-71.296192
 21
-69.370788
  0
LINE
  8
ボルト／ビス
  6
CONTINUOUS
 62
    64
 10
-71.756567
 20
-69.137453
 11
-71.788642
 21
-69.149128
  0
ARC
  8
ボルト／ビス
  6
CONTINUOUS
 62
    64
 10
-71.74053
 20
-69.242431
 40
0.104978
 50
62.721967
 51
90.0
  0
ARC
  8
ボルト／ビス
  6
CONTINUOUS
 62
    64
 10
-71.596193
 20
-69.539855
 40
0.402402
 50
76.165002
 51
103.834985
  0
LINE
  8
ボルト／ビス
  6
CONTINUOUS
 62
    64
 10
-71.435818
 20
-69.137453
 11
-71.403743
 21
-69.149128
  0
ARC
  8
ボルト／ビス
  6
CONTINUOUS
 62
    64
 10
-71.451855
 20
-69.242431
 40
0.104978
 50
90.0
 51
117.278033
  0
LINE
  8
ボルト／ビス
  6
CONTINUOUS
 62
    64
 10
-71.756567
 20
-69.137453
 11
-71.435818
 21
-69.137453
  0
LINE
  8
ボルト／ビス
  6
CONTINUOUS
 62
    64
 10
-71.403743
 20
-69.149128
 11
-71.403743
 21
-69.270788
  0
LINE
  8
ボルト／ビス
  6
CONTINUOUS
 62
    64
 10
-71.499967
 20
-69.149128
 11
-71.499967
 21
-69.270788
  0
LINE
  8
ボルト／ビス
  6
CONTINUOUS
 62
    64
 10
-71.788642
 20
-69.149128
 11
-71.788642
 21
-69.270788
  0
LINE
  8
ボルト／ビス
  6
CONTINUOUS
 62
    64
 10
-71.692418
 20
-69.149128
 11
-71.692418
 21
-69.270788
  0
LINE
  8
ボルト／ビス
  6
CONTINUOUS
 10
-71.788642
 20
-69.270788
 11
-71.403743
 21
-69.270788
  0
LINE
  8
ボルト／ビス
  6
CONTINUOUS
 10
-71.796192
 20
-69.270788
 11
-71.796192
 21
-69.337453
  0
LINE
  8
ボルト／ビス
  6
CONTINUOUS
 10
-71.796192
 20
-69.270788
 11
-71.396192
 21
-69.270788
  0
LINE
  8
ボルト／ビス
  6
CONTINUOUS
 10
-71.396192
 20
-69.270788
 11
-71.396192
 21
-69.337453
  0
ENDBLK
  0
BLOCK
  2
*DIM_0006
 70
    65
 10
0.0
 20
0.0
  0
LINE
  8
寸法
  6
CONTINUOUS
 10
0.736835
 20
-68.70412
 11
19.355307
 21
-68.70412
  0
LINE
  8
寸法
  6
CONTINUOUS
 10
2.703197
 20
-76.17062
 11
19.355307
 21
-76.17062
  0
LINE
  8
寸法
  6
CONTINUOUS
 10
19.355307
 20
-68.70412
 11
19.355307
 21
-76.17062
  0
POINT
  8
寸法
 10
19.355307
 20
-68.70412
  0
POINT
  8
寸法
 10
19.355307
 20
-76.17062
  0
TEXT
  7
TextStyle03
  8
寸法
  6
CONTINUOUS
 10
18.975
 20
-74.8875
  1
224
 40
3.0
 50
90.0
 72
     5
 11
18.975
 21
-70.0125
  0
ENDBLK
  0
BLOCK
  2
*GRP_0007
 70
    65
 10
0.0
 20
0.0
  0
INSERT
  2
M8横
  8
ゴム等
  6
CONTINUOUS
 10
163.336003
 20
66.029685
 50
270.0
 41
0.033333
 42
-0.033333
  0
LINE
  8
ボルト／ビス
  6
CONTINUOUS
 10
163.126005
 20
65.896352
 11
163.109338
 21
65.91302
  0
LINE
  8
ボルト／ビス
  6
CONTINUOUS
 10
163.109338
 20
66.146352
 11
163.126005
 21
66.16302
  0
LINE
  8
ボルト／ビス
  6
CONTINUOUS
 10
163.126005
 20
66.16302
 11
163.126005
 21
65.896352
  0
LINE
  8
ボルト／ビス
  6
CONTINUOUS
 10
163.109338
 20
66.146352
 11
163.109338
 21
65.91302
  0
LINE
  8
ボルト／ビス
  6
CONTINUOUS
 10
163.109338
 20
65.91302
 11
163.15267
 21
65.91302
  0
LINE
  8
ボルト／ビス
  6
CONTINUOUS
 10
163.126005
 20
65.896352
 11
163.15267
 21
65.896352
  0
LINE
  8
ボルト／ビス
  6
CONTINUOUS
 10
163.126005
 20
66.16302
 11
163.15267
 21
66.16302
  0
LINE
  8
ボルト／ビス
  6
CONTINUOUS
 10
163.109338
 20
66.146352
 11
163.15267
 21
66.146352
  0
LINE
  8
ボルト／ビス
  6
CONTINUOUS
 10
163.336003
 20
66.396352
 11
163.336003
 21
65.66302
  0
LINE
  8
ボルト／ビス
  6
CONTINUOUS
 10
163.376002
 20
65.61302
 11
163.459335
 21
65.61302
  0
LINE
  8
ボルト／ビス
  6
CONTINUOUS
 10
163.459335
 20
65.61302
 11
163.459335
 21
66.446352
  0
LINE
  8
ボルト／ビス
  6
CONTINUOUS
 10
163.459335
 20
66.446352
 11
163.376002
 21
66.446352
  0
LINE
  8
ボルト／ビス
  6
CONTINUOUS
 10
163.376002
 20
65.61302
 11
163.376002
 21
66.446352
  0
LINE
  8
ボルト／ビス
  6
CONTINUOUS
 10
163.336003
 20
66.396352
 11
163.376002
 21
66.396352
  0
LINE
  8
ボルト／ビス
  6
CONTINUOUS
 10
163.336003
 20
65.66302
 11
163.376002
 21
65.66302
  0
LINE
  8
ボルト／ビス
  6
CONTINUOUS
 10
163.386002
 20
66.029685
 11
163.336003
 21
66.029685
  0
ENDBLK
  0
BLOCK
  2
*GRP_0008
 70
    65
 10
0.0
 20
0.0
  0
LINE
  8
ボルト／ビス
  6
CONTINUOUS
 10
162.47617
 20
66.236355
 11
162.409503
 21
66.236355
  0
LINE
  8
ボルト／ビス
  6
CONTINUOUS
 10
162.409503
 20
66.236355
 11
162.409503
 21
65.50302
  0
LINE
  8
ボルト／ビス
  6
CONTINUOUS
 10
162.409503
 20
65.50302
 11
162.47617
 21
65.50302
  0
LINE
  8
ボルト／ビス
  6
CONTINUOUS
 10
162.47617
 20
66.236355
 11
162.47617
 21
65.50302
  0
LINE
  8
ボルト／ビス
  6
CONTINUOUS
 10
162.37617
 20
66.169687
 11
162.409503
 21
66.169687
  0
LINE
  8
ボルト／ビス
  6
CONTINUOUS
 10
162.37617
 20
66.169687
 11
162.37617
 21
65.569687
  0
LINE
  8
ボルト／ビス
  6
CONTINUOUS
 10
162.37617
 20
65.569687
 11
162.409503
 21
65.569687
  0
LINE
  8
ボルト／ビス
  6
CONTINUOUS
 62
    64
 10
162.17617
 20
66.030062
 11
162.187845
 21
66.062138
  0
ARC
  8
ボルト／ビス
  6
CONTINUOUS
 62
    64
 10
162.281149
 20
66.014031
 40
0.104978
 50
180.0
 51
207.278033
  0
ARC
  8
ボルト／ビス
  6
CONTINUOUS
 62
    64
 10
162.578573
 20
65.869693
 40
0.402402
 50
166.165015
 51
193.834998
  0
LINE
  8
ボルト／ビス
  6
CONTINUOUS
 62
    64
 10
162.17617
 20
65.709312
 11
162.187845
 21
65.677238
  0
ARC
  8
ボルト／ビス
  6
CONTINUOUS
 62
    64
 10
162.281149
 20
65.725355
 40
0.104978
 50
152.721967
 51
180.0
  0
LINE
  8
ボルト／ビス
  6
CONTINUOUS
 62
    64
 10
162.17617
 20
66.030062
 11
162.17617
 21
65.709312
  0
LINE
  8
ボルト／ビス
  6
CONTINUOUS
 62
    64
 10
162.187845
 20
65.677238
 11
162.309503
 21
65.677238
  0
LINE
  8
ボルト／ビス
  6
CONTINUOUS
 62
    64
 10
162.187845
 20
65.773462
 11
162.309503
 21
65.773462
  0
LINE
  8
ボルト／ビス
  6
CONTINUOUS
 62
    64
 10
162.187845
 20
66.062138
 11
162.309503
 21
66.062138
  0
LINE
  8
ボルト／ビス
  6
CONTINUOUS
 62
    64
 10
162.187845
 20
65.965913
 11
162.309503
 21
65.965913
  0
LINE
  8
ボルト／ビス
  6
CONTINUOUS
 10
162.309503
 20
66.062138
 11
162.309503
 21
65.677238
  0
LINE
  8
ボルト／ビス
  6
CONTINUOUS
 10
162.309503
 20
66.069687
 11
162.37617
 21
66.069687
  0
LINE
  8
ボルト／ビス
  6
CONTINUOUS
 10
162.309503
 20
66.069687
 11
162.309503
 21
65.669687
  0
LINE
  8
ボルト／ビス
  6
CONTINUOUS
 10
162.309503
 20
65.669687
 11
162.37617
 21
65.669687
  0
ENDBLK
  0
BLOCK
  2
*GRP_0009
 70
    65
 10
0.0
 20
0.0
  0
INSERT
  2
M8横
  8
ゴム等
  6
CONTINUOUS
 10
163.336003
 20
34.376965
 50
90.0
 41
0.033333
 42
0.033333
  0
LINE
  8
ボルト／ビス
  6
CONTINUOUS
 10
163.126005
 20
34.5103
 11
163.109338
 21
34.493633
  0
LINE
  8
ボルト／ビス
  6
CONTINUOUS
 10
163.109338
 20
34.2603
 11
163.126005
 21
34.243633
  0
LINE
  8
ボルト／ビス
  6
CONTINUOUS
 10
163.126005
 20
34.243633
 11
163.126005
 21
34.5103
  0
LINE
  8
ボルト／ビス
  6
CONTINUOUS
 10
163.109338
 20
34.2603
 11
163.109338
 21
34.493633
  0
LINE
  8
ボルト／ビス
  6
CONTINUOUS
 10
163.109338
 20
34.493633
 11
163.15267
 21
34.493633
  0
LINE
  8
ボルト／ビス
  6
CONTINUOUS
 10
163.126005
 20
34.5103
 11
163.15267
 21
34.5103
  0
LINE
  8
ボルト／ビス
  6
CONTINUOUS
 10
163.126005
 20
34.243633
 11
163.15267
 21
34.243633
  0
LINE
  8
ボルト／ビス
  6
CONTINUOUS
 10
163.109338
 20
34.2603
 11
163.15267
 21
34.2603
  0
LINE
  8
ボルト／ビス
  6
CONTINUOUS
 10
163.336003
 20
34.0103
 11
163.336003
 21
34.743633
  0
LINE
  8
ボルト／ビス
  6
CONTINUOUS
 10
163.376002
 20
34.793633
 11
163.459335
 21
34.793633
  0
LINE
  8
ボルト／ビス
  6
CONTINUOUS
 10
163.459335
 20
34.793633
 11
163.459335
 21
33.9603
  0
LINE
  8
ボルト／ビス
  6
CONTINUOUS
 10
163.459335
 20
33.9603
 11
163.376002
 21
33.9603
  0
LINE
  8
ボルト／ビス
  6
CONTINUOUS
 10
163.376002
 20
34.793633
 11
163.376002
 21
33.9603
  0
LINE
  8
ボルト／ビス
  6
CONTINUOUS
 10
163.336003
 20
34.0103
 11
163.376002
 21
34.0103
  0
LINE
  8
ボルト／ビス
  6
CONTINUOUS
 10
163.336003
 20
34.743633
 11
163.376002
 21
34.743633
  0
LINE
  8
ボルト／ビス
  6
CONTINUOUS
 10
163.386002
 20
34.376965
 11
163.336003
 21
34.376965
  0
ENDBLK
  0
BLOCK
  2
*GRP_0010
 70
    65
 10
0.0
 20
0.0
  0
LINE
  8
ボルト／ビス
  6
CONTINUOUS
 10
162.47617
 20
34.170298
 11
162.409503
 21
34.170298
  0
LINE
  8
ボルト／ビス
  6
CONTINUOUS
 10
162.409503
 20
34.170298
 11
162.409503
 21
34.90363
  0
LINE
  8
ボルト／ビス
  6
CONTINUOUS
 10
162.409503
 20
34.90363
 11
162.47617
 21
34.90363
  0
LINE
  8
ボルト／ビス
  6
CONTINUOUS
 10
162.47617
 20
34.170298
 11
162.47617
 21
34.90363
  0
LINE
  8
ボルト／ビス
  6
CONTINUOUS
 10
162.37617
 20
34.236965
 11
162.409503
 21
34.236965
  0
LINE
  8
ボルト／ビス
  6
CONTINUOUS
 10
162.37617
 20
34.236965
 11
162.37617
 21
34.836965
  0
LINE
  8
ボルト／ビス
  6
CONTINUOUS
 10
162.37617
 20
34.836965
 11
162.409503
 21
34.836965
  0
LINE
  8
ボルト／ビス
  6
CONTINUOUS
 62
    64
 10
162.17617
 20
34.37659
 11
162.187845
 21
34.344515
  0
ARC
  8
ボルト／ビス
  6
CONTINUOUS
 62
    64
 10
162.281149
 20
34.392632
 40
0.104978
 50
152.721967
 51
180.0
  0
ARC
  8
ボルト／ビス
  6
CONTINUOUS
 62
    64
 10
162.578573
 20
34.536969
 40
0.402402
 50
166.165002
 51
193.834985
  0
LINE
  8
ボルト／ビス
  6
CONTINUOUS
 62
    64
 10
162.17617
 20
34.69734
 11
162.187845
 21
34.729415
  0
ARC
  8
ボルト／ビス
  6
CONTINUOUS
 62
    64
 10
162.281149
 20
34.681307
 40
0.104978
 50
180.0
 51
207.278033
  0
LINE
  8
ボルト／ビス
  6
CONTINUOUS
 62
    64
 10
162.17617
 20
34.37659
 11
162.17617
 21
34.69734
  0
LINE
  8
ボルト／ビス
  6
CONTINUOUS
 62
    64
 10
162.187845
 20
34.729415
 11
162.309503
 21
34.729415
  0
LINE
  8
ボルト／ビス
  6
CONTINUOUS
 62
    64
 10
162.187845
 20
34.63319
 11
162.309503
 21
34.63319
  0
LINE
  8
ボルト／ビス
  6
CONTINUOUS
 62
    64
 10
162.187845
 20
34.344515
 11
162.309503
 21
34.344515
  0
LINE
  8
ボルト／ビス
  6
CONTINUOUS
 62
    64
 10
162.187845
 20
34.44074
 11
162.309503
 21
34.44074
  0
LINE
  8
ボルト／ビス
  6
CONTINUOUS
 10
162.309503
 20
34.344515
 11
162.309503
 21
34.729415
  0
LINE
  8
ボルト／ビス
  6
CONTINUOUS
 10
162.309503
 20
34.336965
 11
162.37617
 21
34.336965
  0
LINE
  8
ボルト／ビス
  6
CONTINUOUS
 10
162.309503
 20
34.336965
 11
162.309503
 21
34.736965
  0
LINE
  8
ボルト／ビス
  6
CONTINUOUS
 10
162.309503
 20
34.736965
 11
162.37617
 21
34.736965
  0
ENDBLK
  0
BLOCK
  2
*DIM_0011
 70
    65
 10
0.0
 20
0.0
  0
LINE
  8
寸法
  6
CONTINUOUS
 10
161.248695
 20
32.92363
 11
142.14273
 21
32.92363
  0
LINE
  8
寸法
  6
CONTINUOUS
 10
142.14273
 20
35.203325
 11
142.14273
 21
32.92363
  0
POINT
  8
寸法
 10
142.14273
 20
35.203325
  0
POINT
  8
寸法
 10
142.14273
 20
32.92363
  0
TEXT
  7
TextStyle03
  8
寸法
  6
CONTINUOUS
 10
141.75
 20
24.01875
  1
68.4
 40
3.0
 50
90.0
 72
     5
 11
141.75
 21
30.58125
  0
ENDBLK
  0
BLOCK
  2
*DIM_0012
 70
    65
 10
0.0
 20
0.0
  0
LINE
  8
寸法
  6
CONTINUOUS
 10
142.14273
 20
65.203325
 11
142.14273
 21
35.203325
  0
POINT
  8
寸法
 10
142.14273
 20
65.203325
  0
POINT
  8
寸法
 10
142.14273
 20
35.203325
  0
TEXT
  7
TextStyle03
  8
寸法
  6
CONTINUOUS
 10
141.75
 20
39.325
  1
呼称寸法　900
 40
3.0
 50
90.0
 72
     5
 11
141.75
 21
61.075
  0
ENDBLK
  0
BLOCK
  2
*DIM_0013
 70
    65
 10
0.0
 20
0.0
  0
LINE
  8
寸法
  6
CONTINUOUS
 10
161.248695
 20
67.48302
 11
142.14273
 21
67.48302
  0
LINE
  8
寸法
  6
CONTINUOUS
 10
142.14273
 20
65.203325
 11
142.14273
 21
67.48302
  0
POINT
  8
寸法
 10
142.14273
 20
65.203325
  0
POINT
  8
寸法
 10
142.14273
 20
67.48302
  0
TEXT
  7
TextStyle03
  8
寸法
  6
CONTINUOUS
 10
141.75
 20
69.79375
  1
68.4
 40
3.0
 50
90.0
 72
     5
 11
141.75
 21
76.35625
  0
ENDBLK
  0
BLOCK
  2
*DIM_0014
 70
    65
 10
0.0
 20
0.0
  0
LINE
  8
寸法
  6
CONTINUOUS
 10
169.209335
 20
28.236965
 11
169.209335
 21
20.327945
  0
LINE
  8
寸法
  6
CONTINUOUS
 10
161.742835
 20
30.203325
 11
161.742835
 21
20.327945
  0
LINE
  8
寸法
  6
CONTINUOUS
 10
169.209335
 20
20.327945
 11
161.742835
 21
20.327945
  0
POINT
  8
寸法
 10
169.209335
 20
20.327945
  0
POINT
  8
寸法
 10
161.742835
 20
20.327945
  0
TEXT
  7
TextStyle03
  8
寸法
  6
CONTINUOUS
 10
163.0375
 20
20.7
  1
224
 40
3.0
 72
     5
 11
167.9125
 21
20.7
  0
ENDBLK
  0
BLOCK
  2
*DIM_0015
 70
    65
 10
0.0
 20
0.0
  0
LINE
  8
寸法
  6
BYBLOCK
 62
     0
 10
-54.263165
 20
31.573195
 11
-54.263165
 21
26.245873
  0
LINE
  8
寸法
  6
BYBLOCK
 62
     0
 10
-20.92983
 20
31.573195
 11
-20.92983
 21
26.245873
  0
LINE
  8
寸法
  6
BYBLOCK
 62
     0
 10
-54.263165
 20
26.245873
 11
-20.92983
 21
26.245873
  0
POINT
  8
寸法
 62
     0
 10
-54.263165
 20
26.245873
  0
POINT
  8
寸法
 62
     0
 10
-20.92983
 20
26.245873
  0
TEXT
  7
TextStyle03
  8
寸法
  6
CONTINUOUS
 62
     0
 10
-40.88125
 20
26.6
  1
1000
 40
3.0
 72
     5
 11
-34.31875
 21
26.6
  0
ENDBLK
  0
BLOCK
  2
*DIM_0016
 70
    65
 10
0.0
 20
0.0
  0
LINE
  8
寸法
  6
BYBLOCK
 62
     0
 10
-0.633037
 20
61.303325
 11
6.144255
 21
61.303325
  0
LINE
  8
寸法
  6
BYBLOCK
 62
     0
 10
6.144255
 20
65.203325
 11
6.144255
 21
61.303325
  0
POINT
  8
寸法
 62
     0
 10
6.144255
 20
65.203325
  0
POINT
  8
寸法
 62
     0
 10
6.144255
 20
61.303325
  0
TEXT
  7
TextStyle03
  8
寸法
  6
CONTINUOUS
 62
     0
 10
5.875
 20
65.8625
  1
117
 40
3.0
 50
90.0
 72
     5
 11
5.875
 21
70.7375
  0
ENDBLK
  0
BLOCK
  2
*DIM_0017
 70
    65
 10
0.0
 20
0.0
  0
LINE
  8
寸法
  6
BYBLOCK
 62
     0
 10
-0.633037
 20
39.103325
 11
6.144255
 21
39.103325
  0
LINE
  8
寸法
  6
BYBLOCK
 62
     0
 10
6.144255
 20
35.203325
 11
6.144255
 21
39.103325
  0
POINT
  8
寸法
 62
     0
 10
6.144255
 20
35.203325
  0
POINT
  8
寸法
 62
     0
 10
6.144255
 20
39.103325
  0
TEXT
  7
TextStyle03
  8
寸法
  6
CONTINUOUS
 62
     0
 10
6.25
 20
29.5875
  1
117
 40
3.0
 50
90.0
 72
     5
 11
6.25
 21
34.4625
  0
ENDBLK
  0
BLOCK
  2
*DIM_0018
 70
    65
 10
0.0
 20
0.0
  0
LINE
  8
寸法
  6
BYBLOCK
 62
     0
 10
-73.929832
 20
60.203325
 11
-87.22267
 21
60.203325
  0
LINE
  8
寸法
  6
BYBLOCK
 62
     0
 10
-73.929832
 20
40.203325
 11
-87.22267
 21
40.203325
  0
LINE
  8
寸法
  6
BYBLOCK
 62
     0
 10
-87.22267
 20
60.203325
 11
-87.22267
 21
40.203325
  0
POINT
  8
寸法
 62
     0
 10
-87.22267
 20
60.203325
  0
POINT
  8
寸法
 62
     0
 10
-87.22267
 20
40.203325
  0
TEXT
  7
TextStyle03
  8
寸法
  6
CONTINUOUS
 62
     0
 10
-87.6
 20
47.7375
  1
600
 40
3.0
 50
90.0
 72
     5
 11
-87.6
 21
52.6125
  0
ENDBLK
  0
BLOCK
  2
*DIM_0019
 70
    65
 10
0.0
 20
0.0
  0
LINE
  8
寸法
  6
BYBLOCK
 62
     0
 10
-60.92983
 20
68.203325
 11
-60.92983
 21
97.130945
  0
LINE
  8
寸法
  6
BYBLOCK
 62
     0
 10
-37.596497
 20
68.203325
 11
-37.596497
 21
97.130945
  0
LINE
  8
寸法
  6
BYBLOCK
 62
     0
 10
-60.92983
 20
97.130945
 11
-37.596497
 21
97.130945
  0
POINT
  8
寸法
 62
     0
 10
-60.92983
 20
97.130945
  0
POINT
  8
寸法
 62
     0
 10
-37.596497
 20
97.130945
  0
TEXT
  7
TextStyle03
  8
寸法
  6
CONTINUOUS
 62
     0
 10
-51.6875
 20
97.5
  1
700
 40
3.0
 72
     5
 11
-46.8125
 21
97.5
  0
ENDBLK
  0
BLOCK
  2
*DIM_0020
 70
    65
 10
0.0
 20
0.0
  0
LINE
  8
寸法
  6
BYBLOCK
 62
     0
 10
-14.263165
 20
68.203325
 11
-14.263165
 21
97.130945
  0
LINE
  8
寸法
  6
BYBLOCK
 62
     0
 10
-37.596497
 20
97.130945
 11
-14.263165
 21
97.130945
  0
POINT
  8
寸法
 62
     0
 10
-14.263165
 20
97.130945
  0
TEXT
  7
TextStyle03
  8
寸法
  6
CONTINUOUS
 62
     0
 10
-28.3625
 20
97.5
  1
700
 40
3.0
 72
     5
 11
-23.4875
 21
97.5
  0
ENDBLK
  0
BLOCK
  2
*GRP_0021
 70
    65
 10
0.0
 20
0.0
  0
LINE
  8
型材断面
  6
DOT
 10
-2.596497
 20
-59.937453
 11
-2.646497
 21
-59.937453
  0
LINE
  8
型材断面
  6
DOT
 10
-4.263165
 20
-59.437453
 11
-4.263165
 21
-58.70412
  0
LINE
  8
型材断面
  6
DOT
 10
-4.21347
 20
-60.42062
 11
-2.766802
 21
-60.42062
  0
LINE
  8
型材断面
  6
DOT
 10
-2.766802
 20
-60.87062
 11
-2.766802
 21
-60.42062
  0
LINE
  8
型材断面
  6
DOT
 62
    47
 10
-2.03347
 20
-63.543312
 11
-1.98347
 21
-63.543312
  0
LINE
  8
型材断面
  6
DOT
 62
    47
 10
-1.98347
 20
-63.543312
 11
-1.98347
 21
-63.209977
  0
LINE
  8
型材断面
  6
DOT
 62
    47
 10
-1.98347
 20
-63.209977
 11
-2.766802
 21
-63.109977
  0
LINE
  8
型材断面
  6
DOT
 62
    47
 10
-2.766802
 20
-62.703953
 11
-2.766802
 21
-63.109977
  0
LINE
  8
型材断面
  6
DOT
 62
    47
 10
-2.296803
 20
-62.703953
 11
-2.296803
 21
-60.87062
  0
LINE
  8
型材断面
  6
DOT
 10
-2.596497
 20
-59.937453
 11
-2.596497
 21
-59.437453
  0
LINE
  8
型材断面
  6
DOT
 10
-4.21347
 20
-60.42062
 11
-4.21347
 21
-59.937453
  0
INSERT
  2
*GRP_0022
  8
型材断面
  6
DOT
 10
0.0
 20
0.0
  0
INSERT
  2
*GRP_0023
  8
型材断面
  6
DOT
 10
0.0
 20
0.0
  0
LINE
  8
型材断面
  6
DOT
 10
-1.98347
 20
-63.543312
 11
-37.596497
 21
-63.543312
  0
LINE
  8
型材断面
  6
DOT
 10
-1.98347
 20
-63.209977
 11
-37.596497
 21
-63.209977
  0
LINE
  8
型材断面
  6
DOT
 10
-2.766802
 20
-63.109977
 11
-37.596497
 21
-63.109977
  0
LINE
  8
型材断面
  6
DOT
 10
-2.296803
 20
-62.703953
 11
-37.596497
 21
-62.703953
  0
LINE
  8
型材断面
  6
DOT
 10
-2.596497
 20
-59.937453
 11
-37.596497
 21
-59.937453
  0
LINE
  8
型材断面
  6
DOT
 10
-4.263165
 20
-58.70412
 11
-37.596497
 21
-58.70412
  0
LINE
  8
型材断面
  6
DOT
 10
-2.596497
 20
-59.437453
 11
-37.596497
 21
-59.437453
  0
LINE
  8
型材断面
  6
DOT
 10
-2.766802
 20
-60.42062
 11
-37.596497
 21
-60.42062
  0
LINE
  8
型材断面
  6
DOT
 10
-2.296803
 20
-60.87062
 11
-37.596497
 21
-60.87062
  0
LINE
  8
型材断面
  6
DOT
 10
-72.596497
 20
-59.937453
 11
-72.546497
 21
-59.937453
  0
LINE
  8
型材断面
  6
DOT
 10
-70.92983
 20
-59.437453
 11
-70.92983
 21
-58.70412
  0
LINE
  8
型材断面
  6
DOT
 10
-70.979525
 20
-60.42062
 11
-72.426192
 21
-60.42062
  0
LINE
  8
型材断面
  6
DOT
 10
-72.426192
 20
-60.87062
 11
-72.426192
 21
-60.42062
  0
LINE
  8
型材断面
  6
DOT
 62
    47
 10
-73.159525
 20
-63.543312
 11
-73.209525
 21
-63.543312
  0
LINE
  8
型材断面
  6
DOT
 62
    47
 10
-73.209525
 20
-63.543312
 11
-73.209525
 21
-63.209977
  0
LINE
  8
型材断面
  6
DOT
 62
    47
 10
-73.209525
 20
-63.209977
 11
-72.426192
 21
-63.109977
  0
LINE
  8
型材断面
  6
DOT
 62
    47
 10
-72.426192
 20
-62.703953
 11
-72.426192
 21
-63.109977
  0
LINE
  8
型材断面
  6
DOT
 62
    47
 10
-72.896192
 20
-62.703953
 11
-72.896192
 21
-60.87062
  0
LINE
  8
型材断面
  6
DOT
 10
-72.596497
 20
-59.937453
 11
-72.596497
 21
-59.437453
  0
LINE
  8
型材断面
  6
DOT
 10
-70.979525
 20
-60.42062
 11
-70.979525
 21
-59.937453
  0
INSERT
  2
*GRP_0024
  8
型材断面
  6
DOT
 10
0.0
 20
0.0
  0
INSERT
  2
*GRP_0025
  8
型材断面
  6
DOT
 10
0.0
 20
0.0
  0
LINE
  8
型材断面
  6
DOT
 10
-73.209525
 20
-63.543312
 11
-37.596497
 21
-63.543312
  0
LINE
  8
型材断面
  6
DOT
 10
-73.209525
 20
-63.209977
 11
-37.596497
 21
-63.209977
  0
LINE
  8
型材断面
  6
DOT
 10
-72.426192
 20
-63.109977
 11
-37.596497
 21
-63.109977
  0
LINE
  8
型材断面
  6
DOT
 10
-72.896192
 20
-62.703953
 11
-37.596497
 21
-62.703953
  0
LINE
  8
型材断面
  6
DOT
 10
-72.596497
 20
-59.937453
 11
-37.596497
 21
-59.937453
  0
LINE
  8
型材断面
  6
DOT
 10
-70.92983
 20
-58.70412
 11
-37.596497
 21
-58.70412
  0
LINE
  8
型材断面
  6
DOT
 10
-72.596497
 20
-59.437453
 11
-37.596497
 21
-59.437453
  0
LINE
  8
型材断面
  6
DOT
 10
-72.426192
 20
-60.42062
 11
-37.596497
 21
-60.42062
  0
LINE
  8
型材断面
  6
DOT
 10
-72.896192
 20
-60.87062
 11
-37.596497
 21
-60.87062
  0
ENDBLK
  0
BLOCK
  2
*GRP_0022
 70
    65
 10
0.0
 20
0.0
  0
INSERT
  2
M8横
  8
ゴム等
  6
DOT
 10
-3.436805
 20
-60.297288
 50
180.0
 41
0.033333
 42
-0.033333
  0
LINE
  8
ボルト／ビス
  6
DOT
 10
-3.570137
 20
-60.087288
 11
-3.553473
 21
-60.070622
  0
LINE
  8
ボルト／ビス
  6
DOT
 10
-3.320137
 20
-60.070622
 11
-3.303473
 21
-60.087288
  0
LINE
  8
ボルト／ビス
  6
DOT
 10
-3.303473
 20
-60.087288
 11
-3.570137
 21
-60.087288
  0
LINE
  8
ボルト／ビス
  6
DOT
 10
-3.320137
 20
-60.070622
 11
-3.553473
 21
-60.070622
  0
LINE
  8
ボルト／ビス
  6
DOT
 10
-3.553473
 20
-60.070622
 11
-3.553473
 21
-60.113952
  0
LINE
  8
ボルト／ビス
  6
DOT
 10
-3.570137
 20
-60.087288
 11
-3.570137
 21
-60.113952
  0
LINE
  8
ボルト／ビス
  6
DOT
 10
-3.303473
 20
-60.087288
 11
-3.303473
 21
-60.113952
  0
LINE
  8
ボルト／ビス
  6
DOT
 10
-3.320137
 20
-60.070622
 11
-3.320137
 21
-60.113952
  0
LINE
  8
ボルト／ビス
  6
DOT
 10
-3.070137
 20
-60.297288
 11
-3.803473
 21
-60.297288
  0
LINE
  8
ボルト／ビス
  6
DOT
 10
-3.853473
 20
-60.337288
 11
-3.853473
 21
-60.42062
  0
LINE
  8
ボルト／ビス
  6
DOT
 10
-3.853473
 20
-60.42062
 11
-3.020137
 21
-60.42062
  0
LINE
  8
ボルト／ビス
  6
DOT
 10
-3.020137
 20
-60.42062
 11
-3.020137
 21
-60.337288
  0
LINE
  8
ボルト／ビス
  6
DOT
 10
-3.853473
 20
-60.337288
 11
-3.020137
 21
-60.337288
  0
LINE
  8
ボルト／ビス
  6
DOT
 10
-3.070137
 20
-60.297288
 11
-3.070137
 21
-60.337288
  0
LINE
  8
ボルト／ビス
  6
DOT
 10
-3.803473
 20
-60.297288
 11
-3.803473
 21
-60.337288
  0
LINE
  8
ボルト／ビス
  6
DOT
 10
-3.436805
 20
-60.347288
 11
-3.436805
 21
-60.297288
  0
ENDBLK
  0
BLOCK
  2
*GRP_0023
 70
    65
 10
0.0
 20
0.0
  0
LINE
  8
ボルト／ビス
  6
DOT
 10
-3.230138
 20
-59.437453
 11
-3.230138
 21
-59.370788
  0
LINE
  8
ボルト／ビス
  6
DOT
 10
-3.230138
 20
-59.370788
 11
-3.96347
 21
-59.370788
  0
LINE
  8
ボルト／ビス
  6
DOT
 10
-3.96347
 20
-59.370788
 11
-3.96347
 21
-59.437453
  0
LINE
  8
ボルト／ビス
  6
DOT
 10
-3.230138
 20
-59.437453
 11
-3.96347
 21
-59.437453
  0
LINE
  8
ボルト／ビス
  6
DOT
 10
-3.296803
 20
-59.337453
 11
-3.296803
 21
-59.370788
  0
LINE
  8
ボルト／ビス
  6
DOT
 10
-3.296803
 20
-59.337453
 11
-3.896803
 21
-59.337453
  0
LINE
  8
ボルト／ビス
  6
DOT
 10
-3.896803
 20
-59.337453
 11
-3.896803
 21
-59.370788
  0
LINE
  8
ボルト／ビス
  6
DOT
 62
    64
 10
-3.436427
 20
-59.137453
 11
-3.404353
 21
-59.149128
  0
ARC
  8
ボルト／ビス
  6
DOT
 62
    64
 10
-3.452466
 20
-59.242431
 40
0.104978
 50
90.0
 51
117.278033
  0
ARC
  8
ボルト／ビス
  6
DOT
 62
    64
 10
-3.596804
 20
-59.539855
 40
0.402402
 50
76.165015
 51
103.834998
  0
LINE
  8
ボルト／ビス
  6
DOT
 62
    64
 10
-3.757178
 20
-59.137453
 11
-3.789253
 21
-59.149128
  0
ARC
  8
ボルト／ビス
  6
DOT
 62
    64
 10
-3.741142
 20
-59.242431
 40
0.104978
 50
62.721967
 51
90.0
  0
LINE
  8
ボルト／ビス
  6
DOT
 62
    64
 10
-3.436427
 20
-59.137453
 11
-3.757178
 21
-59.137453
  0
LINE
  8
ボルト／ビス
  6
DOT
 62
    64
 10
-3.789253
 20
-59.149128
 11
-3.789253
 21
-59.270788
  0
LINE
  8
ボルト／ビス
  6
DOT
 62
    64
 10
-3.693027
 20
-59.149128
 11
-3.693027
 21
-59.270788
  0
LINE
  8
ボルト／ビス
  6
DOT
 62
    64
 10
-3.404353
 20
-59.149128
 11
-3.404353
 21
-59.270788
  0
LINE
  8
ボルト／ビス
  6
DOT
 62
    64
 10
-3.500577
 20
-59.149128
 11
-3.500577
 21
-59.270788
  0
LINE
  8
ボルト／ビス
  6
DOT
 10
-3.404353
 20
-59.270788
 11
-3.789253
 21
-59.270788
  0
LINE
  8
ボルト／ビス
  6
DOT
 10
-3.396803
 20
-59.270788
 11
-3.396803
 21
-59.337453
  0
LINE
  8
ボルト／ビス
  6
DOT
 10
-3.396803
 20
-59.270788
 11
-3.796803
 21
-59.270788
  0
LINE
  8
ボルト／ビス
  6
DOT
 10
-3.796803
 20
-59.270788
 11
-3.796803
 21
-59.337453
  0
ENDBLK
  0
BLOCK
  2
*GRP_0024
 70
    65
 10
0.0
 20
0.0
  0
INSERT
  2
M8横
  8
ゴム等
  6
DOT
 10
-71.75619
 20
-60.297288
 41
0.033333
 42
0.033333
  0
LINE
  8
ボルト／ビス
  6
DOT
 10
-71.622858
 20
-60.087288
 11
-71.639523
 21
-60.070622
  0
LINE
  8
ボルト／ビス
  6
DOT
 10
-71.872858
 20
-60.070622
 11
-71.889523
 21
-60.087288
  0
LINE
  8
ボルト／ビス
  6
DOT
 10
-71.889523
 20
-60.087288
 11
-71.622858
 21
-60.087288
  0
LINE
  8
ボルト／ビス
  6
DOT
 10
-71.872858
 20
-60.070622
 11
-71.639523
 21
-60.070622
  0
LINE
  8
ボルト／ビス
  6
DOT
 10
-71.639523
 20
-60.070622
 11
-71.639523
 21
-60.113952
  0
LINE
  8
ボルト／ビス
  6
DOT
 10
-71.622858
 20
-60.087288
 11
-71.622858
 21
-60.113952
  0
LINE
  8
ボルト／ビス
  6
DOT
 10
-71.889523
 20
-60.087288
 11
-71.889523
 21
-60.113952
  0
LINE
  8
ボルト／ビス
  6
DOT
 10
-71.872858
 20
-60.070622
 11
-71.872858
 21
-60.113952
  0
LINE
  8
ボルト／ビス
  6
DOT
 10
-72.122858
 20
-60.297288
 11
-71.389523
 21
-60.297288
  0
LINE
  8
ボルト／ビス
  6
DOT
 10
-71.339523
 20
-60.337288
 11
-71.339523
 21
-60.42062
  0
LINE
  8
ボルト／ビス
  6
DOT
 10
-71.339523
 20
-60.42062
 11
-72.172858
 21
-60.42062
  0
LINE
  8
ボルト／ビス
  6
DOT
 10
-72.172858
 20
-60.42062
 11
-72.172858
 21
-60.337288
  0
LINE
  8
ボルト／ビス
  6
DOT
 10
-71.339523
 20
-60.337288
 11
-72.172858
 21
-60.337288
  0
LINE
  8
ボルト／ビス
  6
DOT
 10
-72.122858
 20
-60.297288
 11
-72.122858
 21
-60.337288
  0
LINE
  8
ボルト／ビス
  6
DOT
 10
-71.389523
 20
-60.297288
 11
-71.389523
 21
-60.337288
  0
LINE
  8
ボルト／ビス
  6
DOT
 10
-71.75619
 20
-60.347288
 11
-71.75619
 21
-60.297288
  0
ENDBLK
  0
BLOCK
  2
*GRP_0025
 70
    65
 10
0.0
 20
0.0
  0
LINE
  8
ボルト／ビス
  6
DOT
 10
-71.962857
 20
-59.437453
 11
-71.962857
 21
-59.370788
  0
LINE
  8
ボルト／ビス
  6
DOT
 10
-71.962857
 20
-59.370788
 11
-71.229525
 21
-59.370788
  0
LINE
  8
ボルト／ビス
  6
DOT
 10
-71.229525
 20
-59.370788
 11
-71.229525
 21
-59.437453
  0
LINE
  8
ボルト／ビス
  6
DOT
 10
-71.962857
 20
-59.437453
 11
-71.229525
 21
-59.437453
  0
LINE
  8
ボルト／ビス
  6
DOT
 10
-71.896192
 20
-59.337453
 11
-71.896192
 21
-59.370788
  0
LINE
  8
ボルト／ビス
  6
DOT
 10
-71.896192
 20
-59.337453
 11
-71.296192
 21
-59.337453
  0
LINE
  8
ボルト／ビス
  6
DOT
 10
-71.296192
 20
-59.337453
 11
-71.296192
 21
-59.370788
  0
LINE
  8
ボルト／ビス
  6
DOT
 62
    64
 10
-71.756567
 20
-59.137453
 11
-71.788642
 21
-59.149128
  0
ARC
  8
ボルト／ビス
  6
DOT
 62
    64
 10
-71.74053
 20
-59.242431
 40
0.104978
 50
62.721967
 51
90.0
  0
ARC
  8
ボルト／ビス
  6
DOT
 62
    64
 10
-71.596193
 20
-59.539855
 40
0.402402
 50
76.165002
 51
103.834985
  0
LINE
  8
ボルト／ビス
  6
DOT
 62
    64
 10
-71.435818
 20
-59.137453
 11
-71.403743
 21
-59.149128
  0
ARC
  8
ボルト／ビス
  6
DOT
 62
    64
 10
-71.451855
 20
-59.242431
 40
0.104978
 50
90.0
 51
117.278033
  0
LINE
  8
ボルト／ビス
  6
DOT
 62
    64
 10
-71.756567
 20
-59.137453
 11
-71.435818
 21
-59.137453
  0
LINE
  8
ボルト／ビス
  6
DOT
 62
    64
 10
-71.403743
 20
-59.149128
 11
-71.403743
 21
-59.270788
  0
LINE
  8
ボルト／ビス
  6
DOT
 62
    64
 10
-71.499967
 20
-59.149128
 11
-71.499967
 21
-59.270788
  0
LINE
  8
ボルト／ビス
  6
DOT
 62
    64
 10
-71.788642
 20
-59.149128
 11
-71.788642
 21
-59.270788
  0
LINE
  8
ボルト／ビス
  6
DOT
 62
    64
 10
-71.692418
 20
-59.149128
 11
-71.692418
 21
-59.270788
  0
LINE
  8
ボルト／ビス
  6
DOT
 10
-71.788642
 20
-59.270788
 11
-71.403743
 21
-59.270788
  0
LINE
  8
ボルト／ビス
  6
DOT
 10
-71.796192
 20
-59.270788
 11
-71.796192
 21
-59.337453
  0
LINE
  8
ボルト／ビス
  6
DOT
 10
-71.796192
 20
-59.270788
 11
-71.396192
 21
-59.270788
  0
LINE
  8
ボルト／ビス
  6
DOT
 10
-71.396192
 20
-59.270788
 11
-71.396192
 21
-59.337453
  0
ENDBLK
  0
BLOCK
  2
*DIM_0026
 70
    65
 10
0.0
 20
0.0
  0
LINE
  8
寸法
  6
CONTINUOUS
 10
0.736835
 20
-68.70412
 11
19.355307
 21
-68.70412
  0
LINE
  8
寸法
  6
CONTINUOUS
 10
0.736835
 20
-58.70412
 11
19.355307
 21
-58.70412
  0
LINE
  8
寸法
  6
CONTINUOUS
 10
19.355307
 20
-68.70412
 11
19.355307
 21
-58.70412
  0
POINT
  8
寸法
 10
19.355307
 20
-68.70412
  0
POINT
  8
寸法
 10
19.355307
 20
-58.70412
  0
TEXT
  7
TextStyle03
  8
寸法
  6
CONTINUOUS
 10
22.35
 20
-72.81875
  1
上昇243以上
 40
3.0
 50
90.0
 72
     5
 11
22.35
 21
-54.63125
  0
ENDBLK
  0
BLOCK
  2
*DIM_0027
 70
    65
 10
0.0
 20
0.0
  0
LINE
  8
寸法
  6
CONTINUOUS
 10
120.789823
 20
-40.177728
 11
120.789823
 21
-31.852982
  0
LINE
  8
寸法
  6
CONTINUOUS
 10
153.11649
 20
-40.177728
 11
153.11649
 21
-31.852982
  0
LINE
  8
寸法
  6
CONTINUOUS
 10
120.789823
 20
-31.852982
 11
153.11649
 21
-31.852982
  0
POINT
  8
寸法
 10
120.789823
 20
-31.852982
  0
POINT
  8
寸法
 10
153.11649
 20
-31.852982
  0
TEXT
  7
TextStyle03
  8
寸法
  6
CONTINUOUS
 10
132.825
 20
-31.5
  1
969.8
 40
3.0
 72
     5
 11
141.075
 21
-31.5
  0
ENDBLK
  0
BLOCK
  2
*DIM_0028
 70
    65
 10
0.0
 20
0.0
  0
LINE
  8
寸法
  6
CONTINUOUS
 10
158.11649
 20
-45.177728
 11
167.74159
 21
-45.177728
  0
LINE
  8
寸法
  6
CONTINUOUS
 10
158.11649
 20
-74.51106
 11
167.74159
 21
-74.51106
  0
LINE
  8
寸法
  6
CONTINUOUS
 10
167.74159
 20
-45.177728
 11
167.74159
 21
-74.51106
  0
POINT
  8
寸法
 10
167.74159
 20
-45.177728
  0
POINT
  8
寸法
 10
167.74159
 20
-74.51106
  0
TEXT
  7
TextStyle03
  8
寸法
  6
CONTINUOUS
 10
167.35
 20
-62.2875
  1
880
 40
3.0
 50
90.0
 72
     5
 11
167.35
 21
-57.4125
  0
ENDBLK
  0
BLOCK
  2
*DIM_0029
 70
    65
 10
0.0
 20
0.0
  0
LINE
  8
寸法
  6
CONTINUOUS
 10
-73.209525
 20
-68.209977
 11
-73.209525
 21
-32.437345
  0
LINE
  8
寸法
  6
CONTINUOUS
 10
-70.92983
 20
-32.437345
 11
-73.209525
 21
-32.437345
  0
POINT
  8
寸法
 10
-70.92983
 20
-32.437345
  0
POINT
  8
寸法
 10
-73.209525
 20
-32.437345
  0
TEXT
  7
TextStyle03
  8
寸法
  6
CONTINUOUS
 10
-82.10625
 20
-32.075
  1
68.4
 40
3.0
 72
     5
 11
-75.54375
 21
-32.075
  0
ENDBLK
  0
BLOCK
  2
*DIM_0030
 70
    65
 10
0.0
 20
0.0
  0
LINE
  8
寸法
  6
CONTINUOUS
 10
-1.98347
 20
-68.209977
 11
-1.98347
 21
-32.437345
  0
LINE
  8
寸法
  6
CONTINUOUS
 10
-4.263165
 20
-32.437345
 11
-1.98347
 21
-32.437345
  0
POINT
  8
寸法
 10
-4.263165
 20
-32.437345
  0
POINT
  8
寸法
 10
-1.98347
 20
-32.437345
  0
TEXT
  7
TextStyle03
  8
寸法
  6
CONTINUOUS
 10
0.34375
 20
-32.075
  1
68.4
 40
3.0
 72
     5
 11
6.90625
 21
-32.075
  0
ENDBLK
  0
BLOCK
  2
*DIM_0031
 70
    65
 10
0.0
 20
0.0
  0
LINE
  8
寸法
  6
CONTINUOUS
 10
-4.263165
 20
-32.437345
 11
-70.92983
 21
-32.437345
  0
POINT
  8
寸法
 10
-4.263165
 20
-32.437345
  0
POINT
  8
寸法
 10
-70.92983
 20
-32.437345
  0
TEXT
  7
TextStyle03
  8
寸法
  6
CONTINUOUS
 10
-49.31875
 20
-32.075
  1
呼称寸法　2000
 40
3.0
 72
     5
 11
-25.88125
 21
-32.075
  0
ENDBLK
  0
BLOCK
  2
M8横
 70
    64
 10
-88.370132
 20
140.837665
  0
LINE
  8
ボルト／ビス
 10
-95.870132
 20
140.837665
 11
-80.870132
 21
140.837665
  0
LINE
  8
ボルト／ビス
 10
-80.870132
 20
145.837665
 11
-81.370132
 21
146.337665
  0
POLYLINE
  8
ボルト／ビス
 66
     1
  0
VERTEX
  8
ボルト／ビス
 10
-84.120132
 20
146.337665
  0
VERTEX
  8
ボルト／ビス
 10
-84.620132
 20
145.837665
  0
VERTEX
  8
ボルト／ビス
 10
-85.120132
 20
146.337665
  0
SEQEND
  0
POLYLINE
  8
ボルト／ビス
 66
     1
  0
VERTEX
  8
ボルト／ビス
 10
-91.620132
 20
146.337665
  0
VERTEX
  8
ボルト／ビス
 10
-92.120132
 20
145.837665
  0
VERTEX
  8
ボルト／ビス
 10
-92.620132
 20
146.337665
  0
SEQEND
  0
LINE
  8
ボルト／ビス
 10
-95.370132
 20
146.337665
 11
-95.870132
 21
145.837665
  0
LINE
  8
ボルト／ビス
 10
-95.870132
 20
140.837665
 11
-95.870132
 21
145.837665
  0
LINE
  8
ボルト／ビス
 10
-80.870132
 20
140.837665
 11
-80.870132
 21
145.837665
  0
LINE
  8
ボルト／ビス
 10
-95.370132
 20
146.337665
 11
-81.370132
 21
146.337665
  0
LINE
  8
ボルト／ビス
 10
-84.620132
 20
140.837665
 11
-84.620132
 21
145.837665
  0
LINE
  8
ボルト／ビス
 10
-92.120132
 20
140.837665
 11
-92.120132
 21
145.837665
  0
ENDBLK
  0
ENDSEC
  0
SECTION
  2
ENTITIES
  0
POLYLINE
  8
通り芯
  6
CONTINUOUS
 66
     1
 70
     1
  0
VERTEX
  8
通り芯
 10
-210.0
 20
-148.5
  0
VERTEX
  8
通り芯
 10
210.0
 20
-148.5
  0
VERTEX
  8
通り芯
 10
210.0
 20
148.5
  0
VERTEX
  8
通り芯
 10
-210.0
 20
148.5
  0
SEQEND
  0
INSERT
  2
*GRP_0001
  8
型材断面
  6
CONTINUOUS
 10
0.0
 20
0.0
  0
LINE
  8
型材断面
  6
CONTINUOUS
 10
-2.596497
 20
-69.937453
 11
-2.646497
 21
-69.937453
  0
LINE
  8
型材断面
  6
CONTINUOUS
 10
-4.263165
 20
-69.437453
 11
-4.263165
 21
-68.70412
  0
LINE
  8
型材断面
  6
CONTINUOUS
 62
    47
 10
-2.86347
 20
-76.67062
 11
-2.91347
 21
-76.67062
  0
LINE
  8
型材断面
  6
CONTINUOUS
 62
    47
 10
-2.86347
 20
-76.67062
 11
-2.86347
 21
-76.17062
  0
LINE
  8
型材断面
  6
CONTINUOUS
 10
-4.21347
 20
-70.42062
 11
-2.766802
 21
-70.42062
  0
LINE
  8
型材断面
  6
CONTINUOUS
 10
-2.766802
 20
-70.87062
 11
-2.766802
 21
-70.42062
  0
LINE
  8
型材断面
  6
CONTINUOUS
 62
    47
 10
-2.03347
 20
-73.543312
 11
-1.98347
 21
-73.543312
  0
LINE
  8
型材断面
  6
CONTINUOUS
 62
    47
 10
-1.98347
 20
-73.543312
 11
-1.98347
 21
-73.209977
  0
LINE
  8
型材断面
  6
CONTINUOUS
 62
    47
 10
-1.98347
 20
-73.209977
 11
-2.766802
 21
-73.109977
  0
LINE
  8
型材断面
  6
CONTINUOUS
 62
    47
 10
-2.766802
 20
-72.703953
 11
-2.766802
 21
-73.109977
  0
LINE
  8
型材断面
  6
CONTINUOUS
 62
    47
 10
-2.296803
 20
-72.703953
 11
-2.296803
 21
-70.87062
  0
LINE
  8
型材断面
  6
CONTINUOUS
 10
-2.596497
 20
-69.937453
 11
-2.596497
 21
-69.437453
  0
LINE
  8
型材断面
  6
CONTINUOUS
 10
-4.21347
 20
-70.42062
 11
-4.21347
 21
-69.937453
  0
LINE
  8
型材断面
  6
CONTINUOUS
 62
    47
 10
-2.296803
 20
-76.17062
 11
-2.296803
 21
-73.543312
  0
INSERT
  2
*GRP_0002
  8
型材断面
  6
DOT
 10
0.0
 20
0.0
  0
INSERT
  2
*GRP_0003
  8
型材断面
  6
DOT
 10
0.0
 20
0.0
  0
LINE
  8
型材断面
  6
CONTINUOUS
 10
-2.296803
 20
-76.17062
 11
-37.596497
 21
-76.17062
  0
LINE
  8
型材断面
  6
CONTINUOUS
 10
-2.86347
 20
-76.67062
 11
-37.596497
 21
-76.67062
  0
LINE
  8
型材断面
  6
CONTINUOUS
 10
-1.98347
 20
-73.543312
 11
-37.596497
 21
-73.543312
  0
LINE
  8
型材断面
  6
CONTINUOUS
 10
-1.98347
 20
-73.209977
 11
-37.596497
 21
-73.209977
  0
LINE
  8
型材断面
  6
CONTINUOUS
 10
-2.766802
 20
-73.109977
 11
-37.596497
 21
-73.109977
  0
LINE
  8
型材断面
  6
CONTINUOUS
 10
-2.296803
 20
-72.703953
 11
-37.596497
 21
-72.703953
  0
LINE
  8
型材断面
  6
CONTINUOUS
 10
-2.596497
 20
-69.937453
 11
-37.596497
 21
-69.937453
  0
LINE
  8
型材断面
  6
CONTINUOUS
 10
-4.263165
 20
-68.70412
 11
-37.596497
 21
-68.70412
  0
LINE
  8
型材断面
  6
CONTINUOUS
 10
-2.596497
 20
-69.437453
 11
-37.596497
 21
-69.437453
  0
LINE
  8
型材断面
  6
CONTINUOUS
 10
-2.766802
 20
-70.42062
 11
-37.596497
 21
-70.42062
  0
LINE
  8
型材断面
  6
CONTINUOUS
 10
-2.296803
 20
-70.87062
 11
-37.596497
 21
-70.87062
  0
LINE
  8
型材断面
  6
CONTINUOUS
 10
-72.596497
 20
-69.937453
 11
-72.546497
 21
-69.937453
  0
LINE
  8
型材断面
  6
CONTINUOUS
 10
-70.92983
 20
-69.437453
 11
-70.92983
 21
-68.70412
  0
LINE
  8
型材断面
  6
CONTINUOUS
 62
    47
 10
-72.329525
 20
-76.67062
 11
-72.279525
 21
-76.67062
  0
LINE
  8
型材断面
  6
CONTINUOUS
 62
    47
 10
-72.329525
 20
-76.67062
 11
-72.329525
 21
-76.17062
  0
LINE
  8
型材断面
  6
CONTINUOUS
 10
-70.979525
 20
-70.42062
 11
-72.426192
 21
-70.42062
  0
LINE
  8
型材断面
  6
CONTINUOUS
 10
-72.426192
 20
-70.87062
 11
-72.426192
 21
-70.42062
  0
LINE
  8
型材断面
  6
CONTINUOUS
 62
    47
 10
-73.159525
 20
-73.543312
 11
-73.209525
 21
-73.543312
  0
LINE
  8
型材断面
  6
CONTINUOUS
 62
    47
 10
-73.209525
 20
-73.543312
 11
-73.209525
 21
-73.209977
  0
LINE
  8
型材断面
  6
CONTINUOUS
 62
    47
 10
-73.209525
 20
-73.209977
 11
-72.426192
 21
-73.109977
  0
LINE
  8
型材断面
  6
CONTINUOUS
 62
    47
 10
-72.426192
 20
-72.703953
 11
-72.426192
 21
-73.109977
  0
LINE
  8
型材断面
  6
CONTINUOUS
 62
    47
 10
-72.896192
 20
-72.703953
 11
-72.896192
 21
-70.87062
  0
LINE
  8
型材断面
  6
CONTINUOUS
 10
-72.596497
 20
-69.937453
 11
-72.596497
 21
-69.437453
  0
LINE
  8
型材断面
  6
CONTINUOUS
 10
-70.979525
 20
-70.42062
 11
-70.979525
 21
-69.937453
  0
LINE
  8
型材断面
  6
CONTINUOUS
 62
    47
 10
-72.896192
 20
-76.17062
 11
-72.896192
 21
-73.543312
  0
INSERT
  2
*GRP_0004
  8
型材断面
  6
DOT
 10
0.0
 20
0.0
  0
INSERT
  2
*GRP_0005
  8
型材断面
  6
DOT
 10
0.0
 20
0.0
  0
LINE
  8
型材断面
  6
CONTINUOUS
 10
-72.896192
 20
-76.17062
 11
-37.596497
 21
-76.17062
  0
LINE
  8
型材断面
  6
CONTINUOUS
 10
-72.329525
 20
-76.67062
 11
-37.596497
 21
-76.67062
  0
LINE
  8
型材断面
  6
CONTINUOUS
 10
-73.209525
 20
-73.543312
 11
-37.596497
 21
-73.543312
  0
LINE
  8
型材断面
  6
CONTINUOUS
 10
-73.209525
 20
-73.209977
 11
-37.596497
 21
-73.209977
  0
LINE
  8
型材断面
  6
CONTINUOUS
 10
-72.426192
 20
-73.109977
 11
-37.596497
 21
-73.109977
  0
LINE
  8
型材断面
  6
CONTINUOUS
 10
-72.896192
 20
-72.703953
 11
-37.596497
 21
-72.703953
  0
LINE
  8
型材断面
  6
CONTINUOUS
 10
-72.596497
 20
-69.937453
 11
-37.596497
 21
-69.937453
  0
LINE
  8
型材断面
  6
CONTINUOUS
 10
-70.92983
 20
-68.70412
 11
-37.596497
 21
-68.70412
  0
LINE
  8
型材断面
  6
CONTINUOUS
 10
-72.596497
 20
-69.437453
 11
-37.596497
 21
-69.437453
  0
LINE
  8
型材断面
  6
CONTINUOUS
 10
-72.426192
 20
-70.42062
 11
-37.596497
 21
-70.42062
  0
LINE
  8
型材断面
  6
CONTINUOUS
 10
-72.896192
 20
-70.87062
 11
-37.596497
 21
-70.87062
  0
LINE
  8
型材断面
  6
CONTINUOUS
 10
-5.096497
 20
50.619993
 11
-4.263165
 21
50.619993
  0
LINE
  8
型材断面
  6
CONTINUOUS
 10
-5.096497
 20
49.786658
 11
-4.263165
 21
49.786658
  0
LINE
  8
型材断面
  6
CONTINUOUS
 10
-70.096497
 20
49.786658
 11
-70.92983
 21
49.786658
  0
LINE
  8
型材断面
  6
CONTINUOUS
 10
-70.096497
 20
50.619993
 11
-70.92983
 21
50.619993
  0
LINE
  8
型材断面
  6
DASHDOT
 10
172.29227
 20
50.203325
 11
-70.92983
 21
50.203325
  0
LINE
  8
型材断面
  6
CONTINUOUS
 10
-5.096497
 20
64.369993
 11
-1.98347
 21
67.48302
  0
LINE
  8
型材断面
  6
CONTINUOUS
 10
-5.096497
 20
50.619993
 11
-5.096497
 21
64.369993
  0
LINE
  8
型材断面
  6
CONTINUOUS
 10
-70.096497
 20
64.369993
 11
-73.209525
 21
67.48302
  0
LINE
  8
型材断面
  6
CONTINUOUS
 10
-70.096497
 20
50.619993
 11
-70.096497
 21
64.369993
  0
LINE
  8
型材断面
  6
CONTINUOUS
 10
-4.263165
 20
65.203325
 11
-70.92983
 21
65.203325
  0
LINE
  8
型材断面
  6
CONTINUOUS
 10
-2.296803
 20
67.169687
 11
-72.896192
 21
67.169687
  0
LINE
  8
型材断面
  6
CONTINUOUS
 10
-1.98347
 20
67.48302
 11
-73.209525
 21
67.48302
  0
LINE
  8
型材断面
  6
CONTINUOUS
 10
-2.596497
 20
66.869993
 11
-72.596497
 21
66.869993
  0
LINE
  8
型材断面
  6
CONTINUOUS
 10
162.97617
 20
66.869993
 11
162.97617
 21
66.819993
  0
LINE
  8
型材断面
  6
CONTINUOUS
 10
162.47617
 20
65.203325
 11
161.742835
 21
65.203325
  0
LINE
  8
型材断面
  6
CONTINUOUS
 62
    47
 10
169.709335
 20
66.60302
 11
169.709335
 21
66.55302
  0
LINE
  8
型材断面
  6
CONTINUOUS
 62
    47
 10
169.709335
 20
66.60302
 11
169.209335
 21
66.60302
  0
LINE
  8
型材断面
  6
CONTINUOUS
 10
163.459335
 20
65.25302
 11
163.459335
 21
66.699688
  0
LINE
  8
型材断面
  6
CONTINUOUS
 10
163.909335
 20
66.699688
 11
163.459335
 21
66.699688
  0
LINE
  8
型材断面
  6
CONTINUOUS
 62
    47
 10
166.582028
 20
67.43302
 11
166.582028
 21
67.48302
  0
LINE
  8
型材断面
  6
CONTINUOUS
 62
    47
 10
166.582028
 20
67.48302
 11
166.248695
 21
67.48302
  0
LINE
  8
型材断面
  6
CONTINUOUS
 62
    47
 10
166.248695
 20
67.48302
 11
166.148695
 21
66.699688
  0
LINE
  8
型材断面
  6
CONTINUOUS
 62
    47
 10
165.74267
 20
66.699688
 11
166.148695
 21
66.699688
  0
LINE
  8
型材断面
  6
CONTINUOUS
 62
    47
 10
165.74267
 20
67.169687
 11
163.909335
 21
67.169687
  0
LINE
  8
型材断面
  6
CONTINUOUS
 10
162.97617
 20
66.869993
 11
162.47617
 21
66.869993
  0
LINE
  8
型材断面
  6
CONTINUOUS
 10
163.459335
 20
65.25302
 11
162.97617
 21
65.25302
  0
LINE
  8
型材断面
  6
CONTINUOUS
 62
    47
 10
169.209335
 20
67.169687
 11
166.582028
 21
67.169687
  0
INSERT
  2
*GRP_0007
  8
型材断面
  6
DOT
 10
0.0
 20
0.0
  0
INSERT
  2
*GRP_0008
  8
型材断面
  6
DOT
 10
0.0
 20
0.0
  0
LINE
  8
型材断面
  6
CONTINUOUS
 10
169.209335
 20
67.169687
 11
169.209335
 21
50.203325
  0
LINE
  8
型材断面
  6
CONTINUOUS
 10
169.709335
 20
66.60302
 11
169.709335
 21
50.203325
  0
LINE
  8
型材断面
  6
CONTINUOUS
 10
166.582028
 20
67.48302
 11
166.582028
 21
50.203325
  0
LINE
  8
型材断面
  6
CONTINUOUS
 10
166.248695
 20
67.48302
 11
166.248695
 21
50.203325
  0
LINE
  8
型材断面
  6
CONTINUOUS
 10
166.148695
 20
66.699688
 11
166.148695
 21
50.203325
  0
LINE
  8
型材断面
  6
CONTINUOUS
 10
165.74267
 20
67.169687
 11
165.74267
 21
50.203325
  0
LINE
  8
型材断面
  6
CONTINUOUS
 10
162.97617
 20
66.869993
 11
162.97617
 21
50.203325
  0
LINE
  8
型材断面
  6
CONTINUOUS
 10
161.742835
 20
65.203325
 11
161.742835
 21
50.203325
  0
LINE
  8
型材断面
  6
CONTINUOUS
 10
162.47617
 20
66.869993
 11
162.47617
 21
50.203325
  0
LINE
  8
型材断面
  6
CONTINUOUS
 10
163.459335
 20
66.699688
 11
163.459335
 21
50.203325
  0
LINE
  8
型材断面
  6
CONTINUOUS
 10
163.909335
 20
67.169687
 11
163.909335
 21
50.203325
  0
LINE
  8
型材断面
  6
DASHDOT
 10
172.29227
 20
65.203325
 11
-4.263165
 21
65.203325
  0
LINE
  8
型材断面
  6
DASHDOT
 10
-37.596497
 20
-79.253555
 11
-37.596497
 21
65.203325
  0
LINE
  8
型材断面
  6
CONTINUOUS
 10
-36.346497
 20
63.53666
 11
-38.846497
 21
63.53666
  0
LINE
  8
型材断面
  6
CONTINUOUS
 10
-5.096497
 20
36.036658
 11
-1.98347
 21
32.92363
  0
LINE
  8
型材断面
  6
CONTINUOUS
 10
-5.096497
 20
36.036658
 11
-5.096497
 21
49.786658
  0
LINE
  8
型材断面
  6
CONTINUOUS
 10
-70.096497
 20
36.036658
 11
-73.209525
 21
32.92363
  0
LINE
  8
型材断面
  6
CONTINUOUS
 10
-70.096497
 20
36.036658
 11
-70.096497
 21
49.786658
  0
LINE
  8
型材断面
  6
CONTINUOUS
 10
-4.263165
 20
35.203325
 11
-70.92983
 21
35.203325
  0
LINE
  8
型材断面
  6
CONTINUOUS
 10
-2.296803
 20
33.236962
 11
-72.896192
 21
33.236962
  0
LINE
  8
型材断面
  6
CONTINUOUS
 10
-1.98347
 20
32.92363
 11
-73.209525
 21
32.92363
  0
LINE
  8
型材断面
  6
CONTINUOUS
 10
-2.596497
 20
33.536658
 11
-72.596497
 21
33.536658
  0
LINE
  8
型材断面
  6
CONTINUOUS
 10
162.97617
 20
33.53666
 11
162.97617
 21
33.58666
  0
LINE
  8
型材断面
  6
CONTINUOUS
 10
162.47617
 20
35.203325
 11
161.742835
 21
35.203325
  0
LINE
  8
型材断面
  6
CONTINUOUS
 62
    47
 10
169.709335
 20
33.80363
 11
169.709335
 21
33.85363
  0
LINE
  8
型材断面
  6
CONTINUOUS
 62
    47
 10
169.709335
 20
33.80363
 11
169.209335
 21
33.80363
  0
LINE
  8
型材断面
  6
CONTINUOUS
 10
163.459335
 20
35.15363
 11
163.459335
 21
33.706965
  0
LINE
  8
型材断面
  6
CONTINUOUS
 10
163.909335
 20
33.706965
 11
163.459335
 21
33.706965
  0
LINE
  8
型材断面
  6
CONTINUOUS
 62
    47
 10
166.582028
 20
32.97363
 11
166.582028
 21
32.92363
  0
LINE
  8
型材断面
  6
CONTINUOUS
 62
    47
 10
166.582028
 20
32.92363
 11
166.248695
 21
32.92363
  0
LINE
  8
型材断面
  6
CONTINUOUS
 62
    47
 10
166.248695
 20
32.92363
 11
166.148695
 21
33.706965
  0
LINE
  8
型材断面
  6
CONTINUOUS
 62
    47
 10
165.74267
 20
33.706965
 11
166.148695
 21
33.706965
  0
LINE
  8
型材断面
  6
CONTINUOUS
 62
    47
 10
165.74267
 20
33.236965
 11
163.909335
 21
33.236965
  0
LINE
  8
型材断面
  6
CONTINUOUS
 10
162.97617
 20
33.53666
 11
162.47617
 21
33.53666
  0
LINE
  8
型材断面
  6
CONTINUOUS
 10
163.459335
 20
35.15363
 11
162.97617
 21
35.15363
  0
LINE
  8
型材断面
  6
CONTINUOUS
 62
    47
 10
169.209335
 20
33.236965
 11
166.582028
 21
33.236965
  0
INSERT
  2
*GRP_0009
  8
型材断面
  6
DOT
 10
0.0
 20
0.0
  0
INSERT
  2
*GRP_0010
  8
型材断面
  6
DOT
 10
0.0
 20
0.0
  0
LINE
  8
型材断面
  6
CONTINUOUS
 10
169.209335
 20
33.236965
 11
169.209335
 21
50.203325
  0
LINE
  8
型材断面
  6
CONTINUOUS
 10
169.709335
 20
33.80363
 11
169.709335
 21
50.203325
  0
LINE
  8
型材断面
  6
CONTINUOUS
 10
166.582028
 20
32.92363
 11
166.582028
 21
50.203325
  0
LINE
  8
型材断面
  6
CONTINUOUS
 10
166.248695
 20
32.92363
 11
166.248695
 21
50.203325
  0
LINE
  8
型材断面
  6
CONTINUOUS
 10
166.148695
 20
33.706965
 11
166.148695
 21
50.203325
  0
LINE
  8
型材断面
  6
CONTINUOUS
 10
165.74267
 20
33.236965
 11
165.74267
 21
50.203325
  0
LINE
  8
型材断面
  6
CONTINUOUS
 10
162.97617
 20
33.53666
 11
162.97617
 21
50.203325
  0
LINE
  8
型材断面
  6
CONTINUOUS
 10
161.742835
 20
35.203325
 11
161.742835
 21
50.203325
  0
LINE
  8
型材断面
  6
CONTINUOUS
 10
162.47617
 20
33.53666
 11
162.47617
 21
50.203325
  0
LINE
  8
型材断面
  6
CONTINUOUS
 10
163.459335
 20
33.706965
 11
163.459335
 21
50.203325
  0
LINE
  8
型材断面
  6
CONTINUOUS
 10
163.909335
 20
33.236965
 11
163.909335
 21
50.203325
  0
LINE
  8
型材断面
  6
DASHDOT
 10
172.29227
 20
35.203325
 11
-4.263165
 21
35.203325
  0
LINE
  8
型材断面
  6
DASHDOT
 10
-70.92983
 20
-79.253555
 11
-70.92983
 21
35.203325
  0
LINE
  8
型材断面
  6
DASHDOT
 10
-4.263165
 20
-79.253555
 11
-4.263165
 21
35.203325
  0
LINE
  8
型材断面
  6
CONTINUOUS
 10
-36.346497
 20
36.86999
 11
-38.846497
 21
36.86999
  0
LINE
  8
型材断面
  6
CONTINUOUS
 10
-4.263165
 20
35.203325
 11
-4.263165
 21
65.203325
  0
LINE
  8
型材断面
  6
CONTINUOUS
 10
-2.296803
 20
33.236962
 11
-2.296803
 21
67.169687
  0
LINE
  8
型材断面
  6
CONTINUOUS
 10
-1.98347
 20
32.92363
 11
-1.98347
 21
67.48302
  0
LINE
  8
型材断面
  6
CONTINUOUS
 10
-2.596497
 20
33.536658
 11
-2.596497
 21
66.869993
  0
LINE
  8
型材断面
  6
CONTINUOUS
 10
-70.92983
 20
35.203325
 11
-70.92983
 21
65.203325
  0
LINE
  8
型材断面
  6
CONTINUOUS
 10
-72.896192
 20
33.236962
 11
-72.896192
 21
67.169687
  0
LINE
  8
型材断面
  6
CONTINUOUS
 10
-73.209525
 20
32.92363
 11
-73.209525
 21
67.48302
  0
LINE
  8
型材断面
  6
CONTINUOUS
 10
-72.596497
 20
33.536658
 11
-72.596497
 21
66.869993
  0
LINE
  8
型材断面
  6
CONTINUOUS
 10
-36.346497
 20
36.86999
 11
-36.346497
 21
63.53666
  0
LINE
  8
型材断面
  6
CONTINUOUS
 10
-37.346497
 20
36.86999
 11
-37.346497
 21
63.53666
  0
LINE
  8
型材断面
  6
CONTINUOUS
 10
-37.846497
 20
36.86999
 11
-37.846497
 21
63.53666
  0
LINE
  8
型材断面
  6
CONTINUOUS
 10
-38.846497
 20
36.86999
 11
-38.846497
 21
63.53666
  0
POLYLINE
  8
型材断面
  6
CONTINUOUS
 66
     1
 70
     1
  0
VERTEX
  8
型材断面
 10
20.695927
 20
-94.850355
  0
VERTEX
  8
型材断面
 10
-27.982748
 20
-94.850355
  0
VERTEX
  8
型材断面
 10
-27.982748
 20
-111.19502
  0
VERTEX
  8
型材断面
 10
20.695927
 20
-111.19502
  0
SEQEND
  0
LINE
  8
型材断面
  6
CONTINUOUS
 10
-54.679832
 20
36.036658
 11
-54.679832
 21
35.203325
  0
LINE
  8
型材断面
  6
CONTINUOUS
 10
-53.846497
 20
36.036658
 11
-53.846497
 21
35.203325
  0
LINE
  8
型材断面
  6
CONTINUOUS
 10
-54.679832
 20
36.036658
 11
-70.096497
 21
36.036658
  0
LINE
  8
型材断面
  6
CONTINUOUS
 10
-20.513163
 20
36.036658
 11
-20.513163
 21
35.203325
  0
LINE
  8
型材断面
  6
CONTINUOUS
 10
-21.346497
 20
36.036658
 11
-21.346497
 21
35.203325
  0
LINE
  8
型材断面
  6
CONTINUOUS
 10
-20.513163
 20
36.036658
 11
-5.096497
 21
36.036658
  0
LINE
  8
型材断面
  6
CONTINUOUS
 10
-53.846497
 20
36.036658
 11
-21.346497
 21
36.036658
  0
LINE
  8
型材断面
  6
CONTINUOUS
 10
-54.679832
 20
64.369993
 11
-54.679832
 21
65.203325
  0
LINE
  8
型材断面
  6
CONTINUOUS
 10
-53.846497
 20
64.369993
 11
-53.846497
 21
65.203325
  0
LINE
  8
型材断面
  6
CONTINUOUS
 10
-54.679832
 20
64.369993
 11
-70.096497
 21
64.369993
  0
LINE
  8
型材断面
  6
CONTINUOUS
 10
-20.513163
 20
64.369993
 11
-20.513163
 21
65.203325
  0
LINE
  8
型材断面
  6
CONTINUOUS
 10
-21.346497
 20
64.369993
 11
-21.346497
 21
65.203325
  0
LINE
  8
型材断面
  6
CONTINUOUS
 10
-20.513163
 20
64.369993
 11
-5.096497
 21
64.369993
  0
LINE
  8
型材断面
  6
CONTINUOUS
 10
-53.846497
 20
64.369993
 11
-21.346497
 21
64.369993
  0
POLYLINE
  8
型材断面
  6
CONTINUOUS
 66
     1
 70
     1
  0
VERTEX
  8
型材断面
 10
-27.99031
 20
25.427403
  0
VERTEX
  8
型材断面
 10
-46.76224
 20
25.427403
  0
VERTEX
  8
型材断面
 10
-46.76224
 20
20.69056
  0
VERTEX
  8
型材断面
 10
-27.99031
 20
20.69056
  0
SEQEND
  0
POLYLINE
  8
型材断面
  6
CONTINUOUS
 66
     1
 70
     1
  0
VERTEX
  8
型材断面
 10
-27.99031
 20
74.979248
  0
VERTEX
  8
型材断面
 10
-46.76224
 20
74.979248
  0
VERTEX
  8
型材断面
 10
-46.76224
 20
79.71609
  0
VERTEX
  8
型材断面
 10
-27.99031
 20
79.71609
  0
SEQEND
  0
LINE
  8
型材断面
  6
CONTINUOUS
 10
-54.263165
 20
67.833455
 11
-55.758795
 21
70.423963
  0
LINE
  8
型材断面
  6
CONTINUOUS
 10
-54.263165
 20
67.833455
 11
-52.767535
 21
70.423963
  0
LINE
  8
型材断面
  6
CONTINUOUS
 10
-52.767535
 20
70.423963
 11
-55.758795
 21
70.423963
  0
LINE
  8
型材断面
  6
CONTINUOUS
 10
-73.559962
 20
50.203325
 11
-76.15047
 21
51.698955
  0
LINE
  8
型材断面
  6
CONTINUOUS
 10
-73.559962
 20
50.203325
 11
-76.15047
 21
48.707695
  0
LINE
  8
型材断面
  6
CONTINUOUS
 10
-76.15047
 20
48.707695
 11
-76.15047
 21
51.698955
  0
LINE
  8
型材断面
  6
CONTINUOUS
 10
-54.263165
 20
32.573195
 11
-55.758795
 21
29.982688
  0
LINE
  8
型材断面
  6
CONTINUOUS
 10
-54.263165
 20
32.573195
 11
-52.767535
 21
29.982688
  0
LINE
  8
型材断面
  6
CONTINUOUS
 10
-52.767535
 20
29.982688
 11
-55.758795
 21
29.982688
  0
LINE
  8
型材断面
  6
CONTINUOUS
 10
-124.808355
 20
103.180797
 11
-124.2123
 21
100.59029
  0
LINE
  8
型材断面
  6
CONTINUOUS
 10
-124.808355
 20
103.180797
 11
-125.404413
 21
100.59029
  0
LINE
  8
型材断面
  6
CONTINUOUS
 10
-125.404413
 20
100.59029
 11
-124.2123
 21
100.59029
  0
LINE
  8
型材断面
  6
CONTINUOUS
 10
-130.830943
 20
97.311398
 11
-84.589165
 21
97.311398
  0
LINE
  8
型材断面
  6
CONTINUOUS
 10
-124.808355
 20
109.710672
 11
-126.303985
 21
107.120165
  0
LINE
  8
型材断面
  6
CONTINUOUS
 10
-124.808355
 20
109.710672
 11
-123.312725
 21
107.120165
  0
LINE
  8
型材断面
  6
CONTINUOUS
 10
-123.312725
 20
107.120165
 11
-126.303985
 21
107.120165
  0
LINE
  8
型材断面
  6
CONTINUOUS
 10
-130.830943
 20
106.18157
 11
-84.589165
 21
106.18157
  0
LINE
  8
型材断面
  6
CONTINUOUS
 10
-130.830943
 20
91.523365
 11
-84.589165
 21
91.523365
  0
LINE
  8
型材断面
  6
CONTINUOUS
 10
-20.92983
 20
67.833455
 11
-19.4342
 21
70.423963
  0
LINE
  8
型材断面
  6
CONTINUOUS
 10
-20.92983
 20
67.833455
 11
-22.42546
 21
70.423963
  0
LINE
  8
型材断面
  6
CONTINUOUS
 10
-22.42546
 20
70.423963
 11
-19.4342
 21
70.423963
  0
LINE
  8
型材断面
  6
CONTINUOUS
 10
-1.633032
 20
50.203325
 11
0.957475
 21
51.698955
  0
LINE
  8
型材断面
  6
CONTINUOUS
 10
-1.633032
 20
50.203325
 11
0.957475
 21
48.707695
  0
LINE
  8
型材断面
  6
CONTINUOUS
 10
0.957475
 20
48.707695
 11
0.957475
 21
51.698955
  0
LINE
  8
型材断面
  6
CONTINUOUS
 10
-20.92983
 20
32.573195
 11
-19.4342
 21
29.982688
  0
LINE
  8
型材断面
  6
CONTINUOUS
 10
-20.92983
 20
32.573195
 11
-22.42546
 21
29.982688
  0
LINE
  8
型材断面
  6
CONTINUOUS
 10
-22.42546
 20
29.982688
 11
-19.4342
 21
29.982688
  0
LINE
  8
型材断面
  6
CONTINUOUS
 10
-1.633037
 20
61.303325
 11
0.95747
 21
60.707267
  0
LINE
  8
型材断面
  6
CONTINUOUS
 10
-1.633037
 20
61.303325
 11
0.95747
 21
61.899382
  0
LINE
  8
型材断面
  6
CONTINUOUS
 10
0.95747
 20
61.899382
 11
0.95747
 21
60.707267
  0
LINE
  8
型材断面
  6
CONTINUOUS
 10
-1.633037
 20
39.103325
 11
0.95747
 21
39.699382
  0
LINE
  8
型材断面
  6
CONTINUOUS
 10
-1.633037
 20
39.103325
 11
0.95747
 21
38.507267
  0
LINE
  8
型材断面
  6
CONTINUOUS
 10
0.95747
 20
38.507267
 11
0.95747
 21
39.699382
  0
LINE
  8
型材断面
  6
CONTINUOUS
 10
-73.559958
 20
61.303325
 11
-76.150465
 21
60.707267
  0
LINE
  8
型材断面
  6
CONTINUOUS
 10
-73.559958
 20
61.303325
 11
-76.150465
 21
61.899382
  0
LINE
  8
型材断面
  6
CONTINUOUS
 10
-76.150465
 20
61.899382
 11
-76.150465
 21
60.707267
  0
LINE
  8
型材断面
  6
CONTINUOUS
 10
-73.559958
 20
39.103325
 11
-76.150465
 21
39.699382
  0
LINE
  8
型材断面
  6
CONTINUOUS
 10
-73.559958
 20
39.103325
 11
-76.150465
 21
38.507267
  0
LINE
  8
型材断面
  6
CONTINUOUS
 10
-76.150465
 20
38.507267
 11
-76.150465
 21
39.699382
  0
LINE
  8
型材断面
  6
CONTINUOUS
 10
-130.830943
 20
85.735332
 11
-84.589165
 21
85.735332
  0
INSERT
  2
*GRP_0021
  8
型材断面
  6
DOT
 10
0.0
 20
0.0
  0
LINE
  8
型材断面
  6
CONTINUOUS
 10
138.483737
 20
-23.584073
 11
115.44922
 21
-23.584073
  0
POLYLINE
  8
ガラス
  6
CONTINUOUS
 66
     1
 70
     1
  0
VERTEX
  8
ガラス
 10
153.11649
 20
-45.177728
  0
VERTEX
  8
ガラス
 10
120.789823
 20
-45.177728
  0
VERTEX
  8
ガラス
 10
120.789823
 20
-74.51106
  0
VERTEX
  8
ガラス
 10
153.11649
 20
-74.51106
  0
SEQEND
  0
TEXT
  7
TextStyle03
  8
文字
  6
CONTINUOUS
 10
78.1
 20
125.25
  1
シリーズ：ＳＴＤＬ
 40
5.0
 72
     5
 11
128.1
 21
125.25
  0
TEXT
  7
TextStyle03
  8
文字
  6
CONTINUOUS
 10
78.1
 20
119.625
  1
　　　　　（上下可動）900×2000タイプ
 40
5.0
 72
     5
 11
181.5375
 21
119.625
  0
TEXT
  7
TextStyle03
  8
文字
  6
CONTINUOUS
 10
78.1
 20
114.0
  1
図面名　：外観姿図
 40
5.0
 72
     5
 11
128.1
 21
114.0
  0
TEXT
  7
TextStyle03
  8
文字
  6
CONTINUOUS
 10
78.1
 20
108.375
  1
　　　　　　
 40
5.0
 72
     5
 11
111.225
 21
108.375
  0
TEXT
  7
TextStyle03
  8
文字
  6
CONTINUOUS
 10
-23.65
 20
-100.575
  1
※トップライト枠高さ寸法
 40
3.0
 72
     5
 11
16.475
 21
-100.575
  0
TEXT
  7
TextStyle03
  8
文字
  6
CONTINUOUS
 10
-23.65
 20
-103.95
  1
　シングルガラス：214
 40
3.0
 72
     5
 11
11.6
 21
-103.95
  0
TEXT
  7
TextStyle03
  8
文字
  6
CONTINUOUS
 10
-23.65
 20
-107.325
  1
　ペアガラス：224
 40
3.0
 72
     5
 11
4.85
 21
-107.325
  0
TEXT
  7
TextStyle03
  8
文字
  6
CONTINUOUS
 10
-45.65
 20
21.7
  1
可動装置側
 40
3.0
 72
     5
 11
-29.15
 21
21.7
  0
TEXT
  7
TextStyle03
  8
文字
  6
CONTINUOUS
 10
-45.65
 20
75.65
  1
可動装置側
 40
3.0
 72
     5
 11
-29.15
 21
75.65
  0
TEXT
  7
TextStyle03
  8
文字
  6
CONTINUOUS
 10
-122.025
 20
101.775
  1
はケーシング位置を示す
 40
3.0
 72
     5
 11
-85.275
 21
101.775
  0
TEXT
  7
TextStyle03
  8
文字
  6
CONTINUOUS
 10
-122.025
 20
98.4
  1
４ヶ所中1ヶ所に設定
 40
3.0
 72
     5
 11
-90.3375
 21
98.4
  0
TEXT
  7
TextStyle03
  8
文字
  6
CONTINUOUS
 10
-122.025
 20
107.3
  1
は排水穴位置を示す
 40
3.0
 72
     5
 11
-92.025
 21
107.3
  0
TEXT
  7
TextStyle03
  8
文字
  6
CONTINUOUS
 10
-91.925
 20
28.65
  1
アンカーピッチ
 40
3.0
 50
90.0
 72
     5
 11
-91.925
 21
51.9
  0
TEXT
  7
TextStyle03
  8
文字
  6
CONTINUOUS
 10
-63.475
 20
102.05
  1
アンカーピッチ
 40
3.0
 72
     5
 11
-40.225
 21
102.05
  0
TEXT
  7
TextStyle03
  8
文字
  6
CONTINUOUS
 10
-125.75
 20
92.425
  1
アンカー数量　１０ヶ所
 40
3.0
 72
     5
 11
-89.0
 21
92.425
  0
TEXT
  7
TextStyle03
  8
文字
  6
CONTINUOUS
 10
-125.8
 20
86.675
  1
アームユニット数　２ヶ所
 40
3.0
 72
     5
 11
-85.675
 21
86.675
  0
TEXT
  7
TextStyle03
  8
文字
  6
CONTINUOUS
 10
118.25
 20
-22.45
  1
ガラス寸法
 40
3.0
 72
     5
 11
134.75
 21
-22.45
  0
TEXT
  7
TextStyle03
  8
文字
  6
CONTINUOUS
 10
139.85
 20
-71.85
  1
×２枚
 40
3.0
 72
     5
 11
149.6
 21
-71.85
  0
INSERT
  2
*DIM_0006
  8
寸法
  6
CONTINUOUS
 10
0.0
 20
0.0
  0
INSERT
  2
*DIM_0011
  8
寸法
  6
CONTINUOUS
 10
0.0
 20
0.0
  0
INSERT
  2
*DIM_0012
  8
寸法
  6
CONTINUOUS
 10
0.0
 20
0.0
  0
INSERT
  2
*DIM_0013
  8
寸法
  6
CONTINUOUS
 10
0.0
 20
0.0
  0
INSERT
  2
*DIM_0014
  8
寸法
  6
CONTINUOUS
 10
0.0
 20
0.0
  0
INSERT
  2
*DIM_0015
  8
寸法
  6
CONTINUOUS
 10
0.0
 20
0.0
  0
INSERT
  2
*DIM_0016
  8
寸法
  6
CONTINUOUS
 10
0.0
 20
0.0
  0
INSERT
  2
*DIM_0017
  8
寸法
  6
CONTINUOUS
 10
0.0
 20
0.0
  0
INSERT
  2
*DIM_0018
  8
寸法
  6
CONTINUOUS
 10
0.0
 20
0.0
  0
INSERT
  2
*DIM_0019
  8
寸法
  6
CONTINUOUS
 10
0.0
 20
0.0
  0
INSERT
  2
*DIM_0020
  8
寸法
  6
CONTINUOUS
 10
0.0
 20
0.0
  0
INSERT
  2
*DIM_0026
  8
寸法
  6
CONTINUOUS
 10
0.0
 20
0.0
  0
INSERT
  2
*DIM_0027
  8
寸法
  6
CONTINUOUS
 10
0.0
 20
0.0
  0
INSERT
  2
*DIM_0028
  8
寸法
  6
CONTINUOUS
 10
0.0
 20
0.0
  0
INSERT
  2
*DIM_0029
  8
寸法
  6
CONTINUOUS
 10
0.0
 20
0.0
  0
INSERT
  2
*DIM_0030
  8
寸法
  6
CONTINUOUS
 10
0.0
 20
0.0
  0
INSERT
  2
*DIM_0031
  8
寸法
  6
CONTINUOUS
 10
0.0
 20
0.0
  0
LINE
  8
曲げ物
  6
CONTINUOUS
 10
-18.50085
 20
52.128875
 11
-22.196162
 21
48.433562
  0
LINE
  8
曲げ物
  6
CONTINUOUS
 10
-19.20432
 20
50.592765
 11
-20.66005
 21
49.137035
  0
LINE
  8
曲げ物
  6
CONTINUOUS
 10
-20.03696
 20
51.425405
 11
-21.49269
 21
49.969675
  0
LINE
  8
曲げ物
  6
CONTINUOUS
 10
-51.85287
 20
52.128875
 11
-55.548182
 21
48.433562
  0
LINE
  8
曲げ物
  6
CONTINUOUS
 10
-52.55634
 20
50.592765
 11
-54.01207
 21
49.137035
  0
LINE
  8
曲げ物
  6
CONTINUOUS
 10
-53.38898
 20
51.425405
 11
-54.84471
 21
49.969675
  0
ENDSEC
  0
EOF
