  0
SECTION
  2
HEADER
  9
$EXTMIN
 10
-210.0
 20
-148.5
  9
$EXTMAX
 10
210.0
 20
148.5
  9
$PDMODE
 70
    32
  9
$PDSIZE
 40
1.5
  9
$LTSCALE
 40
10.0
  0
ENDSEC
  0
SECTION
  2
TABLES
  0
TABLE
  2
LTYPE
 70
    15
  0
LTYPE
  2
CONTINUOUS
 70
    64
  3
実線
 72
    65
 73
     0
 40
0.0
  0
LTYPE
  2
DASHED
 70
    64
  3
破線A
 72
    65
 73
     2
 40
0.6
 49
0.4
 49
-0.2
  0
LTYPE
  2
DASHEDX2
 70
    64
  3
破線B
 72
    65
 73
     2
 40
1.3
 49
0.9
 49
-0.4
  0
LTYPE
  2
DASHDOT
 70
    64
  3
１点鎖線A
 72
    65
 73
     4
 40
0.5375
 49
0.375
 49
-0.05
 49
0.0625
 49
-0.05
  0
LTYPE
  2
DASHDOTX2
 70
    64
  3
１点鎖線B
 72
    65
 73
     4
 40
1.075
 49
0.75
 49
-0.1
 49
0.125
 49
-0.1
  0
LTYPE
  2
DIVIDE2
 70
    64
  3
２点鎖線A
 72
    65
 73
     6
 40
0.5125
 49
0.3
 49
-0.0375
 49
0.05
 49
-0.0375
 49
0.05
 49
-0.0375
  0
LTYPE
  2
DIVIDE
 70
    64
  3
２点鎖線B
 72
    65
 73
     6
 40
1.05
 49
0.55
 49
-0.1
 49
0.1
 49
-0.1
 49
0.1
 49
-0.1
  0
LTYPE
  2
DOT
 70
    64
  3
点線A
 72
    65
 73
     2
 40
0.1125
 49
0.0625
 49
-0.05
  0
LTYPE
  2
DOTX2
 70
    64
  3
点線B
 72
    65
 73
     2
 40
0.275
 49
0.15
 49
-0.125
  0
LTYPE
  2
CONTINUOUS
 70
    64
  3
実線
 72
    65
 73
     0
 40
0.0
  0
LTYPE
  2
CONTINUOUS
 70
    64
  3
実線
 72
    65
 73
     0
 40
0.0
  0
LTYPE
  2
CONTINUOUS
 70
    64
  3
実線
 72
    65
 73
     0
 40
0.0
  0
LTYPE
  2
CONTINUOUS
 70
    64
  3
実線
 72
    65
 73
     0
 40
0.0
  0
LTYPE
  2
CONTINUOUS
 70
    64
  3
実線
 72
    65
 73
     0
 40
0.0
  0
LTYPE
  2
CONTINUOUS
 70
    64
  3
実線
 72
    65
 73
     0
 40
0.0
  0
ENDTAB
  0
TABLE
  2
LAYER
 70
    34
  0
LAYER
  2
通り芯
 70
     0
 62
    15
  6
CONTINUOUS
  0
LAYER
  2
補助線
 70
     0
 62
    16
  6
DOT
  0
LAYER
  2
躯体
 70
     0
 62
    31
  6
CONTINUOUS
  0
LAYER
  2
型材
 70
     0
 62
    32
  6
CONTINUOUS
  0
LAYER
  2
型材断面
 70
     0
 62
    47
  6
CONTINUOUS
  0
LAYER
  2
ガラス
 70
     0
 62
    48
  6
CONTINUOUS
  0
LAYER
  2
ゴム等
 70
     0
 62
    63
  6
CONTINUOUS
  0
LAYER
  2
ボルト／ビス
 70
     0
 62
    64
  6
CONTINUOUS
  0
LAYER
  2
文字
 70
     0
 62
    79
  6
CONTINUOUS
  0
LAYER
  2
寸法
 70
     0
 62
    80
  6
CONTINUOUS
  0
LAYER
  2
ﾊｯﾁﾝｸﾞ
 70
     0
 62
    95
  6
CONTINUOUS
  0
LAYER
  2
別途部材
 70
     0
 62
    96
  6
CONTINUOUS
  0
LAYER
  2
曲げ物
 70
     0
 62
   111
  6
CONTINUOUS
  0
LAYER
  2
鉄骨等
 70
     0
 62
   112
  6
CONTINUOUS
  0
LAYER
  2
St
 70
     0
 62
   127
  6
CONTINUOUS
  0
LAYER
  2
その他部品等
 70
     0
 62
   128
  6
CONTINUOUS
  0
LAYER
  2
ｶﾞｽｹｯﾄ
 70
     0
 62
   143
  6
CONTINUOUS
  0
LAYER
  2
ｽｹｯﾁ
 70
     0
 62
    14
  6
CONTINUOUS
  0
LAYER
  2
0
 70
     0
 62
    17
  6
CONTINUOUS
  0
LAYER
  2
1
 70
     0
 62
    30
  6
CONTINUOUS
  0
LAYER
  2
4
 70
     0
 62
    33
  6
CONTINUOUS
  0
LAYER
  2
ﾚｲﾔ3
 70
     0
 62
    46
  6
CONTINUOUS
  0
LAYER
  2
外形線
 70
     0
 62
    49
  6
CONTINUOUS
  0
LAYER
  2
部品
 70
     0
 62
    14
  6
CONTINUOUS
  0
LAYER
  2
サッシ芯
 70
     0
 62
    17
  6
DASHDOTX2
  0
LAYER
  2
寸法線
 70
     0
 62
    62
  6
CONTINUOUS
  0
LAYER
  2
姿図外形線
 70
     0
 62
    65
  6
CONTINUOUS
  0
LAYER
  2
姿補助線
 70
     0
 62
    30
  6
CONTINUOUS
  0
LAYER
  2
透視線
 70
     0
 62
    78
  6
DOT
  0
LAYER
  2
用紙
 70
     0
 62
    81
  6
CONTINUOUS
  0
LAYER
  2
実線図枠
 70
     0
 62
    94
  6
CONTINUOUS
  0
LAYER
  2
補助図枠
 70
     0
 62
    97
  6
CONTINUOUS
  0
LAYER
  2
建具記号
 70
     0
 62
   110
  6
CONTINUOUS
  0
LAYER
  2
補助文字
 70
     0
 62
   113
  6
CONTINUOUS
  0
ENDTAB
  0
TABLE
  2
STYLE
 70
    10
  0
STYLE
  2
STANDARD
 70
     0
 40
1.0
 41
1.0
 42
1.0
 50
0.0
 71
     0
  3
TXT
  4
BIGFONT
  0
STYLE
  2
TATE
 70
     4
 40
1.0
 41
1.0
 42
1.0
 50
0.0
 71
     0
  3
TXT
  4
BIGFONT
  0
STYLE
  2
TextStyle03
 70
     0
 40
1.0
 41
1.0
 42
1.0
 50
0.0
 71
     0
  3
MONOTXT
  4
BIGFONT
  0
STYLE
  2
TextStyle04
 70
     0
 40
1.0
 41
1.0
 42
1.0
 50
0.0
 71
     0
  3
MONOTXT
  4
BIGFONT
  0
STYLE
  2
TextStyle05
 70
     0
 40
1.0
 41
1.0
 42
1.0
 50
0.0
 71
     0
  3
MONOTXT
  4
BIGFONT
  0
STYLE
  2
TextStyle06
 70
     0
 40
1.0
 41
1.0
 42
1.0
 50
0.0
 71
     0
  3
MONOTXT
  4
BIGFONT
  0
STYLE
  2
TextStyle07
 70
     0
 40
1.0
 41
1.0
 42
1.0
 50
0.0
 71
     0
  3
MONOTXT
  4
BIGFONT
  0
STYLE
  2
TextStyle08
 70
     0
 40
1.0
 41
1.0
 42
1.0
 50
0.0
 71
     0
  3
MONOTXT
  4
BIGFONT
  0
STYLE
  2
TextStyle09
 70
     0
 40
1.0
 41
1.0
 42
1.0
 50
0.0
 71
     0
  3
MONOTXT
  4
BIGFONT
  0
STYLE
  2
TextStyle10
 70
     0
 40
1.0
 41
1.0
 42
1.0
 50
0.0
 71
     0
  3
MONOTXT
  4
BIGFONT
  0
ENDTAB
  0
ENDSEC
  0
SECTION
  2
BLOCKS
  0
BLOCK
  2
*GRP_0001
 70
    65
 10
0.0
 20
0.0
  0
LINE
  8
型材断面
  6
CONTINUOUS
 10
195.0
 20
133.5
 11
195.0
 21
-133.5
  0
LINE
  8
型材断面
  6
CONTINUOUS
 10
195.0
 20
-133.5
 11
-185.0
 21
-133.5
  0
LINE
  8
型材断面
  6
CONTINUOUS
 10
-185.0
 20
-133.5
 11
-185.0
 21
133.5
  0
LINE
  8
型材断面
  6
CONTINUOUS
 10
195.0
 20
133.5
 11
-185.0
 21
133.5
  0
LINE
  8
型材断面
  6
CONTINUOUS
 10
145.0
 20
-133.5
 11
145.0
 21
-118.5
  0
LINE
  8
型材断面
  6
CONTINUOUS
 10
195.0
 20
-118.5
 11
145.0
 21
-118.5
  0
ENDBLK
  0
BLOCK
  2
*GRP_0002
 70
    65
 10
0.0
 20
0.0
  0
INSERT
  2
M8横
  8
ゴム等
  6
CONTINUOUS
 10
163.336003
 20
61.029685
 50
270.0
 41
0.033333
 42
-0.033333
  0
LINE
  8
ボルト／ビス
  6
CONTINUOUS
 10
163.126005
 20
60.896352
 11
163.109338
 21
60.91302
  0
LINE
  8
ボルト／ビス
  6
CONTINUOUS
 10
163.109338
 20
61.146352
 11
163.126005
 21
61.16302
  0
LINE
  8
ボルト／ビス
  6
CONTINUOUS
 10
163.126005
 20
61.16302
 11
163.126005
 21
60.896352
  0
LINE
  8
ボルト／ビス
  6
CONTINUOUS
 10
163.109338
 20
61.146352
 11
163.109338
 21
60.91302
  0
LINE
  8
ボルト／ビス
  6
CONTINUOUS
 10
163.109338
 20
60.91302
 11
163.15267
 21
60.91302
  0
LINE
  8
ボルト／ビス
  6
CONTINUOUS
 10
163.126005
 20
60.896352
 11
163.15267
 21
60.896352
  0
LINE
  8
ボルト／ビス
  6
CONTINUOUS
 10
163.126005
 20
61.16302
 11
163.15267
 21
61.16302
  0
LINE
  8
ボルト／ビス
  6
CONTINUOUS
 10
163.109338
 20
61.146352
 11
163.15267
 21
61.146352
  0
LINE
  8
ボルト／ビス
  6
CONTINUOUS
 10
163.336003
 20
61.396352
 11
163.336003
 21
60.66302
  0
LINE
  8
ボルト／ビス
  6
CONTINUOUS
 10
163.376002
 20
60.61302
 11
163.459335
 21
60.61302
  0
LINE
  8
ボルト／ビス
  6
CONTINUOUS
 10
163.459335
 20
60.61302
 11
163.459335
 21
61.446352
  0
LINE
  8
ボルト／ビス
  6
CONTINUOUS
 10
163.459335
 20
61.446352
 11
163.376002
 21
61.446352
  0
LINE
  8
ボルト／ビス
  6
CONTINUOUS
 10
163.376002
 20
60.61302
 11
163.376002
 21
61.446352
  0
LINE
  8
ボルト／ビス
  6
CONTINUOUS
 10
163.336003
 20
61.396352
 11
163.376002
 21
61.396352
  0
LINE
  8
ボルト／ビス
  6
CONTINUOUS
 10
163.336003
 20
60.66302
 11
163.376002
 21
60.66302
  0
LINE
  8
ボルト／ビス
  6
CONTINUOUS
 10
163.386002
 20
61.029685
 11
163.336003
 21
61.029685
  0
ENDBLK
  0
BLOCK
  2
*GRP_0003
 70
    65
 10
0.0
 20
0.0
  0
LINE
  8
ボルト／ビス
  6
CONTINUOUS
 10
162.47617
 20
61.236355
 11
162.409503
 21
61.236355
  0
LINE
  8
ボルト／ビス
  6
CONTINUOUS
 10
162.409503
 20
61.236355
 11
162.409503
 21
60.50302
  0
LINE
  8
ボルト／ビス
  6
CONTINUOUS
 10
162.409503
 20
60.50302
 11
162.47617
 21
60.50302
  0
LINE
  8
ボルト／ビス
  6
CONTINUOUS
 10
162.47617
 20
61.236355
 11
162.47617
 21
60.50302
  0
LINE
  8
ボルト／ビス
  6
CONTINUOUS
 10
162.37617
 20
61.169687
 11
162.409503
 21
61.169687
  0
LINE
  8
ボルト／ビス
  6
CONTINUOUS
 10
162.37617
 20
61.169687
 11
162.37617
 21
60.569687
  0
LINE
  8
ボルト／ビス
  6
CONTINUOUS
 10
162.37617
 20
60.569687
 11
162.409503
 21
60.569687
  0
LINE
  8
ボルト／ビス
  6
CONTINUOUS
 62
    64
 10
162.17617
 20
61.030062
 11
162.187845
 21
61.062138
  0
ARC
  8
ボルト／ビス
  6
CONTINUOUS
 62
    64
 10
162.281149
 20
61.014031
 40
0.104978
 50
180.0
 51
207.278033
  0
ARC
  8
ボルト／ビス
  6
CONTINUOUS
 62
    64
 10
162.578573
 20
60.869693
 40
0.402402
 50
166.165015
 51
193.834998
  0
LINE
  8
ボルト／ビス
  6
CONTINUOUS
 62
    64
 10
162.17617
 20
60.709312
 11
162.187845
 21
60.677238
  0
ARC
  8
ボルト／ビス
  6
CONTINUOUS
 62
    64
 10
162.281149
 20
60.725355
 40
0.104978
 50
152.721967
 51
180.0
  0
LINE
  8
ボルト／ビス
  6
CONTINUOUS
 62
    64
 10
162.17617
 20
61.030062
 11
162.17617
 21
60.709312
  0
LINE
  8
ボルト／ビス
  6
CONTINUOUS
 62
    64
 10
162.187845
 20
60.677238
 11
162.309503
 21
60.677238
  0
LINE
  8
ボルト／ビス
  6
CONTINUOUS
 62
    64
 10
162.187845
 20
60.773462
 11
162.309503
 21
60.773462
  0
LINE
  8
ボルト／ビス
  6
CONTINUOUS
 62
    64
 10
162.187845
 20
61.062138
 11
162.309503
 21
61.062138
  0
LINE
  8
ボルト／ビス
  6
CONTINUOUS
 62
    64
 10
162.187845
 20
60.965913
 11
162.309503
 21
60.965913
  0
LINE
  8
ボルト／ビス
  6
CONTINUOUS
 10
162.309503
 20
61.062138
 11
162.309503
 21
60.677238
  0
LINE
  8
ボルト／ビス
  6
CONTINUOUS
 10
162.309503
 20
61.069687
 11
162.37617
 21
61.069687
  0
LINE
  8
ボルト／ビス
  6
CONTINUOUS
 10
162.309503
 20
61.069687
 11
162.309503
 21
60.669687
  0
LINE
  8
ボルト／ビス
  6
CONTINUOUS
 10
162.309503
 20
60.669687
 11
162.37617
 21
60.669687
  0
ENDBLK
  0
BLOCK
  2
*GRP_0004
 70
    65
 10
0.0
 20
0.0
  0
INSERT
  2
M8横
  8
ゴム等
  6
CONTINUOUS
 10
163.336003
 20
39.376965
 50
90.0
 41
0.033333
 42
0.033333
  0
LINE
  8
ボルト／ビス
  6
CONTINUOUS
 10
163.126005
 20
39.5103
 11
163.109338
 21
39.493633
  0
LINE
  8
ボルト／ビス
  6
CONTINUOUS
 10
163.109338
 20
39.2603
 11
163.126005
 21
39.243633
  0
LINE
  8
ボルト／ビス
  6
CONTINUOUS
 10
163.126005
 20
39.243633
 11
163.126005
 21
39.5103
  0
LINE
  8
ボルト／ビス
  6
CONTINUOUS
 10
163.109338
 20
39.2603
 11
163.109338
 21
39.493633
  0
LINE
  8
ボルト／ビス
  6
CONTINUOUS
 10
163.109338
 20
39.493633
 11
163.15267
 21
39.493633
  0
LINE
  8
ボルト／ビス
  6
CONTINUOUS
 10
163.126005
 20
39.5103
 11
163.15267
 21
39.5103
  0
LINE
  8
ボルト／ビス
  6
CONTINUOUS
 10
163.126005
 20
39.243633
 11
163.15267
 21
39.243633
  0
LINE
  8
ボルト／ビス
  6
CONTINUOUS
 10
163.109338
 20
39.2603
 11
163.15267
 21
39.2603
  0
LINE
  8
ボルト／ビス
  6
CONTINUOUS
 10
163.336003
 20
39.0103
 11
163.336003
 21
39.743633
  0
LINE
  8
ボルト／ビス
  6
CONTINUOUS
 10
163.376002
 20
39.793633
 11
163.459335
 21
39.793633
  0
LINE
  8
ボルト／ビス
  6
CONTINUOUS
 10
163.459335
 20
39.793633
 11
163.459335
 21
38.9603
  0
LINE
  8
ボルト／ビス
  6
CONTINUOUS
 10
163.459335
 20
38.9603
 11
163.376002
 21
38.9603
  0
LINE
  8
ボルト／ビス
  6
CONTINUOUS
 10
163.376002
 20
39.793633
 11
163.376002
 21
38.9603
  0
LINE
  8
ボルト／ビス
  6
CONTINUOUS
 10
163.336003
 20
39.0103
 11
163.376002
 21
39.0103
  0
LINE
  8
ボルト／ビス
  6
CONTINUOUS
 10
163.336003
 20
39.743633
 11
163.376002
 21
39.743633
  0
LINE
  8
ボルト／ビス
  6
CONTINUOUS
 10
163.386002
 20
39.376965
 11
163.336003
 21
39.376965
  0
ENDBLK
  0
BLOCK
  2
*GRP_0005
 70
    65
 10
0.0
 20
0.0
  0
LINE
  8
ボルト／ビス
  6
CONTINUOUS
 10
162.47617
 20
39.170298
 11
162.409503
 21
39.170298
  0
LINE
  8
ボルト／ビス
  6
CONTINUOUS
 10
162.409503
 20
39.170298
 11
162.409503
 21
39.90363
  0
LINE
  8
ボルト／ビス
  6
CONTINUOUS
 10
162.409503
 20
39.90363
 11
162.47617
 21
39.90363
  0
LINE
  8
ボルト／ビス
  6
CONTINUOUS
 10
162.47617
 20
39.170298
 11
162.47617
 21
39.90363
  0
LINE
  8
ボルト／ビス
  6
CONTINUOUS
 10
162.37617
 20
39.236965
 11
162.409503
 21
39.236965
  0
LINE
  8
ボルト／ビス
  6
CONTINUOUS
 10
162.37617
 20
39.236965
 11
162.37617
 21
39.836965
  0
LINE
  8
ボルト／ビス
  6
CONTINUOUS
 10
162.37617
 20
39.836965
 11
162.409503
 21
39.836965
  0
LINE
  8
ボルト／ビス
  6
CONTINUOUS
 62
    64
 10
162.17617
 20
39.37659
 11
162.187845
 21
39.344515
  0
ARC
  8
ボルト／ビス
  6
CONTINUOUS
 62
    64
 10
162.281149
 20
39.392632
 40
0.104978
 50
152.721967
 51
180.0
  0
ARC
  8
ボルト／ビス
  6
CONTINUOUS
 62
    64
 10
162.578573
 20
39.536969
 40
0.402402
 50
166.165002
 51
193.834985
  0
LINE
  8
ボルト／ビス
  6
CONTINUOUS
 62
    64
 10
162.17617
 20
39.69734
 11
162.187845
 21
39.729415
  0
ARC
  8
ボルト／ビス
  6
CONTINUOUS
 62
    64
 10
162.281149
 20
39.681307
 40
0.104978
 50
180.0
 51
207.278033
  0
LINE
  8
ボルト／ビス
  6
CONTINUOUS
 62
    64
 10
162.17617
 20
39.37659
 11
162.17617
 21
39.69734
  0
LINE
  8
ボルト／ビス
  6
CONTINUOUS
 62
    64
 10
162.187845
 20
39.729415
 11
162.309503
 21
39.729415
  0
LINE
  8
ボルト／ビス
  6
CONTINUOUS
 62
    64
 10
162.187845
 20
39.63319
 11
162.309503
 21
39.63319
  0
LINE
  8
ボルト／ビス
  6
CONTINUOUS
 62
    64
 10
162.187845
 20
39.344515
 11
162.309503
 21
39.344515
  0
LINE
  8
ボルト／ビス
  6
CONTINUOUS
 62
    64
 10
162.187845
 20
39.44074
 11
162.309503
 21
39.44074
  0
LINE
  8
ボルト／ビス
  6
CONTINUOUS
 10
162.309503
 20
39.344515
 11
162.309503
 21
39.729415
  0
LINE
  8
ボルト／ビス
  6
CONTINUOUS
 10
162.309503
 20
39.336965
 11
162.37617
 21
39.336965
  0
LINE
  8
ボルト／ビス
  6
CONTINUOUS
 10
162.309503
 20
39.336965
 11
162.309503
 21
39.736965
  0
LINE
  8
ボルト／ビス
  6
CONTINUOUS
 10
162.309503
 20
39.736965
 11
162.37617
 21
39.736965
  0
ENDBLK
  0
BLOCK
  2
*DIM_0006
 70
    65
 10
0.0
 20
0.0
  0
LINE
  8
寸法
  6
CONTINUOUS
 10
161.248695
 20
62.48302
 11
142.14273
 21
62.48302
  0
LINE
  8
寸法
  6
CONTINUOUS
 10
142.14273
 20
60.203325
 11
142.14273
 21
62.48302
  0
POINT
  8
寸法
 10
142.14273
 20
60.203325
 50
-90.0
  0
POINT
  8
寸法
 10
142.14273
 20
62.48302
 50
-90.0
  0
TEXT
  7
TextStyle03
  8
寸法
  6
CONTINUOUS
 10
141.775
 20
64.76875
  1
68.4
 40
3.0
 50
90.0
 72
     5
 11
141.775
 21
71.33125
  0
ENDBLK
  0
BLOCK
  2
*DIM_0007
 70
    65
 10
0.0
 20
0.0
  0
LINE
  8
寸法
  6
CONTINUOUS
 10
161.248695
 20
37.92363
 11
142.14273
 21
37.92363
  0
LINE
  8
寸法
  6
CONTINUOUS
 10
142.14273
 20
40.203325
 11
142.14273
 21
37.92363
  0
POINT
  8
寸法
 10
142.14273
 20
40.203325
 50
-90.0
  0
POINT
  8
寸法
 10
142.14273
 20
37.92363
 50
-90.0
  0
TEXT
  7
TextStyle03
  8
寸法
  6
CONTINUOUS
 10
141.775
 20
28.99375
  1
68.4
 40
3.0
 50
90.0
 72
     5
 11
141.775
 21
35.55625
  0
ENDBLK
  0
BLOCK
  2
*DIM_0008
 70
    65
 10
0.0
 20
0.0
  0
LINE
  8
寸法
  6
CONTINUOUS
 10
142.14273
 20
60.203325
 11
142.14273
 21
40.203325
  0
POINT
  8
寸法
 10
142.14273
 20
60.203325
 50
-90.0
  0
POINT
  8
寸法
 10
142.14273
 20
40.203325
 50
-90.0
  0
TEXT
  7
TextStyle03
  8
寸法
  6
CONTINUOUS
 10
141.775
 20
39.3
  1
呼称寸法　600
 40
3.0
 50
90.0
 72
     5
 11
141.775
 21
61.05
  0
ENDBLK
  0
BLOCK
  2
*DIM_0009
 70
    65
 10
0.0
 20
0.0
  0
LINE
  8
寸法
  6
CONTINUOUS
 10
169.209335
 20
33.236965
 11
169.209335
 21
25.327945
  0
LINE
  8
寸法
  6
CONTINUOUS
 10
161.742835
 20
35.203325
 11
161.742835
 21
25.327945
  0
LINE
  8
寸法
  6
CONTINUOUS
 10
169.209335
 20
25.327945
 11
161.742835
 21
25.327945
  0
POINT
  8
寸法
 10
169.209335
 20
25.327945
  0
POINT
  8
寸法
 10
161.742835
 20
25.327945
  0
TEXT
  7
TextStyle03
  8
寸法
  6
CONTINUOUS
 10
163.0375
 20
25.7
  1
224
 40
3.0
 72
     5
 11
167.9125
 21
25.7
  0
ENDBLK
  0
BLOCK
  2
*DIM_0010
 70
    65
 10
0.0
 20
0.0
  0
LINE
  8
寸法
  6
CONTINUOUS
 10
159.742917
 20
-51.062975
 11
168.263367
 21
-51.062975
  0
LINE
  8
寸法
  6
CONTINUOUS
 10
159.742917
 20
-70.39631
 11
168.263367
 21
-70.39631
  0
LINE
  8
寸法
  6
CONTINUOUS
 10
168.263367
 20
-51.062975
 11
168.263367
 21
-70.39631
  0
POINT
  8
寸法
 10
168.263367
 20
-51.062975
  0
POINT
  8
寸法
 10
168.263367
 20
-70.39631
  0
TEXT
  7
TextStyle03
  8
寸法
  6
CONTINUOUS
 10
167.875
 20
-63.1875
  1
580
 40
3.0
 50
90.0
 72
     5
 11
167.875
 21
-58.3125
  0
ENDBLK
  0
BLOCK
  2
*DIM_0011
 70
    65
 10
0.0
 20
0.0
  0
LINE
  8
寸法
  6
CONTINUOUS
 10
154.742917
 20
-46.062975
 11
154.742917
 21
-36.740827
  0
LINE
  8
寸法
  6
CONTINUOUS
 10
119.286253
 20
-46.062975
 11
119.286253
 21
-36.740827
  0
LINE
  8
寸法
  6
CONTINUOUS
 10
154.742917
 20
-36.740827
 11
119.286253
 21
-36.740827
  0
POINT
  8
寸法
 10
154.742917
 20
-36.740827
  0
POINT
  8
寸法
 10
119.286253
 20
-36.740827
  0
TEXT
  7
TextStyle03
  8
寸法
  6
CONTINUOUS
 10
132.03125
 20
-36.375
  1
1063.7
 40
3.0
 72
     5
 11
141.96875
 21
-36.375
  0
ENDBLK
  0
BLOCK
  2
*GRP_0012
 70
    65
 10
0.0
 20
0.0
  0
INSERT
  2
M8横
  8
ゴム等
  6
CONTINUOUS
 10
71.56319
 20
-70.297288
 50
180.0
 41
0.033333
 42
-0.033333
  0
LINE
  8
ボルト／ビス
  6
CONTINUOUS
 10
71.429858
 20
-70.087288
 11
71.446522
 21
-70.070622
  0
LINE
  8
ボルト／ビス
  6
CONTINUOUS
 10
71.679858
 20
-70.070622
 11
71.696522
 21
-70.087288
  0
LINE
  8
ボルト／ビス
  6
CONTINUOUS
 10
71.696522
 20
-70.087288
 11
71.429858
 21
-70.087288
  0
LINE
  8
ボルト／ビス
  6
CONTINUOUS
 10
71.679858
 20
-70.070622
 11
71.446522
 21
-70.070622
  0
LINE
  8
ボルト／ビス
  6
CONTINUOUS
 10
71.446522
 20
-70.070622
 11
71.446522
 21
-70.113952
  0
LINE
  8
ボルト／ビス
  6
CONTINUOUS
 10
71.429858
 20
-70.087288
 11
71.429858
 21
-70.113952
  0
LINE
  8
ボルト／ビス
  6
CONTINUOUS
 10
71.696522
 20
-70.087288
 11
71.696522
 21
-70.113952
  0
LINE
  8
ボルト／ビス
  6
CONTINUOUS
 10
71.679858
 20
-70.070622
 11
71.679858
 21
-70.113952
  0
LINE
  8
ボルト／ビス
  6
CONTINUOUS
 10
71.929858
 20
-70.297288
 11
71.196522
 21
-70.297288
  0
LINE
  8
ボルト／ビス
  6
CONTINUOUS
 10
71.146522
 20
-70.337288
 11
71.146522
 21
-70.42062
  0
LINE
  8
ボルト／ビス
  6
CONTINUOUS
 10
71.146522
 20
-70.42062
 11
71.979858
 21
-70.42062
  0
LINE
  8
ボルト／ビス
  6
CONTINUOUS
 10
71.979858
 20
-70.42062
 11
71.979858
 21
-70.337288
  0
LINE
  8
ボルト／ビス
  6
CONTINUOUS
 10
71.146522
 20
-70.337288
 11
71.979858
 21
-70.337288
  0
LINE
  8
ボルト／ビス
  6
CONTINUOUS
 10
71.929858
 20
-70.297288
 11
71.929858
 21
-70.337288
  0
LINE
  8
ボルト／ビス
  6
CONTINUOUS
 10
71.196522
 20
-70.297288
 11
71.196522
 21
-70.337288
  0
LINE
  8
ボルト／ビス
  6
CONTINUOUS
 10
71.56319
 20
-70.347288
 11
71.56319
 21
-70.297288
  0
ENDBLK
  0
BLOCK
  2
*GRP_0013
 70
    65
 10
0.0
 20
0.0
  0
LINE
  8
ボルト／ビス
  6
CONTINUOUS
 10
71.769858
 20
-69.437453
 11
71.769858
 21
-69.370788
  0
LINE
  8
ボルト／ビス
  6
CONTINUOUS
 10
71.769858
 20
-69.370788
 11
71.036525
 21
-69.370788
  0
LINE
  8
ボルト／ビス
  6
CONTINUOUS
 10
71.036525
 20
-69.370788
 11
71.036525
 21
-69.437453
  0
LINE
  8
ボルト／ビス
  6
CONTINUOUS
 10
71.769858
 20
-69.437453
 11
71.036525
 21
-69.437453
  0
LINE
  8
ボルト／ビス
  6
CONTINUOUS
 10
71.703192
 20
-69.337453
 11
71.703192
 21
-69.370788
  0
LINE
  8
ボルト／ビス
  6
CONTINUOUS
 10
71.703192
 20
-69.337453
 11
71.103192
 21
-69.337453
  0
LINE
  8
ボルト／ビス
  6
CONTINUOUS
 10
71.103192
 20
-69.337453
 11
71.103192
 21
-69.370788
  0
LINE
  8
ボルト／ビス
  6
CONTINUOUS
 62
    64
 10
71.563567
 20
-69.137453
 11
71.595643
 21
-69.149128
  0
ARC
  8
ボルト／ビス
  6
CONTINUOUS
 62
    64
 10
71.547528
 20
-69.242431
 40
0.104978
 50
90.0
 51
117.278033
  0
ARC
  8
ボルト／ビス
  6
CONTINUOUS
 62
    64
 10
71.40319
 20
-69.539855
 40
0.402402
 50
76.165015
 51
103.834998
  0
LINE
  8
ボルト／ビス
  6
CONTINUOUS
 62
    64
 10
71.242817
 20
-69.137453
 11
71.210743
 21
-69.149128
  0
ARC
  8
ボルト／ビス
  6
CONTINUOUS
 62
    64
 10
71.258853
 20
-69.242431
 40
0.104978
 50
62.721967
 51
90.0
  0
LINE
  8
ボルト／ビス
  6
CONTINUOUS
 62
    64
 10
71.563567
 20
-69.137453
 11
71.242817
 21
-69.137453
  0
LINE
  8
ボルト／ビス
  6
CONTINUOUS
 62
    64
 10
71.210743
 20
-69.149128
 11
71.210743
 21
-69.270788
  0
LINE
  8
ボルト／ビス
  6
CONTINUOUS
 62
    64
 10
71.306968
 20
-69.149128
 11
71.306968
 21
-69.270788
  0
LINE
  8
ボルト／ビス
  6
CONTINUOUS
 62
    64
 10
71.595643
 20
-69.149128
 11
71.595643
 21
-69.270788
  0
LINE
  8
ボルト／ビス
  6
CONTINUOUS
 62
    64
 10
71.499417
 20
-69.149128
 11
71.499417
 21
-69.270788
  0
LINE
  8
ボルト／ビス
  6
CONTINUOUS
 10
71.595643
 20
-69.270788
 11
71.210743
 21
-69.270788
  0
LINE
  8
ボルト／ビス
  6
CONTINUOUS
 10
71.603192
 20
-69.270788
 11
71.603192
 21
-69.337453
  0
LINE
  8
ボルト／ビス
  6
CONTINUOUS
 10
71.603192
 20
-69.270788
 11
71.203192
 21
-69.270788
  0
LINE
  8
ボルト／ビス
  6
CONTINUOUS
 10
71.203192
 20
-69.270788
 11
71.203192
 21
-69.337453
  0
ENDBLK
  0
BLOCK
  2
*GRP_0014
 70
    65
 10
0.0
 20
0.0
  0
INSERT
  2
M8横
  8
ゴム等
  6
CONTINUOUS
 10
-113.42285
 20
-70.297288
 41
0.033333
 42
0.033333
  0
LINE
  8
ボルト／ビス
  6
CONTINUOUS
 10
-113.289517
 20
-70.087288
 11
-113.306182
 21
-70.070622
  0
LINE
  8
ボルト／ビス
  6
CONTINUOUS
 10
-113.539517
 20
-70.070622
 11
-113.556182
 21
-70.087288
  0
LINE
  8
ボルト／ビス
  6
CONTINUOUS
 10
-113.556182
 20
-70.087288
 11
-113.289517
 21
-70.087288
  0
LINE
  8
ボルト／ビス
  6
CONTINUOUS
 10
-113.539517
 20
-70.070622
 11
-113.306182
 21
-70.070622
  0
LINE
  8
ボルト／ビス
  6
CONTINUOUS
 10
-113.306182
 20
-70.070622
 11
-113.306182
 21
-70.113952
  0
LINE
  8
ボルト／ビス
  6
CONTINUOUS
 10
-113.289517
 20
-70.087288
 11
-113.289517
 21
-70.113952
  0
LINE
  8
ボルト／ビス
  6
CONTINUOUS
 10
-113.556182
 20
-70.087288
 11
-113.556182
 21
-70.113952
  0
LINE
  8
ボルト／ビス
  6
CONTINUOUS
 10
-113.539517
 20
-70.070622
 11
-113.539517
 21
-70.113952
  0
LINE
  8
ボルト／ビス
  6
CONTINUOUS
 10
-113.789517
 20
-70.297288
 11
-113.056182
 21
-70.297288
  0
LINE
  8
ボルト／ビス
  6
CONTINUOUS
 10
-113.006182
 20
-70.337288
 11
-113.006182
 21
-70.42062
  0
LINE
  8
ボルト／ビス
  6
CONTINUOUS
 10
-113.006182
 20
-70.42062
 11
-113.839517
 21
-70.42062
  0
LINE
  8
ボルト／ビス
  6
CONTINUOUS
 10
-113.839517
 20
-70.42062
 11
-113.839517
 21
-70.337288
  0
LINE
  8
ボルト／ビス
  6
CONTINUOUS
 10
-113.006182
 20
-70.337288
 11
-113.839517
 21
-70.337288
  0
LINE
  8
ボルト／ビス
  6
CONTINUOUS
 10
-113.789517
 20
-70.297288
 11
-113.789517
 21
-70.337288
  0
LINE
  8
ボルト／ビス
  6
CONTINUOUS
 10
-113.056182
 20
-70.297288
 11
-113.056182
 21
-70.337288
  0
LINE
  8
ボルト／ビス
  6
CONTINUOUS
 10
-113.42285
 20
-70.347288
 11
-113.42285
 21
-70.297288
  0
ENDBLK
  0
BLOCK
  2
*GRP_0015
 70
    65
 10
0.0
 20
0.0
  0
LINE
  8
ボルト／ビス
  6
CONTINUOUS
 10
-113.629518
 20
-69.437453
 11
-113.629518
 21
-69.370788
  0
LINE
  8
ボルト／ビス
  6
CONTINUOUS
 10
-113.629518
 20
-69.370788
 11
-112.896185
 21
-69.370788
  0
LINE
  8
ボルト／ビス
  6
CONTINUOUS
 10
-112.896185
 20
-69.370788
 11
-112.896185
 21
-69.437453
  0
LINE
  8
ボルト／ビス
  6
CONTINUOUS
 10
-113.629518
 20
-69.437453
 11
-112.896185
 21
-69.437453
  0
LINE
  8
ボルト／ビス
  6
CONTINUOUS
 10
-113.562853
 20
-69.337453
 11
-113.562853
 21
-69.370788
  0
LINE
  8
ボルト／ビス
  6
CONTINUOUS
 10
-113.562853
 20
-69.337453
 11
-112.962853
 21
-69.337453
  0
LINE
  8
ボルト／ビス
  6
CONTINUOUS
 10
-112.962853
 20
-69.337453
 11
-112.962853
 21
-69.370788
  0
LINE
  8
ボルト／ビス
  6
CONTINUOUS
 62
    64
 10
-113.423228
 20
-69.137453
 11
-113.455303
 21
-69.149128
  0
ARC
  8
ボルト／ビス
  6
CONTINUOUS
 62
    64
 10
-113.407191
 20
-69.242431
 40
0.104978
 50
62.721967
 51
90.0
  0
ARC
  8
ボルト／ビス
  6
CONTINUOUS
 62
    64
 10
-113.262854
 20
-69.539855
 40
0.402402
 50
76.165002
 51
103.834985
  0
LINE
  8
ボルト／ビス
  6
CONTINUOUS
 62
    64
 10
-113.102477
 20
-69.137453
 11
-113.070403
 21
-69.149128
  0
ARC
  8
ボルト／ビス
  6
CONTINUOUS
 62
    64
 10
-113.118516
 20
-69.242431
 40
0.104978
 50
90.0
 51
117.278033
  0
LINE
  8
ボルト／ビス
  6
CONTINUOUS
 62
    64
 10
-113.423228
 20
-69.137453
 11
-113.102477
 21
-69.137453
  0
LINE
  8
ボルト／ビス
  6
CONTINUOUS
 62
    64
 10
-113.070403
 20
-69.149128
 11
-113.070403
 21
-69.270788
  0
LINE
  8
ボルト／ビス
  6
CONTINUOUS
 62
    64
 10
-113.166627
 20
-69.149128
 11
-113.166627
 21
-69.270788
  0
LINE
  8
ボルト／ビス
  6
CONTINUOUS
 62
    64
 10
-113.455303
 20
-69.149128
 11
-113.455303
 21
-69.270788
  0
LINE
  8
ボルト／ビス
  6
CONTINUOUS
 62
    64
 10
-113.359077
 20
-69.149128
 11
-113.359077
 21
-69.270788
  0
LINE
  8
ボルト／ビス
  6
CONTINUOUS
 10
-113.455303
 20
-69.270788
 11
-113.070403
 21
-69.270788
  0
LINE
  8
ボルト／ビス
  6
CONTINUOUS
 10
-113.462853
 20
-69.270788
 11
-113.462853
 21
-69.337453
  0
LINE
  8
ボルト／ビス
  6
CONTINUOUS
 10
-113.462853
 20
-69.270788
 11
-113.062853
 21
-69.270788
  0
LINE
  8
ボルト／ビス
  6
CONTINUOUS
 10
-113.062853
 20
-69.270788
 11
-113.062853
 21
-69.337453
  0
ENDBLK
  0
BLOCK
  2
*GRP_0016
 70
    65
 10
0.0
 20
0.0
  0
LINE
  8
型材断面
  6
DOT
 10
72.403498
 20
-62.60412
 11
72.353498
 21
-62.60412
  0
LINE
  8
型材断面
  6
DOT
 10
70.73683
 20
-62.10412
 11
70.73683
 21
-61.370788
  0
LINE
  8
型材断面
  6
DOT
 10
70.786525
 20
-63.087288
 11
72.233193
 21
-63.087288
  0
LINE
  8
型材断面
  6
DOT
 10
72.233193
 20
-63.537288
 11
72.233193
 21
-63.087288
  0
LINE
  8
型材断面
  6
DOT
 62
    47
 10
72.966525
 20
-66.20998
 11
73.016525
 21
-66.20998
  0
LINE
  8
型材断面
  6
DOT
 62
    47
 10
73.016525
 20
-66.20998
 11
73.016525
 21
-65.876645
  0
LINE
  8
型材断面
  6
DOT
 62
    47
 10
73.016525
 20
-65.876645
 11
72.233193
 21
-65.776645
  0
LINE
  8
型材断面
  6
DOT
 62
    47
 10
72.233193
 20
-65.37062
 11
72.233193
 21
-65.776645
  0
LINE
  8
型材断面
  6
DOT
 62
    47
 10
72.703192
 20
-65.37062
 11
72.703192
 21
-63.537288
  0
LINE
  8
型材断面
  6
DOT
 10
72.403498
 20
-62.60412
 11
72.403498
 21
-62.10412
  0
LINE
  8
型材断面
  6
DOT
 10
70.786525
 20
-63.087288
 11
70.786525
 21
-62.60412
  0
INSERT
  2
*GRP_0036
  8
型材断面
  6
DOT
 10
0.0
 20
0.0
  0
INSERT
  2
*GRP_0037
  8
型材断面
  6
DOT
 10
0.0
 20
0.0
  0
LINE
  8
型材断面
  6
DOT
 10
73.016525
 20
-66.20998
 11
-20.92983
 21
-66.20998
  0
LINE
  8
型材断面
  6
DOT
 10
73.016525
 20
-65.876645
 11
-20.92983
 21
-65.876645
  0
LINE
  8
型材断面
  6
DOT
 10
72.233193
 20
-65.776645
 11
-20.92983
 21
-65.776645
  0
LINE
  8
型材断面
  6
DOT
 10
72.703192
 20
-65.37062
 11
-20.92983
 21
-65.37062
  0
LINE
  8
型材断面
  6
DOT
 10
72.403498
 20
-62.60412
 11
-20.92983
 21
-62.60412
  0
LINE
  8
型材断面
  6
DOT
 10
70.73683
 20
-61.370788
 11
-20.92983
 21
-61.370788
  0
LINE
  8
型材断面
  6
DOT
 10
72.403498
 20
-62.10412
 11
-20.92983
 21
-62.10412
  0
LINE
  8
型材断面
  6
DOT
 10
72.233193
 20
-63.087288
 11
-20.92983
 21
-63.087288
  0
LINE
  8
型材断面
  6
DOT
 10
72.703192
 20
-63.537288
 11
-20.92983
 21
-63.537288
  0
LINE
  8
型材断面
  6
DOT
 10
-114.263158
 20
-62.60412
 11
-114.213158
 21
-62.60412
  0
LINE
  8
型材断面
  6
DOT
 10
-112.59649
 20
-62.10412
 11
-112.59649
 21
-61.370788
  0
LINE
  8
型材断面
  6
DOT
 10
-112.646185
 20
-63.087288
 11
-114.092853
 21
-63.087288
  0
LINE
  8
型材断面
  6
DOT
 10
-114.092853
 20
-63.537288
 11
-114.092853
 21
-63.087288
  0
LINE
  8
型材断面
  6
DOT
 62
    47
 10
-114.826185
 20
-66.20998
 11
-114.876185
 21
-66.20998
  0
LINE
  8
型材断面
  6
DOT
 62
    47
 10
-114.876185
 20
-66.20998
 11
-114.876185
 21
-65.876645
  0
LINE
  8
型材断面
  6
DOT
 62
    47
 10
-114.876185
 20
-65.876645
 11
-114.092853
 21
-65.776645
  0
LINE
  8
型材断面
  6
DOT
 62
    47
 10
-114.092853
 20
-65.37062
 11
-114.092853
 21
-65.776645
  0
LINE
  8
型材断面
  6
DOT
 62
    47
 10
-114.562853
 20
-65.37062
 11
-114.562853
 21
-63.537288
  0
LINE
  8
型材断面
  6
DOT
 10
-114.263158
 20
-62.60412
 11
-114.263158
 21
-62.10412
  0
LINE
  8
型材断面
  6
DOT
 10
-112.646185
 20
-63.087288
 11
-112.646185
 21
-62.60412
  0
INSERT
  2
*GRP_0038
  8
型材断面
  6
DOT
 10
0.0
 20
0.0
  0
INSERT
  2
*GRP_0039
  8
型材断面
  6
DOT
 10
0.0
 20
0.0
  0
LINE
  8
型材断面
  6
DOT
 10
-114.876185
 20
-66.20998
 11
-20.92983
 21
-66.20998
  0
LINE
  8
型材断面
  6
DOT
 10
-114.876185
 20
-65.876645
 11
-20.92983
 21
-65.876645
  0
LINE
  8
型材断面
  6
DOT
 10
-114.092853
 20
-65.776645
 11
-20.92983
 21
-65.776645
  0
LINE
  8
型材断面
  6
DOT
 10
-114.562853
 20
-65.37062
 11
-20.92983
 21
-65.37062
  0
LINE
  8
型材断面
  6
DOT
 10
-114.263158
 20
-62.60412
 11
-20.92983
 21
-62.60412
  0
LINE
  8
型材断面
  6
DOT
 10
-112.59649
 20
-61.370788
 11
-20.92983
 21
-61.370788
  0
LINE
  8
型材断面
  6
DOT
 10
-114.263158
 20
-62.10412
 11
-20.92983
 21
-62.10412
  0
LINE
  8
型材断面
  6
DOT
 10
-114.092853
 20
-63.087288
 11
-20.92983
 21
-63.087288
  0
LINE
  8
型材断面
  6
DOT
 10
-114.562853
 20
-63.537288
 11
-20.92983
 21
-63.537288
  0
ENDBLK
  0
BLOCK
  2
*GRP_0017
 70
    65
 10
0.0
 20
0.0
  0
LINE
  8
補助線
  6
BYBLOCK
 62
    64
 10
-109.189018
 20
-74.31009
 11
-109.337943
 21
-74.384915
  0
LINE
  8
補助線
  6
BYBLOCK
 62
    64
 10
-109.300893
 20
-74.273038
 11
-109.226068
 21
-74.421965
  0
LINE
  8
補助線
  6
BYBLOCK
 62
    64
 10
-99.270537
 20
-69.326732
 11
-99.419465
 21
-69.401558
  0
LINE
  8
補助線
  6
BYBLOCK
 62
    64
 10
-99.382415
 20
-69.28968
 11
-99.30759
 21
-69.438608
  0
LINE
  8
補助線
  6
BYBLOCK
 62
    64
 10
-89.500987
 20
-64.4182
 11
-89.35206
 21
-64.343375
  0
LINE
  8
補助線
  6
BYBLOCK
 62
    64
 10
-89.463937
 20
-64.306322
 11
-89.389113
 21
-64.45525
  0
LINE
  8
型材断面
  6
CONTINUOUS
 10
-109.935458
 20
-73.752525
 11
-110.15776
 21
-74.423777
  0
LINE
  8
型材断面
  6
CONTINUOUS
 10
-110.15776
 20
-74.423777
 11
-109.858457
 21
-75.019482
  0
LINE
  8
型材断面
  6
CONTINUOUS
 10
-109.858457
 20
-75.019482
 11
-109.187205
 21
-75.241785
  0
LINE
  8
型材断面
  6
CONTINUOUS
 10
-89.5028
 20
-63.486507
 11
-88.831545
 21
-63.70881
  0
LINE
  8
型材断面
  6
CONTINUOUS
 10
-88.831545
 20
-63.70881
 11
-88.532243
 21
-64.304515
  0
LINE
  8
型材断面
  6
CONTINUOUS
 10
-88.532243
 20
-64.304515
 11
-88.754547
 21
-64.975767
  0
LINE
  8
型材断面
  6
CONTINUOUS
 10
-109.935458
 20
-73.752525
 11
-89.5028
 21
-63.486507
  0
LINE
  8
型材断面
  6
CONTINUOUS
 10
-109.187205
 20
-75.241785
 11
-88.754547
 21
-64.975767
  0
CIRCLE
  8
ボルト／ビス
  6
CONTINUOUS
 10
-109.26348
 20
-74.347502
 40
0.250185
  0
CIRCLE
  8
ボルト／ビス
  6
CONTINUOUS
 10
-109.26348
 20
-74.347502
 40
0.301025
  0
LINE
  8
ボルト／ビス
  6
CONTINUOUS
 62
    64
 10
-109.513245
 20
-74.333
 11
-109.3758
 21
-74.12395
  0
LINE
  8
ボルト／ビス
  6
CONTINUOUS
 62
    64
 10
-109.126035
 20
-74.138453
 11
-109.3758
 21
-74.12395
  0
LINE
  8
ボルト／ビス
  6
CONTINUOUS
 62
    64
 10
-109.400925
 20
-74.556552
 11
-109.15116
 21
-74.571055
  0
LINE
  8
ボルト／ビス
  6
CONTINUOUS
 62
    64
 10
-109.013715
 20
-74.362005
 11
-109.15116
 21
-74.571055
  0
LINE
  8
ボルト／ビス
  6
CONTINUOUS
 62
    64
 10
-109.513245
 20
-74.333
 11
-109.400925
 21
-74.556552
  0
LINE
  8
ボルト／ビス
  6
CONTINUOUS
 62
    64
 10
-109.126035
 20
-74.138453
 11
-109.013715
 21
-74.362005
  0
CIRCLE
  8
ボルト／ビス
  6
CONTINUOUS
 62
    64
 10
-109.26348
 20
-74.347502
 40
0.216668
  0
CIRCLE
  8
ボルト／ビス
  6
CONTINUOUS
 10
-99.345003
 20
-69.364145
 40
0.250185
  0
CIRCLE
  8
ボルト／ビス
  6
CONTINUOUS
 10
-99.345003
 20
-69.364145
 40
0.301025
  0
LINE
  8
ボルト／ビス
  6
CONTINUOUS
 62
    64
 10
-99.594768
 20
-69.34964
 11
-99.457323
 21
-69.14059
  0
LINE
  8
ボルト／ビス
  6
CONTINUOUS
 62
    64
 10
-99.207557
 20
-69.155092
 11
-99.457323
 21
-69.14059
  0
LINE
  8
ボルト／ビス
  6
CONTINUOUS
 62
    64
 10
-99.482448
 20
-69.573195
 11
-99.23268
 21
-69.5877
  0
LINE
  8
ボルト／ビス
  6
CONTINUOUS
 62
    64
 10
-99.095237
 20
-69.37865
 11
-99.23268
 21
-69.5877
  0
LINE
  8
ボルト／ビス
  6
CONTINUOUS
 62
    64
 10
-99.594768
 20
-69.34964
 11
-99.482448
 21
-69.573195
  0
LINE
  8
ボルト／ビス
  6
CONTINUOUS
 62
    64
 10
-99.207557
 20
-69.155092
 11
-99.095237
 21
-69.37865
  0
CIRCLE
  8
ボルト／ビス
  6
CONTINUOUS
 62
    64
 10
-99.345003
 20
-69.364145
 40
0.216668
  0
CIRCLE
  8
ボルト／ビス
  6
CONTINUOUS
 10
-89.426525
 20
-64.380788
 40
0.250185
  0
CIRCLE
  8
ボルト／ビス
  6
CONTINUOUS
 10
-89.426525
 20
-64.380788
 40
0.301025
  0
LINE
  8
ボルト／ビス
  6
CONTINUOUS
 62
    64
 10
-89.28908
 20
-64.171738
 11
-89.538845
 21
-64.157235
  0
LINE
  8
ボルト／ビス
  6
CONTINUOUS
 62
    64
 10
-89.67629
 20
-64.366285
 11
-89.538845
 21
-64.157235
  0
LINE
  8
ボルト／ビス
  6
CONTINUOUS
 62
    64
 10
-89.17676
 20
-64.395292
 11
-89.314203
 21
-64.60434
  0
LINE
  8
ボルト／ビス
  6
CONTINUOUS
 62
    64
 10
-89.56397
 20
-64.589837
 11
-89.314203
 21
-64.60434
  0
LINE
  8
ボルト／ビス
  6
CONTINUOUS
 62
    64
 10
-89.28908
 20
-64.171738
 11
-89.17676
 21
-64.395292
  0
LINE
  8
ボルト／ビス
  6
CONTINUOUS
 62
    64
 10
-89.67629
 20
-64.366285
 11
-89.56397
 21
-64.589837
  0
CIRCLE
  8
ボルト／ビス
  6
CONTINUOUS
 62
    64
 10
-89.426525
 20
-64.380788
 40
0.216668
  0
ENDBLK
  0
BLOCK
  2
*GRP_0018
 70
    65
 10
0.0
 20
0.0
  0
LINE
  8
補助線
  6
BYBLOCK
 62
    64
 10
-89.500987
 20
-74.31009
 11
-89.352063
 21
-74.384915
  0
LINE
  8
補助線
  6
BYBLOCK
 62
    64
 10
-89.389113
 20
-74.273038
 11
-89.463937
 21
-74.421965
  0
LINE
  8
補助線
  6
BYBLOCK
 62
    64
 10
-99.419467
 20
-69.326732
 11
-99.27054
 21
-69.401558
  0
LINE
  8
補助線
  6
BYBLOCK
 62
    64
 10
-99.30759
 20
-69.28968
 11
-99.382415
 21
-69.438608
  0
LINE
  8
補助線
  6
BYBLOCK
 62
    64
 10
-109.189018
 20
-64.4182
 11
-109.337945
 21
-64.343375
  0
LINE
  8
補助線
  6
BYBLOCK
 62
    64
 10
-109.226068
 20
-64.306322
 11
-109.300893
 21
-64.45525
  0
LINE
  8
型材断面
  6
CONTINUOUS
 10
-88.754547
 20
-73.752525
 11
-88.532245
 21
-74.423777
  0
LINE
  8
型材断面
  6
CONTINUOUS
 10
-88.532245
 20
-74.423777
 11
-88.831548
 21
-75.019482
  0
LINE
  8
型材断面
  6
CONTINUOUS
 10
-88.831548
 20
-75.019482
 11
-89.5028
 21
-75.241785
  0
LINE
  8
型材断面
  6
CONTINUOUS
 10
-109.187205
 20
-63.486507
 11
-109.85846
 21
-63.70881
  0
LINE
  8
型材断面
  6
CONTINUOUS
 10
-109.85846
 20
-63.70881
 11
-110.157762
 21
-64.304515
  0
LINE
  8
型材断面
  6
CONTINUOUS
 10
-110.157762
 20
-64.304515
 11
-109.935458
 21
-64.975767
  0
LINE
  8
型材断面
  6
CONTINUOUS
 10
-88.754547
 20
-73.752525
 11
-109.187205
 21
-63.486507
  0
LINE
  8
型材断面
  6
CONTINUOUS
 10
-89.5028
 20
-75.241785
 11
-109.935458
 21
-64.975767
  0
CIRCLE
  8
ボルト／ビス
  6
CONTINUOUS
 10
-89.426525
 20
-74.347502
 40
0.250185
  0
CIRCLE
  8
ボルト／ビス
  6
CONTINUOUS
 10
-89.426525
 20
-74.347502
 40
0.301025
  0
LINE
  8
ボルト／ビス
  6
CONTINUOUS
 62
    64
 10
-89.17676
 20
-74.333
 11
-89.314205
 21
-74.12395
  0
LINE
  8
ボルト／ビス
  6
CONTINUOUS
 62
    64
 10
-89.56397
 20
-74.138453
 11
-89.314205
 21
-74.12395
  0
LINE
  8
ボルト／ビス
  6
CONTINUOUS
 62
    64
 10
-89.28908
 20
-74.556552
 11
-89.538845
 21
-74.571055
  0
LINE
  8
ボルト／ビス
  6
CONTINUOUS
 62
    64
 10
-89.67629
 20
-74.362005
 11
-89.538845
 21
-74.571055
  0
LINE
  8
ボルト／ビス
  6
CONTINUOUS
 62
    64
 10
-89.17676
 20
-74.333
 11
-89.28908
 21
-74.556552
  0
LINE
  8
ボルト／ビス
  6
CONTINUOUS
 62
    64
 10
-89.56397
 20
-74.138453
 11
-89.67629
 21
-74.362005
  0
CIRCLE
  8
ボルト／ビス
  6
CONTINUOUS
 62
    64
 10
-89.426525
 20
-74.347502
 40
0.216668
  0
CIRCLE
  8
ボルト／ビス
  6
CONTINUOUS
 10
-99.345003
 20
-69.364145
 40
0.250185
  0
CIRCLE
  8
ボルト／ビス
  6
CONTINUOUS
 10
-99.345003
 20
-69.364145
 40
0.301025
  0
LINE
  8
ボルト／ビス
  6
CONTINUOUS
 62
    64
 10
-99.095237
 20
-69.34964
 11
-99.232683
 21
-69.14059
  0
LINE
  8
ボルト／ビス
  6
CONTINUOUS
 62
    64
 10
-99.482448
 20
-69.155092
 11
-99.232683
 21
-69.14059
  0
LINE
  8
ボルト／ビス
  6
CONTINUOUS
 62
    64
 10
-99.207557
 20
-69.573195
 11
-99.457325
 21
-69.5877
  0
LINE
  8
ボルト／ビス
  6
CONTINUOUS
 62
    64
 10
-99.594768
 20
-69.37865
 11
-99.457325
 21
-69.5877
  0
LINE
  8
ボルト／ビス
  6
CONTINUOUS
 62
    64
 10
-99.095237
 20
-69.34964
 11
-99.207557
 21
-69.573195
  0
LINE
  8
ボルト／ビス
  6
CONTINUOUS
 62
    64
 10
-99.482448
 20
-69.155092
 11
-99.594768
 21
-69.37865
  0
CIRCLE
  8
ボルト／ビス
  6
CONTINUOUS
 62
    64
 10
-99.345003
 20
-69.364145
 40
0.216668
  0
CIRCLE
  8
ボルト／ビス
  6
CONTINUOUS
 10
-109.26348
 20
-64.380788
 40
0.250185
  0
CIRCLE
  8
ボルト／ビス
  6
CONTINUOUS
 10
-109.26348
 20
-64.380788
 40
0.301025
  0
LINE
  8
ボルト／ビス
  6
CONTINUOUS
 62
    64
 10
-109.400925
 20
-64.171738
 11
-109.15116
 21
-64.157235
  0
LINE
  8
ボルト／ビス
  6
CONTINUOUS
 62
    64
 10
-109.013715
 20
-64.366285
 11
-109.15116
 21
-64.157235
  0
LINE
  8
ボルト／ビス
  6
CONTINUOUS
 62
    64
 10
-109.513245
 20
-64.395292
 11
-109.375803
 21
-64.60434
  0
LINE
  8
ボルト／ビス
  6
CONTINUOUS
 62
    64
 10
-109.126035
 20
-64.589837
 11
-109.375803
 21
-64.60434
  0
LINE
  8
ボルト／ビス
  6
CONTINUOUS
 62
    64
 10
-109.400925
 20
-64.171738
 11
-109.513245
 21
-64.395292
  0
LINE
  8
ボルト／ビス
  6
CONTINUOUS
 62
    64
 10
-109.013715
 20
-64.366285
 11
-109.126035
 21
-64.589837
  0
CIRCLE
  8
ボルト／ビス
  6
CONTINUOUS
 62
    64
 10
-109.26348
 20
-64.380788
 40
0.216668
  0
ENDBLK
  0
BLOCK
  2
*GRP_0019
 70
    65
 10
0.0
 20
0.0
  0
LINE
  8
補助線
  6
BYBLOCK
 62
    64
 10
67.328728
 20
-74.31009
 11
67.477652
 21
-74.384915
  0
LINE
  8
補助線
  6
BYBLOCK
 62
    64
 10
67.440603
 20
-74.273038
 11
67.365777
 21
-74.421965
  0
LINE
  8
補助線
  6
BYBLOCK
 62
    64
 10
57.410247
 20
-69.326732
 11
57.559175
 21
-69.401558
  0
LINE
  8
補助線
  6
BYBLOCK
 62
    64
 10
57.522125
 20
-69.28968
 11
57.4473
 21
-69.438608
  0
LINE
  8
補助線
  6
BYBLOCK
 62
    64
 10
47.640697
 20
-64.4182
 11
47.49177
 21
-64.343375
  0
LINE
  8
補助線
  6
BYBLOCK
 62
    64
 10
47.603648
 20
-64.306322
 11
47.528823
 21
-64.45525
  0
LINE
  8
型材断面
  6
CONTINUOUS
 10
68.075167
 20
-73.752525
 11
68.29747
 21
-74.423777
  0
LINE
  8
型材断面
  6
CONTINUOUS
 10
68.29747
 20
-74.423777
 11
67.998168
 21
-75.019482
  0
LINE
  8
型材断面
  6
CONTINUOUS
 10
67.998168
 20
-75.019482
 11
67.326915
 21
-75.241785
  0
LINE
  8
型材断面
  6
CONTINUOUS
 10
47.64251
 20
-63.486507
 11
46.971255
 21
-63.70881
  0
LINE
  8
型材断面
  6
CONTINUOUS
 10
46.971255
 20
-63.70881
 11
46.671953
 21
-64.304515
  0
LINE
  8
型材断面
  6
CONTINUOUS
 10
46.671953
 20
-64.304515
 11
46.894257
 21
-64.975767
  0
LINE
  8
型材断面
  6
CONTINUOUS
 10
68.075167
 20
-73.752525
 11
47.64251
 21
-63.486507
  0
LINE
  8
型材断面
  6
CONTINUOUS
 10
67.326915
 20
-75.241785
 11
46.894257
 21
-64.975767
  0
CIRCLE
  8
ボルト／ビス
  6
CONTINUOUS
 10
67.40319
 20
-74.347502
 40
0.250185
  0
CIRCLE
  8
ボルト／ビス
  6
CONTINUOUS
 10
67.40319
 20
-74.347502
 40
0.301025
  0
LINE
  8
ボルト／ビス
  6
CONTINUOUS
 62
    64
 10
67.652955
 20
-74.333
 11
67.51551
 21
-74.12395
  0
LINE
  8
ボルト／ビス
  6
CONTINUOUS
 62
    64
 10
67.265745
 20
-74.138453
 11
67.51551
 21
-74.12395
  0
LINE
  8
ボルト／ビス
  6
CONTINUOUS
 62
    64
 10
67.540635
 20
-74.556552
 11
67.29087
 21
-74.571055
  0
LINE
  8
ボルト／ビス
  6
CONTINUOUS
 62
    64
 10
67.153425
 20
-74.362005
 11
67.29087
 21
-74.571055
  0
LINE
  8
ボルト／ビス
  6
CONTINUOUS
 62
    64
 10
67.652955
 20
-74.333
 11
67.540635
 21
-74.556552
  0
LINE
  8
ボルト／ビス
  6
CONTINUOUS
 62
    64
 10
67.265745
 20
-74.138453
 11
67.153425
 21
-74.362005
  0
CIRCLE
  8
ボルト／ビス
  6
CONTINUOUS
 62
    64
 10
67.40319
 20
-74.347502
 40
0.216668
  0
CIRCLE
  8
ボルト／ビス
  6
CONTINUOUS
 10
57.484713
 20
-69.364145
 40
0.250185
  0
CIRCLE
  8
ボルト／ビス
  6
CONTINUOUS
 10
57.484713
 20
-69.364145
 40
0.301025
  0
LINE
  8
ボルト／ビス
  6
CONTINUOUS
 62
    64
 10
57.734477
 20
-69.34964
 11
57.597033
 21
-69.14059
  0
LINE
  8
ボルト／ビス
  6
CONTINUOUS
 62
    64
 10
57.347268
 20
-69.155092
 11
57.597033
 21
-69.14059
  0
LINE
  8
ボルト／ビス
  6
CONTINUOUS
 62
    64
 10
57.622157
 20
-69.573195
 11
57.37239
 21
-69.5877
  0
LINE
  8
ボルト／ビス
  6
CONTINUOUS
 62
    64
 10
57.234948
 20
-69.37865
 11
57.37239
 21
-69.5877
  0
LINE
  8
ボルト／ビス
  6
CONTINUOUS
 62
    64
 10
57.734477
 20
-69.34964
 11
57.622157
 21
-69.573195
  0
LINE
  8
ボルト／ビス
  6
CONTINUOUS
 62
    64
 10
57.347268
 20
-69.155092
 11
57.234948
 21
-69.37865
  0
CIRCLE
  8
ボルト／ビス
  6
CONTINUOUS
 62
    64
 10
57.484713
 20
-69.364145
 40
0.216668
  0
CIRCLE
  8
ボルト／ビス
  6
CONTINUOUS
 10
47.566235
 20
-64.380788
 40
0.250185
  0
CIRCLE
  8
ボルト／ビス
  6
CONTINUOUS
 10
47.566235
 20
-64.380788
 40
0.301025
  0
LINE
  8
ボルト／ビス
  6
CONTINUOUS
 62
    64
 10
47.42879
 20
-64.171738
 11
47.678555
 21
-64.157235
  0
LINE
  8
ボルト／ビス
  6
CONTINUOUS
 62
    64
 10
47.816
 20
-64.366285
 11
47.678555
 21
-64.157235
  0
LINE
  8
ボルト／ビス
  6
CONTINUOUS
 62
    64
 10
47.31647
 20
-64.395292
 11
47.453912
 21
-64.60434
  0
LINE
  8
ボルト／ビス
  6
CONTINUOUS
 62
    64
 10
47.70368
 20
-64.589837
 11
47.453912
 21
-64.60434
  0
LINE
  8
ボルト／ビス
  6
CONTINUOUS
 62
    64
 10
47.42879
 20
-64.171738
 11
47.31647
 21
-64.395292
  0
LINE
  8
ボルト／ビス
  6
CONTINUOUS
 62
    64
 10
47.816
 20
-64.366285
 11
47.70368
 21
-64.589837
  0
CIRCLE
  8
ボルト／ビス
  6
CONTINUOUS
 62
    64
 10
47.566235
 20
-64.380788
 40
0.216668
  0
ENDBLK
  0
BLOCK
  2
*GRP_0020
 70
    65
 10
0.0
 20
0.0
  0
LINE
  8
補助線
  6
BYBLOCK
 62
    64
 10
47.640697
 20
-74.31009
 11
47.491772
 21
-74.384915
  0
LINE
  8
補助線
  6
BYBLOCK
 62
    64
 10
47.528823
 20
-74.273038
 11
47.603648
 21
-74.421965
  0
LINE
  8
補助線
  6
BYBLOCK
 62
    64
 10
57.559178
 20
-69.326732
 11
57.41025
 21
-69.401558
  0
LINE
  8
補助線
  6
BYBLOCK
 62
    64
 10
57.4473
 20
-69.28968
 11
57.522125
 21
-69.438608
  0
LINE
  8
補助線
  6
BYBLOCK
 62
    64
 10
67.328728
 20
-64.4182
 11
67.477655
 21
-64.343375
  0
LINE
  8
補助線
  6
BYBLOCK
 62
    64
 10
67.365777
 20
-64.306322
 11
67.440603
 21
-64.45525
  0
LINE
  8
型材断面
  6
CONTINUOUS
 10
46.894257
 20
-73.752525
 11
46.671955
 21
-74.423777
  0
LINE
  8
型材断面
  6
CONTINUOUS
 10
46.671955
 20
-74.423777
 11
46.971257
 21
-75.019482
  0
LINE
  8
型材断面
  6
CONTINUOUS
 10
46.971257
 20
-75.019482
 11
47.64251
 21
-75.241785
  0
LINE
  8
型材断面
  6
CONTINUOUS
 10
67.326915
 20
-63.486507
 11
67.99817
 21
-63.70881
  0
LINE
  8
型材断面
  6
CONTINUOUS
 10
67.99817
 20
-63.70881
 11
68.297472
 21
-64.304515
  0
LINE
  8
型材断面
  6
CONTINUOUS
 10
68.297472
 20
-64.304515
 11
68.075167
 21
-64.975767
  0
LINE
  8
型材断面
  6
CONTINUOUS
 10
46.894257
 20
-73.752525
 11
67.326915
 21
-63.486507
  0
LINE
  8
型材断面
  6
CONTINUOUS
 10
47.64251
 20
-75.241785
 11
68.075167
 21
-64.975767
  0
CIRCLE
  8
ボルト／ビス
  6
CONTINUOUS
 10
47.566235
 20
-74.347502
 40
0.250185
  0
CIRCLE
  8
ボルト／ビス
  6
CONTINUOUS
 10
47.566235
 20
-74.347502
 40
0.301025
  0
LINE
  8
ボルト／ビス
  6
CONTINUOUS
 62
    64
 10
47.31647
 20
-74.333
 11
47.453915
 21
-74.12395
  0
LINE
  8
ボルト／ビス
  6
CONTINUOUS
 62
    64
 10
47.70368
 20
-74.138453
 11
47.453915
 21
-74.12395
  0
LINE
  8
ボルト／ビス
  6
CONTINUOUS
 62
    64
 10
47.42879
 20
-74.556552
 11
47.678555
 21
-74.571055
  0
LINE
  8
ボルト／ビス
  6
CONTINUOUS
 62
    64
 10
47.816
 20
-74.362005
 11
47.678555
 21
-74.571055
  0
LINE
  8
ボルト／ビス
  6
CONTINUOUS
 62
    64
 10
47.31647
 20
-74.333
 11
47.42879
 21
-74.556552
  0
LINE
  8
ボルト／ビス
  6
CONTINUOUS
 62
    64
 10
47.70368
 20
-74.138453
 11
47.816
 21
-74.362005
  0
CIRCLE
  8
ボルト／ビス
  6
CONTINUOUS
 62
    64
 10
47.566235
 20
-74.347502
 40
0.216668
  0
CIRCLE
  8
ボルト／ビス
  6
CONTINUOUS
 10
57.484713
 20
-69.364145
 40
0.250185
  0
CIRCLE
  8
ボルト／ビス
  6
CONTINUOUS
 10
57.484713
 20
-69.364145
 40
0.301025
  0
LINE
  8
ボルト／ビス
  6
CONTINUOUS
 62
    64
 10
57.234948
 20
-69.34964
 11
57.372393
 21
-69.14059
  0
LINE
  8
ボルト／ビス
  6
CONTINUOUS
 62
    64
 10
57.622157
 20
-69.155092
 11
57.372393
 21
-69.14059
  0
LINE
  8
ボルト／ビス
  6
CONTINUOUS
 62
    64
 10
57.347268
 20
-69.573195
 11
57.597035
 21
-69.5877
  0
LINE
  8
ボルト／ビス
  6
CONTINUOUS
 62
    64
 10
57.734477
 20
-69.37865
 11
57.597035
 21
-69.5877
  0
LINE
  8
ボルト／ビス
  6
CONTINUOUS
 62
    64
 10
57.234948
 20
-69.34964
 11
57.347268
 21
-69.573195
  0
LINE
  8
ボルト／ビス
  6
CONTINUOUS
 62
    64
 10
57.622157
 20
-69.155092
 11
57.734477
 21
-69.37865
  0
CIRCLE
  8
ボルト／ビス
  6
CONTINUOUS
 62
    64
 10
57.484713
 20
-69.364145
 40
0.216668
  0
CIRCLE
  8
ボルト／ビス
  6
CONTINUOUS
 10
67.40319
 20
-64.380788
 40
0.250185
  0
CIRCLE
  8
ボルト／ビス
  6
CONTINUOUS
 10
67.40319
 20
-64.380788
 40
0.301025
  0
LINE
  8
ボルト／ビス
  6
CONTINUOUS
 62
    64
 10
67.540635
 20
-64.171738
 11
67.29087
 21
-64.157235
  0
LINE
  8
ボルト／ビス
  6
CONTINUOUS
 62
    64
 10
67.153425
 20
-64.366285
 11
67.29087
 21
-64.157235
  0
LINE
  8
ボルト／ビス
  6
CONTINUOUS
 62
    64
 10
67.652955
 20
-64.395292
 11
67.515512
 21
-64.60434
  0
LINE
  8
ボルト／ビス
  6
CONTINUOUS
 62
    64
 10
67.265745
 20
-64.589837
 11
67.515512
 21
-64.60434
  0
LINE
  8
ボルト／ビス
  6
CONTINUOUS
 62
    64
 10
67.540635
 20
-64.171738
 11
67.652955
 21
-64.395292
  0
LINE
  8
ボルト／ビス
  6
CONTINUOUS
 62
    64
 10
67.153425
 20
-64.366285
 11
67.265745
 21
-64.589837
  0
CIRCLE
  8
ボルト／ビス
  6
CONTINUOUS
 62
    64
 10
67.40319
 20
-64.380788
 40
0.216668
  0
ENDBLK
  0
BLOCK
  2
*GRP_0021
 70
    65
 10
0.0
 20
0.0
  0
LINE
  8
補助線
  6
BYBLOCK
 62
    64
 10
-11.08613
 20
-74.31009
 11
-10.937205
 21
-74.384915
  0
LINE
  8
補助線
  6
BYBLOCK
 62
    64
 10
-10.974255
 20
-74.273038
 11
-11.04908
 21
-74.421965
  0
LINE
  8
補助線
  6
BYBLOCK
 62
    64
 10
-21.00461
 20
-69.326732
 11
-20.855682
 21
-69.401558
  0
LINE
  8
補助線
  6
BYBLOCK
 62
    64
 10
-20.892732
 20
-69.28968
 11
-20.967558
 21
-69.438608
  0
LINE
  8
補助線
  6
BYBLOCK
 62
    64
 10
-30.77416
 20
-64.4182
 11
-30.923088
 21
-64.343375
  0
LINE
  8
補助線
  6
BYBLOCK
 62
    64
 10
-30.81121
 20
-64.306322
 11
-30.886035
 21
-64.45525
  0
LINE
  8
型材断面
  6
CONTINUOUS
 10
-10.33969
 20
-73.752525
 11
-10.117388
 21
-74.423777
  0
LINE
  8
型材断面
  6
CONTINUOUS
 10
-10.117388
 20
-74.423777
 11
-10.41669
 21
-75.019482
  0
LINE
  8
型材断面
  6
CONTINUOUS
 10
-10.41669
 20
-75.019482
 11
-11.087943
 21
-75.241785
  0
LINE
  8
型材断面
  6
CONTINUOUS
 10
-30.772347
 20
-63.486507
 11
-31.443602
 21
-63.70881
  0
LINE
  8
型材断面
  6
CONTINUOUS
 10
-31.443602
 20
-63.70881
 11
-31.742905
 21
-64.304515
  0
LINE
  8
型材断面
  6
CONTINUOUS
 10
-31.742905
 20
-64.304515
 11
-31.5206
 21
-64.975767
  0
LINE
  8
型材断面
  6
CONTINUOUS
 10
-10.33969
 20
-73.752525
 11
-30.772347
 21
-63.486507
  0
LINE
  8
型材断面
  6
CONTINUOUS
 10
-11.087943
 20
-75.241785
 11
-31.5206
 21
-64.975767
  0
CIRCLE
  8
ボルト／ビス
  6
CONTINUOUS
 10
-11.011668
 20
-74.347502
 40
0.250185
  0
CIRCLE
  8
ボルト／ビス
  6
CONTINUOUS
 10
-11.011668
 20
-74.347502
 40
0.301025
  0
LINE
  8
ボルト／ビス
  6
CONTINUOUS
 62
    64
 10
-10.761902
 20
-74.333
 11
-10.899348
 21
-74.12395
  0
LINE
  8
ボルト／ビス
  6
CONTINUOUS
 62
    64
 10
-11.149112
 20
-74.138453
 11
-10.899348
 21
-74.12395
  0
LINE
  8
ボルト／ビス
  6
CONTINUOUS
 62
    64
 10
-10.874222
 20
-74.556552
 11
-11.123988
 21
-74.571055
  0
LINE
  8
ボルト／ビス
  6
CONTINUOUS
 62
    64
 10
-11.261432
 20
-74.362005
 11
-11.123988
 21
-74.571055
  0
LINE
  8
ボルト／ビス
  6
CONTINUOUS
 62
    64
 10
-10.761902
 20
-74.333
 11
-10.874222
 21
-74.556552
  0
LINE
  8
ボルト／ビス
  6
CONTINUOUS
 62
    64
 10
-11.149112
 20
-74.138453
 11
-11.261432
 21
-74.362005
  0
CIRCLE
  8
ボルト／ビス
  6
CONTINUOUS
 62
    64
 10
-11.011668
 20
-74.347502
 40
0.216668
  0
CIRCLE
  8
ボルト／ビス
  6
CONTINUOUS
 10
-20.930145
 20
-69.364145
 40
0.250185
  0
CIRCLE
  8
ボルト／ビス
  6
CONTINUOUS
 10
-20.930145
 20
-69.364145
 40
0.301025
  0
LINE
  8
ボルト／ビス
  6
CONTINUOUS
 62
    64
 10
-20.68038
 20
-69.34964
 11
-20.817825
 21
-69.14059
  0
LINE
  8
ボルト／ビス
  6
CONTINUOUS
 62
    64
 10
-21.06759
 20
-69.155092
 11
-20.817825
 21
-69.14059
  0
LINE
  8
ボルト／ビス
  6
CONTINUOUS
 62
    64
 10
-20.7927
 20
-69.573195
 11
-21.042468
 21
-69.5877
  0
LINE
  8
ボルト／ビス
  6
CONTINUOUS
 62
    64
 10
-21.17991
 20
-69.37865
 11
-21.042468
 21
-69.5877
  0
LINE
  8
ボルト／ビス
  6
CONTINUOUS
 62
    64
 10
-20.68038
 20
-69.34964
 11
-20.7927
 21
-69.573195
  0
LINE
  8
ボルト／ビス
  6
CONTINUOUS
 62
    64
 10
-21.06759
 20
-69.155092
 11
-21.17991
 21
-69.37865
  0
CIRCLE
  8
ボルト／ビス
  6
CONTINUOUS
 62
    64
 10
-20.930145
 20
-69.364145
 40
0.216668
  0
CIRCLE
  8
ボルト／ビス
  6
CONTINUOUS
 10
-30.848622
 20
-64.380788
 40
0.250185
  0
CIRCLE
  8
ボルト／ビス
  6
CONTINUOUS
 10
-30.848622
 20
-64.380788
 40
0.301025
  0
LINE
  8
ボルト／ビス
  6
CONTINUOUS
 62
    64
 10
-30.986067
 20
-64.171738
 11
-30.736302
 21
-64.157235
  0
LINE
  8
ボルト／ビス
  6
CONTINUOUS
 62
    64
 10
-30.598858
 20
-64.366285
 11
-30.736302
 21
-64.157235
  0
LINE
  8
ボルト／ビス
  6
CONTINUOUS
 62
    64
 10
-31.098387
 20
-64.395292
 11
-30.960945
 21
-64.60434
  0
LINE
  8
ボルト／ビス
  6
CONTINUOUS
 62
    64
 10
-30.711178
 20
-64.589837
 11
-30.960945
 21
-64.60434
  0
LINE
  8
ボルト／ビス
  6
CONTINUOUS
 62
    64
 10
-30.986067
 20
-64.171738
 11
-31.098387
 21
-64.395292
  0
LINE
  8
ボルト／ビス
  6
CONTINUOUS
 62
    64
 10
-30.598858
 20
-64.366285
 11
-30.711178
 21
-64.589837
  0
CIRCLE
  8
ボルト／ビス
  6
CONTINUOUS
 62
    64
 10
-30.848622
 20
-64.380788
 40
0.216668
  0
ENDBLK
  0
BLOCK
  2
*GRP_0022
 70
    65
 10
0.0
 20
0.0
  0
LINE
  8
補助線
  6
BYBLOCK
 62
    64
 10
-30.77416
 20
-74.31009
 11
-30.923085
 21
-74.384915
  0
LINE
  8
補助線
  6
BYBLOCK
 62
    64
 10
-30.886035
 20
-74.273038
 11
-30.81121
 21
-74.421965
  0
LINE
  8
補助線
  6
BYBLOCK
 62
    64
 10
-20.85568
 20
-69.326732
 11
-21.004608
 21
-69.401558
  0
LINE
  8
補助線
  6
BYBLOCK
 62
    64
 10
-20.967558
 20
-69.28968
 11
-20.892732
 21
-69.438608
  0
LINE
  8
補助線
  6
BYBLOCK
 62
    64
 10
-11.08613
 20
-64.4182
 11
-10.937202
 21
-64.343375
  0
LINE
  8
補助線
  6
BYBLOCK
 62
    64
 10
-11.04908
 20
-64.306322
 11
-10.974255
 21
-64.45525
  0
LINE
  8
型材断面
  6
CONTINUOUS
 10
-31.5206
 20
-73.752525
 11
-31.742903
 21
-74.423777
  0
LINE
  8
型材断面
  6
CONTINUOUS
 10
-31.742903
 20
-74.423777
 11
-31.4436
 21
-75.019482
  0
LINE
  8
型材断面
  6
CONTINUOUS
 10
-31.4436
 20
-75.019482
 11
-30.772347
 21
-75.241785
  0
LINE
  8
型材断面
  6
CONTINUOUS
 10
-11.087943
 20
-63.486507
 11
-10.416687
 21
-63.70881
  0
LINE
  8
型材断面
  6
CONTINUOUS
 10
-10.416687
 20
-63.70881
 11
-10.117385
 21
-64.304515
  0
LINE
  8
型材断面
  6
CONTINUOUS
 10
-10.117385
 20
-64.304515
 11
-10.33969
 21
-64.975767
  0
LINE
  8
型材断面
  6
CONTINUOUS
 10
-31.5206
 20
-73.752525
 11
-11.087943
 21
-63.486507
  0
LINE
  8
型材断面
  6
CONTINUOUS
 10
-30.772347
 20
-75.241785
 11
-10.33969
 21
-64.975767
  0
CIRCLE
  8
ボルト／ビス
  6
CONTINUOUS
 10
-30.848622
 20
-74.347502
 40
0.250185
  0
CIRCLE
  8
ボルト／ビス
  6
CONTINUOUS
 10
-30.848622
 20
-74.347502
 40
0.301025
  0
LINE
  8
ボルト／ビス
  6
CONTINUOUS
 62
    64
 10
-31.098387
 20
-74.333
 11
-30.960942
 21
-74.12395
  0
LINE
  8
ボルト／ビス
  6
CONTINUOUS
 62
    64
 10
-30.711178
 20
-74.138453
 11
-30.960942
 21
-74.12395
  0
LINE
  8
ボルト／ビス
  6
CONTINUOUS
 62
    64
 10
-30.986067
 20
-74.556552
 11
-30.736302
 21
-74.571055
  0
LINE
  8
ボルト／ビス
  6
CONTINUOUS
 62
    64
 10
-30.598858
 20
-74.362005
 11
-30.736302
 21
-74.571055
  0
LINE
  8
ボルト／ビス
  6
CONTINUOUS
 62
    64
 10
-31.098387
 20
-74.333
 11
-30.986067
 21
-74.556552
  0
LINE
  8
ボルト／ビス
  6
CONTINUOUS
 62
    64
 10
-30.711178
 20
-74.138453
 11
-30.598858
 21
-74.362005
  0
CIRCLE
  8
ボルト／ビス
  6
CONTINUOUS
 62
    64
 10
-30.848622
 20
-74.347502
 40
0.216668
  0
CIRCLE
  8
ボルト／ビス
  6
CONTINUOUS
 10
-20.930145
 20
-69.364145
 40
0.250185
  0
CIRCLE
  8
ボルト／ビス
  6
CONTINUOUS
 10
-20.930145
 20
-69.364145
 40
0.301025
  0
LINE
  8
ボルト／ビス
  6
CONTINUOUS
 62
    64
 10
-21.17991
 20
-69.34964
 11
-21.042465
 21
-69.14059
  0
LINE
  8
ボルト／ビス
  6
CONTINUOUS
 62
    64
 10
-20.7927
 20
-69.155092
 11
-21.042465
 21
-69.14059
  0
LINE
  8
ボルト／ビス
  6
CONTINUOUS
 62
    64
 10
-21.06759
 20
-69.573195
 11
-20.817822
 21
-69.5877
  0
LINE
  8
ボルト／ビス
  6
CONTINUOUS
 62
    64
 10
-20.68038
 20
-69.37865
 11
-20.817822
 21
-69.5877
  0
LINE
  8
ボルト／ビス
  6
CONTINUOUS
 62
    64
 10
-21.17991
 20
-69.34964
 11
-21.06759
 21
-69.573195
  0
LINE
  8
ボルト／ビス
  6
CONTINUOUS
 62
    64
 10
-20.7927
 20
-69.155092
 11
-20.68038
 21
-69.37865
  0
CIRCLE
  8
ボルト／ビス
  6
CONTINUOUS
 62
    64
 10
-20.930145
 20
-69.364145
 40
0.216668
  0
CIRCLE
  8
ボルト／ビス
  6
CONTINUOUS
 10
-11.011668
 20
-64.380788
 40
0.250185
  0
CIRCLE
  8
ボルト／ビス
  6
CONTINUOUS
 10
-11.011668
 20
-64.380788
 40
0.301025
  0
LINE
  8
ボルト／ビス
  6
CONTINUOUS
 62
    64
 10
-10.874222
 20
-64.171738
 11
-11.123988
 21
-64.157235
  0
LINE
  8
ボルト／ビス
  6
CONTINUOUS
 62
    64
 10
-11.261432
 20
-64.366285
 11
-11.123988
 21
-64.157235
  0
LINE
  8
ボルト／ビス
  6
CONTINUOUS
 62
    64
 10
-10.761902
 20
-64.395292
 11
-10.899345
 21
-64.60434
  0
LINE
  8
ボルト／ビス
  6
CONTINUOUS
 62
    64
 10
-11.149112
 20
-64.589837
 11
-10.899345
 21
-64.60434
  0
LINE
  8
ボルト／ビス
  6
CONTINUOUS
 62
    64
 10
-10.874222
 20
-64.171738
 11
-10.761902
 21
-64.395292
  0
LINE
  8
ボルト／ビス
  6
CONTINUOUS
 62
    64
 10
-11.261432
 20
-64.366285
 11
-11.149112
 21
-64.589837
  0
CIRCLE
  8
ボルト／ビス
  6
CONTINUOUS
 62
    64
 10
-11.011668
 20
-64.380788
 40
0.216668
  0
ENDBLK
  0
BLOCK
  2
*DIM_0023
 70
    65
 10
0.0
 20
0.0
  0
LINE
  8
寸法
  6
CONTINUOUS
 10
75.73683
 20
-68.70412
 11
94.355302
 21
-68.70412
  0
LINE
  8
寸法
  6
CONTINUOUS
 10
77.703192
 20
-76.17062
 11
94.355302
 21
-76.17062
  0
LINE
  8
寸法
  6
CONTINUOUS
 10
94.355302
 20
-68.70412
 11
94.355302
 21
-76.17062
  0
POINT
  8
寸法
 10
94.355302
 20
-68.70412
  0
POINT
  8
寸法
 10
94.355302
 20
-76.17062
  0
TEXT
  7
TextStyle03
  8
寸法
  6
CONTINUOUS
 10
93.95
 20
-74.8875
  1
224
 40
3.0
 50
90.0
 72
     5
 11
93.95
 21
-70.0125
  0
ENDBLK
  0
BLOCK
  2
*DIM_0024
 70
    65
 10
0.0
 20
0.0
  0
LINE
  8
寸法
  6
BYBLOCK
 62
     0
 10
-95.929828
 20
36.573195
 11
-95.929828
 21
31.27482
  0
LINE
  8
寸法
  6
BYBLOCK
 62
     0
 10
-20.92983
 20
36.573198
 11
-20.92983
 21
31.27482
  0
LINE
  8
寸法
  6
BYBLOCK
 62
     0
 10
-95.929828
 20
31.27482
 11
-20.92983
 21
31.27482
  0
POINT
  8
寸法
 62
     0
 10
-95.929828
 20
31.27482
  0
POINT
  8
寸法
 62
     0
 10
-20.92983
 20
31.27482
  0
TEXT
  7
TextStyle03
  8
寸法
  6
CONTINUOUS
 62
     0
 10
-61.73125
 20
31.625
  1
2250
 40
3.0
 72
     5
 11
-55.16875
 21
31.625
  0
ENDBLK
  0
BLOCK
  2
*DIM_0025
 70
    65
 10
0.0
 20
0.0
  0
LINE
  8
寸法
  6
BYBLOCK
 62
     0
 10
54.070168
 20
36.573195
 11
54.070168
 21
31.27482
  0
LINE
  8
寸法
  6
BYBLOCK
 62
     0
 10
-20.92983
 20
31.27482
 11
54.070168
 21
31.27482
  0
POINT
  8
寸法
 62
     0
 10
54.070168
 20
31.27482
  0
TEXT
  7
TextStyle03
  8
寸法
  6
CONTINUOUS
 62
     0
 10
13.26875
 20
31.625
  1
2250
 40
3.0
 72
     5
 11
19.83125
 21
31.625
  0
ENDBLK
  0
BLOCK
  2
*DIM_0026
 70
    65
 10
0.0
 20
0.0
  0
LINE
  8
寸法
  6
BYBLOCK
 62
     0
 10
74.366965
 20
56.303325
 11
81.144257
 21
56.303325
  0
LINE
  8
寸法
  6
BYBLOCK
 62
     0
 10
81.144257
 20
60.203325
 11
81.144257
 21
56.303325
  0
POINT
  8
寸法
 62
     0
 10
81.144257
 20
60.203325
  0
POINT
  8
寸法
 62
     0
 10
81.144257
 20
56.303325
  0
TEXT
  7
TextStyle03
  8
寸法
  6
CONTINUOUS
 62
     0
 10
80.875
 20
60.8625
  1
117
 40
3.0
 50
90.0
 72
     5
 11
80.875
 21
65.7375
  0
ENDBLK
  0
BLOCK
  2
*DIM_0027
 70
    65
 10
0.0
 20
0.0
  0
LINE
  8
寸法
  6
BYBLOCK
 62
     0
 10
74.366965
 20
44.103325
 11
81.144257
 21
44.103325
  0
LINE
  8
寸法
  6
BYBLOCK
 62
     0
 10
81.144257
 20
40.203325
 11
81.144257
 21
44.103325
  0
POINT
  8
寸法
 62
     0
 10
81.144257
 20
40.203325
  0
POINT
  8
寸法
 62
     0
 10
81.144257
 20
44.103325
  0
TEXT
  7
TextStyle03
  8
寸法
  6
CONTINUOUS
 62
     0
 10
81.05
 20
34.3875
  1
117
 40
3.0
 50
90.0
 72
     5
 11
81.05
 21
39.2625
  0
ENDBLK
  0
BLOCK
  2
*DIM_0028
 70
    65
 10
0.0
 20
0.0
  0
LINE
  8
寸法
  6
BYBLOCK
 62
     0
 10
-115.596495
 20
56.869993
 11
-128.889332
 21
56.869993
  0
LINE
  8
寸法
  6
BYBLOCK
 62
     0
 10
-115.596495
 20
43.536658
 11
-128.889332
 21
43.536658
  0
LINE
  8
寸法
  6
BYBLOCK
 62
     0
 10
-128.889332
 20
56.869993
 11
-128.889332
 21
43.536658
  0
POINT
  8
寸法
 62
     0
 10
-128.889332
 20
56.869993
  0
POINT
  8
寸法
 62
     0
 10
-128.889332
 20
43.536658
  0
TEXT
  7
TextStyle03
  8
寸法
  6
CONTINUOUS
 62
     0
 10
-129.225
 20
47.7375
  1
400
 40
3.0
 50
90.0
 72
     5
 11
-129.225
 21
52.6125
  0
ENDBLK
  0
BLOCK
  2
*DIM_0029
 70
    65
 10
0.0
 20
0.0
  0
LINE
  8
寸法
  6
BYBLOCK
 62
     0
 10
-100.92983
 20
63.203325
 11
-100.92983
 21
92.311398
  0
LINE
  8
寸法
  6
BYBLOCK
 62
     0
 10
-74.263162
 20
63.203325
 11
-74.263162
 21
92.311398
  0
LINE
  8
寸法
  6
BYBLOCK
 62
     0
 10
-100.92983
 20
92.311398
 11
-74.263162
 21
92.311398
  0
POINT
  8
寸法
 62
     0
 10
-100.92983
 20
92.311398
  0
POINT
  8
寸法
 62
     0
 10
-74.263162
 20
92.311398
  0
TEXT
  7
TextStyle03
  8
寸法
  6
CONTINUOUS
 62
     0
 10
-90.0375
 20
92.675
  1
800
 40
3.0
 72
     5
 11
-85.1625
 21
92.675
  0
ENDBLK
  0
BLOCK
  2
*DIM_0030
 70
    65
 10
0.0
 20
0.0
  0
LINE
  8
寸法
  6
BYBLOCK
 62
     0
 10
-47.596497
 20
63.203325
 11
-47.596497
 21
92.311398
  0
LINE
  8
寸法
  6
BYBLOCK
 62
     0
 10
-74.263162
 20
92.311398
 11
-47.596497
 21
92.311398
  0
POINT
  8
寸法
 62
     0
 10
-47.596497
 20
92.311398
  0
TEXT
  7
TextStyle03
  8
寸法
  6
CONTINUOUS
 62
     0
 10
-63.3625
 20
92.675
  1
800
 40
3.0
 72
     5
 11
-58.4875
 21
92.675
  0
ENDBLK
  0
BLOCK
  2
*DIM_0031
 70
    65
 10
0.0
 20
0.0
  0
LINE
  8
寸法
  6
BYBLOCK
 62
     0
 10
-20.92983
 20
63.203325
 11
-20.92983
 21
92.311398
  0
LINE
  8
寸法
  6
BYBLOCK
 62
     0
 10
-47.596497
 20
92.311398
 11
-20.92983
 21
92.311398
  0
POINT
  8
寸法
 62
     0
 10
-20.92983
 20
92.311398
  0
TEXT
  7
TextStyle03
  8
寸法
  6
CONTINUOUS
 62
     0
 10
-36.6875
 20
92.675
  1
800
 40
3.0
 72
     5
 11
-31.8125
 21
92.675
  0
ENDBLK
  0
BLOCK
  2
*DIM_0032
 70
    65
 10
0.0
 20
0.0
  0
LINE
  8
寸法
  6
BYBLOCK
 62
     0
 10
5.736838
 20
63.203325
 11
5.736838
 21
92.311398
  0
LINE
  8
寸法
  6
BYBLOCK
 62
     0
 10
-20.92983
 20
92.311398
 11
5.736838
 21
92.311398
  0
POINT
  8
寸法
 62
     0
 10
5.736838
 20
92.311398
  0
TEXT
  7
TextStyle03
  8
寸法
  6
CONTINUOUS
 62
     0
 10
-10.0375
 20
92.675
  1
800
 40
3.0
 72
     5
 11
-5.1625
 21
92.675
  0
ENDBLK
  0
BLOCK
  2
*DIM_0033
 70
    65
 10
0.0
 20
0.0
  0
LINE
  8
寸法
  6
BYBLOCK
 62
     0
 10
32.403502
 20
63.203325
 11
32.403502
 21
92.311398
  0
LINE
  8
寸法
  6
BYBLOCK
 62
     0
 10
5.736838
 20
92.311398
 11
32.403502
 21
92.311398
  0
POINT
  8
寸法
 62
     0
 10
32.403502
 20
92.311398
  0
TEXT
  7
TextStyle03
  8
寸法
  6
CONTINUOUS
 62
     0
 10
16.6375
 20
92.675
  1
800
 40
3.0
 72
     5
 11
21.5125
 21
92.675
  0
ENDBLK
  0
BLOCK
  2
*DIM_0034
 70
    65
 10
0.0
 20
0.0
  0
LINE
  8
寸法
  6
BYBLOCK
 62
     0
 10
59.07017
 20
63.203325
 11
59.07017
 21
92.311398
  0
LINE
  8
寸法
  6
BYBLOCK
 62
     0
 10
32.403502
 20
92.311398
 11
59.07017
 21
92.311398
  0
POINT
  8
寸法
 62
     0
 10
59.07017
 20
92.311398
  0
TEXT
  7
TextStyle03
  8
寸法
  6
CONTINUOUS
 62
     0
 10
43.3125
 20
92.675
  1
800
 40
3.0
 72
     5
 11
48.1875
 21
92.675
  0
ENDBLK
  0
BLOCK
  2
*DIM_0035
 70
    65
 10
0.0
 20
0.0
  0
LINE
  8
寸法
  6
CONTINUOUS
 10
75.73683
 20
-68.70412
 11
94.355302
 21
-68.70412
  0
LINE
  8
寸法
  6
CONTINUOUS
 10
75.73683
 20
-61.370788
 11
94.355302
 21
-61.370788
  0
LINE
  8
寸法
  6
CONTINUOUS
 10
94.355302
 20
-68.70412
 11
94.355302
 21
-61.370788
  0
POINT
  8
寸法
 10
94.355302
 20
-68.70412
  0
POINT
  8
寸法
 10
94.355302
 20
-61.370788
  0
TEXT
  7
TextStyle03
  8
寸法
  6
CONTINUOUS
 10
97.325
 20
-74.14375
  1
上昇210以上
 40
3.0
 50
90.0
 72
     5
 11
97.325
 21
-55.95625
  0
ENDBLK
  0
BLOCK
  2
*GRP_0036
 70
    65
 10
0.0
 20
0.0
  0
INSERT
  2
M8横
  8
ゴム等
  6
DOT
 10
71.56319
 20
-62.963955
 50
180.0
 41
0.033333
 42
-0.033333
  0
LINE
  8
ボルト／ビス
  6
DOT
 10
71.429858
 20
-62.753955
 11
71.446522
 21
-62.73729
  0
LINE
  8
ボルト／ビス
  6
DOT
 10
71.679858
 20
-62.73729
 11
71.696522
 21
-62.753955
  0
LINE
  8
ボルト／ビス
  6
DOT
 10
71.696522
 20
-62.753955
 11
71.429858
 21
-62.753955
  0
LINE
  8
ボルト／ビス
  6
DOT
 10
71.679858
 20
-62.73729
 11
71.446522
 21
-62.73729
  0
LINE
  8
ボルト／ビス
  6
DOT
 10
71.446522
 20
-62.73729
 11
71.446522
 21
-62.78062
  0
LINE
  8
ボルト／ビス
  6
DOT
 10
71.429858
 20
-62.753955
 11
71.429858
 21
-62.78062
  0
LINE
  8
ボルト／ビス
  6
DOT
 10
71.696522
 20
-62.753955
 11
71.696522
 21
-62.78062
  0
LINE
  8
ボルト／ビス
  6
DOT
 10
71.679858
 20
-62.73729
 11
71.679858
 21
-62.78062
  0
LINE
  8
ボルト／ビス
  6
DOT
 10
71.929858
 20
-62.963955
 11
71.196522
 21
-62.963955
  0
LINE
  8
ボルト／ビス
  6
DOT
 10
71.146522
 20
-63.003955
 11
71.146522
 21
-63.087288
  0
LINE
  8
ボルト／ビス
  6
DOT
 10
71.146522
 20
-63.087288
 11
71.979858
 21
-63.087288
  0
LINE
  8
ボルト／ビス
  6
DOT
 10
71.979858
 20
-63.087288
 11
71.979858
 21
-63.003955
  0
LINE
  8
ボルト／ビス
  6
DOT
 10
71.146522
 20
-63.003955
 11
71.979858
 21
-63.003955
  0
LINE
  8
ボルト／ビス
  6
DOT
 10
71.929858
 20
-62.963955
 11
71.929858
 21
-63.003955
  0
LINE
  8
ボルト／ビス
  6
DOT
 10
71.196522
 20
-62.963955
 11
71.196522
 21
-63.003955
  0
LINE
  8
ボルト／ビス
  6
DOT
 10
71.56319
 20
-63.013955
 11
71.56319
 21
-62.963955
  0
ENDBLK
  0
BLOCK
  2
*GRP_0037
 70
    65
 10
0.0
 20
0.0
  0
LINE
  8
ボルト／ビス
  6
DOT
 10
71.769858
 20
-62.10412
 11
71.769858
 21
-62.037455
  0
LINE
  8
ボルト／ビス
  6
DOT
 10
71.769858
 20
-62.037455
 11
71.036525
 21
-62.037455
  0
LINE
  8
ボルト／ビス
  6
DOT
 10
71.036525
 20
-62.037455
 11
71.036525
 21
-62.10412
  0
LINE
  8
ボルト／ビス
  6
DOT
 10
71.769858
 20
-62.10412
 11
71.036525
 21
-62.10412
  0
LINE
  8
ボルト／ビス
  6
DOT
 10
71.703192
 20
-62.00412
 11
71.703192
 21
-62.037455
  0
LINE
  8
ボルト／ビス
  6
DOT
 10
71.703192
 20
-62.00412
 11
71.103192
 21
-62.00412
  0
LINE
  8
ボルト／ビス
  6
DOT
 10
71.103192
 20
-62.00412
 11
71.103192
 21
-62.037455
  0
LINE
  8
ボルト／ビス
  6
DOT
 62
    64
 10
71.563567
 20
-61.80412
 11
71.595643
 21
-61.815795
  0
ARC
  8
ボルト／ビス
  6
DOT
 62
    64
 10
71.547528
 20
-61.909097
 40
0.104978
 50
90.0
 51
117.278033
  0
ARC
  8
ボルト／ビス
  6
DOT
 62
    64
 10
71.40319
 20
-62.206521
 40
0.402402
 50
76.165015
 51
103.834998
  0
LINE
  8
ボルト／ビス
  6
DOT
 62
    64
 10
71.242817
 20
-61.80412
 11
71.210743
 21
-61.815795
  0
ARC
  8
ボルト／ビス
  6
DOT
 62
    64
 10
71.258853
 20
-61.909097
 40
0.104978
 50
62.721967
 51
90.0
  0
LINE
  8
ボルト／ビス
  6
DOT
 62
    64
 10
71.563567
 20
-61.80412
 11
71.242817
 21
-61.80412
  0
LINE
  8
ボルト／ビス
  6
DOT
 62
    64
 10
71.210743
 20
-61.815795
 11
71.210743
 21
-61.937455
  0
LINE
  8
ボルト／ビス
  6
DOT
 62
    64
 10
71.306968
 20
-61.815795
 11
71.306968
 21
-61.937455
  0
LINE
  8
ボルト／ビス
  6
DOT
 62
    64
 10
71.595643
 20
-61.815795
 11
71.595643
 21
-61.937455
  0
LINE
  8
ボルト／ビス
  6
DOT
 62
    64
 10
71.499417
 20
-61.815795
 11
71.499417
 21
-61.937455
  0
LINE
  8
ボルト／ビス
  6
DOT
 10
71.595643
 20
-61.937455
 11
71.210743
 21
-61.937455
  0
LINE
  8
ボルト／ビス
  6
DOT
 10
71.603192
 20
-61.937455
 11
71.603192
 21
-62.00412
  0
LINE
  8
ボルト／ビス
  6
DOT
 10
71.603192
 20
-61.937455
 11
71.203192
 21
-61.937455
  0
LINE
  8
ボルト／ビス
  6
DOT
 10
71.203192
 20
-61.937455
 11
71.203192
 21
-62.00412
  0
ENDBLK
  0
BLOCK
  2
*GRP_0038
 70
    65
 10
0.0
 20
0.0
  0
INSERT
  2
M8横
  8
ゴム等
  6
DOT
 10
-113.42285
 20
-62.963955
 41
0.033333
 42
0.033333
  0
LINE
  8
ボルト／ビス
  6
DOT
 10
-113.289517
 20
-62.753955
 11
-113.306182
 21
-62.73729
  0
LINE
  8
ボルト／ビス
  6
DOT
 10
-113.539517
 20
-62.73729
 11
-113.556182
 21
-62.753955
  0
LINE
  8
ボルト／ビス
  6
DOT
 10
-113.556182
 20
-62.753955
 11
-113.289517
 21
-62.753955
  0
LINE
  8
ボルト／ビス
  6
DOT
 10
-113.539517
 20
-62.73729
 11
-113.306182
 21
-62.73729
  0
LINE
  8
ボルト／ビス
  6
DOT
 10
-113.306182
 20
-62.73729
 11
-113.306182
 21
-62.78062
  0
LINE
  8
ボルト／ビス
  6
DOT
 10
-113.289517
 20
-62.753955
 11
-113.289517
 21
-62.78062
  0
LINE
  8
ボルト／ビス
  6
DOT
 10
-113.556182
 20
-62.753955
 11
-113.556182
 21
-62.78062
  0
LINE
  8
ボルト／ビス
  6
DOT
 10
-113.539517
 20
-62.73729
 11
-113.539517
 21
-62.78062
  0
LINE
  8
ボルト／ビス
  6
DOT
 10
-113.789517
 20
-62.963955
 11
-113.056182
 21
-62.963955
  0
LINE
  8
ボルト／ビス
  6
DOT
 10
-113.006182
 20
-63.003955
 11
-113.006182
 21
-63.087288
  0
LINE
  8
ボルト／ビス
  6
DOT
 10
-113.006182
 20
-63.087288
 11
-113.839517
 21
-63.087288
  0
LINE
  8
ボルト／ビス
  6
DOT
 10
-113.839517
 20
-63.087288
 11
-113.839517
 21
-63.003955
  0
LINE
  8
ボルト／ビス
  6
DOT
 10
-113.006182
 20
-63.003955
 11
-113.839517
 21
-63.003955
  0
LINE
  8
ボルト／ビス
  6
DOT
 10
-113.789517
 20
-62.963955
 11
-113.789517
 21
-63.003955
  0
LINE
  8
ボルト／ビス
  6
DOT
 10
-113.056182
 20
-62.963955
 11
-113.056182
 21
-63.003955
  0
LINE
  8
ボルト／ビス
  6
DOT
 10
-113.42285
 20
-63.013955
 11
-113.42285
 21
-62.963955
  0
ENDBLK
  0
BLOCK
  2
*GRP_0039
 70
    65
 10
0.0
 20
0.0
  0
LINE
  8
ボルト／ビス
  6
DOT
 10
-113.629518
 20
-62.10412
 11
-113.629518
 21
-62.037455
  0
LINE
  8
ボルト／ビス
  6
DOT
 10
-113.629518
 20
-62.037455
 11
-112.896185
 21
-62.037455
  0
LINE
  8
ボルト／ビス
  6
DOT
 10
-112.896185
 20
-62.037455
 11
-112.896185
 21
-62.10412
  0
LINE
  8
ボルト／ビス
  6
DOT
 10
-113.629518
 20
-62.10412
 11
-112.896185
 21
-62.10412
  0
LINE
  8
ボルト／ビス
  6
DOT
 10
-113.562853
 20
-62.00412
 11
-113.562853
 21
-62.037455
  0
LINE
  8
ボルト／ビス
  6
DOT
 10
-113.562853
 20
-62.00412
 11
-112.962853
 21
-62.00412
  0
LINE
  8
ボルト／ビス
  6
DOT
 10
-112.962853
 20
-62.00412
 11
-112.962853
 21
-62.037455
  0
LINE
  8
ボルト／ビス
  6
DOT
 62
    64
 10
-113.423228
 20
-61.80412
 11
-113.455303
 21
-61.815795
  0
ARC
  8
ボルト／ビス
  6
DOT
 62
    64
 10
-113.407191
 20
-61.909097
 40
0.104978
 50
62.721967
 51
90.0
  0
ARC
  8
ボルト／ビス
  6
DOT
 62
    64
 10
-113.262854
 20
-62.206521
 40
0.402402
 50
76.165002
 51
103.834985
  0
LINE
  8
ボルト／ビス
  6
DOT
 62
    64
 10
-113.102477
 20
-61.80412
 11
-113.070403
 21
-61.815795
  0
ARC
  8
ボルト／ビス
  6
DOT
 62
    64
 10
-113.118516
 20
-61.909097
 40
0.104978
 50
90.0
 51
117.278033
  0
LINE
  8
ボルト／ビス
  6
DOT
 62
    64
 10
-113.423228
 20
-61.80412
 11
-113.102477
 21
-61.80412
  0
LINE
  8
ボルト／ビス
  6
DOT
 62
    64
 10
-113.070403
 20
-61.815795
 11
-113.070403
 21
-61.937455
  0
LINE
  8
ボルト／ビス
  6
DOT
 62
    64
 10
-113.166627
 20
-61.815795
 11
-113.166627
 21
-61.937455
  0
LINE
  8
ボルト／ビス
  6
DOT
 62
    64
 10
-113.455303
 20
-61.815795
 11
-113.455303
 21
-61.937455
  0
LINE
  8
ボルト／ビス
  6
DOT
 62
    64
 10
-113.359077
 20
-61.815795
 11
-113.359077
 21
-61.937455
  0
LINE
  8
ボルト／ビス
  6
DOT
 10
-113.455303
 20
-61.937455
 11
-113.070403
 21
-61.937455
  0
LINE
  8
ボルト／ビス
  6
DOT
 10
-113.462853
 20
-61.937455
 11
-113.462853
 21
-62.00412
  0
LINE
  8
ボルト／ビス
  6
DOT
 10
-113.462853
 20
-61.937455
 11
-113.062853
 21
-61.937455
  0
LINE
  8
ボルト／ビス
  6
DOT
 10
-113.062853
 20
-61.937455
 11
-113.062853
 21
-62.00412
  0
ENDBLK
  0
BLOCK
  2
*DIM_0040
 70
    65
 10
0.0
 20
0.0
  0
LINE
  8
寸法
  6
CONTINUOUS
 10
73.016525
 20
-68.209977
 11
73.016525
 21
-32.437345
  0
LINE
  8
寸法
  6
CONTINUOUS
 10
70.73683
 20
-32.437345
 11
73.016525
 21
-32.437345
  0
POINT
  8
寸法
 10
70.73683
 20
-32.437345
  0
POINT
  8
寸法
 10
73.016525
 20
-32.437345
  0
TEXT
  7
TextStyle03
  8
寸法
  6
CONTINUOUS
 10
75.34375
 20
-32.075
  1
68.4
 40
3.0
 72
     5
 11
81.90625
 21
-32.075
  0
ENDBLK
  0
BLOCK
  2
*DIM_0041
 70
    65
 10
0.0
 20
0.0
  0
LINE
  8
寸法
  6
CONTINUOUS
 10
-114.876185
 20
-68.209977
 11
-114.876185
 21
-32.437345
  0
LINE
  8
寸法
  6
CONTINUOUS
 10
-112.59649
 20
-32.437345
 11
-114.876185
 21
-32.437345
  0
POINT
  8
寸法
 10
-112.59649
 20
-32.437345
  0
POINT
  8
寸法
 10
-114.876185
 20
-32.437345
  0
TEXT
  7
TextStyle03
  8
寸法
  6
CONTINUOUS
 10
-123.78125
 20
-32.075
  1
68.4
 40
3.0
 72
     5
 11
-117.21875
 21
-32.075
  0
ENDBLK
  0
BLOCK
  2
*DIM_0042
 70
    65
 10
0.0
 20
0.0
  0
LINE
  8
寸法
  6
CONTINUOUS
 10
70.73683
 20
-32.437345
 11
-112.59649
 21
-32.437345
  0
POINT
  8
寸法
 10
70.73683
 20
-32.437345
  0
POINT
  8
寸法
 10
-112.59649
 20
-32.437345
  0
TEXT
  7
TextStyle03
  8
寸法
  6
CONTINUOUS
 10
-32.66875
 20
-32.075
  1
呼称寸法　5500
 40
3.0
 72
     5
 11
-9.23125
 21
-32.075
  0
ENDBLK
  0
BLOCK
  2
M8横
 70
    64
 10
-88.370132
 20
140.837665
  0
LINE
  8
ボルト／ビス
 10
-95.870132
 20
140.837665
 11
-80.870132
 21
140.837665
  0
LINE
  8
ボルト／ビス
 10
-80.870132
 20
145.837665
 11
-81.370132
 21
146.337665
  0
POLYLINE
  8
ボルト／ビス
 66
     1
  0
VERTEX
  8
ボルト／ビス
 10
-84.120132
 20
146.337665
  0
VERTEX
  8
ボルト／ビス
 10
-84.620132
 20
145.837665
  0
VERTEX
  8
ボルト／ビス
 10
-85.120132
 20
146.337665
  0
SEQEND
  0
POLYLINE
  8
ボルト／ビス
 66
     1
  0
VERTEX
  8
ボルト／ビス
 10
-91.620132
 20
146.337665
  0
VERTEX
  8
ボルト／ビス
 10
-92.120132
 20
145.837665
  0
VERTEX
  8
ボルト／ビス
 10
-92.620132
 20
146.337665
  0
SEQEND
  0
LINE
  8
ボルト／ビス
 10
-95.370132
 20
146.337665
 11
-95.870132
 21
145.837665
  0
LINE
  8
ボルト／ビス
 10
-95.870132
 20
140.837665
 11
-95.870132
 21
145.837665
  0
LINE
  8
ボルト／ビス
 10
-80.870132
 20
140.837665
 11
-80.870132
 21
145.837665
  0
LINE
  8
ボルト／ビス
 10
-95.370132
 20
146.337665
 11
-81.370132
 21
146.337665
  0
LINE
  8
ボルト／ビス
 10
-84.620132
 20
140.837665
 11
-84.620132
 21
145.837665
  0
LINE
  8
ボルト／ビス
 10
-92.120132
 20
140.837665
 11
-92.120132
 21
145.837665
  0
ENDBLK
  0
ENDSEC
  0
SECTION
  2
ENTITIES
  0
POLYLINE
  8
通り芯
  6
CONTINUOUS
 66
     1
 70
     1
  0
VERTEX
  8
通り芯
 10
-210.0
 20
-148.5
  0
VERTEX
  8
通り芯
 10
210.0
 20
-148.5
  0
VERTEX
  8
通り芯
 10
210.0
 20
148.5
  0
VERTEX
  8
通り芯
 10
-210.0
 20
148.5
  0
SEQEND
  0
INSERT
  2
*GRP_0001
  8
型材断面
  6
CONTINUOUS
 10
0.0
 20
0.0
  0
LINE
  8
型材断面
  6
CONTINUOUS
 10
162.97617
 20
61.869993
 11
162.97617
 21
61.819993
  0
LINE
  8
型材断面
  6
CONTINUOUS
 10
162.47617
 20
60.203325
 11
161.742835
 21
60.203325
  0
LINE
  8
型材断面
  6
CONTINUOUS
 62
    47
 10
169.709335
 20
61.60302
 11
169.709335
 21
61.55302
  0
LINE
  8
型材断面
  6
CONTINUOUS
 62
    47
 10
169.709335
 20
61.60302
 11
169.209335
 21
61.60302
  0
LINE
  8
型材断面
  6
CONTINUOUS
 10
163.459335
 20
60.25302
 11
163.459335
 21
61.699688
  0
LINE
  8
型材断面
  6
CONTINUOUS
 10
163.909335
 20
61.699688
 11
163.459335
 21
61.699688
  0
LINE
  8
型材断面
  6
CONTINUOUS
 62
    47
 10
166.582028
 20
62.43302
 11
166.582028
 21
62.48302
  0
LINE
  8
型材断面
  6
CONTINUOUS
 62
    47
 10
166.582028
 20
62.48302
 11
166.248695
 21
62.48302
  0
LINE
  8
型材断面
  6
CONTINUOUS
 62
    47
 10
166.248695
 20
62.48302
 11
166.148695
 21
61.699688
  0
LINE
  8
型材断面
  6
CONTINUOUS
 62
    47
 10
165.74267
 20
61.699688
 11
166.148695
 21
61.699688
  0
LINE
  8
型材断面
  6
CONTINUOUS
 62
    47
 10
165.74267
 20
62.169687
 11
163.909335
 21
62.169687
  0
LINE
  8
型材断面
  6
CONTINUOUS
 10
162.97617
 20
61.869993
 11
162.47617
 21
61.869993
  0
LINE
  8
型材断面
  6
CONTINUOUS
 10
163.459335
 20
60.25302
 11
162.97617
 21
60.25302
  0
LINE
  8
型材断面
  6
CONTINUOUS
 62
    47
 10
169.209335
 20
62.169687
 11
166.582028
 21
62.169687
  0
INSERT
  2
*GRP_0002
  8
型材断面
  6
DOT
 10
0.0
 20
0.0
  0
INSERT
  2
*GRP_0003
  8
型材断面
  6
DOT
 10
0.0
 20
0.0
  0
LINE
  8
型材断面
  6
CONTINUOUS
 10
169.209335
 20
62.169687
 11
169.209335
 21
50.203325
  0
LINE
  8
型材断面
  6
CONTINUOUS
 10
169.709335
 20
61.60302
 11
169.709335
 21
50.203325
  0
LINE
  8
型材断面
  6
CONTINUOUS
 10
166.582028
 20
62.48302
 11
166.582028
 21
50.203325
  0
LINE
  8
型材断面
  6
CONTINUOUS
 10
166.248695
 20
62.48302
 11
166.248695
 21
50.203325
  0
LINE
  8
型材断面
  6
CONTINUOUS
 10
166.148695
 20
61.699688
 11
166.148695
 21
50.203325
  0
LINE
  8
型材断面
  6
CONTINUOUS
 10
165.74267
 20
62.169687
 11
165.74267
 21
50.203325
  0
LINE
  8
型材断面
  6
CONTINUOUS
 10
162.97617
 20
61.869993
 11
162.97617
 21
50.203325
  0
LINE
  8
型材断面
  6
CONTINUOUS
 10
161.742835
 20
60.203325
 11
161.742835
 21
50.203325
  0
LINE
  8
型材断面
  6
CONTINUOUS
 10
162.47617
 20
61.869993
 11
162.47617
 21
50.203325
  0
LINE
  8
型材断面
  6
CONTINUOUS
 10
163.459335
 20
61.699688
 11
163.459335
 21
50.203325
  0
LINE
  8
型材断面
  6
CONTINUOUS
 10
163.909335
 20
62.169687
 11
163.909335
 21
50.203325
  0
LINE
  8
型材断面
  6
CONTINUOUS
 10
162.97617
 20
38.53666
 11
162.97617
 21
38.58666
  0
LINE
  8
型材断面
  6
CONTINUOUS
 10
162.47617
 20
40.203325
 11
161.742835
 21
40.203325
  0
LINE
  8
型材断面
  6
CONTINUOUS
 62
    47
 10
169.709335
 20
38.80363
 11
169.709335
 21
38.85363
  0
LINE
  8
型材断面
  6
CONTINUOUS
 62
    47
 10
169.709335
 20
38.80363
 11
169.209335
 21
38.80363
  0
LINE
  8
型材断面
  6
CONTINUOUS
 10
163.459335
 20
40.15363
 11
163.459335
 21
38.706965
  0
LINE
  8
型材断面
  6
CONTINUOUS
 10
163.909335
 20
38.706965
 11
163.459335
 21
38.706965
  0
LINE
  8
型材断面
  6
CONTINUOUS
 62
    47
 10
166.582028
 20
37.97363
 11
166.582028
 21
37.92363
  0
LINE
  8
型材断面
  6
CONTINUOUS
 62
    47
 10
166.582028
 20
37.92363
 11
166.248695
 21
37.92363
  0
LINE
  8
型材断面
  6
CONTINUOUS
 62
    47
 10
166.248695
 20
37.92363
 11
166.148695
 21
38.706965
  0
LINE
  8
型材断面
  6
CONTINUOUS
 62
    47
 10
165.74267
 20
38.706965
 11
166.148695
 21
38.706965
  0
LINE
  8
型材断面
  6
CONTINUOUS
 62
    47
 10
165.74267
 20
38.236965
 11
163.909335
 21
38.236965
  0
LINE
  8
型材断面
  6
CONTINUOUS
 10
162.97617
 20
38.53666
 11
162.47617
 21
38.53666
  0
LINE
  8
型材断面
  6
CONTINUOUS
 10
163.459335
 20
40.15363
 11
162.97617
 21
40.15363
  0
LINE
  8
型材断面
  6
CONTINUOUS
 62
    47
 10
169.209335
 20
38.236965
 11
166.582028
 21
38.236965
  0
INSERT
  2
*GRP_0004
  8
型材断面
  6
DOT
 10
0.0
 20
0.0
  0
INSERT
  2
*GRP_0005
  8
型材断面
  6
DOT
 10
0.0
 20
0.0
  0
LINE
  8
型材断面
  6
CONTINUOUS
 10
169.209335
 20
38.236965
 11
169.209335
 21
50.203325
  0
LINE
  8
型材断面
  6
CONTINUOUS
 10
169.709335
 20
38.80363
 11
169.709335
 21
50.203325
  0
LINE
  8
型材断面
  6
CONTINUOUS
 10
166.582028
 20
37.92363
 11
166.582028
 21
50.203325
  0
LINE
  8
型材断面
  6
CONTINUOUS
 10
166.248695
 20
37.92363
 11
166.248695
 21
50.203325
  0
LINE
  8
型材断面
  6
CONTINUOUS
 10
166.148695
 20
38.706965
 11
166.148695
 21
50.203325
  0
LINE
  8
型材断面
  6
CONTINUOUS
 10
165.74267
 20
38.236965
 11
165.74267
 21
50.203325
  0
LINE
  8
型材断面
  6
CONTINUOUS
 10
162.97617
 20
38.53666
 11
162.97617
 21
50.203325
  0
LINE
  8
型材断面
  6
CONTINUOUS
 10
161.742835
 20
40.203325
 11
161.742835
 21
50.203325
  0
LINE
  8
型材断面
  6
CONTINUOUS
 10
162.47617
 20
38.53666
 11
162.47617
 21
50.203325
  0
LINE
  8
型材断面
  6
CONTINUOUS
 10
163.459335
 20
38.706965
 11
163.459335
 21
50.203325
  0
LINE
  8
型材断面
  6
CONTINUOUS
 10
163.909335
 20
38.236965
 11
163.909335
 21
50.203325
  0
LINE
  8
型材断面
  6
CONTINUOUS
 10
117.792655
 20
-27.86894
 11
138.646417
 21
-27.86894
  0
LINE
  8
型材断面
  6
DASHDOT
 10
-20.92983
 20
-79.253555
 11
-20.92983
 21
60.203325
  0
LINE
  8
型材断面
  6
CONTINUOUS
 10
72.403498
 20
-69.937453
 11
72.353498
 21
-69.937453
  0
LINE
  8
型材断面
  6
CONTINUOUS
 10
70.73683
 20
-69.437453
 11
70.73683
 21
-68.70412
  0
LINE
  8
型材断面
  6
CONTINUOUS
 62
    47
 10
72.136525
 20
-76.67062
 11
72.086525
 21
-76.67062
  0
LINE
  8
型材断面
  6
CONTINUOUS
 62
    47
 10
72.136525
 20
-76.67062
 11
72.136525
 21
-76.17062
  0
LINE
  8
型材断面
  6
CONTINUOUS
 10
70.786525
 20
-70.42062
 11
72.233193
 21
-70.42062
  0
LINE
  8
型材断面
  6
CONTINUOUS
 10
72.233193
 20
-70.87062
 11
72.233193
 21
-70.42062
  0
LINE
  8
型材断面
  6
CONTINUOUS
 62
    47
 10
72.966525
 20
-73.543312
 11
73.016525
 21
-73.543312
  0
LINE
  8
型材断面
  6
CONTINUOUS
 62
    47
 10
73.016525
 20
-73.543312
 11
73.016525
 21
-73.209977
  0
LINE
  8
型材断面
  6
CONTINUOUS
 62
    47
 10
73.016525
 20
-73.209977
 11
72.233193
 21
-73.109977
  0
LINE
  8
型材断面
  6
CONTINUOUS
 62
    47
 10
72.233193
 20
-72.703953
 11
72.233193
 21
-73.109977
  0
LINE
  8
型材断面
  6
CONTINUOUS
 62
    47
 10
72.703192
 20
-72.703953
 11
72.703192
 21
-70.87062
  0
LINE
  8
型材断面
  6
CONTINUOUS
 10
72.403498
 20
-69.937453
 11
72.403498
 21
-69.437453
  0
LINE
  8
型材断面
  6
CONTINUOUS
 10
70.786525
 20
-70.42062
 11
70.786525
 21
-69.937453
  0
LINE
  8
型材断面
  6
CONTINUOUS
 62
    47
 10
72.703192
 20
-76.17062
 11
72.703192
 21
-73.543312
  0
INSERT
  2
*GRP_0012
  8
型材断面
  6
DOT
 10
0.0
 20
0.0
  0
INSERT
  2
*GRP_0013
  8
型材断面
  6
DOT
 10
0.0
 20
0.0
  0
LINE
  8
型材断面
  6
CONTINUOUS
 10
72.703192
 20
-76.17062
 11
-20.92983
 21
-76.17062
  0
LINE
  8
型材断面
  6
CONTINUOUS
 10
72.136525
 20
-76.67062
 11
-20.92983
 21
-76.67062
  0
LINE
  8
型材断面
  6
CONTINUOUS
 10
73.016525
 20
-73.543312
 11
-20.92983
 21
-73.543312
  0
LINE
  8
型材断面
  6
CONTINUOUS
 10
73.016525
 20
-73.209977
 11
-20.92983
 21
-73.209977
  0
LINE
  8
型材断面
  6
CONTINUOUS
 10
72.233193
 20
-73.109977
 11
-20.92983
 21
-73.109977
  0
LINE
  8
型材断面
  6
CONTINUOUS
 10
72.703192
 20
-72.703953
 11
-20.92983
 21
-72.703953
  0
LINE
  8
型材断面
  6
CONTINUOUS
 10
72.403498
 20
-69.937453
 11
-20.92983
 21
-69.937453
  0
LINE
  8
型材断面
  6
CONTINUOUS
 10
70.73683
 20
-68.70412
 11
-20.92983
 21
-68.70412
  0
LINE
  8
型材断面
  6
CONTINUOUS
 10
72.403498
 20
-69.437453
 11
-20.92983
 21
-69.437453
  0
LINE
  8
型材断面
  6
CONTINUOUS
 10
72.233193
 20
-70.42062
 11
-20.92983
 21
-70.42062
  0
LINE
  8
型材断面
  6
CONTINUOUS
 10
72.703192
 20
-70.87062
 11
-20.92983
 21
-70.87062
  0
LINE
  8
型材断面
  6
CONTINUOUS
 10
70.73683
 20
40.203325
 11
70.73683
 21
60.203325
  0
LINE
  8
型材断面
  6
CONTINUOUS
 10
72.703192
 20
38.236962
 11
72.703192
 21
62.169687
  0
LINE
  8
型材断面
  6
CONTINUOUS
 10
73.016525
 20
37.92363
 11
73.016525
 21
62.48302
  0
LINE
  8
型材断面
  6
CONTINUOUS
 10
72.403498
 20
38.536658
 11
72.403498
 21
61.869993
  0
LINE
  8
型材断面
  6
CONTINUOUS
 10
69.903498
 20
41.036658
 11
73.016525
 21
37.92363
  0
LINE
  8
型材断面
  6
CONTINUOUS
 10
69.903498
 20
59.369993
 11
73.016525
 21
62.48302
  0
LINE
  8
型材断面
  6
CONTINUOUS
 10
69.903498
 20
50.619993
 11
70.73683
 21
50.619993
  0
LINE
  8
型材断面
  6
CONTINUOUS
 10
69.903498
 20
49.786658
 11
70.73683
 21
49.786658
  0
LINE
  8
型材断面
  6
CONTINUOUS
 10
69.903498
 20
41.036658
 11
69.903498
 21
49.786658
  0
LINE
  8
型材断面
  6
CONTINUOUS
 10
69.903498
 20
50.619993
 11
69.903498
 21
59.369993
  0
LINE
  8
型材断面
  6
DASHDOT
 10
70.73683
 20
-79.253555
 11
70.73683
 21
40.203325
  0
LINE
  8
型材断面
  6
CONTINUOUS
 10
-114.263158
 20
-69.937453
 11
-114.213158
 21
-69.937453
  0
LINE
  8
型材断面
  6
CONTINUOUS
 10
-112.59649
 20
-69.437453
 11
-112.59649
 21
-68.70412
  0
LINE
  8
型材断面
  6
CONTINUOUS
 62
    47
 10
-113.996185
 20
-76.67062
 11
-113.946185
 21
-76.67062
  0
LINE
  8
型材断面
  6
CONTINUOUS
 62
    47
 10
-113.996185
 20
-76.67062
 11
-113.996185
 21
-76.17062
  0
LINE
  8
型材断面
  6
CONTINUOUS
 10
-112.646185
 20
-70.42062
 11
-114.092853
 21
-70.42062
  0
LINE
  8
型材断面
  6
CONTINUOUS
 10
-114.092853
 20
-70.87062
 11
-114.092853
 21
-70.42062
  0
LINE
  8
型材断面
  6
CONTINUOUS
 62
    47
 10
-114.826185
 20
-73.543312
 11
-114.876185
 21
-73.543312
  0
LINE
  8
型材断面
  6
CONTINUOUS
 62
    47
 10
-114.876185
 20
-73.543312
 11
-114.876185
 21
-73.209977
  0
LINE
  8
型材断面
  6
CONTINUOUS
 62
    47
 10
-114.876185
 20
-73.209977
 11
-114.092853
 21
-73.109977
  0
LINE
  8
型材断面
  6
CONTINUOUS
 62
    47
 10
-114.092853
 20
-72.703953
 11
-114.092853
 21
-73.109977
  0
LINE
  8
型材断面
  6
CONTINUOUS
 62
    47
 10
-114.562853
 20
-72.703953
 11
-114.562853
 21
-70.87062
  0
LINE
  8
型材断面
  6
CONTINUOUS
 10
-114.263158
 20
-69.937453
 11
-114.263158
 21
-69.437453
  0
LINE
  8
型材断面
  6
CONTINUOUS
 10
-112.646185
 20
-70.42062
 11
-112.646185
 21
-69.937453
  0
LINE
  8
型材断面
  6
CONTINUOUS
 62
    47
 10
-114.562853
 20
-76.17062
 11
-114.562853
 21
-73.543312
  0
INSERT
  2
*GRP_0014
  8
型材断面
  6
DOT
 10
0.0
 20
0.0
  0
INSERT
  2
*GRP_0015
  8
型材断面
  6
DOT
 10
0.0
 20
0.0
  0
LINE
  8
型材断面
  6
CONTINUOUS
 10
-114.562853
 20
-76.17062
 11
-20.92983
 21
-76.17062
  0
LINE
  8
型材断面
  6
CONTINUOUS
 10
-113.996185
 20
-76.67062
 11
-20.92983
 21
-76.67062
  0
LINE
  8
型材断面
  6
CONTINUOUS
 10
-114.876185
 20
-73.543312
 11
-20.92983
 21
-73.543312
  0
LINE
  8
型材断面
  6
CONTINUOUS
 10
-114.876185
 20
-73.209977
 11
-20.92983
 21
-73.209977
  0
LINE
  8
型材断面
  6
CONTINUOUS
 10
-114.092853
 20
-73.109977
 11
-20.92983
 21
-73.109977
  0
LINE
  8
型材断面
  6
CONTINUOUS
 10
-114.562853
 20
-72.703953
 11
-20.92983
 21
-72.703953
  0
LINE
  8
型材断面
  6
CONTINUOUS
 10
-114.263158
 20
-69.937453
 11
-20.92983
 21
-69.937453
  0
LINE
  8
型材断面
  6
CONTINUOUS
 10
-112.59649
 20
-68.70412
 11
-20.92983
 21
-68.70412
  0
LINE
  8
型材断面
  6
CONTINUOUS
 10
-114.263158
 20
-69.437453
 11
-20.92983
 21
-69.437453
  0
LINE
  8
型材断面
  6
CONTINUOUS
 10
-114.092853
 20
-70.42062
 11
-20.92983
 21
-70.42062
  0
LINE
  8
型材断面
  6
CONTINUOUS
 10
-114.562853
 20
-70.87062
 11
-20.92983
 21
-70.87062
  0
LINE
  8
型材断面
  6
CONTINUOUS
 10
-112.59649
 20
40.203325
 11
-112.59649
 21
60.203325
  0
LINE
  8
型材断面
  6
CONTINUOUS
 10
-114.562853
 20
38.236962
 11
-114.562853
 21
62.169687
  0
LINE
  8
型材断面
  6
CONTINUOUS
 10
-114.876185
 20
37.92363
 11
-114.876185
 21
62.48302
  0
LINE
  8
型材断面
  6
CONTINUOUS
 10
-114.263158
 20
38.536658
 11
-114.263158
 21
61.869993
  0
LINE
  8
型材断面
  6
CONTINUOUS
 10
-111.763158
 20
59.369993
 11
-114.876185
 21
62.48302
  0
LINE
  8
型材断面
  6
CONTINUOUS
 10
-111.763158
 20
41.036658
 11
-114.876185
 21
37.92363
  0
LINE
  8
型材断面
  6
CONTINUOUS
 10
-111.763158
 20
49.786658
 11
-112.59649
 21
49.786658
  0
LINE
  8
型材断面
  6
CONTINUOUS
 10
-111.763158
 20
50.619993
 11
-112.59649
 21
50.619993
  0
LINE
  8
型材断面
  6
CONTINUOUS
 10
-111.763158
 20
41.036658
 11
-111.763158
 21
49.786658
  0
LINE
  8
型材断面
  6
CONTINUOUS
 10
-111.763158
 20
50.619993
 11
-111.763158
 21
59.369993
  0
LINE
  8
型材断面
  6
DASHDOT
 10
-112.59649
 20
-79.253555
 11
-112.59649
 21
40.203325
  0
LINE
  8
型材断面
  6
CONTINUOUS
 10
70.73683
 20
40.203325
 11
-112.59649
 21
40.203325
  0
LINE
  8
型材断面
  6
CONTINUOUS
 10
72.703192
 20
38.236962
 11
-114.562853
 21
38.236962
  0
LINE
  8
型材断面
  6
CONTINUOUS
 10
73.016525
 20
37.92363
 11
-114.876185
 21
37.92363
  0
LINE
  8
型材断面
  6
CONTINUOUS
 10
72.403498
 20
38.536658
 11
-114.263158
 21
38.536658
  0
LINE
  8
型材断面
  6
CONTINUOUS
 10
70.73683
 20
60.203325
 11
-112.59649
 21
60.203325
  0
LINE
  8
型材断面
  6
CONTINUOUS
 10
72.703192
 20
62.169687
 11
-114.562853
 21
62.169687
  0
LINE
  8
型材断面
  6
CONTINUOUS
 10
73.016525
 20
62.48302
 11
-114.876185
 21
62.48302
  0
LINE
  8
型材断面
  6
CONTINUOUS
 10
72.403498
 20
61.869993
 11
-114.263158
 21
61.869993
  0
POLYLINE
  8
型材断面
  6
CONTINUOUS
 66
     1
 70
     1
  0
VERTEX
  8
型材断面
 10
86.520838
 20
-91.899758
  0
VERTEX
  8
型材断面
 10
37.842163
 20
-91.899758
  0
VERTEX
  8
型材断面
 10
37.842163
 20
-108.244423
  0
VERTEX
  8
型材断面
 10
86.520838
 20
-108.244423
  0
SEQEND
  0
POLYLINE
  8
型材断面
  6
CONTINUOUS
 66
     1
 70
     1
  0
VERTEX
  8
型材断面
 10
-10.816693
 20
30.427403
  0
VERTEX
  8
型材断面
 10
-29.588623
 20
30.427403
  0
VERTEX
  8
型材断面
 10
-29.588623
 20
25.69056
  0
VERTEX
  8
型材断面
 10
-10.816693
 20
25.69056
  0
SEQEND
  0
POLYLINE
  8
型材断面
  6
CONTINUOUS
 66
     1
 70
     1
  0
VERTEX
  8
型材断面
 10
-10.816693
 20
69.979248
  0
VERTEX
  8
型材断面
 10
-29.588623
 20
69.979248
  0
VERTEX
  8
型材断面
 10
-29.588623
 20
74.71609
  0
VERTEX
  8
型材断面
 10
-10.816693
 20
74.71609
  0
SEQEND
  0
LINE
  8
型材断面
  6
CONTINUOUS
 10
-95.929828
 20
62.833455
 11
-97.425457
 21
65.423963
  0
LINE
  8
型材断面
  6
CONTINUOUS
 10
-95.929828
 20
62.833455
 11
-94.434198
 21
65.423963
  0
LINE
  8
型材断面
  6
CONTINUOUS
 10
-94.434198
 20
65.423963
 11
-97.425457
 21
65.423963
  0
LINE
  8
型材断面
  6
CONTINUOUS
 10
-153.448703
 20
98.180797
 11
-152.852647
 21
95.59029
  0
LINE
  8
型材断面
  6
CONTINUOUS
 10
-153.448703
 20
98.180797
 11
-154.04476
 21
95.59029
  0
LINE
  8
型材断面
  6
CONTINUOUS
 10
-154.04476
 20
95.59029
 11
-152.852647
 21
95.59029
  0
LINE
  8
型材断面
  6
CONTINUOUS
 10
-159.47129
 20
92.311398
 11
-113.229512
 21
92.311398
  0
LINE
  8
型材断面
  6
CONTINUOUS
 10
-153.448703
 20
104.710672
 11
-154.944333
 21
102.120165
  0
LINE
  8
型材断面
  6
CONTINUOUS
 10
-153.448703
 20
104.710672
 11
-151.953072
 21
102.120165
  0
LINE
  8
型材断面
  6
CONTINUOUS
 10
-151.953072
 20
102.120165
 11
-154.944333
 21
102.120165
  0
LINE
  8
型材断面
  6
CONTINUOUS
 10
-159.47129
 20
101.18157
 11
-113.229512
 21
101.18157
  0
LINE
  8
型材断面
  6
CONTINUOUS
 10
-159.47129
 20
86.523365
 11
-113.229512
 21
86.523365
  0
LINE
  8
型材断面
  6
CONTINUOUS
 10
-115.226625
 20
50.203325
 11
-117.817133
 21
51.698955
  0
LINE
  8
型材断面
  6
CONTINUOUS
 10
-115.226625
 20
50.203325
 11
-117.817133
 21
48.707695
  0
LINE
  8
型材断面
  6
CONTINUOUS
 10
-117.817133
 20
48.707695
 11
-117.817133
 21
51.698955
  0
LINE
  8
型材断面
  6
CONTINUOUS
 10
-95.929828
 20
37.573195
 11
-97.425457
 21
34.982688
  0
LINE
  8
型材断面
  6
CONTINUOUS
 10
-95.929828
 20
37.573195
 11
-94.434198
 21
34.982688
  0
LINE
  8
型材断面
  6
CONTINUOUS
 10
-94.434198
 20
34.982688
 11
-97.425457
 21
34.982688
  0
LINE
  8
型材断面
  6
CONTINUOUS
 10
54.070168
 20
62.833455
 11
55.565798
 21
65.423963
  0
LINE
  8
型材断面
  6
CONTINUOUS
 10
54.070168
 20
62.833455
 11
52.574538
 21
65.423963
  0
LINE
  8
型材断面
  6
CONTINUOUS
 10
52.574538
 20
65.423963
 11
55.565798
 21
65.423963
  0
LINE
  8
型材断面
  6
CONTINUOUS
 10
54.070168
 20
37.573195
 11
55.565798
 21
34.982688
  0
LINE
  8
型材断面
  6
CONTINUOUS
 10
54.070168
 20
37.573195
 11
52.574538
 21
34.982688
  0
LINE
  8
型材断面
  6
CONTINUOUS
 10
52.574538
 20
34.982688
 11
55.565798
 21
34.982688
  0
LINE
  8
型材断面
  6
CONTINUOUS
 10
-20.92983
 20
62.833453
 11
-22.42546
 21
65.42396
  0
LINE
  8
型材断面
  6
CONTINUOUS
 10
-20.92983
 20
62.833453
 11
-19.4342
 21
65.42396
  0
LINE
  8
型材断面
  6
CONTINUOUS
 10
-19.4342
 20
65.42396
 11
-22.42546
 21
65.42396
  0
LINE
  8
型材断面
  6
CONTINUOUS
 10
-20.92983
 20
37.573193
 11
-22.42546
 21
34.982685
  0
LINE
  8
型材断面
  6
CONTINUOUS
 10
-20.92983
 20
37.573193
 11
-19.4342
 21
34.982685
  0
LINE
  8
型材断面
  6
CONTINUOUS
 10
-19.4342
 20
34.982685
 11
-22.42546
 21
34.982685
  0
LINE
  8
型材断面
  6
CONTINUOUS
 10
73.366965
 20
50.203325
 11
75.957473
 21
51.698955
  0
LINE
  8
型材断面
  6
CONTINUOUS
 10
73.366965
 20
50.203325
 11
75.957473
 21
48.707695
  0
LINE
  8
型材断面
  6
CONTINUOUS
 10
75.957473
 20
48.707695
 11
75.957473
 21
51.698955
  0
LINE
  8
型材断面
  6
CONTINUOUS
 10
73.366965
 20
56.303325
 11
75.957473
 21
55.707267
  0
LINE
  8
型材断面
  6
CONTINUOUS
 10
73.366965
 20
56.303325
 11
75.957473
 21
56.899382
  0
LINE
  8
型材断面
  6
CONTINUOUS
 10
75.957473
 20
56.899382
 11
75.957473
 21
55.707267
  0
LINE
  8
型材断面
  6
CONTINUOUS
 10
73.366965
 20
44.103325
 11
75.957473
 21
44.699382
  0
LINE
  8
型材断面
  6
CONTINUOUS
 10
73.366965
 20
44.103325
 11
75.957473
 21
43.507267
  0
LINE
  8
型材断面
  6
CONTINUOUS
 10
75.957473
 20
43.507267
 11
75.957473
 21
44.699382
  0
LINE
  8
型材断面
  6
CONTINUOUS
 10
-115.226625
 20
56.303325
 11
-117.817133
 21
55.707267
  0
LINE
  8
型材断面
  6
CONTINUOUS
 10
-115.226625
 20
56.303325
 11
-117.817133
 21
56.899382
  0
LINE
  8
型材断面
  6
CONTINUOUS
 10
-117.817133
 20
56.899382
 11
-117.817133
 21
55.707267
  0
LINE
  8
型材断面
  6
CONTINUOUS
 10
-115.226625
 20
44.103325
 11
-117.817133
 21
44.699382
  0
LINE
  8
型材断面
  6
CONTINUOUS
 10
-115.226625
 20
44.103325
 11
-117.817133
 21
43.507267
  0
LINE
  8
型材断面
  6
CONTINUOUS
 10
-117.817133
 20
43.507267
 11
-117.817133
 21
44.699382
  0
LINE
  8
型材断面
  6
CONTINUOUS
 10
-159.47129
 20
80.735332
 11
-113.229512
 21
80.735332
  0
LINE
  8
型材断面
  6
DASHDOT
 10
-76.13383
 20
40.203325
 11
-76.13383
 21
60.203325
  0
LINE
  8
型材断面
  6
DASHDOT
 10
-39.331165
 20
40.203325
 11
-39.331165
 21
60.203325
  0
LINE
  8
型材断面
  6
DASHDOT
 10
34.27417
 20
40.203325
 11
34.27417
 21
60.203325
  0
LINE
  8
型材断面
  6
DASHDOT
 10
-2.528495
 20
40.203325
 11
-2.528495
 21
60.203325
  0
LINE
  8
型材断面
  6
CONTINUOUS
 10
-74.88383
 20
41.86999
 11
-77.38383
 21
41.86999
  0
LINE
  8
型材断面
  6
CONTINUOUS
 10
-74.88383
 20
58.53666
 11
-77.38383
 21
58.53666
  0
LINE
  8
型材断面
  6
CONTINUOUS
 10
-74.88383
 20
41.86999
 11
-74.88383
 21
58.53666
  0
LINE
  8
型材断面
  6
CONTINUOUS
 10
-75.88383
 20
41.86999
 11
-75.88383
 21
58.53666
  0
LINE
  8
型材断面
  6
CONTINUOUS
 10
-76.38383
 20
41.86999
 11
-76.38383
 21
58.53666
  0
LINE
  8
型材断面
  6
CONTINUOUS
 10
-77.38383
 20
41.86999
 11
-77.38383
 21
58.53666
  0
LINE
  8
型材断面
  6
CONTINUOUS
 10
-38.081165
 20
41.86999
 11
-40.581165
 21
41.86999
  0
LINE
  8
型材断面
  6
CONTINUOUS
 10
-38.081165
 20
58.53666
 11
-40.581165
 21
58.53666
  0
LINE
  8
型材断面
  6
CONTINUOUS
 10
-38.081165
 20
41.86999
 11
-38.081165
 21
58.53666
  0
LINE
  8
型材断面
  6
CONTINUOUS
 10
-39.081165
 20
41.86999
 11
-39.081165
 21
58.53666
  0
LINE
  8
型材断面
  6
CONTINUOUS
 10
-39.581165
 20
41.86999
 11
-39.581165
 21
58.53666
  0
LINE
  8
型材断面
  6
CONTINUOUS
 10
-40.581165
 20
41.86999
 11
-40.581165
 21
58.53666
  0
LINE
  8
型材断面
  6
CONTINUOUS
 10
33.02417
 20
41.86999
 11
35.52417
 21
41.86999
  0
LINE
  8
型材断面
  6
CONTINUOUS
 10
33.02417
 20
58.53666
 11
35.52417
 21
58.53666
  0
LINE
  8
型材断面
  6
CONTINUOUS
 10
33.02417
 20
41.86999
 11
33.02417
 21
58.53666
  0
LINE
  8
型材断面
  6
CONTINUOUS
 10
34.02417
 20
41.86999
 11
34.02417
 21
58.53666
  0
LINE
  8
型材断面
  6
CONTINUOUS
 10
34.52417
 20
41.86999
 11
34.52417
 21
58.53666
  0
LINE
  8
型材断面
  6
CONTINUOUS
 10
35.52417
 20
41.86999
 11
35.52417
 21
58.53666
  0
LINE
  8
型材断面
  6
CONTINUOUS
 10
-3.778495
 20
41.86999
 11
-1.278495
 21
41.86999
  0
LINE
  8
型材断面
  6
CONTINUOUS
 10
-3.778495
 20
58.53666
 11
-1.278495
 21
58.53666
  0
LINE
  8
型材断面
  6
CONTINUOUS
 10
-3.778495
 20
41.86999
 11
-3.778495
 21
58.53666
  0
LINE
  8
型材断面
  6
CONTINUOUS
 10
-2.778495
 20
41.86999
 11
-2.778495
 21
58.53666
  0
LINE
  8
型材断面
  6
CONTINUOUS
 10
-2.278495
 20
41.86999
 11
-2.278495
 21
58.53666
  0
LINE
  8
型材断面
  6
CONTINUOUS
 10
-1.278495
 20
41.86999
 11
-1.278495
 21
58.53666
  0
LINE
  8
型材断面
  6
CONTINUOUS
 10
-93.948492
 20
41.036658
 11
-93.948492
 21
40.203325
  0
LINE
  8
型材断面
  6
CONTINUOUS
 10
-94.781827
 20
41.036658
 11
-94.781827
 21
40.203325
  0
LINE
  8
型材断面
  6
CONTINUOUS
 10
-111.763158
 20
41.036658
 11
-94.781827
 21
41.036658
  0
LINE
  8
型材断面
  6
CONTINUOUS
 10
-57.31583
 20
41.036658
 11
-57.31583
 21
40.203325
  0
LINE
  8
型材断面
  6
CONTINUOUS
 10
-58.149165
 20
41.036658
 11
-58.149165
 21
40.203325
  0
LINE
  8
型材断面
  6
CONTINUOUS
 10
-20.513163
 20
41.036658
 11
-20.513163
 21
40.203325
  0
LINE
  8
型材断面
  6
CONTINUOUS
 10
-21.346497
 20
41.036658
 11
-21.346497
 21
40.203325
  0
LINE
  8
型材断面
  6
CONTINUOUS
 10
-93.948492
 20
41.036658
 11
-58.149165
 21
41.036658
  0
LINE
  8
型材断面
  6
CONTINUOUS
 10
-57.31583
 20
41.036658
 11
-21.346497
 21
41.036658
  0
LINE
  8
型材断面
  6
CONTINUOUS
 10
52.088832
 20
41.036658
 11
52.088832
 21
40.203325
  0
LINE
  8
型材断面
  6
CONTINUOUS
 10
52.922168
 20
41.036658
 11
52.922168
 21
40.203325
  0
LINE
  8
型材断面
  6
CONTINUOUS
 10
69.903498
 20
41.036658
 11
52.922168
 21
41.036658
  0
LINE
  8
型材断面
  6
CONTINUOUS
 10
15.45617
 20
41.036658
 11
15.45617
 21
40.203325
  0
LINE
  8
型材断面
  6
CONTINUOUS
 10
16.289505
 20
41.036658
 11
16.289505
 21
40.203325
  0
LINE
  8
型材断面
  6
CONTINUOUS
 10
52.088832
 20
41.036658
 11
16.289505
 21
41.036658
  0
LINE
  8
型材断面
  6
CONTINUOUS
 10
-20.513163
 20
41.036658
 11
15.45617
 21
41.036658
  0
LINE
  8
型材断面
  6
CONTINUOUS
 10
-93.948492
 20
59.369993
 11
-93.948492
 21
60.203325
  0
LINE
  8
型材断面
  6
CONTINUOUS
 10
-94.781827
 20
59.369993
 11
-94.781827
 21
60.203325
  0
LINE
  8
型材断面
  6
CONTINUOUS
 10
-111.763158
 20
59.369993
 11
-94.781827
 21
59.369993
  0
LINE
  8
型材断面
  6
CONTINUOUS
 10
-57.31583
 20
59.369993
 11
-57.31583
 21
60.203325
  0
LINE
  8
型材断面
  6
CONTINUOUS
 10
-58.149165
 20
59.369993
 11
-58.149165
 21
60.203325
  0
LINE
  8
型材断面
  6
CONTINUOUS
 10
-20.513163
 20
59.369993
 11
-20.513163
 21
60.203325
  0
LINE
  8
型材断面
  6
CONTINUOUS
 10
-21.346497
 20
59.369993
 11
-21.346497
 21
60.203325
  0
LINE
  8
型材断面
  6
CONTINUOUS
 10
-93.948492
 20
59.369993
 11
-58.149165
 21
59.369993
  0
LINE
  8
型材断面
  6
CONTINUOUS
 10
-57.31583
 20
59.369993
 11
-21.346497
 21
59.369993
  0
LINE
  8
型材断面
  6
CONTINUOUS
 10
52.088832
 20
59.369993
 11
52.088832
 21
60.203325
  0
LINE
  8
型材断面
  6
CONTINUOUS
 10
52.922168
 20
59.369993
 11
52.922168
 21
60.203325
  0
LINE
  8
型材断面
  6
CONTINUOUS
 10
69.903498
 20
59.369993
 11
52.922168
 21
59.369993
  0
LINE
  8
型材断面
  6
CONTINUOUS
 10
15.45617
 20
59.369993
 11
15.45617
 21
60.203325
  0
LINE
  8
型材断面
  6
CONTINUOUS
 10
16.289505
 20
59.369993
 11
16.289505
 21
60.203325
  0
LINE
  8
型材断面
  6
CONTINUOUS
 10
52.088832
 20
59.369993
 11
16.289505
 21
59.369993
  0
LINE
  8
型材断面
  6
CONTINUOUS
 10
-20.513163
 20
59.369993
 11
15.45617
 21
59.369993
  0
INSERT
  2
*GRP_0016
  8
型材断面
  6
DOT
 10
0.0
 20
0.0
  0
INSERT
  2
*GRP_0017
  8
型材断面
  6
CONTINUOUS
 10
0.0
 20
0.0
  0
INSERT
  2
*GRP_0018
  8
型材断面
  6
CONTINUOUS
 10
0.0
 20
0.0
  0
INSERT
  2
*GRP_0019
  8
型材断面
  6
CONTINUOUS
 10
0.0
 20
0.0
  0
INSERT
  2
*GRP_0020
  8
型材断面
  6
CONTINUOUS
 10
0.0
 20
0.0
  0
INSERT
  2
*GRP_0021
  8
型材断面
  6
CONTINUOUS
 10
0.0
 20
0.0
  0
INSERT
  2
*GRP_0022
  8
型材断面
  6
CONTINUOUS
 10
0.0
 20
0.0
  0
LINE
  8
型材断面
  6
DASHDOT
 10
172.29227
 20
40.203325
 11
70.73683
 21
40.203325
  0
LINE
  8
型材断面
  6
DASHDOT
 10
172.29227
 20
60.203325
 11
70.73683
 21
60.203325
  0
LINE
  8
型材断面
  6
DASHDOT
 10
172.29227
 20
50.203325
 11
-112.59649
 21
50.203325
  0
POLYLINE
  8
ガラス
  6
CONTINUOUS
 66
     1
 70
     1
  0
VERTEX
  8
ガラス
 10
154.742917
 20
-51.062975
  0
VERTEX
  8
ガラス
 10
119.286253
 20
-51.062975
  0
VERTEX
  8
ガラス
 10
119.286253
 20
-70.39631
  0
VERTEX
  8
ガラス
 10
154.742917
 20
-70.39631
  0
SEQEND
  0
TEXT
  7
TextStyle03
  8
文字
  6
CONTINUOUS
 10
78.1
 20
125.25
  1
シリーズ：ＳＴＤＬ
 40
5.0
 72
     5
 11
128.1
 21
125.25
  0
TEXT
  7
TextStyle03
  8
文字
  6
CONTINUOUS
 10
78.1
 20
119.625
  1
　　　　　（上下可動）600×5500タイプ
 40
5.0
 72
     5
 11
181.5375
 21
119.625
  0
TEXT
  7
TextStyle03
  8
文字
  6
CONTINUOUS
 10
78.1
 20
114.0
  1
図面名　：外観姿図
 40
5.0
 72
     5
 11
128.1
 21
114.0
  0
TEXT
  7
TextStyle03
  8
文字
  6
CONTINUOUS
 10
78.1
 20
108.375
  1
　　　　　　
 40
5.0
 72
     5
 11
111.225
 21
108.375
  0
TEXT
  7
TextStyle03
  8
文字
  6
CONTINUOUS
 10
119.875
 20
-26.875
  1
ガラス寸法
 40
3.0
 72
     5
 11
136.375
 21
-26.875
  0
TEXT
  7
TextStyle03
  8
文字
  6
CONTINUOUS
 10
42.1
 20
-97.625
  1
※トップライト枠高さ寸法
 40
3.0
 72
     5
 11
82.225
 21
-97.625
  0
TEXT
  7
TextStyle03
  8
文字
  6
CONTINUOUS
 10
42.1
 20
-101.0
  1
　シングルガラス：214
 40
3.0
 72
     5
 11
77.35
 21
-101.0
  0
TEXT
  7
TextStyle03
  8
文字
  6
CONTINUOUS
 10
42.1
 20
-104.375
  1
　ペアガラス：224
 40
3.0
 72
     5
 11
70.6
 21
-104.375
  0
TEXT
  7
TextStyle03
  8
文字
  6
CONTINUOUS
 10
-28.525
 20
26.7
  1
可動装置側
 40
3.0
 72
     5
 11
-12.025
 21
26.7
  0
TEXT
  7
TextStyle03
  8
文字
  6
CONTINUOUS
 10
-28.525
 20
70.675
  1
可動装置側
 40
3.0
 72
     5
 11
-12.025
 21
70.675
  0
TEXT
  7
TextStyle03
  8
文字
  6
CONTINUOUS
 10
-150.625
 20
96.8
  1
はケーシング位置を示す
 40
3.0
 72
     5
 11
-113.875
 21
96.8
  0
TEXT
  7
TextStyle03
  8
文字
  6
CONTINUOUS
 10
-150.625
 20
93.425
  1
４ヶ所中1ヶ所に設定
 40
3.0
 72
     5
 11
-118.9375
 21
93.425
  0
TEXT
  7
TextStyle03
  8
文字
  6
CONTINUOUS
 10
-150.625
 20
102.325
  1
は排水穴位置を示す
 40
3.0
 72
     5
 11
-120.625
 21
102.325
  0
TEXT
  7
TextStyle03
  8
文字
  6
CONTINUOUS
 10
-133.575
 20
28.65
  1
アンカーピッチ
 40
3.0
 50
90.0
 72
     5
 11
-133.575
 21
51.9
  0
TEXT
  7
TextStyle03
  8
文字
  6
CONTINUOUS
 10
-98.525
 20
96.6
  1
アンカーピッチ
 40
3.0
 72
     5
 11
-75.275
 21
96.6
  0
TEXT
  7
TextStyle03
  8
文字
  6
CONTINUOUS
 10
-154.35
 20
87.45
  1
アンカー数量　１８ヶ所
 40
3.0
 72
     5
 11
-117.6
 21
87.45
  0
TEXT
  7
TextStyle03
  8
文字
  6
CONTINUOUS
 10
-154.425
 20
81.675
  1
アームユニット数　４～６ヶ所
 40
3.0
 72
     5
 11
-107.55
 21
81.675
  0
TEXT
  7
TextStyle03
  8
文字
  6
CONTINUOUS
 10
-159.35
 20
76.725
  1
※重量に依るのでご相談ください
 40
3.0
 72
     5
 11
-109.1
 21
76.725
  0
TEXT
  7
TextStyle03
  8
文字
  6
CONTINUOUS
 10
142.0
 20
-68.525
  1
×５枚
 40
3.0
 72
     5
 11
151.75
 21
-68.525
  0
INSERT
  2
*DIM_0006
  8
寸法
  6
CONTINUOUS
 10
0.0
 20
0.0
  0
INSERT
  2
*DIM_0007
  8
寸法
  6
CONTINUOUS
 10
0.0
 20
0.0
  0
INSERT
  2
*DIM_0008
  8
寸法
  6
CONTINUOUS
 10
0.0
 20
0.0
  0
INSERT
  2
*DIM_0009
  8
寸法
  6
CONTINUOUS
 10
0.0
 20
0.0
  0
INSERT
  2
*DIM_0010
  8
寸法
  6
CONTINUOUS
 10
0.0
 20
0.0
  0
INSERT
  2
*DIM_0011
  8
寸法
  6
CONTINUOUS
 10
0.0
 20
0.0
  0
INSERT
  2
*DIM_0023
  8
寸法
  6
CONTINUOUS
 10
0.0
 20
0.0
  0
INSERT
  2
*DIM_0024
  8
寸法
  6
CONTINUOUS
 10
0.0
 20
0.0
  0
INSERT
  2
*DIM_0025
  8
寸法
  6
CONTINUOUS
 10
0.0
 20
0.0
  0
INSERT
  2
*DIM_0026
  8
寸法
  6
CONTINUOUS
 10
0.0
 20
0.0
  0
INSERT
  2
*DIM_0027
  8
寸法
  6
CONTINUOUS
 10
0.0
 20
0.0
  0
INSERT
  2
*DIM_0028
  8
寸法
  6
CONTINUOUS
 10
0.0
 20
0.0
  0
INSERT
  2
*DIM_0029
  8
寸法
  6
CONTINUOUS
 10
0.0
 20
0.0
  0
INSERT
  2
*DIM_0030
  8
寸法
  6
CONTINUOUS
 10
0.0
 20
0.0
  0
INSERT
  2
*DIM_0031
  8
寸法
  6
CONTINUOUS
 10
0.0
 20
0.0
  0
INSERT
  2
*DIM_0032
  8
寸法
  6
CONTINUOUS
 10
0.0
 20
0.0
  0
INSERT
  2
*DIM_0033
  8
寸法
  6
CONTINUOUS
 10
0.0
 20
0.0
  0
INSERT
  2
*DIM_0034
  8
寸法
  6
CONTINUOUS
 10
0.0
 20
0.0
  0
INSERT
  2
*DIM_0035
  8
寸法
  6
CONTINUOUS
 10
0.0
 20
0.0
  0
INSERT
  2
*DIM_0040
  8
寸法
  6
CONTINUOUS
 10
0.0
 20
0.0
  0
INSERT
  2
*DIM_0041
  8
寸法
  6
CONTINUOUS
 10
0.0
 20
0.0
  0
INSERT
  2
*DIM_0042
  8
寸法
  6
CONTINUOUS
 10
0.0
 20
0.0
  0
LINE
  8
曲げ物
  6
CONTINUOUS
 10
55.462567
 20
52.128875
 11
51.767255
 21
48.433562
  0
LINE
  8
曲げ物
  6
CONTINUOUS
 10
54.759097
 20
50.592765
 11
53.303368
 21
49.137035
  0
LINE
  8
曲げ物
  6
CONTINUOUS
 10
53.926457
 20
51.425405
 11
52.470728
 21
49.969675
  0
LINE
  8
曲げ物
  6
CONTINUOUS
 10
17.783605
 20
52.128875
 11
14.088292
 21
48.433562
  0
LINE
  8
曲げ物
  6
CONTINUOUS
 10
17.080135
 20
50.592765
 11
15.624405
 21
49.137035
  0
LINE
  8
曲げ物
  6
CONTINUOUS
 10
16.247495
 20
51.425405
 11
14.791765
 21
49.969675
  0
LINE
  8
曲げ物
  6
CONTINUOUS
 10
-18.966395
 20
52.128875
 11
-22.661708
 21
48.433562
  0
LINE
  8
曲げ物
  6
CONTINUOUS
 10
-19.669865
 20
50.592765
 11
-21.125595
 21
49.137035
  0
LINE
  8
曲げ物
  6
CONTINUOUS
 10
-20.502505
 20
51.425405
 11
-21.958235
 21
49.969675
  0
LINE
  8
曲げ物
  6
CONTINUOUS
 10
-54.559577
 20
52.128875
 11
-58.25489
 21
48.433562
  0
LINE
  8
曲げ物
  6
CONTINUOUS
 10
-55.263047
 20
50.592765
 11
-56.718778
 21
49.137035
  0
LINE
  8
曲げ物
  6
CONTINUOUS
 10
-56.095687
 20
51.425405
 11
-57.551418
 21
49.969675
  0
LINE
  8
曲げ物
  6
CONTINUOUS
 10
-93.26791
 20
52.128875
 11
-96.963223
 21
48.433562
  0
LINE
  8
曲げ物
  6
CONTINUOUS
 10
-93.97138
 20
50.592765
 11
-95.42711
 21
49.137035
  0
LINE
  8
曲げ物
  6
CONTINUOUS
 10
-94.80402
 20
51.425405
 11
-96.25975
 21
49.969675
  0
ENDSEC
  0
EOF
