  0
SECTION
  2
HEADER
  9
$EXTMIN
 10
-210.0
 20
-148.5
  9
$EXTMAX
 10
210.0
 20
148.5
  9
$PDMODE
 70
    32
  9
$PDSIZE
 40
1.5
  9
$LTSCALE
 40
10.0
  0
ENDSEC
  0
SECTION
  2
TABLES
  0
TABLE
  2
LTYPE
 70
    15
  0
LTYPE
  2
CONTINUOUS
 70
    64
  3
実線
 72
    65
 73
     0
 40
0.0
  0
LTYPE
  2
DASHED
 70
    64
  3
破線A
 72
    65
 73
     2
 40
0.6
 49
0.4
 49
-0.2
  0
LTYPE
  2
DASHEDX2
 70
    64
  3
破線B
 72
    65
 73
     2
 40
1.3
 49
0.9
 49
-0.4
  0
LTYPE
  2
DASHDOT
 70
    64
  3
１点鎖線A
 72
    65
 73
     4
 40
0.5375
 49
0.375
 49
-0.05
 49
0.0625
 49
-0.05
  0
LTYPE
  2
DASHDOTX2
 70
    64
  3
１点鎖線B
 72
    65
 73
     4
 40
1.075
 49
0.75
 49
-0.1
 49
0.125
 49
-0.1
  0
LTYPE
  2
DIVIDE2
 70
    64
  3
２点鎖線A
 72
    65
 73
     6
 40
0.5125
 49
0.3
 49
-0.0375
 49
0.05
 49
-0.0375
 49
0.05
 49
-0.0375
  0
LTYPE
  2
DIVIDE
 70
    64
  3
２点鎖線B
 72
    65
 73
     6
 40
1.05
 49
0.55
 49
-0.1
 49
0.1
 49
-0.1
 49
0.1
 49
-0.1
  0
LTYPE
  2
DOT
 70
    64
  3
点線A
 72
    65
 73
     2
 40
0.1125
 49
0.0625
 49
-0.05
  0
LTYPE
  2
DOTX2
 70
    64
  3
点線B
 72
    65
 73
     2
 40
0.275
 49
0.15
 49
-0.125
  0
LTYPE
  2
CONTINUOUS
 70
    64
  3
実線
 72
    65
 73
     0
 40
0.0
  0
LTYPE
  2
CONTINUOUS
 70
    64
  3
実線
 72
    65
 73
     0
 40
0.0
  0
LTYPE
  2
CONTINUOUS
 70
    64
  3
実線
 72
    65
 73
     0
 40
0.0
  0
LTYPE
  2
CONTINUOUS
 70
    64
  3
実線
 72
    65
 73
     0
 40
0.0
  0
LTYPE
  2
CONTINUOUS
 70
    64
  3
実線
 72
    65
 73
     0
 40
0.0
  0
LTYPE
  2
CONTINUOUS
 70
    64
  3
実線
 72
    65
 73
     0
 40
0.0
  0
ENDTAB
  0
TABLE
  2
LAYER
 70
    34
  0
LAYER
  2
通り芯
 70
     0
 62
    15
  6
CONTINUOUS
  0
LAYER
  2
補助線
 70
     0
 62
    16
  6
DOT
  0
LAYER
  2
躯体
 70
     0
 62
    31
  6
CONTINUOUS
  0
LAYER
  2
型材
 70
     0
 62
    32
  6
CONTINUOUS
  0
LAYER
  2
型材断面
 70
     0
 62
    47
  6
CONTINUOUS
  0
LAYER
  2
ガラス
 70
     0
 62
    48
  6
CONTINUOUS
  0
LAYER
  2
ゴム等
 70
     0
 62
    63
  6
CONTINUOUS
  0
LAYER
  2
ボルト／ビス
 70
     0
 62
    64
  6
CONTINUOUS
  0
LAYER
  2
文字
 70
     0
 62
    79
  6
CONTINUOUS
  0
LAYER
  2
寸法
 70
     0
 62
    80
  6
CONTINUOUS
  0
LAYER
  2
ﾊｯﾁﾝｸﾞ
 70
     0
 62
    95
  6
CONTINUOUS
  0
LAYER
  2
別途部材
 70
     0
 62
    96
  6
CONTINUOUS
  0
LAYER
  2
曲げ物
 70
     0
 62
   111
  6
CONTINUOUS
  0
LAYER
  2
鉄骨等
 70
     0
 62
   112
  6
CONTINUOUS
  0
LAYER
  2
St
 70
     0
 62
   127
  6
CONTINUOUS
  0
LAYER
  2
その他部品等
 70
     0
 62
   128
  6
CONTINUOUS
  0
LAYER
  2
ｶﾞｽｹｯﾄ
 70
     0
 62
   143
  6
CONTINUOUS
  0
LAYER
  2
ｽｹｯﾁ
 70
     0
 62
    14
  6
CONTINUOUS
  0
LAYER
  2
0
 70
     0
 62
    17
  6
CONTINUOUS
  0
LAYER
  2
1
 70
     0
 62
    30
  6
CONTINUOUS
  0
LAYER
  2
4
 70
     0
 62
    33
  6
CONTINUOUS
  0
LAYER
  2
ﾚｲﾔ3
 70
     0
 62
    46
  6
CONTINUOUS
  0
LAYER
  2
外形線
 70
     0
 62
    49
  6
CONTINUOUS
  0
LAYER
  2
部品
 70
     0
 62
    14
  6
CONTINUOUS
  0
LAYER
  2
サッシ芯
 70
     0
 62
    17
  6
DASHDOTX2
  0
LAYER
  2
寸法線
 70
     0
 62
    62
  6
CONTINUOUS
  0
LAYER
  2
姿図外形線
 70
     0
 62
    65
  6
CONTINUOUS
  0
LAYER
  2
姿補助線
 70
     0
 62
    30
  6
CONTINUOUS
  0
LAYER
  2
透視線
 70
     0
 62
    78
  6
DOT
  0
LAYER
  2
用紙
 70
     0
 62
    81
  6
CONTINUOUS
  0
LAYER
  2
実線図枠
 70
     0
 62
    94
  6
CONTINUOUS
  0
LAYER
  2
補助図枠
 70
     0
 62
    97
  6
CONTINUOUS
  0
LAYER
  2
建具記号
 70
     0
 62
   110
  6
CONTINUOUS
  0
LAYER
  2
補助文字
 70
     0
 62
   113
  6
CONTINUOUS
  0
ENDTAB
  0
TABLE
  2
STYLE
 70
    10
  0
STYLE
  2
STANDARD
 70
     0
 40
1.0
 41
1.0
 42
1.0
 50
0.0
 71
     0
  3
TXT
  4
BIGFONT
  0
STYLE
  2
TATE
 70
     4
 40
1.0
 41
1.0
 42
1.0
 50
0.0
 71
     0
  3
TXT
  4
BIGFONT
  0
STYLE
  2
TextStyle03
 70
     0
 40
1.0
 41
1.0
 42
1.0
 50
0.0
 71
     0
  3
MONOTXT
  4
BIGFONT
  0
STYLE
  2
TextStyle04
 70
     0
 40
1.0
 41
1.0
 42
1.0
 50
0.0
 71
     0
  3
MONOTXT
  4
BIGFONT
  0
STYLE
  2
TextStyle05
 70
     0
 40
1.0
 41
1.0
 42
1.0
 50
0.0
 71
     0
  3
MONOTXT
  4
BIGFONT
  0
STYLE
  2
TextStyle06
 70
     0
 40
1.0
 41
1.0
 42
1.0
 50
0.0
 71
     0
  3
MONOTXT
  4
BIGFONT
  0
STYLE
  2
TextStyle07
 70
     0
 40
1.0
 41
1.0
 42
1.0
 50
0.0
 71
     0
  3
MONOTXT
  4
BIGFONT
  0
STYLE
  2
TextStyle08
 70
     0
 40
1.0
 41
1.0
 42
1.0
 50
0.0
 71
     0
  3
MONOTXT
  4
BIGFONT
  0
STYLE
  2
TextStyle09
 70
     0
 40
1.0
 41
1.0
 42
1.0
 50
0.0
 71
     0
  3
MONOTXT
  4
BIGFONT
  0
STYLE
  2
TextStyle10
 70
     0
 40
1.0
 41
1.0
 42
1.0
 50
0.0
 71
     0
  3
MONOTXT
  4
BIGFONT
  0
ENDTAB
  0
ENDSEC
  0
SECTION
  2
BLOCKS
  0
BLOCK
  2
*GRP_0001
 70
    65
 10
0.0
 20
0.0
  0
LINE
  8
型材断面
  6
CONTINUOUS
 10
195.0
 20
133.5
 11
195.0
 21
-133.5
  0
LINE
  8
型材断面
  6
CONTINUOUS
 10
195.0
 20
-133.5
 11
-185.0
 21
-133.5
  0
LINE
  8
型材断面
  6
CONTINUOUS
 10
-185.0
 20
-133.5
 11
-185.0
 21
133.5
  0
LINE
  8
型材断面
  6
CONTINUOUS
 10
195.0
 20
133.5
 11
-185.0
 21
133.5
  0
LINE
  8
型材断面
  6
CONTINUOUS
 10
145.0
 20
-133.5
 11
145.0
 21
-118.5
  0
LINE
  8
型材断面
  6
CONTINUOUS
 10
195.0
 20
-118.5
 11
145.0
 21
-118.5
  0
ENDBLK
  0
BLOCK
  2
*GRP_0002
 70
    65
 10
0.0
 20
0.0
  0
INSERT
  2
M8横
  8
ゴム等
  6
CONTINUOUS
 10
163.336003
 20
61.029685
 50
270.0
 41
0.033333
 42
-0.033333
  0
LINE
  8
ボルト／ビス
  6
CONTINUOUS
 10
163.126005
 20
60.896352
 11
163.109338
 21
60.91302
  0
LINE
  8
ボルト／ビス
  6
CONTINUOUS
 10
163.109338
 20
61.146352
 11
163.126005
 21
61.16302
  0
LINE
  8
ボルト／ビス
  6
CONTINUOUS
 10
163.126005
 20
61.16302
 11
163.126005
 21
60.896352
  0
LINE
  8
ボルト／ビス
  6
CONTINUOUS
 10
163.109338
 20
61.146352
 11
163.109338
 21
60.91302
  0
LINE
  8
ボルト／ビス
  6
CONTINUOUS
 10
163.109338
 20
60.91302
 11
163.15267
 21
60.91302
  0
LINE
  8
ボルト／ビス
  6
CONTINUOUS
 10
163.126005
 20
60.896352
 11
163.15267
 21
60.896352
  0
LINE
  8
ボルト／ビス
  6
CONTINUOUS
 10
163.126005
 20
61.16302
 11
163.15267
 21
61.16302
  0
LINE
  8
ボルト／ビス
  6
CONTINUOUS
 10
163.109338
 20
61.146352
 11
163.15267
 21
61.146352
  0
LINE
  8
ボルト／ビス
  6
CONTINUOUS
 10
163.336003
 20
61.396352
 11
163.336003
 21
60.66302
  0
LINE
  8
ボルト／ビス
  6
CONTINUOUS
 10
163.376002
 20
60.61302
 11
163.459335
 21
60.61302
  0
LINE
  8
ボルト／ビス
  6
CONTINUOUS
 10
163.459335
 20
60.61302
 11
163.459335
 21
61.446352
  0
LINE
  8
ボルト／ビス
  6
CONTINUOUS
 10
163.459335
 20
61.446352
 11
163.376002
 21
61.446352
  0
LINE
  8
ボルト／ビス
  6
CONTINUOUS
 10
163.376002
 20
60.61302
 11
163.376002
 21
61.446352
  0
LINE
  8
ボルト／ビス
  6
CONTINUOUS
 10
163.336003
 20
61.396352
 11
163.376002
 21
61.396352
  0
LINE
  8
ボルト／ビス
  6
CONTINUOUS
 10
163.336003
 20
60.66302
 11
163.376002
 21
60.66302
  0
LINE
  8
ボルト／ビス
  6
CONTINUOUS
 10
163.386002
 20
61.029685
 11
163.336003
 21
61.029685
  0
ENDBLK
  0
BLOCK
  2
*GRP_0003
 70
    65
 10
0.0
 20
0.0
  0
LINE
  8
ボルト／ビス
  6
CONTINUOUS
 10
162.47617
 20
61.236355
 11
162.409503
 21
61.236355
  0
LINE
  8
ボルト／ビス
  6
CONTINUOUS
 10
162.409503
 20
61.236355
 11
162.409503
 21
60.50302
  0
LINE
  8
ボルト／ビス
  6
CONTINUOUS
 10
162.409503
 20
60.50302
 11
162.47617
 21
60.50302
  0
LINE
  8
ボルト／ビス
  6
CONTINUOUS
 10
162.47617
 20
61.236355
 11
162.47617
 21
60.50302
  0
LINE
  8
ボルト／ビス
  6
CONTINUOUS
 10
162.37617
 20
61.169687
 11
162.409503
 21
61.169687
  0
LINE
  8
ボルト／ビス
  6
CONTINUOUS
 10
162.37617
 20
61.169687
 11
162.37617
 21
60.569687
  0
LINE
  8
ボルト／ビス
  6
CONTINUOUS
 10
162.37617
 20
60.569687
 11
162.409503
 21
60.569687
  0
LINE
  8
ボルト／ビス
  6
CONTINUOUS
 62
    64
 10
162.17617
 20
61.030062
 11
162.187845
 21
61.062138
  0
ARC
  8
ボルト／ビス
  6
CONTINUOUS
 62
    64
 10
162.281149
 20
61.014031
 40
0.104978
 50
180.0
 51
207.278033
  0
ARC
  8
ボルト／ビス
  6
CONTINUOUS
 62
    64
 10
162.578573
 20
60.869693
 40
0.402402
 50
166.165015
 51
193.834998
  0
LINE
  8
ボルト／ビス
  6
CONTINUOUS
 62
    64
 10
162.17617
 20
60.709312
 11
162.187845
 21
60.677238
  0
ARC
  8
ボルト／ビス
  6
CONTINUOUS
 62
    64
 10
162.281149
 20
60.725355
 40
0.104978
 50
152.721967
 51
180.0
  0
LINE
  8
ボルト／ビス
  6
CONTINUOUS
 62
    64
 10
162.17617
 20
61.030062
 11
162.17617
 21
60.709312
  0
LINE
  8
ボルト／ビス
  6
CONTINUOUS
 62
    64
 10
162.187845
 20
60.677238
 11
162.309503
 21
60.677238
  0
LINE
  8
ボルト／ビス
  6
CONTINUOUS
 62
    64
 10
162.187845
 20
60.773462
 11
162.309503
 21
60.773462
  0
LINE
  8
ボルト／ビス
  6
CONTINUOUS
 62
    64
 10
162.187845
 20
61.062138
 11
162.309503
 21
61.062138
  0
LINE
  8
ボルト／ビス
  6
CONTINUOUS
 62
    64
 10
162.187845
 20
60.965913
 11
162.309503
 21
60.965913
  0
LINE
  8
ボルト／ビス
  6
CONTINUOUS
 10
162.309503
 20
61.062138
 11
162.309503
 21
60.677238
  0
LINE
  8
ボルト／ビス
  6
CONTINUOUS
 10
162.309503
 20
61.069687
 11
162.37617
 21
61.069687
  0
LINE
  8
ボルト／ビス
  6
CONTINUOUS
 10
162.309503
 20
61.069687
 11
162.309503
 21
60.669687
  0
LINE
  8
ボルト／ビス
  6
CONTINUOUS
 10
162.309503
 20
60.669687
 11
162.37617
 21
60.669687
  0
ENDBLK
  0
BLOCK
  2
*GRP_0004
 70
    65
 10
0.0
 20
0.0
  0
INSERT
  2
M8横
  8
ゴム等
  6
CONTINUOUS
 10
163.336003
 20
39.376965
 50
90.0
 41
0.033333
 42
0.033333
  0
LINE
  8
ボルト／ビス
  6
CONTINUOUS
 10
163.126005
 20
39.5103
 11
163.109338
 21
39.493633
  0
LINE
  8
ボルト／ビス
  6
CONTINUOUS
 10
163.109338
 20
39.2603
 11
163.126005
 21
39.243633
  0
LINE
  8
ボルト／ビス
  6
CONTINUOUS
 10
163.126005
 20
39.243633
 11
163.126005
 21
39.5103
  0
LINE
  8
ボルト／ビス
  6
CONTINUOUS
 10
163.109338
 20
39.2603
 11
163.109338
 21
39.493633
  0
LINE
  8
ボルト／ビス
  6
CONTINUOUS
 10
163.109338
 20
39.493633
 11
163.15267
 21
39.493633
  0
LINE
  8
ボルト／ビス
  6
CONTINUOUS
 10
163.126005
 20
39.5103
 11
163.15267
 21
39.5103
  0
LINE
  8
ボルト／ビス
  6
CONTINUOUS
 10
163.126005
 20
39.243633
 11
163.15267
 21
39.243633
  0
LINE
  8
ボルト／ビス
  6
CONTINUOUS
 10
163.109338
 20
39.2603
 11
163.15267
 21
39.2603
  0
LINE
  8
ボルト／ビス
  6
CONTINUOUS
 10
163.336003
 20
39.0103
 11
163.336003
 21
39.743633
  0
LINE
  8
ボルト／ビス
  6
CONTINUOUS
 10
163.376002
 20
39.793633
 11
163.459335
 21
39.793633
  0
LINE
  8
ボルト／ビス
  6
CONTINUOUS
 10
163.459335
 20
39.793633
 11
163.459335
 21
38.9603
  0
LINE
  8
ボルト／ビス
  6
CONTINUOUS
 10
163.459335
 20
38.9603
 11
163.376002
 21
38.9603
  0
LINE
  8
ボルト／ビス
  6
CONTINUOUS
 10
163.376002
 20
39.793633
 11
163.376002
 21
38.9603
  0
LINE
  8
ボルト／ビス
  6
CONTINUOUS
 10
163.336003
 20
39.0103
 11
163.376002
 21
39.0103
  0
LINE
  8
ボルト／ビス
  6
CONTINUOUS
 10
163.336003
 20
39.743633
 11
163.376002
 21
39.743633
  0
LINE
  8
ボルト／ビス
  6
CONTINUOUS
 10
163.386002
 20
39.376965
 11
163.336003
 21
39.376965
  0
ENDBLK
  0
BLOCK
  2
*GRP_0005
 70
    65
 10
0.0
 20
0.0
  0
LINE
  8
ボルト／ビス
  6
CONTINUOUS
 10
162.47617
 20
39.170298
 11
162.409503
 21
39.170298
  0
LINE
  8
ボルト／ビス
  6
CONTINUOUS
 10
162.409503
 20
39.170298
 11
162.409503
 21
39.90363
  0
LINE
  8
ボルト／ビス
  6
CONTINUOUS
 10
162.409503
 20
39.90363
 11
162.47617
 21
39.90363
  0
LINE
  8
ボルト／ビス
  6
CONTINUOUS
 10
162.47617
 20
39.170298
 11
162.47617
 21
39.90363
  0
LINE
  8
ボルト／ビス
  6
CONTINUOUS
 10
162.37617
 20
39.236965
 11
162.409503
 21
39.236965
  0
LINE
  8
ボルト／ビス
  6
CONTINUOUS
 10
162.37617
 20
39.236965
 11
162.37617
 21
39.836965
  0
LINE
  8
ボルト／ビス
  6
CONTINUOUS
 10
162.37617
 20
39.836965
 11
162.409503
 21
39.836965
  0
LINE
  8
ボルト／ビス
  6
CONTINUOUS
 62
    64
 10
162.17617
 20
39.37659
 11
162.187845
 21
39.344515
  0
ARC
  8
ボルト／ビス
  6
CONTINUOUS
 62
    64
 10
162.281149
 20
39.392632
 40
0.104978
 50
152.721967
 51
180.0
  0
ARC
  8
ボルト／ビス
  6
CONTINUOUS
 62
    64
 10
162.578573
 20
39.536969
 40
0.402402
 50
166.165002
 51
193.834985
  0
LINE
  8
ボルト／ビス
  6
CONTINUOUS
 62
    64
 10
162.17617
 20
39.69734
 11
162.187845
 21
39.729415
  0
ARC
  8
ボルト／ビス
  6
CONTINUOUS
 62
    64
 10
162.281149
 20
39.681307
 40
0.104978
 50
180.0
 51
207.278033
  0
LINE
  8
ボルト／ビス
  6
CONTINUOUS
 62
    64
 10
162.17617
 20
39.37659
 11
162.17617
 21
39.69734
  0
LINE
  8
ボルト／ビス
  6
CONTINUOUS
 62
    64
 10
162.187845
 20
39.729415
 11
162.309503
 21
39.729415
  0
LINE
  8
ボルト／ビス
  6
CONTINUOUS
 62
    64
 10
162.187845
 20
39.63319
 11
162.309503
 21
39.63319
  0
LINE
  8
ボルト／ビス
  6
CONTINUOUS
 62
    64
 10
162.187845
 20
39.344515
 11
162.309503
 21
39.344515
  0
LINE
  8
ボルト／ビス
  6
CONTINUOUS
 62
    64
 10
162.187845
 20
39.44074
 11
162.309503
 21
39.44074
  0
LINE
  8
ボルト／ビス
  6
CONTINUOUS
 10
162.309503
 20
39.344515
 11
162.309503
 21
39.729415
  0
LINE
  8
ボルト／ビス
  6
CONTINUOUS
 10
162.309503
 20
39.336965
 11
162.37617
 21
39.336965
  0
LINE
  8
ボルト／ビス
  6
CONTINUOUS
 10
162.309503
 20
39.336965
 11
162.309503
 21
39.736965
  0
LINE
  8
ボルト／ビス
  6
CONTINUOUS
 10
162.309503
 20
39.736965
 11
162.37617
 21
39.736965
  0
ENDBLK
  0
BLOCK
  2
*DIM_0006
 70
    65
 10
0.0
 20
0.0
  0
LINE
  8
寸法
  6
CONTINUOUS
 10
161.248695
 20
62.48302
 11
142.14273
 21
62.48302
  0
LINE
  8
寸法
  6
CONTINUOUS
 10
142.14273
 20
60.203325
 11
142.14273
 21
62.48302
  0
POINT
  8
寸法
 10
142.14273
 20
60.203325
 50
-90.0
  0
POINT
  8
寸法
 10
142.14273
 20
62.48302
 50
-90.0
  0
TEXT
  7
TextStyle03
  8
寸法
  6
CONTINUOUS
 10
141.775
 20
64.76875
  1
68.4
 40
3.0
 50
90.0
 72
     5
 11
141.775
 21
71.33125
  0
ENDBLK
  0
BLOCK
  2
*DIM_0007
 70
    65
 10
0.0
 20
0.0
  0
LINE
  8
寸法
  6
CONTINUOUS
 10
161.248695
 20
37.92363
 11
142.14273
 21
37.92363
  0
LINE
  8
寸法
  6
CONTINUOUS
 10
142.14273
 20
40.203325
 11
142.14273
 21
37.92363
  0
POINT
  8
寸法
 10
142.14273
 20
40.203325
 50
-90.0
  0
POINT
  8
寸法
 10
142.14273
 20
37.92363
 50
-90.0
  0
TEXT
  7
TextStyle03
  8
寸法
  6
CONTINUOUS
 10
141.775
 20
28.99375
  1
68.4
 40
3.0
 50
90.0
 72
     5
 11
141.775
 21
35.55625
  0
ENDBLK
  0
BLOCK
  2
*DIM_0008
 70
    65
 10
0.0
 20
0.0
  0
LINE
  8
寸法
  6
CONTINUOUS
 10
142.14273
 20
60.203325
 11
142.14273
 21
40.203325
  0
POINT
  8
寸法
 10
142.14273
 20
60.203325
 50
-90.0
  0
POINT
  8
寸法
 10
142.14273
 20
40.203325
 50
-90.0
  0
TEXT
  7
TextStyle03
  8
寸法
  6
CONTINUOUS
 10
141.775
 20
39.3
  1
呼称寸法　600
 40
3.0
 50
90.0
 72
     5
 11
141.775
 21
61.05
  0
ENDBLK
  0
BLOCK
  2
*DIM_0009
 70
    65
 10
0.0
 20
0.0
  0
LINE
  8
寸法
  6
CONTINUOUS
 10
169.209335
 20
33.236965
 11
169.209335
 21
25.327945
  0
LINE
  8
寸法
  6
CONTINUOUS
 10
161.742835
 20
35.203325
 11
161.742835
 21
25.327945
  0
LINE
  8
寸法
  6
CONTINUOUS
 10
169.209335
 20
25.327945
 11
161.742835
 21
25.327945
  0
POINT
  8
寸法
 10
169.209335
 20
25.327945
  0
POINT
  8
寸法
 10
161.742835
 20
25.327945
  0
TEXT
  7
TextStyle03
  8
寸法
  6
CONTINUOUS
 10
163.0375
 20
25.7
  1
224
 40
3.0
 72
     5
 11
167.9125
 21
25.7
  0
ENDBLK
  0
BLOCK
  2
*GRP_0010
 70
    65
 10
0.0
 20
0.0
  0
INSERT
  2
M8横
  8
ゴム等
  6
CONTINUOUS
 10
38.229858
 20
-70.297288
 50
180.0
 41
0.033333
 42
-0.033333
  0
LINE
  8
ボルト／ビス
  6
CONTINUOUS
 10
38.096525
 20
-70.087288
 11
38.11319
 21
-70.070622
  0
LINE
  8
ボルト／ビス
  6
CONTINUOUS
 10
38.346525
 20
-70.070622
 11
38.36319
 21
-70.087288
  0
LINE
  8
ボルト／ビス
  6
CONTINUOUS
 10
38.36319
 20
-70.087288
 11
38.096525
 21
-70.087288
  0
LINE
  8
ボルト／ビス
  6
CONTINUOUS
 10
38.346525
 20
-70.070622
 11
38.11319
 21
-70.070622
  0
LINE
  8
ボルト／ビス
  6
CONTINUOUS
 10
38.11319
 20
-70.070622
 11
38.11319
 21
-70.113952
  0
LINE
  8
ボルト／ビス
  6
CONTINUOUS
 10
38.096525
 20
-70.087288
 11
38.096525
 21
-70.113952
  0
LINE
  8
ボルト／ビス
  6
CONTINUOUS
 10
38.36319
 20
-70.087288
 11
38.36319
 21
-70.113952
  0
LINE
  8
ボルト／ビス
  6
CONTINUOUS
 10
38.346525
 20
-70.070622
 11
38.346525
 21
-70.113952
  0
LINE
  8
ボルト／ビス
  6
CONTINUOUS
 10
38.596525
 20
-70.297288
 11
37.86319
 21
-70.297288
  0
LINE
  8
ボルト／ビス
  6
CONTINUOUS
 10
37.81319
 20
-70.337288
 11
37.81319
 21
-70.42062
  0
LINE
  8
ボルト／ビス
  6
CONTINUOUS
 10
37.81319
 20
-70.42062
 11
38.646525
 21
-70.42062
  0
LINE
  8
ボルト／ビス
  6
CONTINUOUS
 10
38.646525
 20
-70.42062
 11
38.646525
 21
-70.337288
  0
LINE
  8
ボルト／ビス
  6
CONTINUOUS
 10
37.81319
 20
-70.337288
 11
38.646525
 21
-70.337288
  0
LINE
  8
ボルト／ビス
  6
CONTINUOUS
 10
38.596525
 20
-70.297288
 11
38.596525
 21
-70.337288
  0
LINE
  8
ボルト／ビス
  6
CONTINUOUS
 10
37.86319
 20
-70.297288
 11
37.86319
 21
-70.337288
  0
LINE
  8
ボルト／ビス
  6
CONTINUOUS
 10
38.229858
 20
-70.347288
 11
38.229858
 21
-70.297288
  0
ENDBLK
  0
BLOCK
  2
*GRP_0011
 70
    65
 10
0.0
 20
0.0
  0
LINE
  8
ボルト／ビス
  6
CONTINUOUS
 10
38.436525
 20
-69.437453
 11
38.436525
 21
-69.370788
  0
LINE
  8
ボルト／ビス
  6
CONTINUOUS
 10
38.436525
 20
-69.370788
 11
37.703192
 21
-69.370788
  0
LINE
  8
ボルト／ビス
  6
CONTINUOUS
 10
37.703192
 20
-69.370788
 11
37.703192
 21
-69.437453
  0
LINE
  8
ボルト／ビス
  6
CONTINUOUS
 10
38.436525
 20
-69.437453
 11
37.703192
 21
-69.437453
  0
LINE
  8
ボルト／ビス
  6
CONTINUOUS
 10
38.36986
 20
-69.337453
 11
38.36986
 21
-69.370788
  0
LINE
  8
ボルト／ビス
  6
CONTINUOUS
 10
38.36986
 20
-69.337453
 11
37.76986
 21
-69.337453
  0
LINE
  8
ボルト／ビス
  6
CONTINUOUS
 10
37.76986
 20
-69.337453
 11
37.76986
 21
-69.370788
  0
LINE
  8
ボルト／ビス
  6
CONTINUOUS
 62
    64
 10
38.230235
 20
-69.137453
 11
38.26231
 21
-69.149128
  0
ARC
  8
ボルト／ビス
  6
CONTINUOUS
 62
    64
 10
38.214196
 20
-69.242431
 40
0.104978
 50
90.0
 51
117.278033
  0
ARC
  8
ボルト／ビス
  6
CONTINUOUS
 62
    64
 10
38.069859
 20
-69.539855
 40
0.402402
 50
76.165015
 51
103.834998
  0
LINE
  8
ボルト／ビス
  6
CONTINUOUS
 62
    64
 10
37.909485
 20
-69.137453
 11
37.87741
 21
-69.149128
  0
ARC
  8
ボルト／ビス
  6
CONTINUOUS
 62
    64
 10
37.925521
 20
-69.242431
 40
0.104978
 50
62.721967
 51
90.0
  0
LINE
  8
ボルト／ビス
  6
CONTINUOUS
 62
    64
 10
38.230235
 20
-69.137453
 11
37.909485
 21
-69.137453
  0
LINE
  8
ボルト／ビス
  6
CONTINUOUS
 62
    64
 10
37.87741
 20
-69.149128
 11
37.87741
 21
-69.270788
  0
LINE
  8
ボルト／ビス
  6
CONTINUOUS
 62
    64
 10
37.973635
 20
-69.149128
 11
37.973635
 21
-69.270788
  0
LINE
  8
ボルト／ビス
  6
CONTINUOUS
 62
    64
 10
38.26231
 20
-69.149128
 11
38.26231
 21
-69.270788
  0
LINE
  8
ボルト／ビス
  6
CONTINUOUS
 62
    64
 10
38.166085
 20
-69.149128
 11
38.166085
 21
-69.270788
  0
LINE
  8
ボルト／ビス
  6
CONTINUOUS
 10
38.26231
 20
-69.270788
 11
37.87741
 21
-69.270788
  0
LINE
  8
ボルト／ビス
  6
CONTINUOUS
 10
38.26986
 20
-69.270788
 11
38.26986
 21
-69.337453
  0
LINE
  8
ボルト／ビス
  6
CONTINUOUS
 10
38.26986
 20
-69.270788
 11
37.86986
 21
-69.270788
  0
LINE
  8
ボルト／ビス
  6
CONTINUOUS
 10
37.86986
 20
-69.270788
 11
37.86986
 21
-69.337453
  0
ENDBLK
  0
BLOCK
  2
*DIM_0012
 70
    65
 10
0.0
 20
0.0
  0
LINE
  8
寸法
  6
CONTINUOUS
 10
42.403498
 20
-68.70412
 11
61.02197
 21
-68.70412
  0
LINE
  8
寸法
  6
CONTINUOUS
 10
44.36986
 20
-76.17062
 11
61.02197
 21
-76.17062
  0
LINE
  8
寸法
  6
CONTINUOUS
 10
61.02197
 20
-68.70412
 11
61.02197
 21
-76.17062
  0
POINT
  8
寸法
 10
61.02197
 20
-68.70412
  0
POINT
  8
寸法
 10
61.02197
 20
-76.17062
  0
TEXT
  7
TextStyle03
  8
寸法
  6
CONTINUOUS
 10
60.625
 20
-74.8875
  1
224
 40
3.0
 50
90.0
 72
     5
 11
60.625
 21
-70.0125
  0
ENDBLK
  0
BLOCK
  2
*GRP_0013
 70
    65
 10
0.0
 20
0.0
  0
INSERT
  2
M8横
  8
ゴム等
  6
CONTINUOUS
 10
-113.422853
 20
-70.297288
 41
0.033333
 42
0.033333
  0
LINE
  8
ボルト／ビス
  6
CONTINUOUS
 10
-113.28952
 20
-70.087288
 11
-113.306185
 21
-70.070622
  0
LINE
  8
ボルト／ビス
  6
CONTINUOUS
 10
-113.53952
 20
-70.070622
 11
-113.556185
 21
-70.087288
  0
LINE
  8
ボルト／ビス
  6
CONTINUOUS
 10
-113.556185
 20
-70.087288
 11
-113.28952
 21
-70.087288
  0
LINE
  8
ボルト／ビス
  6
CONTINUOUS
 10
-113.53952
 20
-70.070622
 11
-113.306185
 21
-70.070622
  0
LINE
  8
ボルト／ビス
  6
CONTINUOUS
 10
-113.306185
 20
-70.070622
 11
-113.306185
 21
-70.113952
  0
LINE
  8
ボルト／ビス
  6
CONTINUOUS
 10
-113.28952
 20
-70.087288
 11
-113.28952
 21
-70.113952
  0
LINE
  8
ボルト／ビス
  6
CONTINUOUS
 10
-113.556185
 20
-70.087288
 11
-113.556185
 21
-70.113952
  0
LINE
  8
ボルト／ビス
  6
CONTINUOUS
 10
-113.53952
 20
-70.070622
 11
-113.53952
 21
-70.113952
  0
LINE
  8
ボルト／ビス
  6
CONTINUOUS
 10
-113.78952
 20
-70.297288
 11
-113.056185
 21
-70.297288
  0
LINE
  8
ボルト／ビス
  6
CONTINUOUS
 10
-113.006185
 20
-70.337288
 11
-113.006185
 21
-70.42062
  0
LINE
  8
ボルト／ビス
  6
CONTINUOUS
 10
-113.006185
 20
-70.42062
 11
-113.83952
 21
-70.42062
  0
LINE
  8
ボルト／ビス
  6
CONTINUOUS
 10
-113.83952
 20
-70.42062
 11
-113.83952
 21
-70.337288
  0
LINE
  8
ボルト／ビス
  6
CONTINUOUS
 10
-113.006185
 20
-70.337288
 11
-113.83952
 21
-70.337288
  0
LINE
  8
ボルト／ビス
  6
CONTINUOUS
 10
-113.78952
 20
-70.297288
 11
-113.78952
 21
-70.337288
  0
LINE
  8
ボルト／ビス
  6
CONTINUOUS
 10
-113.056185
 20
-70.297288
 11
-113.056185
 21
-70.337288
  0
LINE
  8
ボルト／ビス
  6
CONTINUOUS
 10
-113.422853
 20
-70.347288
 11
-113.422853
 21
-70.297288
  0
ENDBLK
  0
BLOCK
  2
*GRP_0014
 70
    65
 10
0.0
 20
0.0
  0
LINE
  8
ボルト／ビス
  6
CONTINUOUS
 10
-113.62952
 20
-69.437453
 11
-113.62952
 21
-69.370788
  0
LINE
  8
ボルト／ビス
  6
CONTINUOUS
 10
-113.62952
 20
-69.370788
 11
-112.896188
 21
-69.370788
  0
LINE
  8
ボルト／ビス
  6
CONTINUOUS
 10
-112.896188
 20
-69.370788
 11
-112.896188
 21
-69.437453
  0
LINE
  8
ボルト／ビス
  6
CONTINUOUS
 10
-113.62952
 20
-69.437453
 11
-112.896188
 21
-69.437453
  0
LINE
  8
ボルト／ビス
  6
CONTINUOUS
 10
-113.562855
 20
-69.337453
 11
-113.562855
 21
-69.370788
  0
LINE
  8
ボルト／ビス
  6
CONTINUOUS
 10
-113.562855
 20
-69.337453
 11
-112.962855
 21
-69.337453
  0
LINE
  8
ボルト／ビス
  6
CONTINUOUS
 10
-112.962855
 20
-69.337453
 11
-112.962855
 21
-69.370788
  0
LINE
  8
ボルト／ビス
  6
CONTINUOUS
 62
    64
 10
-113.42323
 20
-69.137453
 11
-113.455305
 21
-69.149128
  0
ARC
  8
ボルト／ビス
  6
CONTINUOUS
 62
    64
 10
-113.407193
 20
-69.242431
 40
0.104978
 50
62.721967
 51
90.0
  0
ARC
  8
ボルト／ビス
  6
CONTINUOUS
 62
    64
 10
-113.262855
 20
-69.539855
 40
0.402402
 50
76.165002
 51
103.834985
  0
LINE
  8
ボルト／ビス
  6
CONTINUOUS
 62
    64
 10
-113.10248
 20
-69.137453
 11
-113.070405
 21
-69.149128
  0
ARC
  8
ボルト／ビス
  6
CONTINUOUS
 62
    64
 10
-113.118518
 20
-69.242431
 40
0.104978
 50
90.0
 51
117.278033
  0
LINE
  8
ボルト／ビス
  6
CONTINUOUS
 62
    64
 10
-113.42323
 20
-69.137453
 11
-113.10248
 21
-69.137453
  0
LINE
  8
ボルト／ビス
  6
CONTINUOUS
 62
    64
 10
-113.070405
 20
-69.149128
 11
-113.070405
 21
-69.270788
  0
LINE
  8
ボルト／ビス
  6
CONTINUOUS
 62
    64
 10
-113.16663
 20
-69.149128
 11
-113.16663
 21
-69.270788
  0
LINE
  8
ボルト／ビス
  6
CONTINUOUS
 62
    64
 10
-113.455305
 20
-69.149128
 11
-113.455305
 21
-69.270788
  0
LINE
  8
ボルト／ビス
  6
CONTINUOUS
 62
    64
 10
-113.35908
 20
-69.149128
 11
-113.35908
 21
-69.270788
  0
LINE
  8
ボルト／ビス
  6
CONTINUOUS
 10
-113.455305
 20
-69.270788
 11
-113.070405
 21
-69.270788
  0
LINE
  8
ボルト／ビス
  6
CONTINUOUS
 10
-113.462855
 20
-69.270788
 11
-113.462855
 21
-69.337453
  0
LINE
  8
ボルト／ビス
  6
CONTINUOUS
 10
-113.462855
 20
-69.270788
 11
-113.062855
 21
-69.270788
  0
LINE
  8
ボルト／ビス
  6
CONTINUOUS
 10
-113.062855
 20
-69.270788
 11
-113.062855
 21
-69.337453
  0
ENDBLK
  0
BLOCK
  2
*DIM_0015
 70
    65
 10
0.0
 20
0.0
  0
LINE
  8
寸法
  6
BYBLOCK
 62
     0
 10
-95.92983
 20
36.573195
 11
-95.92983
 21
31.420212
  0
LINE
  8
寸法
  6
BYBLOCK
 62
     0
 10
-37.596497
 20
36.573198
 11
-37.596497
 21
31.420212
  0
LINE
  8
寸法
  6
BYBLOCK
 62
     0
 10
-95.92983
 20
31.420212
 11
-37.596497
 21
31.420212
  0
POINT
  8
寸法
 62
     0
 10
-95.92983
 20
31.420212
  0
POINT
  8
寸法
 62
     0
 10
-37.596497
 20
31.420212
  0
TEXT
  7
TextStyle03
  8
寸法
  6
CONTINUOUS
 62
     0
 10
-70.03125
 20
31.775
  1
1750
 40
3.0
 72
     5
 11
-63.46875
 21
31.775
  0
ENDBLK
  0
BLOCK
  2
*DIM_0016
 70
    65
 10
0.0
 20
0.0
  0
LINE
  8
寸法
  6
BYBLOCK
 62
     0
 10
20.736835
 20
36.573195
 11
20.736835
 21
31.420212
  0
LINE
  8
寸法
  6
BYBLOCK
 62
     0
 10
-37.596497
 20
31.420212
 11
20.736835
 21
31.420212
  0
POINT
  8
寸法
 62
     0
 10
20.736835
 20
31.420212
  0
TEXT
  7
TextStyle03
  8
寸法
  6
CONTINUOUS
 62
     0
 10
-11.70625
 20
31.775
  1
1750
 40
3.0
 72
     5
 11
-5.14375
 21
31.775
  0
ENDBLK
  0
BLOCK
  2
*DIM_0017
 70
    65
 10
0.0
 20
0.0
  0
LINE
  8
寸法
  6
BYBLOCK
 62
     0
 10
41.03363
 20
56.303325
 11
47.810923
 21
56.303325
  0
LINE
  8
寸法
  6
BYBLOCK
 62
     0
 10
47.810923
 20
60.203325
 11
47.810923
 21
56.303325
  0
POINT
  8
寸法
 62
     0
 10
47.810923
 20
60.203325
  0
POINT
  8
寸法
 62
     0
 10
47.810923
 20
56.303325
  0
TEXT
  7
TextStyle03
  8
寸法
  6
CONTINUOUS
 62
     0
 10
47.575
 20
60.8625
  1
117
 40
3.0
 50
90.0
 72
     5
 11
47.575
 21
65.7375
  0
ENDBLK
  0
BLOCK
  2
*DIM_0018
 70
    65
 10
0.0
 20
0.0
  0
LINE
  8
寸法
  6
BYBLOCK
 62
     0
 10
41.03363
 20
44.103325
 11
47.810923
 21
44.103325
  0
LINE
  8
寸法
  6
BYBLOCK
 62
     0
 10
47.810923
 20
40.203325
 11
47.810923
 21
44.103325
  0
POINT
  8
寸法
 62
     0
 10
47.810923
 20
40.203325
  0
POINT
  8
寸法
 62
     0
 10
47.810923
 20
44.103325
  0
TEXT
  7
TextStyle03
  8
寸法
  6
CONTINUOUS
 62
     0
 10
47.75
 20
34.3875
  1
117
 40
3.0
 50
90.0
 72
     5
 11
47.75
 21
39.2625
  0
ENDBLK
  0
BLOCK
  2
*DIM_0019
 70
    65
 10
0.0
 20
0.0
  0
LINE
  8
寸法
  6
BYBLOCK
 62
     0
 10
-115.596497
 20
56.869993
 11
-128.889335
 21
56.869993
  0
LINE
  8
寸法
  6
BYBLOCK
 62
     0
 10
-115.596497
 20
43.536658
 11
-128.889335
 21
43.536658
  0
LINE
  8
寸法
  6
BYBLOCK
 62
     0
 10
-128.889335
 20
56.869993
 11
-128.889335
 21
43.536658
  0
POINT
  8
寸法
 62
     0
 10
-128.889335
 20
56.869993
  0
POINT
  8
寸法
 62
     0
 10
-128.889335
 20
43.536658
  0
TEXT
  7
TextStyle03
  8
寸法
  6
CONTINUOUS
 62
     0
 10
-129.2
 20
47.7375
  1
400
 40
3.0
 50
90.0
 72
     5
 11
-129.2
 21
52.6125
  0
ENDBLK
  0
BLOCK
  2
*DIM_0020
 70
    65
 10
0.0
 20
0.0
  0
LINE
  8
寸法
  6
BYBLOCK
 62
     0
 10
-104.263165
 20
63.203325
 11
-104.263165
 21
92.311398
  0
LINE
  8
寸法
  6
BYBLOCK
 62
     0
 10
-77.596497
 20
63.203325
 11
-77.596497
 21
92.311398
  0
LINE
  8
寸法
  6
BYBLOCK
 62
     0
 10
-104.263165
 20
92.311398
 11
-77.596497
 21
92.311398
  0
POINT
  8
寸法
 62
     0
 10
-104.263165
 20
92.311398
  0
POINT
  8
寸法
 62
     0
 10
-77.596497
 20
92.311398
  0
TEXT
  7
TextStyle03
  8
寸法
  6
CONTINUOUS
 62
     0
 10
-93.3625
 20
92.675
  1
800
 40
3.0
 72
     5
 11
-88.4875
 21
92.675
  0
ENDBLK
  0
BLOCK
  2
*DIM_0021
 70
    65
 10
0.0
 20
0.0
  0
LINE
  8
寸法
  6
BYBLOCK
 62
     0
 10
-50.92983
 20
63.203325
 11
-50.92983
 21
92.311398
  0
LINE
  8
寸法
  6
BYBLOCK
 62
     0
 10
-77.596497
 20
92.311398
 11
-50.92983
 21
92.311398
  0
POINT
  8
寸法
 62
     0
 10
-50.92983
 20
92.311398
  0
TEXT
  7
TextStyle03
  8
寸法
  6
CONTINUOUS
 62
     0
 10
-66.6875
 20
92.675
  1
800
 40
3.0
 72
     5
 11
-61.8125
 21
92.675
  0
ENDBLK
  0
BLOCK
  2
*DIM_0022
 70
    65
 10
0.0
 20
0.0
  0
LINE
  8
寸法
  6
BYBLOCK
 62
     0
 10
-24.263165
 20
63.203325
 11
-24.263165
 21
92.311398
  0
LINE
  8
寸法
  6
BYBLOCK
 62
     0
 10
-50.92983
 20
92.311398
 11
-24.263165
 21
92.311398
  0
POINT
  8
寸法
 62
     0
 10
-24.263165
 20
92.311398
  0
TEXT
  7
TextStyle03
  8
寸法
  6
CONTINUOUS
 62
     0
 10
-40.0125
 20
92.675
  1
800
 40
3.0
 72
     5
 11
-35.1375
 21
92.675
  0
ENDBLK
  0
BLOCK
  2
*DIM_0023
 70
    65
 10
0.0
 20
0.0
  0
LINE
  8
寸法
  6
BYBLOCK
 62
     0
 10
2.403502
 20
63.203325
 11
2.403502
 21
92.311398
  0
LINE
  8
寸法
  6
BYBLOCK
 62
     0
 10
-24.263165
 20
92.311398
 11
2.403502
 21
92.311398
  0
POINT
  8
寸法
 62
     0
 10
2.403502
 20
92.311398
  0
TEXT
  7
TextStyle03
  8
寸法
  6
CONTINUOUS
 62
     0
 10
-13.3625
 20
92.675
  1
800
 40
3.0
 72
     5
 11
-8.4875
 21
92.675
  0
ENDBLK
  0
BLOCK
  2
*DIM_0024
 70
    65
 10
0.0
 20
0.0
  0
LINE
  8
寸法
  6
BYBLOCK
 62
     0
 10
29.07017
 20
63.203325
 11
29.07017
 21
92.311398
  0
LINE
  8
寸法
  6
BYBLOCK
 62
     0
 10
2.403502
 20
92.311398
 11
29.07017
 21
92.311398
  0
POINT
  8
寸法
 62
     0
 10
29.07017
 20
92.311398
  0
TEXT
  7
TextStyle03
  8
寸法
  6
CONTINUOUS
 62
     0
 10
13.3125
 20
92.675
  1
800
 40
3.0
 72
     5
 11
18.1875
 21
92.675
  0
ENDBLK
  0
BLOCK
  2
*GRP_0025
 70
    65
 10
0.0
 20
0.0
  0
LINE
  8
型材断面
  6
DOT
 10
39.070165
 20
-62.60412
 11
39.020165
 21
-62.60412
  0
LINE
  8
型材断面
  6
DOT
 10
37.403498
 20
-62.10412
 11
37.403498
 21
-61.370788
  0
LINE
  8
型材断面
  6
DOT
 10
37.453192
 20
-63.087288
 11
38.89986
 21
-63.087288
  0
LINE
  8
型材断面
  6
DOT
 10
38.89986
 20
-63.537288
 11
38.89986
 21
-63.087288
  0
LINE
  8
型材断面
  6
DOT
 62
    47
 10
39.633193
 20
-66.20998
 11
39.683193
 21
-66.20998
  0
LINE
  8
型材断面
  6
DOT
 62
    47
 10
39.683193
 20
-66.20998
 11
39.683193
 21
-65.876645
  0
LINE
  8
型材断面
  6
DOT
 62
    47
 10
39.683193
 20
-65.876645
 11
38.89986
 21
-65.776645
  0
LINE
  8
型材断面
  6
DOT
 62
    47
 10
38.89986
 20
-65.37062
 11
38.89986
 21
-65.776645
  0
LINE
  8
型材断面
  6
DOT
 62
    47
 10
39.36986
 20
-65.37062
 11
39.36986
 21
-63.537288
  0
LINE
  8
型材断面
  6
DOT
 10
39.070165
 20
-62.60412
 11
39.070165
 21
-62.10412
  0
LINE
  8
型材断面
  6
DOT
 10
37.453192
 20
-63.087288
 11
37.453192
 21
-62.60412
  0
INSERT
  2
*GRP_0026
  8
型材断面
  6
DOT
 10
0.0
 20
0.0
  0
INSERT
  2
*GRP_0027
  8
型材断面
  6
DOT
 10
0.0
 20
0.0
  0
LINE
  8
型材断面
  6
DOT
 10
39.683193
 20
-66.20998
 11
-37.596497
 21
-66.20998
  0
LINE
  8
型材断面
  6
DOT
 10
39.683193
 20
-65.876645
 11
-37.596497
 21
-65.876645
  0
LINE
  8
型材断面
  6
DOT
 10
38.89986
 20
-65.776645
 11
-37.596497
 21
-65.776645
  0
LINE
  8
型材断面
  6
DOT
 10
39.36986
 20
-65.37062
 11
-37.596497
 21
-65.37062
  0
LINE
  8
型材断面
  6
DOT
 10
39.070165
 20
-62.60412
 11
-37.596497
 21
-62.60412
  0
LINE
  8
型材断面
  6
DOT
 10
37.403498
 20
-61.370788
 11
-37.596497
 21
-61.370788
  0
LINE
  8
型材断面
  6
DOT
 10
39.070165
 20
-62.10412
 11
-37.596497
 21
-62.10412
  0
LINE
  8
型材断面
  6
DOT
 10
38.89986
 20
-63.087288
 11
-37.596497
 21
-63.087288
  0
LINE
  8
型材断面
  6
DOT
 10
39.36986
 20
-63.537288
 11
-37.596497
 21
-63.537288
  0
LINE
  8
型材断面
  6
DOT
 10
-114.26316
 20
-62.60412
 11
-114.21316
 21
-62.60412
  0
LINE
  8
型材断面
  6
DOT
 10
-112.596493
 20
-62.10412
 11
-112.596493
 21
-61.370788
  0
LINE
  8
型材断面
  6
DOT
 10
-112.646188
 20
-63.087288
 11
-114.092855
 21
-63.087288
  0
LINE
  8
型材断面
  6
DOT
 10
-114.092855
 20
-63.537288
 11
-114.092855
 21
-63.087288
  0
LINE
  8
型材断面
  6
DOT
 62
    47
 10
-114.826188
 20
-66.20998
 11
-114.876188
 21
-66.20998
  0
LINE
  8
型材断面
  6
DOT
 62
    47
 10
-114.876188
 20
-66.20998
 11
-114.876188
 21
-65.876645
  0
LINE
  8
型材断面
  6
DOT
 62
    47
 10
-114.876188
 20
-65.876645
 11
-114.092855
 21
-65.776645
  0
LINE
  8
型材断面
  6
DOT
 62
    47
 10
-114.092855
 20
-65.37062
 11
-114.092855
 21
-65.776645
  0
LINE
  8
型材断面
  6
DOT
 62
    47
 10
-114.562855
 20
-65.37062
 11
-114.562855
 21
-63.537288
  0
LINE
  8
型材断面
  6
DOT
 10
-114.26316
 20
-62.60412
 11
-114.26316
 21
-62.10412
  0
LINE
  8
型材断面
  6
DOT
 10
-112.646188
 20
-63.087288
 11
-112.646188
 21
-62.60412
  0
INSERT
  2
*GRP_0028
  8
型材断面
  6
DOT
 10
0.0
 20
0.0
  0
INSERT
  2
*GRP_0029
  8
型材断面
  6
DOT
 10
0.0
 20
0.0
  0
LINE
  8
型材断面
  6
DOT
 10
-114.876188
 20
-66.20998
 11
-37.596497
 21
-66.20998
  0
LINE
  8
型材断面
  6
DOT
 10
-114.876188
 20
-65.876645
 11
-37.596497
 21
-65.876645
  0
LINE
  8
型材断面
  6
DOT
 10
-114.092855
 20
-65.776645
 11
-37.596497
 21
-65.776645
  0
LINE
  8
型材断面
  6
DOT
 10
-114.562855
 20
-65.37062
 11
-37.596497
 21
-65.37062
  0
LINE
  8
型材断面
  6
DOT
 10
-114.26316
 20
-62.60412
 11
-37.596497
 21
-62.60412
  0
LINE
  8
型材断面
  6
DOT
 10
-112.596493
 20
-61.370788
 11
-37.596497
 21
-61.370788
  0
LINE
  8
型材断面
  6
DOT
 10
-114.26316
 20
-62.10412
 11
-37.596497
 21
-62.10412
  0
LINE
  8
型材断面
  6
DOT
 10
-114.092855
 20
-63.087288
 11
-37.596497
 21
-63.087288
  0
LINE
  8
型材断面
  6
DOT
 10
-114.562855
 20
-63.537288
 11
-37.596497
 21
-63.537288
  0
ENDBLK
  0
BLOCK
  2
*GRP_0026
 70
    65
 10
0.0
 20
0.0
  0
INSERT
  2
M8横
  8
ゴム等
  6
DOT
 10
38.229858
 20
-62.963955
 50
180.0
 41
0.033333
 42
-0.033333
  0
LINE
  8
ボルト／ビス
  6
DOT
 10
38.096525
 20
-62.753955
 11
38.11319
 21
-62.73729
  0
LINE
  8
ボルト／ビス
  6
DOT
 10
38.346525
 20
-62.73729
 11
38.36319
 21
-62.753955
  0
LINE
  8
ボルト／ビス
  6
DOT
 10
38.36319
 20
-62.753955
 11
38.096525
 21
-62.753955
  0
LINE
  8
ボルト／ビス
  6
DOT
 10
38.346525
 20
-62.73729
 11
38.11319
 21
-62.73729
  0
LINE
  8
ボルト／ビス
  6
DOT
 10
38.11319
 20
-62.73729
 11
38.11319
 21
-62.78062
  0
LINE
  8
ボルト／ビス
  6
DOT
 10
38.096525
 20
-62.753955
 11
38.096525
 21
-62.78062
  0
LINE
  8
ボルト／ビス
  6
DOT
 10
38.36319
 20
-62.753955
 11
38.36319
 21
-62.78062
  0
LINE
  8
ボルト／ビス
  6
DOT
 10
38.346525
 20
-62.73729
 11
38.346525
 21
-62.78062
  0
LINE
  8
ボルト／ビス
  6
DOT
 10
38.596525
 20
-62.963955
 11
37.86319
 21
-62.963955
  0
LINE
  8
ボルト／ビス
  6
DOT
 10
37.81319
 20
-63.003955
 11
37.81319
 21
-63.087288
  0
LINE
  8
ボルト／ビス
  6
DOT
 10
37.81319
 20
-63.087288
 11
38.646525
 21
-63.087288
  0
LINE
  8
ボルト／ビス
  6
DOT
 10
38.646525
 20
-63.087288
 11
38.646525
 21
-63.003955
  0
LINE
  8
ボルト／ビス
  6
DOT
 10
37.81319
 20
-63.003955
 11
38.646525
 21
-63.003955
  0
LINE
  8
ボルト／ビス
  6
DOT
 10
38.596525
 20
-62.963955
 11
38.596525
 21
-63.003955
  0
LINE
  8
ボルト／ビス
  6
DOT
 10
37.86319
 20
-62.963955
 11
37.86319
 21
-63.003955
  0
LINE
  8
ボルト／ビス
  6
DOT
 10
38.229858
 20
-63.013955
 11
38.229858
 21
-62.963955
  0
ENDBLK
  0
BLOCK
  2
*GRP_0027
 70
    65
 10
0.0
 20
0.0
  0
LINE
  8
ボルト／ビス
  6
DOT
 10
38.436525
 20
-62.10412
 11
38.436525
 21
-62.037455
  0
LINE
  8
ボルト／ビス
  6
DOT
 10
38.436525
 20
-62.037455
 11
37.703192
 21
-62.037455
  0
LINE
  8
ボルト／ビス
  6
DOT
 10
37.703192
 20
-62.037455
 11
37.703192
 21
-62.10412
  0
LINE
  8
ボルト／ビス
  6
DOT
 10
38.436525
 20
-62.10412
 11
37.703192
 21
-62.10412
  0
LINE
  8
ボルト／ビス
  6
DOT
 10
38.36986
 20
-62.00412
 11
38.36986
 21
-62.037455
  0
LINE
  8
ボルト／ビス
  6
DOT
 10
38.36986
 20
-62.00412
 11
37.76986
 21
-62.00412
  0
LINE
  8
ボルト／ビス
  6
DOT
 10
37.76986
 20
-62.00412
 11
37.76986
 21
-62.037455
  0
LINE
  8
ボルト／ビス
  6
DOT
 62
    64
 10
38.230235
 20
-61.80412
 11
38.26231
 21
-61.815795
  0
ARC
  8
ボルト／ビス
  6
DOT
 62
    64
 10
38.214196
 20
-61.909099
 40
0.104978
 50
90.0
 51
117.278033
  0
ARC
  8
ボルト／ビス
  6
DOT
 62
    64
 10
38.069859
 20
-62.206523
 40
0.402402
 50
76.165015
 51
103.834998
  0
LINE
  8
ボルト／ビス
  6
DOT
 62
    64
 10
37.909485
 20
-61.80412
 11
37.87741
 21
-61.815795
  0
ARC
  8
ボルト／ビス
  6
DOT
 62
    64
 10
37.925521
 20
-61.909099
 40
0.104978
 50
62.721967
 51
90.0
  0
LINE
  8
ボルト／ビス
  6
DOT
 62
    64
 10
38.230235
 20
-61.80412
 11
37.909485
 21
-61.80412
  0
LINE
  8
ボルト／ビス
  6
DOT
 62
    64
 10
37.87741
 20
-61.815795
 11
37.87741
 21
-61.937455
  0
LINE
  8
ボルト／ビス
  6
DOT
 62
    64
 10
37.973635
 20
-61.815795
 11
37.973635
 21
-61.937455
  0
LINE
  8
ボルト／ビス
  6
DOT
 62
    64
 10
38.26231
 20
-61.815795
 11
38.26231
 21
-61.937455
  0
LINE
  8
ボルト／ビス
  6
DOT
 62
    64
 10
38.166085
 20
-61.815795
 11
38.166085
 21
-61.937455
  0
LINE
  8
ボルト／ビス
  6
DOT
 10
38.26231
 20
-61.937455
 11
37.87741
 21
-61.937455
  0
LINE
  8
ボルト／ビス
  6
DOT
 10
38.26986
 20
-61.937455
 11
38.26986
 21
-62.00412
  0
LINE
  8
ボルト／ビス
  6
DOT
 10
38.26986
 20
-61.937455
 11
37.86986
 21
-61.937455
  0
LINE
  8
ボルト／ビス
  6
DOT
 10
37.86986
 20
-61.937455
 11
37.86986
 21
-62.00412
  0
ENDBLK
  0
BLOCK
  2
*GRP_0028
 70
    65
 10
0.0
 20
0.0
  0
INSERT
  2
M8横
  8
ゴム等
  6
DOT
 10
-113.422853
 20
-62.963955
 41
0.033333
 42
0.033333
  0
LINE
  8
ボルト／ビス
  6
DOT
 10
-113.28952
 20
-62.753955
 11
-113.306185
 21
-62.73729
  0
LINE
  8
ボルト／ビス
  6
DOT
 10
-113.53952
 20
-62.73729
 11
-113.556185
 21
-62.753955
  0
LINE
  8
ボルト／ビス
  6
DOT
 10
-113.556185
 20
-62.753955
 11
-113.28952
 21
-62.753955
  0
LINE
  8
ボルト／ビス
  6
DOT
 10
-113.53952
 20
-62.73729
 11
-113.306185
 21
-62.73729
  0
LINE
  8
ボルト／ビス
  6
DOT
 10
-113.306185
 20
-62.73729
 11
-113.306185
 21
-62.78062
  0
LINE
  8
ボルト／ビス
  6
DOT
 10
-113.28952
 20
-62.753955
 11
-113.28952
 21
-62.78062
  0
LINE
  8
ボルト／ビス
  6
DOT
 10
-113.556185
 20
-62.753955
 11
-113.556185
 21
-62.78062
  0
LINE
  8
ボルト／ビス
  6
DOT
 10
-113.53952
 20
-62.73729
 11
-113.53952
 21
-62.78062
  0
LINE
  8
ボルト／ビス
  6
DOT
 10
-113.78952
 20
-62.963955
 11
-113.056185
 21
-62.963955
  0
LINE
  8
ボルト／ビス
  6
DOT
 10
-113.006185
 20
-63.003955
 11
-113.006185
 21
-63.087288
  0
LINE
  8
ボルト／ビス
  6
DOT
 10
-113.006185
 20
-63.087288
 11
-113.83952
 21
-63.087288
  0
LINE
  8
ボルト／ビス
  6
DOT
 10
-113.83952
 20
-63.087288
 11
-113.83952
 21
-63.003955
  0
LINE
  8
ボルト／ビス
  6
DOT
 10
-113.006185
 20
-63.003955
 11
-113.83952
 21
-63.003955
  0
LINE
  8
ボルト／ビス
  6
DOT
 10
-113.78952
 20
-62.963955
 11
-113.78952
 21
-63.003955
  0
LINE
  8
ボルト／ビス
  6
DOT
 10
-113.056185
 20
-62.963955
 11
-113.056185
 21
-63.003955
  0
LINE
  8
ボルト／ビス
  6
DOT
 10
-113.422853
 20
-63.013955
 11
-113.422853
 21
-62.963955
  0
ENDBLK
  0
BLOCK
  2
*GRP_0029
 70
    65
 10
0.0
 20
0.0
  0
LINE
  8
ボルト／ビス
  6
DOT
 10
-113.62952
 20
-62.10412
 11
-113.62952
 21
-62.037455
  0
LINE
  8
ボルト／ビス
  6
DOT
 10
-113.62952
 20
-62.037455
 11
-112.896188
 21
-62.037455
  0
LINE
  8
ボルト／ビス
  6
DOT
 10
-112.896188
 20
-62.037455
 11
-112.896188
 21
-62.10412
  0
LINE
  8
ボルト／ビス
  6
DOT
 10
-113.62952
 20
-62.10412
 11
-112.896188
 21
-62.10412
  0
LINE
  8
ボルト／ビス
  6
DOT
 10
-113.562855
 20
-62.00412
 11
-113.562855
 21
-62.037455
  0
LINE
  8
ボルト／ビス
  6
DOT
 10
-113.562855
 20
-62.00412
 11
-112.962855
 21
-62.00412
  0
LINE
  8
ボルト／ビス
  6
DOT
 10
-112.962855
 20
-62.00412
 11
-112.962855
 21
-62.037455
  0
LINE
  8
ボルト／ビス
  6
DOT
 62
    64
 10
-113.42323
 20
-61.80412
 11
-113.455305
 21
-61.815795
  0
ARC
  8
ボルト／ビス
  6
DOT
 62
    64
 10
-113.407193
 20
-61.909099
 40
0.104978
 50
62.721967
 51
90.0
  0
ARC
  8
ボルト／ビス
  6
DOT
 62
    64
 10
-113.262855
 20
-62.206523
 40
0.402402
 50
76.165002
 51
103.834985
  0
LINE
  8
ボルト／ビス
  6
DOT
 62
    64
 10
-113.10248
 20
-61.80412
 11
-113.070405
 21
-61.815795
  0
ARC
  8
ボルト／ビス
  6
DOT
 62
    64
 10
-113.118518
 20
-61.909099
 40
0.104978
 50
90.0
 51
117.278033
  0
LINE
  8
ボルト／ビス
  6
DOT
 62
    64
 10
-113.42323
 20
-61.80412
 11
-113.10248
 21
-61.80412
  0
LINE
  8
ボルト／ビス
  6
DOT
 62
    64
 10
-113.070405
 20
-61.815795
 11
-113.070405
 21
-61.937455
  0
LINE
  8
ボルト／ビス
  6
DOT
 62
    64
 10
-113.16663
 20
-61.815795
 11
-113.16663
 21
-61.937455
  0
LINE
  8
ボルト／ビス
  6
DOT
 62
    64
 10
-113.455305
 20
-61.815795
 11
-113.455305
 21
-61.937455
  0
LINE
  8
ボルト／ビス
  6
DOT
 62
    64
 10
-113.35908
 20
-61.815795
 11
-113.35908
 21
-61.937455
  0
LINE
  8
ボルト／ビス
  6
DOT
 10
-113.455305
 20
-61.937455
 11
-113.070405
 21
-61.937455
  0
LINE
  8
ボルト／ビス
  6
DOT
 10
-113.462855
 20
-61.937455
 11
-113.462855
 21
-62.00412
  0
LINE
  8
ボルト／ビス
  6
DOT
 10
-113.462855
 20
-61.937455
 11
-113.062855
 21
-61.937455
  0
LINE
  8
ボルト／ビス
  6
DOT
 10
-113.062855
 20
-61.937455
 11
-113.062855
 21
-62.00412
  0
ENDBLK
  0
BLOCK
  2
*DIM_0030
 70
    65
 10
0.0
 20
0.0
  0
LINE
  8
寸法
  6
CONTINUOUS
 10
42.403498
 20
-68.70412
 11
61.02197
 21
-68.70412
  0
LINE
  8
寸法
  6
CONTINUOUS
 10
42.403498
 20
-61.370788
 11
61.02197
 21
-61.370788
  0
LINE
  8
寸法
  6
CONTINUOUS
 10
61.02197
 20
-68.70412
 11
61.02197
 21
-61.370788
  0
POINT
  8
寸法
 10
61.02197
 20
-68.70412
  0
POINT
  8
寸法
 10
61.02197
 20
-61.370788
  0
TEXT
  7
TextStyle03
  8
寸法
  6
CONTINUOUS
 10
64.0
 20
-74.14375
  1
上昇203以上
 40
3.0
 50
90.0
 72
     5
 11
64.0
 21
-55.95625
  0
ENDBLK
  0
BLOCK
  2
*GRP_0031
 70
    65
 10
0.0
 20
0.0
  0
LINE
  8
補助線
  6
BYBLOCK
 62
    64
 10
-92.52235
 20
-74.31009
 11
-92.671275
 21
-74.384915
  0
LINE
  8
補助線
  6
BYBLOCK
 62
    64
 10
-92.634225
 20
-74.273038
 11
-92.5594
 21
-74.421965
  0
LINE
  8
補助線
  6
BYBLOCK
 62
    64
 10
-82.60387
 20
-69.326732
 11
-82.752798
 21
-69.401558
  0
LINE
  8
補助線
  6
BYBLOCK
 62
    64
 10
-82.715747
 20
-69.28968
 11
-82.640923
 21
-69.438608
  0
LINE
  8
補助線
  6
BYBLOCK
 62
    64
 10
-72.83432
 20
-64.4182
 11
-72.685393
 21
-64.343375
  0
LINE
  8
補助線
  6
BYBLOCK
 62
    64
 10
-72.79727
 20
-64.306322
 11
-72.722445
 21
-64.45525
  0
LINE
  8
型材断面
  6
CONTINUOUS
 10
-93.26879
 20
-73.752525
 11
-93.491093
 21
-74.423777
  0
LINE
  8
型材断面
  6
CONTINUOUS
 10
-93.491093
 20
-74.423777
 11
-93.19179
 21
-75.019482
  0
LINE
  8
型材断面
  6
CONTINUOUS
 10
-93.19179
 20
-75.019482
 11
-92.520537
 21
-75.241785
  0
LINE
  8
型材断面
  6
CONTINUOUS
 10
-72.836132
 20
-63.486507
 11
-72.164877
 21
-63.70881
  0
LINE
  8
型材断面
  6
CONTINUOUS
 10
-72.164877
 20
-63.70881
 11
-71.865575
 21
-64.304515
  0
LINE
  8
型材断面
  6
CONTINUOUS
 10
-71.865575
 20
-64.304515
 11
-72.08788
 21
-64.975767
  0
LINE
  8
型材断面
  6
CONTINUOUS
 10
-93.26879
 20
-73.752525
 11
-72.836132
 21
-63.486507
  0
LINE
  8
型材断面
  6
CONTINUOUS
 10
-92.520537
 20
-75.241785
 11
-72.08788
 21
-64.975767
  0
CIRCLE
  8
ボルト／ビス
  6
CONTINUOUS
 10
-92.596813
 20
-74.347502
 40
0.250185
  0
CIRCLE
  8
ボルト／ビス
  6
CONTINUOUS
 10
-92.596813
 20
-74.347502
 40
0.301025
  0
LINE
  8
ボルト／ビス
  6
CONTINUOUS
 62
    64
 10
-92.846577
 20
-74.333
 11
-92.709133
 21
-74.12395
  0
LINE
  8
ボルト／ビス
  6
CONTINUOUS
 62
    64
 10
-92.459368
 20
-74.138453
 11
-92.709133
 21
-74.12395
  0
LINE
  8
ボルト／ビス
  6
CONTINUOUS
 62
    64
 10
-92.734257
 20
-74.556552
 11
-92.484493
 21
-74.571055
  0
LINE
  8
ボルト／ビス
  6
CONTINUOUS
 62
    64
 10
-92.347048
 20
-74.362005
 11
-92.484493
 21
-74.571055
  0
LINE
  8
ボルト／ビス
  6
CONTINUOUS
 62
    64
 10
-92.846577
 20
-74.333
 11
-92.734257
 21
-74.556552
  0
LINE
  8
ボルト／ビス
  6
CONTINUOUS
 62
    64
 10
-92.459368
 20
-74.138453
 11
-92.347048
 21
-74.362005
  0
CIRCLE
  8
ボルト／ビス
  6
CONTINUOUS
 62
    64
 10
-92.596813
 20
-74.347502
 40
0.216668
  0
CIRCLE
  8
ボルト／ビス
  6
CONTINUOUS
 10
-82.678335
 20
-69.364145
 40
0.250185
  0
CIRCLE
  8
ボルト／ビス
  6
CONTINUOUS
 10
-82.678335
 20
-69.364145
 40
0.301025
  0
LINE
  8
ボルト／ビス
  6
CONTINUOUS
 62
    64
 10
-82.9281
 20
-69.34964
 11
-82.790655
 21
-69.14059
  0
LINE
  8
ボルト／ビス
  6
CONTINUOUS
 62
    64
 10
-82.54089
 20
-69.155092
 11
-82.790655
 21
-69.14059
  0
LINE
  8
ボルト／ビス
  6
CONTINUOUS
 62
    64
 10
-82.81578
 20
-69.573195
 11
-82.566013
 21
-69.5877
  0
LINE
  8
ボルト／ビス
  6
CONTINUOUS
 62
    64
 10
-82.42857
 20
-69.37865
 11
-82.566013
 21
-69.5877
  0
LINE
  8
ボルト／ビス
  6
CONTINUOUS
 62
    64
 10
-82.9281
 20
-69.34964
 11
-82.81578
 21
-69.573195
  0
LINE
  8
ボルト／ビス
  6
CONTINUOUS
 62
    64
 10
-82.54089
 20
-69.155092
 11
-82.42857
 21
-69.37865
  0
CIRCLE
  8
ボルト／ビス
  6
CONTINUOUS
 62
    64
 10
-82.678335
 20
-69.364145
 40
0.216668
  0
CIRCLE
  8
ボルト／ビス
  6
CONTINUOUS
 10
-72.759857
 20
-64.380788
 40
0.250185
  0
CIRCLE
  8
ボルト／ビス
  6
CONTINUOUS
 10
-72.759857
 20
-64.380788
 40
0.301025
  0
LINE
  8
ボルト／ビス
  6
CONTINUOUS
 62
    64
 10
-72.622412
 20
-64.171738
 11
-72.872177
 21
-64.157235
  0
LINE
  8
ボルト／ビス
  6
CONTINUOUS
 62
    64
 10
-73.009623
 20
-64.366285
 11
-72.872177
 21
-64.157235
  0
LINE
  8
ボルト／ビス
  6
CONTINUOUS
 62
    64
 10
-72.510092
 20
-64.395292
 11
-72.647535
 21
-64.60434
  0
LINE
  8
ボルト／ビス
  6
CONTINUOUS
 62
    64
 10
-72.897303
 20
-64.589837
 11
-72.647535
 21
-64.60434
  0
LINE
  8
ボルト／ビス
  6
CONTINUOUS
 62
    64
 10
-72.622412
 20
-64.171738
 11
-72.510092
 21
-64.395292
  0
LINE
  8
ボルト／ビス
  6
CONTINUOUS
 62
    64
 10
-73.009623
 20
-64.366285
 11
-72.897303
 21
-64.589837
  0
CIRCLE
  8
ボルト／ビス
  6
CONTINUOUS
 62
    64
 10
-72.759857
 20
-64.380788
 40
0.216668
  0
ENDBLK
  0
BLOCK
  2
*GRP_0032
 70
    65
 10
0.0
 20
0.0
  0
LINE
  8
補助線
  6
BYBLOCK
 62
    64
 10
-72.83432
 20
-74.31009
 11
-72.685395
 21
-74.384915
  0
LINE
  8
補助線
  6
BYBLOCK
 62
    64
 10
-72.722445
 20
-74.273038
 11
-72.79727
 21
-74.421965
  0
LINE
  8
補助線
  6
BYBLOCK
 62
    64
 10
-82.7528
 20
-69.326732
 11
-82.603873
 21
-69.401558
  0
LINE
  8
補助線
  6
BYBLOCK
 62
    64
 10
-82.640923
 20
-69.28968
 11
-82.715747
 21
-69.438608
  0
LINE
  8
補助線
  6
BYBLOCK
 62
    64
 10
-92.52235
 20
-64.4182
 11
-92.671278
 21
-64.343375
  0
LINE
  8
補助線
  6
BYBLOCK
 62
    64
 10
-92.5594
 20
-64.306322
 11
-92.634225
 21
-64.45525
  0
LINE
  8
型材断面
  6
CONTINUOUS
 10
-72.08788
 20
-73.752525
 11
-71.865578
 21
-74.423777
  0
LINE
  8
型材断面
  6
CONTINUOUS
 10
-71.865578
 20
-74.423777
 11
-72.16488
 21
-75.019482
  0
LINE
  8
型材断面
  6
CONTINUOUS
 10
-72.16488
 20
-75.019482
 11
-72.836132
 21
-75.241785
  0
LINE
  8
型材断面
  6
CONTINUOUS
 10
-92.520537
 20
-63.486507
 11
-93.191792
 21
-63.70881
  0
LINE
  8
型材断面
  6
CONTINUOUS
 10
-93.191792
 20
-63.70881
 11
-93.491095
 21
-64.304515
  0
LINE
  8
型材断面
  6
CONTINUOUS
 10
-93.491095
 20
-64.304515
 11
-93.26879
 21
-64.975767
  0
LINE
  8
型材断面
  6
CONTINUOUS
 10
-72.08788
 20
-73.752525
 11
-92.520537
 21
-63.486507
  0
LINE
  8
型材断面
  6
CONTINUOUS
 10
-72.836132
 20
-75.241785
 11
-93.26879
 21
-64.975767
  0
CIRCLE
  8
ボルト／ビス
  6
CONTINUOUS
 10
-72.759857
 20
-74.347502
 40
0.250185
  0
CIRCLE
  8
ボルト／ビス
  6
CONTINUOUS
 10
-72.759857
 20
-74.347502
 40
0.301025
  0
LINE
  8
ボルト／ビス
  6
CONTINUOUS
 62
    64
 10
-72.510092
 20
-74.333
 11
-72.647537
 21
-74.12395
  0
LINE
  8
ボルト／ビス
  6
CONTINUOUS
 62
    64
 10
-72.897303
 20
-74.138453
 11
-72.647537
 21
-74.12395
  0
LINE
  8
ボルト／ビス
  6
CONTINUOUS
 62
    64
 10
-72.622412
 20
-74.556552
 11
-72.872177
 21
-74.571055
  0
LINE
  8
ボルト／ビス
  6
CONTINUOUS
 62
    64
 10
-73.009623
 20
-74.362005
 11
-72.872177
 21
-74.571055
  0
LINE
  8
ボルト／ビス
  6
CONTINUOUS
 62
    64
 10
-72.510092
 20
-74.333
 11
-72.622412
 21
-74.556552
  0
LINE
  8
ボルト／ビス
  6
CONTINUOUS
 62
    64
 10
-72.897303
 20
-74.138453
 11
-73.009623
 21
-74.362005
  0
CIRCLE
  8
ボルト／ビス
  6
CONTINUOUS
 62
    64
 10
-72.759857
 20
-74.347502
 40
0.216668
  0
CIRCLE
  8
ボルト／ビス
  6
CONTINUOUS
 10
-82.678335
 20
-69.364145
 40
0.250185
  0
CIRCLE
  8
ボルト／ビス
  6
CONTINUOUS
 10
-82.678335
 20
-69.364145
 40
0.301025
  0
LINE
  8
ボルト／ビス
  6
CONTINUOUS
 62
    64
 10
-82.42857
 20
-69.34964
 11
-82.566015
 21
-69.14059
  0
LINE
  8
ボルト／ビス
  6
CONTINUOUS
 62
    64
 10
-82.81578
 20
-69.155092
 11
-82.566015
 21
-69.14059
  0
LINE
  8
ボルト／ビス
  6
CONTINUOUS
 62
    64
 10
-82.54089
 20
-69.573195
 11
-82.790657
 21
-69.5877
  0
LINE
  8
ボルト／ビス
  6
CONTINUOUS
 62
    64
 10
-82.9281
 20
-69.37865
 11
-82.790657
 21
-69.5877
  0
LINE
  8
ボルト／ビス
  6
CONTINUOUS
 62
    64
 10
-82.42857
 20
-69.34964
 11
-82.54089
 21
-69.573195
  0
LINE
  8
ボルト／ビス
  6
CONTINUOUS
 62
    64
 10
-82.81578
 20
-69.155092
 11
-82.9281
 21
-69.37865
  0
CIRCLE
  8
ボルト／ビス
  6
CONTINUOUS
 62
    64
 10
-82.678335
 20
-69.364145
 40
0.216668
  0
CIRCLE
  8
ボルト／ビス
  6
CONTINUOUS
 10
-92.596813
 20
-64.380788
 40
0.250185
  0
CIRCLE
  8
ボルト／ビス
  6
CONTINUOUS
 10
-92.596813
 20
-64.380788
 40
0.301025
  0
LINE
  8
ボルト／ビス
  6
CONTINUOUS
 62
    64
 10
-92.734257
 20
-64.171738
 11
-92.484493
 21
-64.157235
  0
LINE
  8
ボルト／ビス
  6
CONTINUOUS
 62
    64
 10
-92.347048
 20
-64.366285
 11
-92.484493
 21
-64.157235
  0
LINE
  8
ボルト／ビス
  6
CONTINUOUS
 62
    64
 10
-92.846577
 20
-64.395292
 11
-92.709135
 21
-64.60434
  0
LINE
  8
ボルト／ビス
  6
CONTINUOUS
 62
    64
 10
-92.459368
 20
-64.589837
 11
-92.709135
 21
-64.60434
  0
LINE
  8
ボルト／ビス
  6
CONTINUOUS
 62
    64
 10
-92.734257
 20
-64.171738
 11
-92.846577
 21
-64.395292
  0
LINE
  8
ボルト／ビス
  6
CONTINUOUS
 62
    64
 10
-92.347048
 20
-64.366285
 11
-92.459368
 21
-64.589837
  0
CIRCLE
  8
ボルト／ビス
  6
CONTINUOUS
 62
    64
 10
-92.596813
 20
-64.380788
 40
0.216668
  0
ENDBLK
  0
BLOCK
  2
*GRP_0033
 70
    65
 10
0.0
 20
0.0
  0
LINE
  8
補助線
  6
BYBLOCK
 62
    64
 10
17.328725
 20
-74.31009
 11
17.47765
 21
-74.384915
  0
LINE
  8
補助線
  6
BYBLOCK
 62
    64
 10
17.4406
 20
-74.273038
 11
17.365775
 21
-74.421965
  0
LINE
  8
補助線
  6
BYBLOCK
 62
    64
 10
7.410245
 20
-69.326732
 11
7.559173
 21
-69.401558
  0
LINE
  8
補助線
  6
BYBLOCK
 62
    64
 10
7.522122
 20
-69.28968
 11
7.447298
 21
-69.438608
  0
LINE
  8
補助線
  6
BYBLOCK
 62
    64
 10
-2.359305
 20
-64.4182
 11
-2.508233
 21
-64.343375
  0
LINE
  8
補助線
  6
BYBLOCK
 62
    64
 10
-2.396355
 20
-64.306322
 11
-2.47118
 21
-64.45525
  0
LINE
  8
型材断面
  6
CONTINUOUS
 10
18.075165
 20
-73.752525
 11
18.297467
 21
-74.423777
  0
LINE
  8
型材断面
  6
CONTINUOUS
 10
18.297467
 20
-74.423777
 11
17.998165
 21
-75.019482
  0
LINE
  8
型材断面
  6
CONTINUOUS
 10
17.998165
 20
-75.019482
 11
17.326913
 21
-75.241785
  0
LINE
  8
型材断面
  6
CONTINUOUS
 10
-2.357492
 20
-63.486507
 11
-3.028748
 21
-63.70881
  0
LINE
  8
型材断面
  6
CONTINUOUS
 10
-3.028748
 20
-63.70881
 11
-3.32805
 21
-64.304515
  0
LINE
  8
型材断面
  6
CONTINUOUS
 10
-3.32805
 20
-64.304515
 11
-3.105745
 21
-64.975767
  0
LINE
  8
型材断面
  6
CONTINUOUS
 10
18.075165
 20
-73.752525
 11
-2.357492
 21
-63.486507
  0
LINE
  8
型材断面
  6
CONTINUOUS
 10
17.326913
 20
-75.241785
 11
-3.105745
 21
-64.975767
  0
CIRCLE
  8
ボルト／ビス
  6
CONTINUOUS
 10
17.403188
 20
-74.347502
 40
0.250185
  0
CIRCLE
  8
ボルト／ビス
  6
CONTINUOUS
 10
17.403188
 20
-74.347502
 40
0.301025
  0
LINE
  8
ボルト／ビス
  6
CONTINUOUS
 62
    64
 10
17.652952
 20
-74.333
 11
17.515508
 21
-74.12395
  0
LINE
  8
ボルト／ビス
  6
CONTINUOUS
 62
    64
 10
17.265742
 20
-74.138453
 11
17.515508
 21
-74.12395
  0
LINE
  8
ボルト／ビス
  6
CONTINUOUS
 62
    64
 10
17.540632
 20
-74.556552
 11
17.290868
 21
-74.571055
  0
LINE
  8
ボルト／ビス
  6
CONTINUOUS
 62
    64
 10
17.153422
 20
-74.362005
 11
17.290868
 21
-74.571055
  0
LINE
  8
ボルト／ビス
  6
CONTINUOUS
 62
    64
 10
17.652952
 20
-74.333
 11
17.540632
 21
-74.556552
  0
LINE
  8
ボルト／ビス
  6
CONTINUOUS
 62
    64
 10
17.265742
 20
-74.138453
 11
17.153422
 21
-74.362005
  0
CIRCLE
  8
ボルト／ビス
  6
CONTINUOUS
 62
    64
 10
17.403188
 20
-74.347502
 40
0.216668
  0
CIRCLE
  8
ボルト／ビス
  6
CONTINUOUS
 10
7.48471
 20
-69.364145
 40
0.250185
  0
CIRCLE
  8
ボルト／ビス
  6
CONTINUOUS
 10
7.48471
 20
-69.364145
 40
0.301025
  0
LINE
  8
ボルト／ビス
  6
CONTINUOUS
 62
    64
 10
7.734475
 20
-69.34964
 11
7.59703
 21
-69.14059
  0
LINE
  8
ボルト／ビス
  6
CONTINUOUS
 62
    64
 10
7.347265
 20
-69.155092
 11
7.59703
 21
-69.14059
  0
LINE
  8
ボルト／ビス
  6
CONTINUOUS
 62
    64
 10
7.622155
 20
-69.573195
 11
7.372387
 21
-69.5877
  0
LINE
  8
ボルト／ビス
  6
CONTINUOUS
 62
    64
 10
7.234945
 20
-69.37865
 11
7.372387
 21
-69.5877
  0
LINE
  8
ボルト／ビス
  6
CONTINUOUS
 62
    64
 10
7.734475
 20
-69.34964
 11
7.622155
 21
-69.573195
  0
LINE
  8
ボルト／ビス
  6
CONTINUOUS
 62
    64
 10
7.347265
 20
-69.155092
 11
7.234945
 21
-69.37865
  0
CIRCLE
  8
ボルト／ビス
  6
CONTINUOUS
 62
    64
 10
7.48471
 20
-69.364145
 40
0.216668
  0
CIRCLE
  8
ボルト／ビス
  6
CONTINUOUS
 10
-2.433767
 20
-64.380788
 40
0.250185
  0
CIRCLE
  8
ボルト／ビス
  6
CONTINUOUS
 10
-2.433767
 20
-64.380788
 40
0.301025
  0
LINE
  8
ボルト／ビス
  6
CONTINUOUS
 62
    64
 10
-2.571213
 20
-64.171738
 11
-2.321447
 21
-64.157235
  0
LINE
  8
ボルト／ビス
  6
CONTINUOUS
 62
    64
 10
-2.184003
 20
-64.366285
 11
-2.321447
 21
-64.157235
  0
LINE
  8
ボルト／ビス
  6
CONTINUOUS
 62
    64
 10
-2.683533
 20
-64.395292
 11
-2.54609
 21
-64.60434
  0
LINE
  8
ボルト／ビス
  6
CONTINUOUS
 62
    64
 10
-2.296323
 20
-64.589837
 11
-2.54609
 21
-64.60434
  0
LINE
  8
ボルト／ビス
  6
CONTINUOUS
 62
    64
 10
-2.571213
 20
-64.171738
 11
-2.683533
 21
-64.395292
  0
LINE
  8
ボルト／ビス
  6
CONTINUOUS
 62
    64
 10
-2.184003
 20
-64.366285
 11
-2.296323
 21
-64.589837
  0
CIRCLE
  8
ボルト／ビス
  6
CONTINUOUS
 62
    64
 10
-2.433767
 20
-64.380788
 40
0.216668
  0
ENDBLK
  0
BLOCK
  2
*GRP_0034
 70
    65
 10
0.0
 20
0.0
  0
LINE
  8
補助線
  6
BYBLOCK
 62
    64
 10
-2.359305
 20
-74.31009
 11
-2.50823
 21
-74.384915
  0
LINE
  8
補助線
  6
BYBLOCK
 62
    64
 10
-2.47118
 20
-74.273038
 11
-2.396355
 21
-74.421965
  0
LINE
  8
補助線
  6
BYBLOCK
 62
    64
 10
7.559175
 20
-69.326732
 11
7.410247
 21
-69.401558
  0
LINE
  8
補助線
  6
BYBLOCK
 62
    64
 10
7.447298
 20
-69.28968
 11
7.522122
 21
-69.438608
  0
LINE
  8
補助線
  6
BYBLOCK
 62
    64
 10
17.328725
 20
-64.4182
 11
17.477652
 21
-64.343375
  0
LINE
  8
補助線
  6
BYBLOCK
 62
    64
 10
17.365775
 20
-64.306322
 11
17.4406
 21
-64.45525
  0
LINE
  8
型材断面
  6
CONTINUOUS
 10
-3.105745
 20
-73.752525
 11
-3.328047
 21
-74.423777
  0
LINE
  8
型材断面
  6
CONTINUOUS
 10
-3.328047
 20
-74.423777
 11
-3.028745
 21
-75.019482
  0
LINE
  8
型材断面
  6
CONTINUOUS
 10
-3.028745
 20
-75.019482
 11
-2.357492
 21
-75.241785
  0
LINE
  8
型材断面
  6
CONTINUOUS
 10
17.326913
 20
-63.486507
 11
17.998168
 21
-63.70881
  0
LINE
  8
型材断面
  6
CONTINUOUS
 10
17.998168
 20
-63.70881
 11
18.29747
 21
-64.304515
  0
LINE
  8
型材断面
  6
CONTINUOUS
 10
18.29747
 20
-64.304515
 11
18.075165
 21
-64.975767
  0
LINE
  8
型材断面
  6
CONTINUOUS
 10
-3.105745
 20
-73.752525
 11
17.326913
 21
-63.486507
  0
LINE
  8
型材断面
  6
CONTINUOUS
 10
-2.357492
 20
-75.241785
 11
18.075165
 21
-64.975767
  0
CIRCLE
  8
ボルト／ビス
  6
CONTINUOUS
 10
-2.433767
 20
-74.347502
 40
0.250185
  0
CIRCLE
  8
ボルト／ビス
  6
CONTINUOUS
 10
-2.433767
 20
-74.347502
 40
0.301025
  0
LINE
  8
ボルト／ビス
  6
CONTINUOUS
 62
    64
 10
-2.683533
 20
-74.333
 11
-2.546087
 21
-74.12395
  0
LINE
  8
ボルト／ビス
  6
CONTINUOUS
 62
    64
 10
-2.296323
 20
-74.138453
 11
-2.546087
 21
-74.12395
  0
LINE
  8
ボルト／ビス
  6
CONTINUOUS
 62
    64
 10
-2.571213
 20
-74.556552
 11
-2.321447
 21
-74.571055
  0
LINE
  8
ボルト／ビス
  6
CONTINUOUS
 62
    64
 10
-2.184003
 20
-74.362005
 11
-2.321447
 21
-74.571055
  0
LINE
  8
ボルト／ビス
  6
CONTINUOUS
 62
    64
 10
-2.683533
 20
-74.333
 11
-2.571213
 21
-74.556552
  0
LINE
  8
ボルト／ビス
  6
CONTINUOUS
 62
    64
 10
-2.296323
 20
-74.138453
 11
-2.184003
 21
-74.362005
  0
CIRCLE
  8
ボルト／ビス
  6
CONTINUOUS
 62
    64
 10
-2.433767
 20
-74.347502
 40
0.216668
  0
CIRCLE
  8
ボルト／ビス
  6
CONTINUOUS
 10
7.48471
 20
-69.364145
 40
0.250185
  0
CIRCLE
  8
ボルト／ビス
  6
CONTINUOUS
 10
7.48471
 20
-69.364145
 40
0.301025
  0
LINE
  8
ボルト／ビス
  6
CONTINUOUS
 62
    64
 10
7.234945
 20
-69.34964
 11
7.37239
 21
-69.14059
  0
LINE
  8
ボルト／ビス
  6
CONTINUOUS
 62
    64
 10
7.622155
 20
-69.155092
 11
7.37239
 21
-69.14059
  0
LINE
  8
ボルト／ビス
  6
CONTINUOUS
 62
    64
 10
7.347265
 20
-69.573195
 11
7.597033
 21
-69.5877
  0
LINE
  8
ボルト／ビス
  6
CONTINUOUS
 62
    64
 10
7.734475
 20
-69.37865
 11
7.597033
 21
-69.5877
  0
LINE
  8
ボルト／ビス
  6
CONTINUOUS
 62
    64
 10
7.234945
 20
-69.34964
 11
7.347265
 21
-69.573195
  0
LINE
  8
ボルト／ビス
  6
CONTINUOUS
 62
    64
 10
7.622155
 20
-69.155092
 11
7.734475
 21
-69.37865
  0
CIRCLE
  8
ボルト／ビス
  6
CONTINUOUS
 62
    64
 10
7.48471
 20
-69.364145
 40
0.216668
  0
CIRCLE
  8
ボルト／ビス
  6
CONTINUOUS
 10
17.403188
 20
-64.380788
 40
0.250185
  0
CIRCLE
  8
ボルト／ビス
  6
CONTINUOUS
 10
17.403188
 20
-64.380788
 40
0.301025
  0
LINE
  8
ボルト／ビス
  6
CONTINUOUS
 62
    64
 10
17.540632
 20
-64.171738
 11
17.290868
 21
-64.157235
  0
LINE
  8
ボルト／ビス
  6
CONTINUOUS
 62
    64
 10
17.153422
 20
-64.366285
 11
17.290868
 21
-64.157235
  0
LINE
  8
ボルト／ビス
  6
CONTINUOUS
 62
    64
 10
17.652952
 20
-64.395292
 11
17.51551
 21
-64.60434
  0
LINE
  8
ボルト／ビス
  6
CONTINUOUS
 62
    64
 10
17.265742
 20
-64.589837
 11
17.51551
 21
-64.60434
  0
LINE
  8
ボルト／ビス
  6
CONTINUOUS
 62
    64
 10
17.540632
 20
-64.171738
 11
17.652952
 21
-64.395292
  0
LINE
  8
ボルト／ビス
  6
CONTINUOUS
 62
    64
 10
17.153422
 20
-64.366285
 11
17.265742
 21
-64.589837
  0
CIRCLE
  8
ボルト／ビス
  6
CONTINUOUS
 62
    64
 10
17.403188
 20
-64.380788
 40
0.216668
  0
ENDBLK
  0
BLOCK
  2
*DIM_0035
 70
    65
 10
0.0
 20
0.0
  0
LINE
  8
寸法
  6
CONTINUOUS
 10
118.95802
 20
-49.520295
 11
118.95802
 21
-42.268728
  0
LINE
  8
寸法
  6
CONTINUOUS
 10
155.281352
 20
-49.520295
 11
155.281352
 21
-42.268728
  0
LINE
  8
寸法
  6
CONTINUOUS
 10
118.95802
 20
-42.268728
 11
155.281352
 21
-42.268728
  0
POINT
  8
寸法
 10
118.95802
 20
-42.268728
  0
POINT
  8
寸法
 10
155.281352
 20
-42.268728
  0
TEXT
  7
TextStyle03
  8
寸法
  6
CONTINUOUS
 10
132.13125
 20
-41.9
  1
1089.7
 40
3.0
 72
     5
 11
142.06875
 21
-41.9
  0
ENDBLK
  0
BLOCK
  2
*DIM_0036
 70
    65
 10
0.0
 20
0.0
  0
LINE
  8
寸法
  6
CONTINUOUS
 10
160.281352
 20
-54.520295
 11
169.192507
 21
-54.520295
  0
LINE
  8
寸法
  6
CONTINUOUS
 10
160.281352
 20
-73.853628
 11
169.192507
 21
-73.853628
  0
LINE
  8
寸法
  6
CONTINUOUS
 10
169.192507
 20
-54.520295
 11
169.192507
 21
-73.853628
  0
POINT
  8
寸法
 10
169.192507
 20
-54.520295
  0
POINT
  8
寸法
 10
169.192507
 20
-73.853628
  0
TEXT
  7
TextStyle03
  8
寸法
  6
CONTINUOUS
 10
168.8
 20
-66.6375
  1
580
 40
3.0
 50
90.0
 72
     5
 11
168.8
 21
-61.7625
  0
ENDBLK
  0
BLOCK
  2
*DIM_0037
 70
    65
 10
0.0
 20
0.0
  0
LINE
  8
寸法
  6
CONTINUOUS
 10
39.683193
 20
-68.209977
 11
39.683193
 21
-32.437345
  0
LINE
  8
寸法
  6
CONTINUOUS
 10
37.403498
 20
-32.437345
 11
39.683193
 21
-32.437345
  0
POINT
  8
寸法
 10
37.403498
 20
-32.437345
  0
POINT
  8
寸法
 10
39.683193
 20
-32.437345
  0
TEXT
  7
TextStyle03
  8
寸法
  6
CONTINUOUS
 10
41.99375
 20
-32.075
  1
68.4
 40
3.0
 72
     5
 11
48.55625
 21
-32.075
  0
ENDBLK
  0
BLOCK
  2
*DIM_0038
 70
    65
 10
0.0
 20
0.0
  0
LINE
  8
寸法
  6
CONTINUOUS
 10
-114.876188
 20
-68.209977
 11
-114.876188
 21
-32.437345
  0
LINE
  8
寸法
  6
CONTINUOUS
 10
-112.596493
 20
-32.437345
 11
-114.876188
 21
-32.437345
  0
POINT
  8
寸法
 10
-112.596493
 20
-32.437345
  0
POINT
  8
寸法
 10
-114.876188
 20
-32.437345
  0
TEXT
  7
TextStyle03
  8
寸法
  6
CONTINUOUS
 10
-123.78125
 20
-32.075
  1
68.4
 40
3.0
 72
     5
 11
-117.21875
 21
-32.075
  0
ENDBLK
  0
BLOCK
  2
*DIM_0039
 70
    65
 10
0.0
 20
0.0
  0
LINE
  8
寸法
  6
CONTINUOUS
 10
37.403498
 20
-32.437345
 11
-112.596493
 21
-32.437345
  0
POINT
  8
寸法
 10
37.403498
 20
-32.437345
  0
POINT
  8
寸法
 10
-112.596493
 20
-32.437345
  0
TEXT
  7
TextStyle03
  8
寸法
  6
CONTINUOUS
 10
-49.31875
 20
-32.075
  1
呼称寸法　4500
 40
3.0
 72
     5
 11
-25.88125
 21
-32.075
  0
ENDBLK
  0
BLOCK
  2
M8横
 70
    64
 10
-88.370132
 20
140.837665
  0
LINE
  8
ボルト／ビス
 10
-95.870132
 20
140.837665
 11
-80.870132
 21
140.837665
  0
LINE
  8
ボルト／ビス
 10
-80.870132
 20
145.837665
 11
-81.370132
 21
146.337665
  0
POLYLINE
  8
ボルト／ビス
 66
     1
  0
VERTEX
  8
ボルト／ビス
 10
-84.120132
 20
146.337665
  0
VERTEX
  8
ボルト／ビス
 10
-84.620132
 20
145.837665
  0
VERTEX
  8
ボルト／ビス
 10
-85.120132
 20
146.337665
  0
SEQEND
  0
POLYLINE
  8
ボルト／ビス
 66
     1
  0
VERTEX
  8
ボルト／ビス
 10
-91.620132
 20
146.337665
  0
VERTEX
  8
ボルト／ビス
 10
-92.120132
 20
145.837665
  0
VERTEX
  8
ボルト／ビス
 10
-92.620132
 20
146.337665
  0
SEQEND
  0
LINE
  8
ボルト／ビス
 10
-95.370132
 20
146.337665
 11
-95.870132
 21
145.837665
  0
LINE
  8
ボルト／ビス
 10
-95.870132
 20
140.837665
 11
-95.870132
 21
145.837665
  0
LINE
  8
ボルト／ビス
 10
-80.870132
 20
140.837665
 11
-80.870132
 21
145.837665
  0
LINE
  8
ボルト／ビス
 10
-95.370132
 20
146.337665
 11
-81.370132
 21
146.337665
  0
LINE
  8
ボルト／ビス
 10
-84.620132
 20
140.837665
 11
-84.620132
 21
145.837665
  0
LINE
  8
ボルト／ビス
 10
-92.120132
 20
140.837665
 11
-92.120132
 21
145.837665
  0
ENDBLK
  0
ENDSEC
  0
SECTION
  2
ENTITIES
  0
POLYLINE
  8
通り芯
  6
CONTINUOUS
 66
     1
 70
     1
  0
VERTEX
  8
通り芯
 10
-210.0
 20
-148.5
  0
VERTEX
  8
通り芯
 10
210.0
 20
-148.5
  0
VERTEX
  8
通り芯
 10
210.0
 20
148.5
  0
VERTEX
  8
通り芯
 10
-210.0
 20
148.5
  0
SEQEND
  0
INSERT
  2
*GRP_0001
  8
型材断面
  6
CONTINUOUS
 10
0.0
 20
0.0
  0
LINE
  8
型材断面
  6
CONTINUOUS
 10
162.97617
 20
61.869993
 11
162.97617
 21
61.819993
  0
LINE
  8
型材断面
  6
CONTINUOUS
 10
162.47617
 20
60.203325
 11
161.742835
 21
60.203325
  0
LINE
  8
型材断面
  6
CONTINUOUS
 62
    47
 10
169.709335
 20
61.60302
 11
169.709335
 21
61.55302
  0
LINE
  8
型材断面
  6
CONTINUOUS
 62
    47
 10
169.709335
 20
61.60302
 11
169.209335
 21
61.60302
  0
LINE
  8
型材断面
  6
CONTINUOUS
 10
163.459335
 20
60.25302
 11
163.459335
 21
61.699688
  0
LINE
  8
型材断面
  6
CONTINUOUS
 10
163.909335
 20
61.699688
 11
163.459335
 21
61.699688
  0
LINE
  8
型材断面
  6
CONTINUOUS
 62
    47
 10
166.582028
 20
62.43302
 11
166.582028
 21
62.48302
  0
LINE
  8
型材断面
  6
CONTINUOUS
 62
    47
 10
166.582028
 20
62.48302
 11
166.248695
 21
62.48302
  0
LINE
  8
型材断面
  6
CONTINUOUS
 62
    47
 10
166.248695
 20
62.48302
 11
166.148695
 21
61.699688
  0
LINE
  8
型材断面
  6
CONTINUOUS
 62
    47
 10
165.74267
 20
61.699688
 11
166.148695
 21
61.699688
  0
LINE
  8
型材断面
  6
CONTINUOUS
 62
    47
 10
165.74267
 20
62.169687
 11
163.909335
 21
62.169687
  0
LINE
  8
型材断面
  6
CONTINUOUS
 10
162.97617
 20
61.869993
 11
162.47617
 21
61.869993
  0
LINE
  8
型材断面
  6
CONTINUOUS
 10
163.459335
 20
60.25302
 11
162.97617
 21
60.25302
  0
LINE
  8
型材断面
  6
CONTINUOUS
 62
    47
 10
169.209335
 20
62.169687
 11
166.582028
 21
62.169687
  0
INSERT
  2
*GRP_0002
  8
型材断面
  6
DOT
 10
0.0
 20
0.0
  0
INSERT
  2
*GRP_0003
  8
型材断面
  6
DOT
 10
0.0
 20
0.0
  0
LINE
  8
型材断面
  6
CONTINUOUS
 10
169.209335
 20
62.169687
 11
169.209335
 21
50.203325
  0
LINE
  8
型材断面
  6
CONTINUOUS
 10
169.709335
 20
61.60302
 11
169.709335
 21
50.203325
  0
LINE
  8
型材断面
  6
CONTINUOUS
 10
166.582028
 20
62.48302
 11
166.582028
 21
50.203325
  0
LINE
  8
型材断面
  6
CONTINUOUS
 10
166.248695
 20
62.48302
 11
166.248695
 21
50.203325
  0
LINE
  8
型材断面
  6
CONTINUOUS
 10
166.148695
 20
61.699688
 11
166.148695
 21
50.203325
  0
LINE
  8
型材断面
  6
CONTINUOUS
 10
165.74267
 20
62.169687
 11
165.74267
 21
50.203325
  0
LINE
  8
型材断面
  6
CONTINUOUS
 10
162.97617
 20
61.869993
 11
162.97617
 21
50.203325
  0
LINE
  8
型材断面
  6
CONTINUOUS
 10
161.742835
 20
60.203325
 11
161.742835
 21
50.203325
  0
LINE
  8
型材断面
  6
CONTINUOUS
 10
162.47617
 20
61.869993
 11
162.47617
 21
50.203325
  0
LINE
  8
型材断面
  6
CONTINUOUS
 10
163.459335
 20
61.699688
 11
163.459335
 21
50.203325
  0
LINE
  8
型材断面
  6
CONTINUOUS
 10
163.909335
 20
62.169687
 11
163.909335
 21
50.203325
  0
LINE
  8
型材断面
  6
CONTINUOUS
 10
162.97617
 20
38.53666
 11
162.97617
 21
38.58666
  0
LINE
  8
型材断面
  6
CONTINUOUS
 10
162.47617
 20
40.203325
 11
161.742835
 21
40.203325
  0
LINE
  8
型材断面
  6
CONTINUOUS
 62
    47
 10
169.709335
 20
38.80363
 11
169.709335
 21
38.85363
  0
LINE
  8
型材断面
  6
CONTINUOUS
 62
    47
 10
169.709335
 20
38.80363
 11
169.209335
 21
38.80363
  0
LINE
  8
型材断面
  6
CONTINUOUS
 10
163.459335
 20
40.15363
 11
163.459335
 21
38.706965
  0
LINE
  8
型材断面
  6
CONTINUOUS
 10
163.909335
 20
38.706965
 11
163.459335
 21
38.706965
  0
LINE
  8
型材断面
  6
CONTINUOUS
 62
    47
 10
166.582028
 20
37.97363
 11
166.582028
 21
37.92363
  0
LINE
  8
型材断面
  6
CONTINUOUS
 62
    47
 10
166.582028
 20
37.92363
 11
166.248695
 21
37.92363
  0
LINE
  8
型材断面
  6
CONTINUOUS
 62
    47
 10
166.248695
 20
37.92363
 11
166.148695
 21
38.706965
  0
LINE
  8
型材断面
  6
CONTINUOUS
 62
    47
 10
165.74267
 20
38.706965
 11
166.148695
 21
38.706965
  0
LINE
  8
型材断面
  6
CONTINUOUS
 62
    47
 10
165.74267
 20
38.236965
 11
163.909335
 21
38.236965
  0
LINE
  8
型材断面
  6
CONTINUOUS
 10
162.97617
 20
38.53666
 11
162.47617
 21
38.53666
  0
LINE
  8
型材断面
  6
CONTINUOUS
 10
163.459335
 20
40.15363
 11
162.97617
 21
40.15363
  0
LINE
  8
型材断面
  6
CONTINUOUS
 62
    47
 10
169.209335
 20
38.236965
 11
166.582028
 21
38.236965
  0
INSERT
  2
*GRP_0004
  8
型材断面
  6
DOT
 10
0.0
 20
0.0
  0
INSERT
  2
*GRP_0005
  8
型材断面
  6
DOT
 10
0.0
 20
0.0
  0
LINE
  8
型材断面
  6
CONTINUOUS
 10
169.209335
 20
38.236965
 11
169.209335
 21
50.203325
  0
LINE
  8
型材断面
  6
CONTINUOUS
 10
169.709335
 20
38.80363
 11
169.709335
 21
50.203325
  0
LINE
  8
型材断面
  6
CONTINUOUS
 10
166.582028
 20
37.92363
 11
166.582028
 21
50.203325
  0
LINE
  8
型材断面
  6
CONTINUOUS
 10
166.248695
 20
37.92363
 11
166.248695
 21
50.203325
  0
LINE
  8
型材断面
  6
CONTINUOUS
 10
166.148695
 20
38.706965
 11
166.148695
 21
50.203325
  0
LINE
  8
型材断面
  6
CONTINUOUS
 10
165.74267
 20
38.236965
 11
165.74267
 21
50.203325
  0
LINE
  8
型材断面
  6
CONTINUOUS
 10
162.97617
 20
38.53666
 11
162.97617
 21
50.203325
  0
LINE
  8
型材断面
  6
CONTINUOUS
 10
161.742835
 20
40.203325
 11
161.742835
 21
50.203325
  0
LINE
  8
型材断面
  6
CONTINUOUS
 10
162.47617
 20
38.53666
 11
162.47617
 21
50.203325
  0
LINE
  8
型材断面
  6
CONTINUOUS
 10
163.459335
 20
38.706965
 11
163.459335
 21
50.203325
  0
LINE
  8
型材断面
  6
CONTINUOUS
 10
163.909335
 20
38.236965
 11
163.909335
 21
50.203325
  0
LINE
  8
型材断面
  6
DASHDOT
 10
-37.596497
 20
-79.253555
 11
-37.596497
 21
60.203325
  0
LINE
  8
型材断面
  6
CONTINUOUS
 10
39.070165
 20
-69.937453
 11
39.020165
 21
-69.937453
  0
LINE
  8
型材断面
  6
CONTINUOUS
 10
37.403498
 20
-69.437453
 11
37.403498
 21
-68.70412
  0
LINE
  8
型材断面
  6
CONTINUOUS
 62
    47
 10
38.803192
 20
-76.67062
 11
38.753192
 21
-76.67062
  0
LINE
  8
型材断面
  6
CONTINUOUS
 62
    47
 10
38.803192
 20
-76.67062
 11
38.803192
 21
-76.17062
  0
LINE
  8
型材断面
  6
CONTINUOUS
 10
37.453192
 20
-70.42062
 11
38.89986
 21
-70.42062
  0
LINE
  8
型材断面
  6
CONTINUOUS
 10
38.89986
 20
-70.87062
 11
38.89986
 21
-70.42062
  0
LINE
  8
型材断面
  6
CONTINUOUS
 62
    47
 10
39.633193
 20
-73.543312
 11
39.683193
 21
-73.543312
  0
LINE
  8
型材断面
  6
CONTINUOUS
 62
    47
 10
39.683193
 20
-73.543312
 11
39.683193
 21
-73.209977
  0
LINE
  8
型材断面
  6
CONTINUOUS
 62
    47
 10
39.683193
 20
-73.209977
 11
38.89986
 21
-73.109977
  0
LINE
  8
型材断面
  6
CONTINUOUS
 62
    47
 10
38.89986
 20
-72.703953
 11
38.89986
 21
-73.109977
  0
LINE
  8
型材断面
  6
CONTINUOUS
 62
    47
 10
39.36986
 20
-72.703953
 11
39.36986
 21
-70.87062
  0
LINE
  8
型材断面
  6
CONTINUOUS
 10
39.070165
 20
-69.937453
 11
39.070165
 21
-69.437453
  0
LINE
  8
型材断面
  6
CONTINUOUS
 10
37.453192
 20
-70.42062
 11
37.453192
 21
-69.937453
  0
LINE
  8
型材断面
  6
CONTINUOUS
 62
    47
 10
39.36986
 20
-76.17062
 11
39.36986
 21
-73.543312
  0
INSERT
  2
*GRP_0010
  8
型材断面
  6
DOT
 10
0.0
 20
0.0
  0
INSERT
  2
*GRP_0011
  8
型材断面
  6
DOT
 10
0.0
 20
0.0
  0
LINE
  8
型材断面
  6
CONTINUOUS
 10
39.36986
 20
-76.17062
 11
-37.596497
 21
-76.17062
  0
LINE
  8
型材断面
  6
CONTINUOUS
 10
38.803192
 20
-76.67062
 11
-37.596497
 21
-76.67062
  0
LINE
  8
型材断面
  6
CONTINUOUS
 10
39.683193
 20
-73.543312
 11
-37.596497
 21
-73.543312
  0
LINE
  8
型材断面
  6
CONTINUOUS
 10
39.683193
 20
-73.209977
 11
-37.596497
 21
-73.209977
  0
LINE
  8
型材断面
  6
CONTINUOUS
 10
38.89986
 20
-73.109977
 11
-37.596497
 21
-73.109977
  0
LINE
  8
型材断面
  6
CONTINUOUS
 10
39.36986
 20
-72.703953
 11
-37.596497
 21
-72.703953
  0
LINE
  8
型材断面
  6
CONTINUOUS
 10
39.070165
 20
-69.937453
 11
-37.596497
 21
-69.937453
  0
LINE
  8
型材断面
  6
CONTINUOUS
 10
37.403498
 20
-68.70412
 11
-37.596497
 21
-68.70412
  0
LINE
  8
型材断面
  6
CONTINUOUS
 10
39.070165
 20
-69.437453
 11
-37.596497
 21
-69.437453
  0
LINE
  8
型材断面
  6
CONTINUOUS
 10
38.89986
 20
-70.42062
 11
-37.596497
 21
-70.42062
  0
LINE
  8
型材断面
  6
CONTINUOUS
 10
39.36986
 20
-70.87062
 11
-37.596497
 21
-70.87062
  0
LINE
  8
型材断面
  6
CONTINUOUS
 10
37.403498
 20
40.203325
 11
37.403498
 21
60.203325
  0
LINE
  8
型材断面
  6
CONTINUOUS
 10
39.36986
 20
38.236962
 11
39.36986
 21
62.169687
  0
LINE
  8
型材断面
  6
CONTINUOUS
 10
39.683193
 20
37.92363
 11
39.683193
 21
62.48302
  0
LINE
  8
型材断面
  6
CONTINUOUS
 10
39.070165
 20
38.536658
 11
39.070165
 21
61.869993
  0
LINE
  8
型材断面
  6
CONTINUOUS
 10
36.570165
 20
41.036658
 11
39.683193
 21
37.92363
  0
LINE
  8
型材断面
  6
CONTINUOUS
 10
36.570165
 20
59.369993
 11
39.683193
 21
62.48302
  0
LINE
  8
型材断面
  6
CONTINUOUS
 10
36.570165
 20
50.619993
 11
37.403498
 21
50.619993
  0
LINE
  8
型材断面
  6
CONTINUOUS
 10
36.570165
 20
49.786658
 11
37.403498
 21
49.786658
  0
LINE
  8
型材断面
  6
CONTINUOUS
 10
36.570165
 20
41.036658
 11
36.570165
 21
49.786658
  0
LINE
  8
型材断面
  6
CONTINUOUS
 10
36.570165
 20
50.619993
 11
36.570165
 21
59.369993
  0
LINE
  8
型材断面
  6
DASHDOT
 10
172.29227
 20
40.203325
 11
37.403498
 21
40.203325
  0
LINE
  8
型材断面
  6
DASHDOT
 10
172.29227
 20
60.203325
 11
37.403498
 21
60.203325
  0
LINE
  8
型材断面
  6
DASHDOT
 10
37.403498
 20
-79.253555
 11
37.403498
 21
40.203325
  0
LINE
  8
型材断面
  6
CONTINUOUS
 10
-114.26316
 20
-69.937453
 11
-114.21316
 21
-69.937453
  0
LINE
  8
型材断面
  6
CONTINUOUS
 10
-112.596493
 20
-69.437453
 11
-112.596493
 21
-68.70412
  0
LINE
  8
型材断面
  6
CONTINUOUS
 62
    47
 10
-113.996187
 20
-76.67062
 11
-113.946187
 21
-76.67062
  0
LINE
  8
型材断面
  6
CONTINUOUS
 62
    47
 10
-113.996187
 20
-76.67062
 11
-113.996187
 21
-76.17062
  0
LINE
  8
型材断面
  6
CONTINUOUS
 10
-112.646188
 20
-70.42062
 11
-114.092855
 21
-70.42062
  0
LINE
  8
型材断面
  6
CONTINUOUS
 10
-114.092855
 20
-70.87062
 11
-114.092855
 21
-70.42062
  0
LINE
  8
型材断面
  6
CONTINUOUS
 62
    47
 10
-114.826188
 20
-73.543312
 11
-114.876188
 21
-73.543312
  0
LINE
  8
型材断面
  6
CONTINUOUS
 62
    47
 10
-114.876188
 20
-73.543312
 11
-114.876188
 21
-73.209977
  0
LINE
  8
型材断面
  6
CONTINUOUS
 62
    47
 10
-114.876188
 20
-73.209977
 11
-114.092855
 21
-73.109977
  0
LINE
  8
型材断面
  6
CONTINUOUS
 62
    47
 10
-114.092855
 20
-72.703953
 11
-114.092855
 21
-73.109977
  0
LINE
  8
型材断面
  6
CONTINUOUS
 62
    47
 10
-114.562855
 20
-72.703953
 11
-114.562855
 21
-70.87062
  0
LINE
  8
型材断面
  6
CONTINUOUS
 10
-114.26316
 20
-69.937453
 11
-114.26316
 21
-69.437453
  0
LINE
  8
型材断面
  6
CONTINUOUS
 10
-112.646188
 20
-70.42062
 11
-112.646188
 21
-69.937453
  0
LINE
  8
型材断面
  6
CONTINUOUS
 62
    47
 10
-114.562855
 20
-76.17062
 11
-114.562855
 21
-73.543312
  0
INSERT
  2
*GRP_0013
  8
型材断面
  6
DOT
 10
0.0
 20
0.0
  0
INSERT
  2
*GRP_0014
  8
型材断面
  6
DOT
 10
0.0
 20
0.0
  0
LINE
  8
型材断面
  6
CONTINUOUS
 10
-114.562855
 20
-76.17062
 11
-37.596497
 21
-76.17062
  0
LINE
  8
型材断面
  6
CONTINUOUS
 10
-113.996187
 20
-76.67062
 11
-37.596497
 21
-76.67062
  0
LINE
  8
型材断面
  6
CONTINUOUS
 10
-114.876188
 20
-73.543312
 11
-37.596497
 21
-73.543312
  0
LINE
  8
型材断面
  6
CONTINUOUS
 10
-114.876188
 20
-73.209977
 11
-37.596497
 21
-73.209977
  0
LINE
  8
型材断面
  6
CONTINUOUS
 10
-114.092855
 20
-73.109977
 11
-37.596497
 21
-73.109977
  0
LINE
  8
型材断面
  6
CONTINUOUS
 10
-114.562855
 20
-72.703953
 11
-37.596497
 21
-72.703953
  0
LINE
  8
型材断面
  6
CONTINUOUS
 10
-114.26316
 20
-69.937453
 11
-37.596497
 21
-69.937453
  0
LINE
  8
型材断面
  6
CONTINUOUS
 10
-112.596493
 20
-68.70412
 11
-37.596497
 21
-68.70412
  0
LINE
  8
型材断面
  6
CONTINUOUS
 10
-114.26316
 20
-69.437453
 11
-37.596497
 21
-69.437453
  0
LINE
  8
型材断面
  6
CONTINUOUS
 10
-114.092855
 20
-70.42062
 11
-37.596497
 21
-70.42062
  0
LINE
  8
型材断面
  6
CONTINUOUS
 10
-114.562855
 20
-70.87062
 11
-37.596497
 21
-70.87062
  0
LINE
  8
型材断面
  6
CONTINUOUS
 10
-112.596493
 20
40.203325
 11
-112.596493
 21
60.203325
  0
LINE
  8
型材断面
  6
CONTINUOUS
 10
-114.562855
 20
38.236962
 11
-114.562855
 21
62.169687
  0
LINE
  8
型材断面
  6
CONTINUOUS
 10
-114.876188
 20
37.92363
 11
-114.876188
 21
62.48302
  0
LINE
  8
型材断面
  6
CONTINUOUS
 10
-114.26316
 20
38.536658
 11
-114.26316
 21
61.869993
  0
LINE
  8
型材断面
  6
CONTINUOUS
 10
-111.76316
 20
59.369993
 11
-114.876188
 21
62.48302
  0
LINE
  8
型材断面
  6
CONTINUOUS
 10
-111.76316
 20
41.036658
 11
-114.876188
 21
37.92363
  0
LINE
  8
型材断面
  6
CONTINUOUS
 10
-111.76316
 20
49.786658
 11
-112.596493
 21
49.786658
  0
LINE
  8
型材断面
  6
CONTINUOUS
 10
-111.76316
 20
50.619993
 11
-112.596493
 21
50.619993
  0
LINE
  8
型材断面
  6
CONTINUOUS
 10
-111.76316
 20
41.036658
 11
-111.76316
 21
49.786658
  0
LINE
  8
型材断面
  6
CONTINUOUS
 10
-111.76316
 20
50.619993
 11
-111.76316
 21
59.369993
  0
LINE
  8
型材断面
  6
DASHDOT
 10
172.29227
 20
50.203325
 11
-112.596493
 21
50.203325
  0
LINE
  8
型材断面
  6
DASHDOT
 10
-112.596493
 20
-79.253555
 11
-112.596493
 21
40.203325
  0
LINE
  8
型材断面
  6
CONTINUOUS
 10
37.403498
 20
40.203325
 11
-112.596493
 21
40.203325
  0
LINE
  8
型材断面
  6
CONTINUOUS
 10
39.36986
 20
38.236962
 11
-114.562855
 21
38.236962
  0
LINE
  8
型材断面
  6
CONTINUOUS
 10
39.683193
 20
37.92363
 11
-114.876188
 21
37.92363
  0
LINE
  8
型材断面
  6
CONTINUOUS
 10
39.070165
 20
38.536658
 11
-114.26316
 21
38.536658
  0
LINE
  8
型材断面
  6
CONTINUOUS
 10
37.403498
 20
60.203325
 11
-112.596493
 21
60.203325
  0
LINE
  8
型材断面
  6
CONTINUOUS
 10
39.36986
 20
62.169687
 11
-114.562855
 21
62.169687
  0
LINE
  8
型材断面
  6
CONTINUOUS
 10
39.683193
 20
62.48302
 11
-114.876188
 21
62.48302
  0
LINE
  8
型材断面
  6
CONTINUOUS
 10
39.070165
 20
61.869993
 11
-114.26316
 21
61.869993
  0
POLYLINE
  8
型材断面
  6
CONTINUOUS
 66
     1
 70
     1
  0
VERTEX
  8
型材断面
 10
54.703962
 20
-91.899758
  0
VERTEX
  8
型材断面
 10
6.025288
 20
-91.899758
  0
VERTEX
  8
型材断面
 10
6.025288
 20
-108.244423
  0
VERTEX
  8
型材断面
 10
54.703962
 20
-108.244423
  0
SEQEND
  0
POLYLINE
  8
型材断面
  6
CONTINUOUS
 66
     1
 70
     1
  0
VERTEX
  8
型材断面
 10
-28.209765
 20
30.427403
  0
VERTEX
  8
型材断面
 10
-46.981695
 20
30.427403
  0
VERTEX
  8
型材断面
 10
-46.981695
 20
25.69056
  0
VERTEX
  8
型材断面
 10
-28.209765
 20
25.69056
  0
SEQEND
  0
POLYLINE
  8
型材断面
  6
CONTINUOUS
 66
     1
 70
     1
  0
VERTEX
  8
型材断面
 10
-28.209765
 20
69.979248
  0
VERTEX
  8
型材断面
 10
-46.981695
 20
69.979248
  0
VERTEX
  8
型材断面
 10
-46.981695
 20
74.71609
  0
VERTEX
  8
型材断面
 10
-28.209765
 20
74.71609
  0
SEQEND
  0
LINE
  8
型材断面
  6
CONTINUOUS
 10
-95.92983
 20
62.833455
 11
-97.42546
 21
65.423963
  0
LINE
  8
型材断面
  6
CONTINUOUS
 10
-95.92983
 20
62.833455
 11
-94.4342
 21
65.423963
  0
LINE
  8
型材断面
  6
CONTINUOUS
 10
-94.4342
 20
65.423963
 11
-97.42546
 21
65.423963
  0
LINE
  8
型材断面
  6
CONTINUOUS
 10
-153.448705
 20
98.180797
 11
-152.85265
 21
95.59029
  0
LINE
  8
型材断面
  6
CONTINUOUS
 10
-153.448705
 20
98.180797
 11
-154.044762
 21
95.59029
  0
LINE
  8
型材断面
  6
CONTINUOUS
 10
-154.044762
 20
95.59029
 11
-152.85265
 21
95.59029
  0
LINE
  8
型材断面
  6
CONTINUOUS
 10
-159.471292
 20
92.311398
 11
-113.229515
 21
92.311398
  0
LINE
  8
型材断面
  6
CONTINUOUS
 10
-153.448705
 20
104.710672
 11
-154.944335
 21
102.120165
  0
LINE
  8
型材断面
  6
CONTINUOUS
 10
-153.448705
 20
104.710672
 11
-151.953075
 21
102.120165
  0
LINE
  8
型材断面
  6
CONTINUOUS
 10
-151.953075
 20
102.120165
 11
-154.944335
 21
102.120165
  0
LINE
  8
型材断面
  6
CONTINUOUS
 10
-159.471292
 20
101.18157
 11
-113.229515
 21
101.18157
  0
LINE
  8
型材断面
  6
CONTINUOUS
 10
-159.471292
 20
86.523365
 11
-113.229515
 21
86.523365
  0
LINE
  8
型材断面
  6
CONTINUOUS
 10
-115.226627
 20
50.203325
 11
-117.817135
 21
51.698955
  0
LINE
  8
型材断面
  6
CONTINUOUS
 10
-115.226627
 20
50.203325
 11
-117.817135
 21
48.707695
  0
LINE
  8
型材断面
  6
CONTINUOUS
 10
-117.817135
 20
48.707695
 11
-117.817135
 21
51.698955
  0
LINE
  8
型材断面
  6
CONTINUOUS
 10
-95.92983
 20
37.573195
 11
-97.42546
 21
34.982688
  0
LINE
  8
型材断面
  6
CONTINUOUS
 10
-95.92983
 20
37.573195
 11
-94.4342
 21
34.982688
  0
LINE
  8
型材断面
  6
CONTINUOUS
 10
-94.4342
 20
34.982688
 11
-97.42546
 21
34.982688
  0
LINE
  8
型材断面
  6
CONTINUOUS
 10
20.736835
 20
62.833455
 11
22.232465
 21
65.423963
  0
LINE
  8
型材断面
  6
CONTINUOUS
 10
20.736835
 20
62.833455
 11
19.241205
 21
65.423963
  0
LINE
  8
型材断面
  6
CONTINUOUS
 10
19.241205
 20
65.423963
 11
22.232465
 21
65.423963
  0
LINE
  8
型材断面
  6
CONTINUOUS
 10
40.033633
 20
50.203325
 11
42.62414
 21
51.698955
  0
LINE
  8
型材断面
  6
CONTINUOUS
 10
40.033633
 20
50.203325
 11
42.62414
 21
48.707695
  0
LINE
  8
型材断面
  6
CONTINUOUS
 10
42.62414
 20
48.707695
 11
42.62414
 21
51.698955
  0
LINE
  8
型材断面
  6
CONTINUOUS
 10
20.736835
 20
37.573195
 11
22.232465
 21
34.982688
  0
LINE
  8
型材断面
  6
CONTINUOUS
 10
20.736835
 20
37.573195
 11
19.241205
 21
34.982688
  0
LINE
  8
型材断面
  6
CONTINUOUS
 10
19.241205
 20
34.982688
 11
22.232465
 21
34.982688
  0
LINE
  8
型材断面
  6
CONTINUOUS
 10
-37.596497
 20
62.833453
 11
-36.100868
 21
65.42396
  0
LINE
  8
型材断面
  6
CONTINUOUS
 10
-37.596497
 20
62.833453
 11
-39.092127
 21
65.42396
  0
LINE
  8
型材断面
  6
CONTINUOUS
 10
-39.092127
 20
65.42396
 11
-36.100868
 21
65.42396
  0
LINE
  8
型材断面
  6
CONTINUOUS
 10
-37.596497
 20
37.573193
 11
-36.100868
 21
34.982685
  0
LINE
  8
型材断面
  6
CONTINUOUS
 10
-37.596497
 20
37.573193
 11
-39.092127
 21
34.982685
  0
LINE
  8
型材断面
  6
CONTINUOUS
 10
-39.092127
 20
34.982685
 11
-36.100868
 21
34.982685
  0
LINE
  8
型材断面
  6
CONTINUOUS
 10
40.03363
 20
56.303325
 11
42.624137
 21
55.707267
  0
LINE
  8
型材断面
  6
CONTINUOUS
 10
40.03363
 20
56.303325
 11
42.624137
 21
56.899382
  0
LINE
  8
型材断面
  6
CONTINUOUS
 10
42.624137
 20
56.899382
 11
42.624137
 21
55.707267
  0
LINE
  8
型材断面
  6
CONTINUOUS
 10
40.03363
 20
44.103325
 11
42.624137
 21
44.699382
  0
LINE
  8
型材断面
  6
CONTINUOUS
 10
40.03363
 20
44.103325
 11
42.624137
 21
43.507267
  0
LINE
  8
型材断面
  6
CONTINUOUS
 10
42.624137
 20
43.507267
 11
42.624137
 21
44.699382
  0
LINE
  8
型材断面
  6
CONTINUOUS
 10
-115.226625
 20
56.303325
 11
-117.817133
 21
55.707267
  0
LINE
  8
型材断面
  6
CONTINUOUS
 10
-115.226625
 20
56.303325
 11
-117.817133
 21
56.899382
  0
LINE
  8
型材断面
  6
CONTINUOUS
 10
-117.817133
 20
56.899382
 11
-117.817133
 21
55.707267
  0
LINE
  8
型材断面
  6
CONTINUOUS
 10
-115.226625
 20
44.103325
 11
-117.817133
 21
44.699382
  0
LINE
  8
型材断面
  6
CONTINUOUS
 10
-115.226625
 20
44.103325
 11
-117.817133
 21
43.507267
  0
LINE
  8
型材断面
  6
CONTINUOUS
 10
-117.817133
 20
43.507267
 11
-117.817133
 21
44.699382
  0
LINE
  8
型材断面
  6
CONTINUOUS
 10
-159.471292
 20
80.735332
 11
-113.229515
 21
80.735332
  0
LINE
  8
型材断面
  6
DASHDOT
 10
-75.2665
 20
40.203325
 11
-75.2665
 21
60.203325
  0
LINE
  8
型材断面
  6
DASHDOT
 10
0.073505
 20
40.203325
 11
0.073505
 21
60.203325
  0
LINE
  8
型材断面
  6
CONTINUOUS
 10
-74.0165
 20
41.86999
 11
-76.5165
 21
41.86999
  0
LINE
  8
型材断面
  6
CONTINUOUS
 10
-74.0165
 20
58.53666
 11
-76.5165
 21
58.53666
  0
LINE
  8
型材断面
  6
CONTINUOUS
 10
-74.0165
 20
41.86999
 11
-74.0165
 21
58.53666
  0
LINE
  8
型材断面
  6
CONTINUOUS
 10
-75.0165
 20
41.86999
 11
-75.0165
 21
58.53666
  0
LINE
  8
型材断面
  6
CONTINUOUS
 10
-75.5165
 20
41.86999
 11
-75.5165
 21
58.53666
  0
LINE
  8
型材断面
  6
CONTINUOUS
 10
-76.5165
 20
41.86999
 11
-76.5165
 21
58.53666
  0
LINE
  8
型材断面
  6
CONTINUOUS
 10
1.323505
 20
41.86999
 11
-1.176495
 21
41.86999
  0
LINE
  8
型材断面
  6
CONTINUOUS
 10
1.323505
 20
58.53666
 11
-1.176495
 21
58.53666
  0
LINE
  8
型材断面
  6
CONTINUOUS
 10
1.323505
 20
41.86999
 11
1.323505
 21
58.53666
  0
LINE
  8
型材断面
  6
CONTINUOUS
 10
0.323505
 20
41.86999
 11
0.323505
 21
58.53666
  0
LINE
  8
型材断面
  6
CONTINUOUS
 10
-0.176495
 20
41.86999
 11
-0.176495
 21
58.53666
  0
LINE
  8
型材断面
  6
CONTINUOUS
 10
-1.176495
 20
41.86999
 11
-1.176495
 21
58.53666
  0
LINE
  8
型材断面
  6
CONTINUOUS
 10
-36.346497
 20
41.86999
 11
-38.846497
 21
41.86999
  0
LINE
  8
型材断面
  6
CONTINUOUS
 10
-36.346497
 20
58.53666
 11
-38.846497
 21
58.53666
  0
LINE
  8
型材断面
  6
CONTINUOUS
 10
-36.346497
 20
41.86999
 11
-36.346497
 21
58.53666
  0
LINE
  8
型材断面
  6
CONTINUOUS
 10
-37.346497
 20
41.86999
 11
-37.346497
 21
58.53666
  0
LINE
  8
型材断面
  6
CONTINUOUS
 10
-37.846497
 20
41.86999
 11
-37.846497
 21
58.53666
  0
LINE
  8
型材断面
  6
CONTINUOUS
 10
-38.846497
 20
41.86999
 11
-38.846497
 21
58.53666
  0
INSERT
  2
*GRP_0025
  8
型材断面
  6
DOT
 10
0.0
 20
0.0
  0
INSERT
  2
*GRP_0031
  8
型材断面
  6
CONTINUOUS
 10
0.0
 20
0.0
  0
INSERT
  2
*GRP_0032
  8
型材断面
  6
CONTINUOUS
 10
0.0
 20
0.0
  0
INSERT
  2
*GRP_0033
  8
型材断面
  6
CONTINUOUS
 10
0.0
 20
0.0
  0
INSERT
  2
*GRP_0034
  8
型材断面
  6
CONTINUOUS
 10
0.0
 20
0.0
  0
LINE
  8
型材断面
  6
CONTINUOUS
 10
135.121292
 20
-35.331675
 11
116.810112
 21
-35.331675
  0
LINE
  8
型材断面
  6
CONTINUOUS
 10
-93.514827
 20
40.203325
 11
-93.514827
 21
41.036658
  0
LINE
  8
型材断面
  6
CONTINUOUS
 10
-94.348163
 20
40.203325
 11
-94.348163
 21
41.036658
  0
LINE
  8
型材断面
  6
CONTINUOUS
 10
-56.01483
 20
40.203325
 11
-56.01483
 21
41.036658
  0
LINE
  8
型材断面
  6
CONTINUOUS
 10
-56.848165
 20
40.203325
 11
-56.848165
 21
41.036658
  0
LINE
  8
型材断面
  6
CONTINUOUS
 10
-111.76316
 20
41.036658
 11
-94.348163
 21
41.036658
  0
LINE
  8
型材断面
  6
CONTINUOUS
 10
-93.514827
 20
41.036658
 11
-56.848165
 21
41.036658
  0
LINE
  8
型材断面
  6
CONTINUOUS
 10
18.321832
 20
40.203325
 11
18.321832
 21
41.036658
  0
LINE
  8
型材断面
  6
CONTINUOUS
 10
19.155168
 20
40.203325
 11
19.155168
 21
41.036658
  0
LINE
  8
型材断面
  6
CONTINUOUS
 10
-19.178165
 20
40.203325
 11
-19.178165
 21
41.036658
  0
LINE
  8
型材断面
  6
CONTINUOUS
 10
-18.34483
 20
40.203325
 11
-18.34483
 21
41.036658
  0
LINE
  8
型材断面
  6
CONTINUOUS
 10
36.570165
 20
41.036658
 11
19.155168
 21
41.036658
  0
LINE
  8
型材断面
  6
CONTINUOUS
 10
18.321832
 20
41.036658
 11
-18.34483
 21
41.036658
  0
LINE
  8
型材断面
  6
CONTINUOUS
 10
-56.01483
 20
41.036658
 11
-19.178165
 21
41.036658
  0
LINE
  8
型材断面
  6
CONTINUOUS
 10
-93.514827
 20
60.203325
 11
-93.514827
 21
59.369993
  0
LINE
  8
型材断面
  6
CONTINUOUS
 10
-94.348163
 20
60.203325
 11
-94.348163
 21
59.369993
  0
LINE
  8
型材断面
  6
CONTINUOUS
 10
-56.01483
 20
60.203325
 11
-56.01483
 21
59.369993
  0
LINE
  8
型材断面
  6
CONTINUOUS
 10
-56.848165
 20
60.203325
 11
-56.848165
 21
59.369993
  0
LINE
  8
型材断面
  6
CONTINUOUS
 10
-111.76316
 20
59.369993
 11
-94.348163
 21
59.369993
  0
LINE
  8
型材断面
  6
CONTINUOUS
 10
-93.514827
 20
59.369993
 11
-56.848165
 21
59.369993
  0
LINE
  8
型材断面
  6
CONTINUOUS
 10
18.321832
 20
60.203325
 11
18.321832
 21
59.369993
  0
LINE
  8
型材断面
  6
CONTINUOUS
 10
19.155168
 20
60.203325
 11
19.155168
 21
59.369993
  0
LINE
  8
型材断面
  6
CONTINUOUS
 10
-19.178165
 20
60.203325
 11
-19.178165
 21
59.369993
  0
LINE
  8
型材断面
  6
CONTINUOUS
 10
-18.34483
 20
60.203325
 11
-18.34483
 21
59.369993
  0
LINE
  8
型材断面
  6
CONTINUOUS
 10
36.570165
 20
59.369993
 11
19.155168
 21
59.369993
  0
LINE
  8
型材断面
  6
CONTINUOUS
 10
18.321832
 20
59.369993
 11
-18.34483
 21
59.369993
  0
LINE
  8
型材断面
  6
CONTINUOUS
 10
-56.01483
 20
59.369993
 11
-19.178165
 21
59.369993
  0
POLYLINE
  8
ガラス
  6
CONTINUOUS
 66
     1
 70
     1
  0
VERTEX
  8
ガラス
 10
155.281352
 20
-54.520295
  0
VERTEX
  8
ガラス
 10
118.95802
 20
-54.520295
  0
VERTEX
  8
ガラス
 10
118.95802
 20
-73.853628
  0
VERTEX
  8
ガラス
 10
155.281352
 20
-73.853628
  0
SEQEND
  0
TEXT
  7
TextStyle03
  8
文字
  6
CONTINUOUS
 10
78.1
 20
125.25
  1
シリーズ：ＳＴＤＬ
 40
5.0
 72
     5
 11
128.1
 21
125.25
  0
TEXT
  7
TextStyle03
  8
文字
  6
CONTINUOUS
 10
78.1
 20
119.625
  1
　　　　　（上下可動）600×4500タイプ
 40
5.0
 72
     5
 11
181.5375
 21
119.625
  0
TEXT
  7
TextStyle03
  8
文字
  6
CONTINUOUS
 10
78.1
 20
114.0
  1
図面名　：外観姿図
 40
5.0
 72
     5
 11
128.1
 21
114.0
  0
TEXT
  7
TextStyle03
  8
文字
  6
CONTINUOUS
 10
78.1
 20
108.375
  1
　　　　　　
 40
5.0
 72
     5
 11
111.225
 21
108.375
  0
TEXT
  7
TextStyle03
  8
文字
  6
CONTINUOUS
 10
10.325
 20
-97.625
  1
※トップライト枠高さ寸法
 40
3.0
 72
     5
 11
50.45
 21
-97.625
  0
TEXT
  7
TextStyle03
  8
文字
  6
CONTINUOUS
 10
10.325
 20
-101.0
  1
　シングルガラス：214
 40
3.0
 72
     5
 11
45.575
 21
-101.0
  0
TEXT
  7
TextStyle03
  8
文字
  6
CONTINUOUS
 10
10.325
 20
-104.375
  1
　ペアガラス：224
 40
3.0
 72
     5
 11
38.825
 21
-104.375
  0
TEXT
  7
TextStyle03
  8
文字
  6
CONTINUOUS
 10
-45.925
 20
26.7
  1
可動装置側
 40
3.0
 72
     5
 11
-29.425
 21
26.7
  0
TEXT
  7
TextStyle03
  8
文字
  6
CONTINUOUS
 10
-45.925
 20
70.675
  1
可動装置側
 40
3.0
 72
     5
 11
-29.425
 21
70.675
  0
TEXT
  7
TextStyle03
  8
文字
  6
CONTINUOUS
 10
-150.6
 20
96.8
  1
はケーシング位置を示す
 40
3.0
 72
     5
 11
-113.85
 21
96.8
  0
TEXT
  7
TextStyle03
  8
文字
  6
CONTINUOUS
 10
-150.6
 20
93.425
  1
４ヶ所中1ヶ所に設定
 40
3.0
 72
     5
 11
-118.9125
 21
93.425
  0
TEXT
  7
TextStyle03
  8
文字
  6
CONTINUOUS
 10
-150.6
 20
102.325
  1
は排水穴位置を示す
 40
3.0
 72
     5
 11
-120.6
 21
102.325
  0
TEXT
  7
TextStyle03
  8
文字
  6
CONTINUOUS
 10
-133.55
 20
28.65
  1
アンカーピッチ
 40
3.0
 50
90.0
 72
     5
 11
-133.55
 21
51.9
  0
TEXT
  7
TextStyle03
  8
文字
  6
CONTINUOUS
 10
-97.625
 20
97.275
  1
アンカーピッチ
 40
3.0
 72
     5
 11
-74.375
 21
97.275
  0
TEXT
  7
TextStyle03
  8
文字
  6
CONTINUOUS
 10
-154.325
 20
87.45
  1
アンカー数量　１６ヶ所
 40
3.0
 72
     5
 11
-117.575
 21
87.45
  0
TEXT
  7
TextStyle03
  8
文字
  6
CONTINUOUS
 10
-154.4
 20
81.675
  1
アームユニット数　４ヶ所
 40
3.0
 72
     5
 11
-114.275
 21
81.675
  0
TEXT
  7
TextStyle03
  8
文字
  6
CONTINUOUS
 10
117.475
 20
-34.45
  1
ガラス寸法
 40
3.0
 72
     5
 11
133.975
 21
-34.45
  0
TEXT
  7
TextStyle03
  8
文字
  6
CONTINUOUS
 10
141.8
 20
-71.2
  1
×４枚
 40
3.0
 72
     5
 11
151.55
 21
-71.2
  0
INSERT
  2
*DIM_0006
  8
寸法
  6
CONTINUOUS
 10
0.0
 20
0.0
  0
INSERT
  2
*DIM_0007
  8
寸法
  6
CONTINUOUS
 10
0.0
 20
0.0
  0
INSERT
  2
*DIM_0008
  8
寸法
  6
CONTINUOUS
 10
0.0
 20
0.0
  0
INSERT
  2
*DIM_0009
  8
寸法
  6
CONTINUOUS
 10
0.0
 20
0.0
  0
INSERT
  2
*DIM_0012
  8
寸法
  6
CONTINUOUS
 10
0.0
 20
0.0
  0
INSERT
  2
*DIM_0015
  8
寸法
  6
CONTINUOUS
 10
0.0
 20
0.0
  0
INSERT
  2
*DIM_0016
  8
寸法
  6
CONTINUOUS
 10
0.0
 20
0.0
  0
INSERT
  2
*DIM_0017
  8
寸法
  6
CONTINUOUS
 10
0.0
 20
0.0
  0
INSERT
  2
*DIM_0018
  8
寸法
  6
CONTINUOUS
 10
0.0
 20
0.0
  0
INSERT
  2
*DIM_0019
  8
寸法
  6
CONTINUOUS
 10
0.0
 20
0.0
  0
INSERT
  2
*DIM_0020
  8
寸法
  6
CONTINUOUS
 10
0.0
 20
0.0
  0
INSERT
  2
*DIM_0021
  8
寸法
  6
CONTINUOUS
 10
0.0
 20
0.0
  0
INSERT
  2
*DIM_0022
  8
寸法
  6
CONTINUOUS
 10
0.0
 20
0.0
  0
INSERT
  2
*DIM_0023
  8
寸法
  6
CONTINUOUS
 10
0.0
 20
0.0
  0
INSERT
  2
*DIM_0024
  8
寸法
  6
CONTINUOUS
 10
0.0
 20
0.0
  0
INSERT
  2
*DIM_0030
  8
寸法
  6
CONTINUOUS
 10
0.0
 20
0.0
  0
INSERT
  2
*DIM_0035
  8
寸法
  6
CONTINUOUS
 10
0.0
 20
0.0
  0
INSERT
  2
*DIM_0036
  8
寸法
  6
CONTINUOUS
 10
0.0
 20
0.0
  0
INSERT
  2
*DIM_0037
  8
寸法
  6
CONTINUOUS
 10
0.0
 20
0.0
  0
INSERT
  2
*DIM_0038
  8
寸法
  6
CONTINUOUS
 10
0.0
 20
0.0
  0
INSERT
  2
*DIM_0039
  8
寸法
  6
CONTINUOUS
 10
0.0
 20
0.0
  0
LINE
  8
曲げ物
  6
CONTINUOUS
 10
22.129233
 20
52.128875
 11
18.43392
 21
48.433562
  0
LINE
  8
曲げ物
  6
CONTINUOUS
 10
21.425763
 20
50.592765
 11
19.970032
 21
49.137035
  0
LINE
  8
曲げ物
  6
CONTINUOUS
 10
20.593123
 20
51.425405
 11
19.137392
 21
49.969675
  0
LINE
  8
曲げ物
  6
CONTINUOUS
 10
-16.954935
 20
52.128875
 11
-20.650248
 21
48.433562
  0
LINE
  8
曲げ物
  6
CONTINUOUS
 10
-17.658405
 20
50.592765
 11
-19.114135
 21
49.137035
  0
LINE
  8
曲げ物
  6
CONTINUOUS
 10
-18.491045
 20
51.425405
 11
-19.946775
 21
49.969675
  0
LINE
  8
曲げ物
  6
CONTINUOUS
 10
-54.206735
 20
52.128875
 11
-57.902048
 21
48.433562
  0
LINE
  8
曲げ物
  6
CONTINUOUS
 10
-54.910205
 20
50.592765
 11
-56.365935
 21
49.137035
  0
LINE
  8
曲げ物
  6
CONTINUOUS
 10
-55.742845
 20
51.425405
 11
-57.198575
 21
49.969675
  0
LINE
  8
曲げ物
  6
CONTINUOUS
 10
-91.417903
 20
52.128875
 11
-95.113215
 21
48.433562
  0
LINE
  8
曲げ物
  6
CONTINUOUS
 10
-92.121372
 20
50.592765
 11
-93.577102
 21
49.137035
  0
LINE
  8
曲げ物
  6
CONTINUOUS
 10
-92.954013
 20
51.425405
 11
-94.409742
 21
49.969675
  0
ENDSEC
  0
EOF
