  0
SECTION
  2
HEADER
  9
$EXTMIN
 10
-210.0
 20
-148.5
  9
$EXTMAX
 10
210.0
 20
148.5
  9
$PDMODE
 70
    32
  9
$PDSIZE
 40
1.5
  9
$LTSCALE
 40
10.0
  0
ENDSEC
  0
SECTION
  2
TABLES
  0
TABLE
  2
LTYPE
 70
    15
  0
LTYPE
  2
CONTINUOUS
 70
    64
  3
実線
 72
    65
 73
     0
 40
0.0
  0
LTYPE
  2
DASHED
 70
    64
  3
破線A
 72
    65
 73
     2
 40
0.6
 49
0.4
 49
-0.2
  0
LTYPE
  2
DASHEDX2
 70
    64
  3
破線B
 72
    65
 73
     2
 40
1.3
 49
0.9
 49
-0.4
  0
LTYPE
  2
DASHDOT
 70
    64
  3
１点鎖線A
 72
    65
 73
     4
 40
0.5375
 49
0.375
 49
-0.05
 49
0.0625
 49
-0.05
  0
LTYPE
  2
DASHDOTX2
 70
    64
  3
１点鎖線B
 72
    65
 73
     4
 40
1.075
 49
0.75
 49
-0.1
 49
0.125
 49
-0.1
  0
LTYPE
  2
DIVIDE2
 70
    64
  3
２点鎖線A
 72
    65
 73
     6
 40
0.5125
 49
0.3
 49
-0.0375
 49
0.05
 49
-0.0375
 49
0.05
 49
-0.0375
  0
LTYPE
  2
DIVIDE
 70
    64
  3
２点鎖線B
 72
    65
 73
     6
 40
1.05
 49
0.55
 49
-0.1
 49
0.1
 49
-0.1
 49
0.1
 49
-0.1
  0
LTYPE
  2
DOT
 70
    64
  3
点線A
 72
    65
 73
     2
 40
0.1125
 49
0.0625
 49
-0.05
  0
LTYPE
  2
DOTX2
 70
    64
  3
点線B
 72
    65
 73
     2
 40
0.275
 49
0.15
 49
-0.125
  0
LTYPE
  2
CONTINUOUS
 70
    64
  3
実線
 72
    65
 73
     0
 40
0.0
  0
LTYPE
  2
CONTINUOUS
 70
    64
  3
実線
 72
    65
 73
     0
 40
0.0
  0
LTYPE
  2
CONTINUOUS
 70
    64
  3
実線
 72
    65
 73
     0
 40
0.0
  0
LTYPE
  2
CONTINUOUS
 70
    64
  3
実線
 72
    65
 73
     0
 40
0.0
  0
LTYPE
  2
CONTINUOUS
 70
    64
  3
実線
 72
    65
 73
     0
 40
0.0
  0
LTYPE
  2
CONTINUOUS
 70
    64
  3
実線
 72
    65
 73
     0
 40
0.0
  0
ENDTAB
  0
TABLE
  2
LAYER
 70
    34
  0
LAYER
  2
通り芯
 70
     0
 62
    15
  6
CONTINUOUS
  0
LAYER
  2
補助線
 70
     0
 62
    16
  6
DOT
  0
LAYER
  2
躯体
 70
     0
 62
    31
  6
CONTINUOUS
  0
LAYER
  2
型材
 70
     0
 62
    32
  6
CONTINUOUS
  0
LAYER
  2
型材断面
 70
     0
 62
    47
  6
CONTINUOUS
  0
LAYER
  2
ガラス
 70
     0
 62
    48
  6
CONTINUOUS
  0
LAYER
  2
ゴム等
 70
     0
 62
    63
  6
CONTINUOUS
  0
LAYER
  2
ボルト／ビス
 70
     0
 62
    64
  6
CONTINUOUS
  0
LAYER
  2
文字
 70
     0
 62
    79
  6
CONTINUOUS
  0
LAYER
  2
寸法
 70
     0
 62
    80
  6
CONTINUOUS
  0
LAYER
  2
ﾊｯﾁﾝｸﾞ
 70
     0
 62
    95
  6
CONTINUOUS
  0
LAYER
  2
別途部材
 70
     0
 62
    96
  6
CONTINUOUS
  0
LAYER
  2
曲げ物
 70
     0
 62
   111
  6
CONTINUOUS
  0
LAYER
  2
鉄骨等
 70
     0
 62
   112
  6
CONTINUOUS
  0
LAYER
  2
St
 70
     0
 62
   127
  6
CONTINUOUS
  0
LAYER
  2
その他部品等
 70
     0
 62
   128
  6
CONTINUOUS
  0
LAYER
  2
ｶﾞｽｹｯﾄ
 70
     0
 62
   143
  6
CONTINUOUS
  0
LAYER
  2
ｽｹｯﾁ
 70
     0
 62
    14
  6
CONTINUOUS
  0
LAYER
  2
0
 70
     0
 62
    17
  6
CONTINUOUS
  0
LAYER
  2
1
 70
     0
 62
    30
  6
CONTINUOUS
  0
LAYER
  2
4
 70
     0
 62
    33
  6
CONTINUOUS
  0
LAYER
  2
ﾚｲﾔ3
 70
     0
 62
    46
  6
CONTINUOUS
  0
LAYER
  2
外形線
 70
     0
 62
    49
  6
CONTINUOUS
  0
LAYER
  2
部品
 70
     0
 62
    14
  6
CONTINUOUS
  0
LAYER
  2
サッシ芯
 70
     0
 62
    17
  6
DASHDOTX2
  0
LAYER
  2
寸法線
 70
     0
 62
    62
  6
CONTINUOUS
  0
LAYER
  2
姿図外形線
 70
     0
 62
    65
  6
CONTINUOUS
  0
LAYER
  2
姿補助線
 70
     0
 62
    30
  6
CONTINUOUS
  0
LAYER
  2
透視線
 70
     0
 62
    78
  6
DOT
  0
LAYER
  2
用紙
 70
     0
 62
    81
  6
CONTINUOUS
  0
LAYER
  2
実線図枠
 70
     0
 62
    94
  6
CONTINUOUS
  0
LAYER
  2
補助図枠
 70
     0
 62
    97
  6
CONTINUOUS
  0
LAYER
  2
建具記号
 70
     0
 62
   110
  6
CONTINUOUS
  0
LAYER
  2
補助文字
 70
     0
 62
   113
  6
CONTINUOUS
  0
ENDTAB
  0
TABLE
  2
STYLE
 70
    10
  0
STYLE
  2
STANDARD
 70
     0
 40
1.0
 41
1.0
 42
1.0
 50
0.0
 71
     0
  3
TXT
  4
BIGFONT
  0
STYLE
  2
TATE
 70
     4
 40
1.0
 41
1.0
 42
1.0
 50
0.0
 71
     0
  3
TXT
  4
BIGFONT
  0
STYLE
  2
TextStyle03
 70
     0
 40
1.0
 41
1.0
 42
1.0
 50
0.0
 71
     0
  3
MONOTXT
  4
BIGFONT
  0
STYLE
  2
TextStyle04
 70
     0
 40
1.0
 41
1.0
 42
1.0
 50
0.0
 71
     0
  3
MONOTXT
  4
BIGFONT
  0
STYLE
  2
TextStyle05
 70
     0
 40
1.0
 41
1.0
 42
1.0
 50
0.0
 71
     0
  3
MONOTXT
  4
BIGFONT
  0
STYLE
  2
TextStyle06
 70
     0
 40
1.0
 41
1.0
 42
1.0
 50
0.0
 71
     0
  3
MONOTXT
  4
BIGFONT
  0
STYLE
  2
TextStyle07
 70
     0
 40
1.0
 41
1.0
 42
1.0
 50
0.0
 71
     0
  3
MONOTXT
  4
BIGFONT
  0
STYLE
  2
TextStyle08
 70
     0
 40
1.0
 41
1.0
 42
1.0
 50
0.0
 71
     0
  3
MONOTXT
  4
BIGFONT
  0
STYLE
  2
TextStyle09
 70
     0
 40
1.0
 41
1.0
 42
1.0
 50
0.0
 71
     0
  3
MONOTXT
  4
BIGFONT
  0
STYLE
  2
TextStyle10
 70
     0
 40
1.0
 41
1.0
 42
1.0
 50
0.0
 71
     0
  3
MONOTXT
  4
BIGFONT
  0
ENDTAB
  0
ENDSEC
  0
SECTION
  2
BLOCKS
  0
BLOCK
  2
*GRP_0001
 70
    65
 10
0.0
 20
0.0
  0
LINE
  8
型材断面
  6
CONTINUOUS
 10
195.0
 20
133.5
 11
195.0
 21
-133.5
  0
LINE
  8
型材断面
  6
CONTINUOUS
 10
195.0
 20
-133.5
 11
-185.0
 21
-133.5
  0
LINE
  8
型材断面
  6
CONTINUOUS
 10
-185.0
 20
-133.5
 11
-185.0
 21
133.5
  0
LINE
  8
型材断面
  6
CONTINUOUS
 10
195.0
 20
133.5
 11
-185.0
 21
133.5
  0
LINE
  8
型材断面
  6
CONTINUOUS
 10
145.0
 20
-133.5
 11
145.0
 21
-118.5
  0
LINE
  8
型材断面
  6
CONTINUOUS
 10
195.0
 20
-118.5
 11
145.0
 21
-118.5
  0
ENDBLK
  0
BLOCK
  2
*GRP_0002
 70
    65
 10
0.0
 20
0.0
  0
INSERT
  2
M8横
  8
ゴム等
  6
CONTINUOUS
 10
163.336003
 20
61.029685
 50
270.0
 41
0.033333
 42
-0.033333
  0
LINE
  8
ボルト／ビス
  6
CONTINUOUS
 10
163.126005
 20
60.896352
 11
163.109338
 21
60.91302
  0
LINE
  8
ボルト／ビス
  6
CONTINUOUS
 10
163.109338
 20
61.146352
 11
163.126005
 21
61.16302
  0
LINE
  8
ボルト／ビス
  6
CONTINUOUS
 10
163.126005
 20
61.16302
 11
163.126005
 21
60.896352
  0
LINE
  8
ボルト／ビス
  6
CONTINUOUS
 10
163.109338
 20
61.146352
 11
163.109338
 21
60.91302
  0
LINE
  8
ボルト／ビス
  6
CONTINUOUS
 10
163.109338
 20
60.91302
 11
163.15267
 21
60.91302
  0
LINE
  8
ボルト／ビス
  6
CONTINUOUS
 10
163.126005
 20
60.896352
 11
163.15267
 21
60.896352
  0
LINE
  8
ボルト／ビス
  6
CONTINUOUS
 10
163.126005
 20
61.16302
 11
163.15267
 21
61.16302
  0
LINE
  8
ボルト／ビス
  6
CONTINUOUS
 10
163.109338
 20
61.146352
 11
163.15267
 21
61.146352
  0
LINE
  8
ボルト／ビス
  6
CONTINUOUS
 10
163.336003
 20
61.396352
 11
163.336003
 21
60.66302
  0
LINE
  8
ボルト／ビス
  6
CONTINUOUS
 10
163.376002
 20
60.61302
 11
163.459335
 21
60.61302
  0
LINE
  8
ボルト／ビス
  6
CONTINUOUS
 10
163.459335
 20
60.61302
 11
163.459335
 21
61.446352
  0
LINE
  8
ボルト／ビス
  6
CONTINUOUS
 10
163.459335
 20
61.446352
 11
163.376002
 21
61.446352
  0
LINE
  8
ボルト／ビス
  6
CONTINUOUS
 10
163.376002
 20
60.61302
 11
163.376002
 21
61.446352
  0
LINE
  8
ボルト／ビス
  6
CONTINUOUS
 10
163.336003
 20
61.396352
 11
163.376002
 21
61.396352
  0
LINE
  8
ボルト／ビス
  6
CONTINUOUS
 10
163.336003
 20
60.66302
 11
163.376002
 21
60.66302
  0
LINE
  8
ボルト／ビス
  6
CONTINUOUS
 10
163.386002
 20
61.029685
 11
163.336003
 21
61.029685
  0
ENDBLK
  0
BLOCK
  2
*GRP_0003
 70
    65
 10
0.0
 20
0.0
  0
LINE
  8
ボルト／ビス
  6
CONTINUOUS
 10
162.47617
 20
61.236355
 11
162.409503
 21
61.236355
  0
LINE
  8
ボルト／ビス
  6
CONTINUOUS
 10
162.409503
 20
61.236355
 11
162.409503
 21
60.50302
  0
LINE
  8
ボルト／ビス
  6
CONTINUOUS
 10
162.409503
 20
60.50302
 11
162.47617
 21
60.50302
  0
LINE
  8
ボルト／ビス
  6
CONTINUOUS
 10
162.47617
 20
61.236355
 11
162.47617
 21
60.50302
  0
LINE
  8
ボルト／ビス
  6
CONTINUOUS
 10
162.37617
 20
61.169687
 11
162.409503
 21
61.169687
  0
LINE
  8
ボルト／ビス
  6
CONTINUOUS
 10
162.37617
 20
61.169687
 11
162.37617
 21
60.569687
  0
LINE
  8
ボルト／ビス
  6
CONTINUOUS
 10
162.37617
 20
60.569687
 11
162.409503
 21
60.569687
  0
LINE
  8
ボルト／ビス
  6
CONTINUOUS
 62
    64
 10
162.17617
 20
61.030062
 11
162.187845
 21
61.062138
  0
ARC
  8
ボルト／ビス
  6
CONTINUOUS
 62
    64
 10
162.281149
 20
61.014031
 40
0.104978
 50
180.0
 51
207.278033
  0
ARC
  8
ボルト／ビス
  6
CONTINUOUS
 62
    64
 10
162.578573
 20
60.869693
 40
0.402402
 50
166.165015
 51
193.834998
  0
LINE
  8
ボルト／ビス
  6
CONTINUOUS
 62
    64
 10
162.17617
 20
60.709312
 11
162.187845
 21
60.677238
  0
ARC
  8
ボルト／ビス
  6
CONTINUOUS
 62
    64
 10
162.281149
 20
60.725355
 40
0.104978
 50
152.721967
 51
180.0
  0
LINE
  8
ボルト／ビス
  6
CONTINUOUS
 62
    64
 10
162.17617
 20
61.030062
 11
162.17617
 21
60.709312
  0
LINE
  8
ボルト／ビス
  6
CONTINUOUS
 62
    64
 10
162.187845
 20
60.677238
 11
162.309503
 21
60.677238
  0
LINE
  8
ボルト／ビス
  6
CONTINUOUS
 62
    64
 10
162.187845
 20
60.773462
 11
162.309503
 21
60.773462
  0
LINE
  8
ボルト／ビス
  6
CONTINUOUS
 62
    64
 10
162.187845
 20
61.062138
 11
162.309503
 21
61.062138
  0
LINE
  8
ボルト／ビス
  6
CONTINUOUS
 62
    64
 10
162.187845
 20
60.965913
 11
162.309503
 21
60.965913
  0
LINE
  8
ボルト／ビス
  6
CONTINUOUS
 10
162.309503
 20
61.062138
 11
162.309503
 21
60.677238
  0
LINE
  8
ボルト／ビス
  6
CONTINUOUS
 10
162.309503
 20
61.069687
 11
162.37617
 21
61.069687
  0
LINE
  8
ボルト／ビス
  6
CONTINUOUS
 10
162.309503
 20
61.069687
 11
162.309503
 21
60.669687
  0
LINE
  8
ボルト／ビス
  6
CONTINUOUS
 10
162.309503
 20
60.669687
 11
162.37617
 21
60.669687
  0
ENDBLK
  0
BLOCK
  2
*GRP_0004
 70
    65
 10
0.0
 20
0.0
  0
INSERT
  2
M8横
  8
ゴム等
  6
CONTINUOUS
 10
163.336003
 20
39.376965
 50
90.0
 41
0.033333
 42
0.033333
  0
LINE
  8
ボルト／ビス
  6
CONTINUOUS
 10
163.126005
 20
39.5103
 11
163.109338
 21
39.493633
  0
LINE
  8
ボルト／ビス
  6
CONTINUOUS
 10
163.109338
 20
39.2603
 11
163.126005
 21
39.243633
  0
LINE
  8
ボルト／ビス
  6
CONTINUOUS
 10
163.126005
 20
39.243633
 11
163.126005
 21
39.5103
  0
LINE
  8
ボルト／ビス
  6
CONTINUOUS
 10
163.109338
 20
39.2603
 11
163.109338
 21
39.493633
  0
LINE
  8
ボルト／ビス
  6
CONTINUOUS
 10
163.109338
 20
39.493633
 11
163.15267
 21
39.493633
  0
LINE
  8
ボルト／ビス
  6
CONTINUOUS
 10
163.126005
 20
39.5103
 11
163.15267
 21
39.5103
  0
LINE
  8
ボルト／ビス
  6
CONTINUOUS
 10
163.126005
 20
39.243633
 11
163.15267
 21
39.243633
  0
LINE
  8
ボルト／ビス
  6
CONTINUOUS
 10
163.109338
 20
39.2603
 11
163.15267
 21
39.2603
  0
LINE
  8
ボルト／ビス
  6
CONTINUOUS
 10
163.336003
 20
39.0103
 11
163.336003
 21
39.743633
  0
LINE
  8
ボルト／ビス
  6
CONTINUOUS
 10
163.376002
 20
39.793633
 11
163.459335
 21
39.793633
  0
LINE
  8
ボルト／ビス
  6
CONTINUOUS
 10
163.459335
 20
39.793633
 11
163.459335
 21
38.9603
  0
LINE
  8
ボルト／ビス
  6
CONTINUOUS
 10
163.459335
 20
38.9603
 11
163.376002
 21
38.9603
  0
LINE
  8
ボルト／ビス
  6
CONTINUOUS
 10
163.376002
 20
39.793633
 11
163.376002
 21
38.9603
  0
LINE
  8
ボルト／ビス
  6
CONTINUOUS
 10
163.336003
 20
39.0103
 11
163.376002
 21
39.0103
  0
LINE
  8
ボルト／ビス
  6
CONTINUOUS
 10
163.336003
 20
39.743633
 11
163.376002
 21
39.743633
  0
LINE
  8
ボルト／ビス
  6
CONTINUOUS
 10
163.386002
 20
39.376965
 11
163.336003
 21
39.376965
  0
ENDBLK
  0
BLOCK
  2
*GRP_0005
 70
    65
 10
0.0
 20
0.0
  0
LINE
  8
ボルト／ビス
  6
CONTINUOUS
 10
162.47617
 20
39.170298
 11
162.409503
 21
39.170298
  0
LINE
  8
ボルト／ビス
  6
CONTINUOUS
 10
162.409503
 20
39.170298
 11
162.409503
 21
39.90363
  0
LINE
  8
ボルト／ビス
  6
CONTINUOUS
 10
162.409503
 20
39.90363
 11
162.47617
 21
39.90363
  0
LINE
  8
ボルト／ビス
  6
CONTINUOUS
 10
162.47617
 20
39.170298
 11
162.47617
 21
39.90363
  0
LINE
  8
ボルト／ビス
  6
CONTINUOUS
 10
162.37617
 20
39.236965
 11
162.409503
 21
39.236965
  0
LINE
  8
ボルト／ビス
  6
CONTINUOUS
 10
162.37617
 20
39.236965
 11
162.37617
 21
39.836965
  0
LINE
  8
ボルト／ビス
  6
CONTINUOUS
 10
162.37617
 20
39.836965
 11
162.409503
 21
39.836965
  0
LINE
  8
ボルト／ビス
  6
CONTINUOUS
 62
    64
 10
162.17617
 20
39.37659
 11
162.187845
 21
39.344515
  0
ARC
  8
ボルト／ビス
  6
CONTINUOUS
 62
    64
 10
162.281149
 20
39.392632
 40
0.104978
 50
152.721967
 51
180.0
  0
ARC
  8
ボルト／ビス
  6
CONTINUOUS
 62
    64
 10
162.578573
 20
39.536969
 40
0.402402
 50
166.165002
 51
193.834985
  0
LINE
  8
ボルト／ビス
  6
CONTINUOUS
 62
    64
 10
162.17617
 20
39.69734
 11
162.187845
 21
39.729415
  0
ARC
  8
ボルト／ビス
  6
CONTINUOUS
 62
    64
 10
162.281149
 20
39.681307
 40
0.104978
 50
180.0
 51
207.278033
  0
LINE
  8
ボルト／ビス
  6
CONTINUOUS
 62
    64
 10
162.17617
 20
39.37659
 11
162.17617
 21
39.69734
  0
LINE
  8
ボルト／ビス
  6
CONTINUOUS
 62
    64
 10
162.187845
 20
39.729415
 11
162.309503
 21
39.729415
  0
LINE
  8
ボルト／ビス
  6
CONTINUOUS
 62
    64
 10
162.187845
 20
39.63319
 11
162.309503
 21
39.63319
  0
LINE
  8
ボルト／ビス
  6
CONTINUOUS
 62
    64
 10
162.187845
 20
39.344515
 11
162.309503
 21
39.344515
  0
LINE
  8
ボルト／ビス
  6
CONTINUOUS
 62
    64
 10
162.187845
 20
39.44074
 11
162.309503
 21
39.44074
  0
LINE
  8
ボルト／ビス
  6
CONTINUOUS
 10
162.309503
 20
39.344515
 11
162.309503
 21
39.729415
  0
LINE
  8
ボルト／ビス
  6
CONTINUOUS
 10
162.309503
 20
39.336965
 11
162.37617
 21
39.336965
  0
LINE
  8
ボルト／ビス
  6
CONTINUOUS
 10
162.309503
 20
39.336965
 11
162.309503
 21
39.736965
  0
LINE
  8
ボルト／ビス
  6
CONTINUOUS
 10
162.309503
 20
39.736965
 11
162.37617
 21
39.736965
  0
ENDBLK
  0
BLOCK
  2
*DIM_0006
 70
    65
 10
0.0
 20
0.0
  0
LINE
  8
寸法
  6
CONTINUOUS
 10
161.248695
 20
62.48302
 11
142.14273
 21
62.48302
  0
LINE
  8
寸法
  6
CONTINUOUS
 10
142.14273
 20
60.203325
 11
142.14273
 21
62.48302
  0
POINT
  8
寸法
 10
142.14273
 20
60.203325
 50
-90.0
  0
POINT
  8
寸法
 10
142.14273
 20
62.48302
 50
-90.0
  0
TEXT
  7
TextStyle03
  8
寸法
  6
CONTINUOUS
 10
141.775
 20
64.76875
  1
68.4
 40
3.0
 50
90.0
 72
     5
 11
141.775
 21
71.33125
  0
ENDBLK
  0
BLOCK
  2
*DIM_0007
 70
    65
 10
0.0
 20
0.0
  0
LINE
  8
寸法
  6
CONTINUOUS
 10
161.248695
 20
37.92363
 11
142.14273
 21
37.92363
  0
LINE
  8
寸法
  6
CONTINUOUS
 10
142.14273
 20
40.203325
 11
142.14273
 21
37.92363
  0
POINT
  8
寸法
 10
142.14273
 20
40.203325
 50
-90.0
  0
POINT
  8
寸法
 10
142.14273
 20
37.92363
 50
-90.0
  0
TEXT
  7
TextStyle03
  8
寸法
  6
CONTINUOUS
 10
141.775
 20
28.99375
  1
68.4
 40
3.0
 50
90.0
 72
     5
 11
141.775
 21
35.55625
  0
ENDBLK
  0
BLOCK
  2
*DIM_0008
 70
    65
 10
0.0
 20
0.0
  0
LINE
  8
寸法
  6
CONTINUOUS
 10
142.14273
 20
60.203325
 11
142.14273
 21
40.203325
  0
POINT
  8
寸法
 10
142.14273
 20
60.203325
 50
-90.0
  0
POINT
  8
寸法
 10
142.14273
 20
40.203325
 50
-90.0
  0
TEXT
  7
TextStyle03
  8
寸法
  6
CONTINUOUS
 10
141.775
 20
39.3
  1
呼称寸法　600
 40
3.0
 50
90.0
 72
     5
 11
141.775
 21
61.05
  0
ENDBLK
  0
BLOCK
  2
*DIM_0009
 70
    65
 10
0.0
 20
0.0
  0
LINE
  8
寸法
  6
CONTINUOUS
 10
169.209335
 20
33.236965
 11
169.209335
 21
25.327945
  0
LINE
  8
寸法
  6
CONTINUOUS
 10
161.742835
 20
35.203325
 11
161.742835
 21
25.327945
  0
LINE
  8
寸法
  6
CONTINUOUS
 10
169.209335
 20
25.327945
 11
161.742835
 21
25.327945
  0
POINT
  8
寸法
 10
169.209335
 20
25.327945
  0
POINT
  8
寸法
 10
161.742835
 20
25.327945
  0
TEXT
  7
TextStyle03
  8
寸法
  6
CONTINUOUS
 10
163.0375
 20
25.7
  1
224
 40
3.0
 72
     5
 11
167.9125
 21
25.7
  0
ENDBLK
  0
BLOCK
  2
*GRP_0010
 70
    65
 10
0.0
 20
0.0
  0
INSERT
  2
M8横
  8
ゴム等
  6
CONTINUOUS
 10
29.896525
 20
-70.297288
 50
180.0
 41
0.033333
 42
-0.033333
  0
LINE
  8
ボルト／ビス
  6
CONTINUOUS
 10
29.763192
 20
-70.087288
 11
29.779858
 21
-70.070622
  0
LINE
  8
ボルト／ビス
  6
CONTINUOUS
 10
30.013192
 20
-70.070622
 11
30.029858
 21
-70.087288
  0
LINE
  8
ボルト／ビス
  6
CONTINUOUS
 10
30.029858
 20
-70.087288
 11
29.763192
 21
-70.087288
  0
LINE
  8
ボルト／ビス
  6
CONTINUOUS
 10
30.013192
 20
-70.070622
 11
29.779858
 21
-70.070622
  0
LINE
  8
ボルト／ビス
  6
CONTINUOUS
 10
29.779858
 20
-70.070622
 11
29.779858
 21
-70.113952
  0
LINE
  8
ボルト／ビス
  6
CONTINUOUS
 10
29.763192
 20
-70.087288
 11
29.763192
 21
-70.113952
  0
LINE
  8
ボルト／ビス
  6
CONTINUOUS
 10
30.029858
 20
-70.087288
 11
30.029858
 21
-70.113952
  0
LINE
  8
ボルト／ビス
  6
CONTINUOUS
 10
30.013192
 20
-70.070622
 11
30.013192
 21
-70.113952
  0
LINE
  8
ボルト／ビス
  6
CONTINUOUS
 10
30.263192
 20
-70.297288
 11
29.529858
 21
-70.297288
  0
LINE
  8
ボルト／ビス
  6
CONTINUOUS
 10
29.479858
 20
-70.337288
 11
29.479858
 21
-70.42062
  0
LINE
  8
ボルト／ビス
  6
CONTINUOUS
 10
29.479858
 20
-70.42062
 11
30.313192
 21
-70.42062
  0
LINE
  8
ボルト／ビス
  6
CONTINUOUS
 10
30.313192
 20
-70.42062
 11
30.313192
 21
-70.337288
  0
LINE
  8
ボルト／ビス
  6
CONTINUOUS
 10
29.479858
 20
-70.337288
 11
30.313192
 21
-70.337288
  0
LINE
  8
ボルト／ビス
  6
CONTINUOUS
 10
30.263192
 20
-70.297288
 11
30.263192
 21
-70.337288
  0
LINE
  8
ボルト／ビス
  6
CONTINUOUS
 10
29.529858
 20
-70.297288
 11
29.529858
 21
-70.337288
  0
LINE
  8
ボルト／ビス
  6
CONTINUOUS
 10
29.896525
 20
-70.347288
 11
29.896525
 21
-70.297288
  0
ENDBLK
  0
BLOCK
  2
*GRP_0011
 70
    65
 10
0.0
 20
0.0
  0
LINE
  8
ボルト／ビス
  6
CONTINUOUS
 10
30.103192
 20
-69.437453
 11
30.103192
 21
-69.370788
  0
LINE
  8
ボルト／ビス
  6
CONTINUOUS
 10
30.103192
 20
-69.370788
 11
29.36986
 21
-69.370788
  0
LINE
  8
ボルト／ビス
  6
CONTINUOUS
 10
29.36986
 20
-69.370788
 11
29.36986
 21
-69.437453
  0
LINE
  8
ボルト／ビス
  6
CONTINUOUS
 10
30.103192
 20
-69.437453
 11
29.36986
 21
-69.437453
  0
LINE
  8
ボルト／ビス
  6
CONTINUOUS
 10
30.036528
 20
-69.337453
 11
30.036528
 21
-69.370788
  0
LINE
  8
ボルト／ビス
  6
CONTINUOUS
 10
30.036528
 20
-69.337453
 11
29.436528
 21
-69.337453
  0
LINE
  8
ボルト／ビス
  6
CONTINUOUS
 10
29.436528
 20
-69.337453
 11
29.436528
 21
-69.370788
  0
LINE
  8
ボルト／ビス
  6
CONTINUOUS
 62
    64
 10
29.896903
 20
-69.137453
 11
29.928977
 21
-69.149128
  0
ARC
  8
ボルト／ビス
  6
CONTINUOUS
 62
    64
 10
29.880864
 20
-69.242431
 40
0.104978
 50
90.0
 51
117.278033
  0
ARC
  8
ボルト／ビス
  6
CONTINUOUS
 62
    64
 10
29.736526
 20
-69.539855
 40
0.402402
 50
76.165015
 51
103.834998
  0
LINE
  8
ボルト／ビス
  6
CONTINUOUS
 62
    64
 10
29.576152
 20
-69.137453
 11
29.544077
 21
-69.149128
  0
ARC
  8
ボルト／ビス
  6
CONTINUOUS
 62
    64
 10
29.592188
 20
-69.242431
 40
0.104978
 50
62.721967
 51
90.0
  0
LINE
  8
ボルト／ビス
  6
CONTINUOUS
 62
    64
 10
29.896903
 20
-69.137453
 11
29.576152
 21
-69.137453
  0
LINE
  8
ボルト／ビス
  6
CONTINUOUS
 62
    64
 10
29.544077
 20
-69.149128
 11
29.544077
 21
-69.270788
  0
LINE
  8
ボルト／ビス
  6
CONTINUOUS
 62
    64
 10
29.640302
 20
-69.149128
 11
29.640302
 21
-69.270788
  0
LINE
  8
ボルト／ビス
  6
CONTINUOUS
 62
    64
 10
29.928977
 20
-69.149128
 11
29.928977
 21
-69.270788
  0
LINE
  8
ボルト／ビス
  6
CONTINUOUS
 62
    64
 10
29.832753
 20
-69.149128
 11
29.832753
 21
-69.270788
  0
LINE
  8
ボルト／ビス
  6
CONTINUOUS
 10
29.928977
 20
-69.270788
 11
29.544077
 21
-69.270788
  0
LINE
  8
ボルト／ビス
  6
CONTINUOUS
 10
29.936528
 20
-69.270788
 11
29.936528
 21
-69.337453
  0
LINE
  8
ボルト／ビス
  6
CONTINUOUS
 10
29.936528
 20
-69.270788
 11
29.536528
 21
-69.270788
  0
LINE
  8
ボルト／ビス
  6
CONTINUOUS
 10
29.536528
 20
-69.270788
 11
29.536528
 21
-69.337453
  0
ENDBLK
  0
BLOCK
  2
*DIM_0012
 70
    65
 10
0.0
 20
0.0
  0
LINE
  8
寸法
  6
CONTINUOUS
 10
34.070165
 20
-68.70412
 11
52.688638
 21
-68.70412
  0
LINE
  8
寸法
  6
CONTINUOUS
 10
36.036528
 20
-76.17062
 11
52.688638
 21
-76.17062
  0
LINE
  8
寸法
  6
CONTINUOUS
 10
52.688638
 20
-68.70412
 11
52.688638
 21
-76.17062
  0
POINT
  8
寸法
 10
52.688638
 20
-68.70412
  0
POINT
  8
寸法
 10
52.688638
 20
-76.17062
  0
TEXT
  7
TextStyle03
  8
寸法
  6
CONTINUOUS
 10
52.3
 20
-74.8875
  1
224
 40
3.0
 50
90.0
 72
     5
 11
52.3
 21
-70.0125
  0
ENDBLK
  0
BLOCK
  2
*GRP_0013
 70
    65
 10
0.0
 20
0.0
  0
INSERT
  2
M8横
  8
ゴム等
  6
CONTINUOUS
 10
-105.08952
 20
-70.297288
 41
0.033333
 42
0.033333
  0
LINE
  8
ボルト／ビス
  6
CONTINUOUS
 10
-104.956188
 20
-70.087288
 11
-104.972853
 21
-70.070622
  0
LINE
  8
ボルト／ビス
  6
CONTINUOUS
 10
-105.206188
 20
-70.070622
 11
-105.222853
 21
-70.087288
  0
LINE
  8
ボルト／ビス
  6
CONTINUOUS
 10
-105.222853
 20
-70.087288
 11
-104.956188
 21
-70.087288
  0
LINE
  8
ボルト／ビス
  6
CONTINUOUS
 10
-105.206188
 20
-70.070622
 11
-104.972853
 21
-70.070622
  0
LINE
  8
ボルト／ビス
  6
CONTINUOUS
 10
-104.972853
 20
-70.070622
 11
-104.972853
 21
-70.113952
  0
LINE
  8
ボルト／ビス
  6
CONTINUOUS
 10
-104.956188
 20
-70.087288
 11
-104.956188
 21
-70.113952
  0
LINE
  8
ボルト／ビス
  6
CONTINUOUS
 10
-105.222853
 20
-70.087288
 11
-105.222853
 21
-70.113952
  0
LINE
  8
ボルト／ビス
  6
CONTINUOUS
 10
-105.206188
 20
-70.070622
 11
-105.206188
 21
-70.113952
  0
LINE
  8
ボルト／ビス
  6
CONTINUOUS
 10
-105.456188
 20
-70.297288
 11
-104.722853
 21
-70.297288
  0
LINE
  8
ボルト／ビス
  6
CONTINUOUS
 10
-104.672853
 20
-70.337288
 11
-104.672853
 21
-70.42062
  0
LINE
  8
ボルト／ビス
  6
CONTINUOUS
 10
-104.672853
 20
-70.42062
 11
-105.506188
 21
-70.42062
  0
LINE
  8
ボルト／ビス
  6
CONTINUOUS
 10
-105.506188
 20
-70.42062
 11
-105.506188
 21
-70.337288
  0
LINE
  8
ボルト／ビス
  6
CONTINUOUS
 10
-104.672853
 20
-70.337288
 11
-105.506188
 21
-70.337288
  0
LINE
  8
ボルト／ビス
  6
CONTINUOUS
 10
-105.456188
 20
-70.297288
 11
-105.456188
 21
-70.337288
  0
LINE
  8
ボルト／ビス
  6
CONTINUOUS
 10
-104.722853
 20
-70.297288
 11
-104.722853
 21
-70.337288
  0
LINE
  8
ボルト／ビス
  6
CONTINUOUS
 10
-105.08952
 20
-70.347288
 11
-105.08952
 21
-70.297288
  0
ENDBLK
  0
BLOCK
  2
*GRP_0014
 70
    65
 10
0.0
 20
0.0
  0
LINE
  8
ボルト／ビス
  6
CONTINUOUS
 10
-105.296188
 20
-69.437453
 11
-105.296188
 21
-69.370788
  0
LINE
  8
ボルト／ビス
  6
CONTINUOUS
 10
-105.296188
 20
-69.370788
 11
-104.562855
 21
-69.370788
  0
LINE
  8
ボルト／ビス
  6
CONTINUOUS
 10
-104.562855
 20
-69.370788
 11
-104.562855
 21
-69.437453
  0
LINE
  8
ボルト／ビス
  6
CONTINUOUS
 10
-105.296188
 20
-69.437453
 11
-104.562855
 21
-69.437453
  0
LINE
  8
ボルト／ビス
  6
CONTINUOUS
 10
-105.229522
 20
-69.337453
 11
-105.229522
 21
-69.370788
  0
LINE
  8
ボルト／ビス
  6
CONTINUOUS
 10
-105.229522
 20
-69.337453
 11
-104.629522
 21
-69.337453
  0
LINE
  8
ボルト／ビス
  6
CONTINUOUS
 10
-104.629522
 20
-69.337453
 11
-104.629522
 21
-69.370788
  0
LINE
  8
ボルト／ビス
  6
CONTINUOUS
 62
    64
 10
-105.089898
 20
-69.137453
 11
-105.121973
 21
-69.149128
  0
ARC
  8
ボルト／ビス
  6
CONTINUOUS
 62
    64
 10
-105.07386
 20
-69.242431
 40
0.104978
 50
62.721967
 51
90.0
  0
ARC
  8
ボルト／ビス
  6
CONTINUOUS
 62
    64
 10
-104.929523
 20
-69.539855
 40
0.402402
 50
76.165002
 51
103.834985
  0
LINE
  8
ボルト／ビス
  6
CONTINUOUS
 62
    64
 10
-104.769147
 20
-69.137453
 11
-104.737072
 21
-69.149128
  0
ARC
  8
ボルト／ビス
  6
CONTINUOUS
 62
    64
 10
-104.785185
 20
-69.242431
 40
0.104978
 50
90.0
 51
117.278033
  0
LINE
  8
ボルト／ビス
  6
CONTINUOUS
 62
    64
 10
-105.089898
 20
-69.137453
 11
-104.769147
 21
-69.137453
  0
LINE
  8
ボルト／ビス
  6
CONTINUOUS
 62
    64
 10
-104.737072
 20
-69.149128
 11
-104.737072
 21
-69.270788
  0
LINE
  8
ボルト／ビス
  6
CONTINUOUS
 62
    64
 10
-104.833298
 20
-69.149128
 11
-104.833298
 21
-69.270788
  0
LINE
  8
ボルト／ビス
  6
CONTINUOUS
 62
    64
 10
-105.121973
 20
-69.149128
 11
-105.121973
 21
-69.270788
  0
LINE
  8
ボルト／ビス
  6
CONTINUOUS
 62
    64
 10
-105.025748
 20
-69.149128
 11
-105.025748
 21
-69.270788
  0
LINE
  8
ボルト／ビス
  6
CONTINUOUS
 10
-105.121973
 20
-69.270788
 11
-104.737072
 21
-69.270788
  0
LINE
  8
ボルト／ビス
  6
CONTINUOUS
 10
-105.129522
 20
-69.270788
 11
-105.129522
 21
-69.337453
  0
LINE
  8
ボルト／ビス
  6
CONTINUOUS
 10
-105.129522
 20
-69.270788
 11
-104.729522
 21
-69.270788
  0
LINE
  8
ボルト／ビス
  6
CONTINUOUS
 10
-104.729522
 20
-69.270788
 11
-104.729522
 21
-69.337453
  0
ENDBLK
  0
BLOCK
  2
*DIM_0015
 70
    65
 10
0.0
 20
0.0
  0
LINE
  8
寸法
  6
BYBLOCK
 62
     0
 10
-87.596495
 20
36.573195
 11
-87.596495
 21
31.520873
  0
LINE
  8
寸法
  6
BYBLOCK
 62
     0
 10
12.4035
 20
36.573195
 11
12.4035
 21
31.520873
  0
LINE
  8
寸法
  6
BYBLOCK
 62
     0
 10
-87.596495
 20
31.520873
 11
12.4035
 21
31.520873
  0
POINT
  8
寸法
 62
     0
 10
-87.596495
 20
31.520873
  0
POINT
  8
寸法
 62
     0
 10
12.4035
 20
31.520873
  0
TEXT
  7
TextStyle03
  8
寸法
  6
CONTINUOUS
 62
     0
 10
-40.88125
 20
31.875
  1
3000
 40
3.0
 72
     5
 11
-34.31875
 21
31.875
  0
ENDBLK
  0
BLOCK
  2
*DIM_0016
 70
    65
 10
0.0
 20
0.0
  0
LINE
  8
寸法
  6
BYBLOCK
 62
     0
 10
32.700297
 20
56.303325
 11
39.47759
 21
56.303325
  0
LINE
  8
寸法
  6
BYBLOCK
 62
     0
 10
39.47759
 20
60.203325
 11
39.47759
 21
56.303325
  0
POINT
  8
寸法
 62
     0
 10
39.47759
 20
60.203325
  0
POINT
  8
寸法
 62
     0
 10
39.47759
 20
56.303325
  0
TEXT
  7
TextStyle03
  8
寸法
  6
CONTINUOUS
 62
     0
 10
39.225
 20
60.8625
  1
117
 40
3.0
 50
90.0
 72
     5
 11
39.225
 21
65.7375
  0
ENDBLK
  0
BLOCK
  2
*DIM_0017
 70
    65
 10
0.0
 20
0.0
  0
LINE
  8
寸法
  6
BYBLOCK
 62
     0
 10
32.700297
 20
44.103325
 11
39.47759
 21
44.103325
  0
LINE
  8
寸法
  6
BYBLOCK
 62
     0
 10
39.47759
 20
40.203325
 11
39.47759
 21
44.103325
  0
POINT
  8
寸法
 62
     0
 10
39.47759
 20
40.203325
  0
POINT
  8
寸法
 62
     0
 10
39.47759
 20
44.103325
  0
TEXT
  7
TextStyle03
  8
寸法
  6
CONTINUOUS
 62
     0
 10
39.4
 20
34.3875
  1
117
 40
3.0
 50
90.0
 72
     5
 11
39.4
 21
39.2625
  0
ENDBLK
  0
BLOCK
  2
*DIM_0018
 70
    65
 10
0.0
 20
0.0
  0
LINE
  8
寸法
  6
BYBLOCK
 62
     0
 10
-107.263162
 20
56.869993
 11
-120.556
 21
56.869993
  0
LINE
  8
寸法
  6
BYBLOCK
 62
     0
 10
-107.263162
 20
43.536658
 11
-120.556
 21
43.536658
  0
LINE
  8
寸法
  6
BYBLOCK
 62
     0
 10
-120.556
 20
56.869993
 11
-120.556
 21
43.536658
  0
POINT
  8
寸法
 62
     0
 10
-120.556
 20
56.869993
  0
POINT
  8
寸法
 62
     0
 10
-120.556
 20
43.536658
  0
TEXT
  7
TextStyle03
  8
寸法
  6
CONTINUOUS
 62
     0
 10
-120.9
 20
47.7375
  1
400
 40
3.0
 50
90.0
 72
     5
 11
-120.9
 21
52.6125
  0
ENDBLK
  0
BLOCK
  2
*DIM_0019
 70
    65
 10
0.0
 20
0.0
  0
LINE
  8
寸法
  6
BYBLOCK
 62
     0
 10
-95.92983
 20
63.203325
 11
-95.92983
 21
92.311398
  0
LINE
  8
寸法
  6
BYBLOCK
 62
     0
 10
-72.596497
 20
63.203325
 11
-72.596497
 21
92.311398
  0
LINE
  8
寸法
  6
BYBLOCK
 62
     0
 10
-95.92983
 20
92.311398
 11
-72.596497
 21
92.311398
  0
POINT
  8
寸法
 62
     0
 10
-95.92983
 20
92.311398
  0
POINT
  8
寸法
 62
     0
 10
-72.596497
 20
92.311398
  0
TEXT
  7
TextStyle03
  8
寸法
  6
CONTINUOUS
 62
     0
 10
-86.7125
 20
92.675
  1
700
 40
3.0
 72
     5
 11
-81.8375
 21
92.675
  0
ENDBLK
  0
BLOCK
  2
*DIM_0020
 70
    65
 10
0.0
 20
0.0
  0
LINE
  8
寸法
  6
BYBLOCK
 62
     0
 10
-49.263165
 20
63.203325
 11
-49.263165
 21
92.311398
  0
LINE
  8
寸法
  6
BYBLOCK
 62
     0
 10
-72.596497
 20
92.311398
 11
-49.263165
 21
92.311398
  0
POINT
  8
寸法
 62
     0
 10
-49.263165
 20
92.311398
  0
TEXT
  7
TextStyle03
  8
寸法
  6
CONTINUOUS
 62
     0
 10
-63.3875
 20
92.675
  1
700
 40
3.0
 72
     5
 11
-58.5125
 21
92.675
  0
ENDBLK
  0
BLOCK
  2
*DIM_0021
 70
    65
 10
0.0
 20
0.0
  0
LINE
  8
寸法
  6
BYBLOCK
 62
     0
 10
-25.92983
 20
63.203325
 11
-25.92983
 21
92.311398
  0
LINE
  8
寸法
  6
BYBLOCK
 62
     0
 10
-49.263165
 20
92.311398
 11
-25.92983
 21
92.311398
  0
POINT
  8
寸法
 62
     0
 10
-25.92983
 20
92.311398
  0
TEXT
  7
TextStyle03
  8
寸法
  6
CONTINUOUS
 62
     0
 10
-40.0625
 20
92.675
  1
700
 40
3.0
 72
     5
 11
-35.1875
 21
92.675
  0
ENDBLK
  0
BLOCK
  2
*DIM_0022
 70
    65
 10
0.0
 20
0.0
  0
LINE
  8
寸法
  6
BYBLOCK
 62
     0
 10
-2.596497
 20
63.203325
 11
-2.596497
 21
92.311398
  0
LINE
  8
寸法
  6
BYBLOCK
 62
     0
 10
-25.92983
 20
92.311398
 11
-2.596497
 21
92.311398
  0
POINT
  8
寸法
 62
     0
 10
-2.596497
 20
92.311398
  0
TEXT
  7
TextStyle03
  8
寸法
  6
CONTINUOUS
 62
     0
 10
-16.7125
 20
92.675
  1
700
 40
3.0
 72
     5
 11
-11.8375
 21
92.675
  0
ENDBLK
  0
BLOCK
  2
*DIM_0023
 70
    65
 10
0.0
 20
0.0
  0
LINE
  8
寸法
  6
BYBLOCK
 62
     0
 10
20.736835
 20
63.203325
 11
20.736835
 21
92.311398
  0
LINE
  8
寸法
  6
BYBLOCK
 62
     0
 10
-2.596497
 20
92.311398
 11
20.736835
 21
92.311398
  0
POINT
  8
寸法
 62
     0
 10
20.736835
 20
92.311398
  0
TEXT
  7
TextStyle03
  8
寸法
  6
CONTINUOUS
 62
     0
 10
6.6125
 20
92.675
  1
700
 40
3.0
 72
     5
 11
11.4875
 21
92.675
  0
ENDBLK
  0
BLOCK
  2
*GRP_0024
 70
    65
 10
0.0
 20
0.0
  0
LINE
  8
型材断面
  6
DOT
 10
30.736832
 20
-62.60412
 11
30.686832
 21
-62.60412
  0
LINE
  8
型材断面
  6
DOT
 10
29.070165
 20
-62.10412
 11
29.070165
 21
-61.370788
  0
LINE
  8
型材断面
  6
DOT
 10
29.11986
 20
-63.087288
 11
30.566527
 21
-63.087288
  0
LINE
  8
型材断面
  6
DOT
 10
30.566527
 20
-63.537288
 11
30.566527
 21
-63.087288
  0
LINE
  8
型材断面
  6
DOT
 62
    47
 10
31.29986
 20
-66.20998
 11
31.34986
 21
-66.20998
  0
LINE
  8
型材断面
  6
DOT
 62
    47
 10
31.34986
 20
-66.20998
 11
31.34986
 21
-65.876645
  0
LINE
  8
型材断面
  6
DOT
 62
    47
 10
31.34986
 20
-65.876645
 11
30.566527
 21
-65.776645
  0
LINE
  8
型材断面
  6
DOT
 62
    47
 10
30.566527
 20
-65.37062
 11
30.566527
 21
-65.776645
  0
LINE
  8
型材断面
  6
DOT
 62
    47
 10
31.036528
 20
-65.37062
 11
31.036528
 21
-63.537288
  0
LINE
  8
型材断面
  6
DOT
 10
30.736832
 20
-62.60412
 11
30.736832
 21
-62.10412
  0
LINE
  8
型材断面
  6
DOT
 10
29.11986
 20
-63.087288
 11
29.11986
 21
-62.60412
  0
INSERT
  2
*GRP_0025
  8
型材断面
  6
DOT
 10
0.0
 20
0.0
  0
INSERT
  2
*GRP_0026
  8
型材断面
  6
DOT
 10
0.0
 20
0.0
  0
LINE
  8
型材断面
  6
DOT
 10
31.34986
 20
-66.20998
 11
-37.596497
 21
-66.20998
  0
LINE
  8
型材断面
  6
DOT
 10
31.34986
 20
-65.876645
 11
-37.596497
 21
-65.876645
  0
LINE
  8
型材断面
  6
DOT
 10
30.566527
 20
-65.776645
 11
-37.596497
 21
-65.776645
  0
LINE
  8
型材断面
  6
DOT
 10
31.036528
 20
-65.37062
 11
-37.596497
 21
-65.37062
  0
LINE
  8
型材断面
  6
DOT
 10
30.736832
 20
-62.60412
 11
-37.596497
 21
-62.60412
  0
LINE
  8
型材断面
  6
DOT
 10
29.070165
 20
-61.370788
 11
-37.596497
 21
-61.370788
  0
LINE
  8
型材断面
  6
DOT
 10
30.736832
 20
-62.10412
 11
-37.596497
 21
-62.10412
  0
LINE
  8
型材断面
  6
DOT
 10
30.566527
 20
-63.087288
 11
-37.596497
 21
-63.087288
  0
LINE
  8
型材断面
  6
DOT
 10
31.036528
 20
-63.537288
 11
-37.596497
 21
-63.537288
  0
LINE
  8
型材断面
  6
DOT
 10
-105.929828
 20
-62.60412
 11
-105.879828
 21
-62.60412
  0
LINE
  8
型材断面
  6
DOT
 10
-104.26316
 20
-62.10412
 11
-104.26316
 21
-61.370788
  0
LINE
  8
型材断面
  6
DOT
 10
-104.312855
 20
-63.087288
 11
-105.759523
 21
-63.087288
  0
LINE
  8
型材断面
  6
DOT
 10
-105.759523
 20
-63.537288
 11
-105.759523
 21
-63.087288
  0
LINE
  8
型材断面
  6
DOT
 62
    47
 10
-106.492855
 20
-66.20998
 11
-106.542855
 21
-66.20998
  0
LINE
  8
型材断面
  6
DOT
 62
    47
 10
-106.542855
 20
-66.20998
 11
-106.542855
 21
-65.876645
  0
LINE
  8
型材断面
  6
DOT
 62
    47
 10
-106.542855
 20
-65.876645
 11
-105.759523
 21
-65.776645
  0
LINE
  8
型材断面
  6
DOT
 62
    47
 10
-105.759523
 20
-65.37062
 11
-105.759523
 21
-65.776645
  0
LINE
  8
型材断面
  6
DOT
 62
    47
 10
-106.229522
 20
-65.37062
 11
-106.229522
 21
-63.537288
  0
LINE
  8
型材断面
  6
DOT
 10
-105.929828
 20
-62.60412
 11
-105.929828
 21
-62.10412
  0
LINE
  8
型材断面
  6
DOT
 10
-104.312855
 20
-63.087288
 11
-104.312855
 21
-62.60412
  0
INSERT
  2
*GRP_0027
  8
型材断面
  6
DOT
 10
0.0
 20
0.0
  0
INSERT
  2
*GRP_0028
  8
型材断面
  6
DOT
 10
0.0
 20
0.0
  0
LINE
  8
型材断面
  6
DOT
 10
-106.542855
 20
-66.20998
 11
-37.596497
 21
-66.20998
  0
LINE
  8
型材断面
  6
DOT
 10
-106.542855
 20
-65.876645
 11
-37.596497
 21
-65.876645
  0
LINE
  8
型材断面
  6
DOT
 10
-105.759523
 20
-65.776645
 11
-37.596497
 21
-65.776645
  0
LINE
  8
型材断面
  6
DOT
 10
-106.229522
 20
-65.37062
 11
-37.596497
 21
-65.37062
  0
LINE
  8
型材断面
  6
DOT
 10
-105.929828
 20
-62.60412
 11
-37.596497
 21
-62.60412
  0
LINE
  8
型材断面
  6
DOT
 10
-104.26316
 20
-61.370788
 11
-37.596497
 21
-61.370788
  0
LINE
  8
型材断面
  6
DOT
 10
-105.929828
 20
-62.10412
 11
-37.596497
 21
-62.10412
  0
LINE
  8
型材断面
  6
DOT
 10
-105.759523
 20
-63.087288
 11
-37.596497
 21
-63.087288
  0
LINE
  8
型材断面
  6
DOT
 10
-106.229522
 20
-63.537288
 11
-37.596497
 21
-63.537288
  0
ENDBLK
  0
BLOCK
  2
*GRP_0025
 70
    65
 10
0.0
 20
0.0
  0
INSERT
  2
M8横
  8
ゴム等
  6
DOT
 10
29.896525
 20
-62.963955
 50
180.0
 41
0.033333
 42
-0.033333
  0
LINE
  8
ボルト／ビス
  6
DOT
 10
29.763192
 20
-62.753955
 11
29.779858
 21
-62.73729
  0
LINE
  8
ボルト／ビス
  6
DOT
 10
30.013192
 20
-62.73729
 11
30.029858
 21
-62.753955
  0
LINE
  8
ボルト／ビス
  6
DOT
 10
30.029858
 20
-62.753955
 11
29.763192
 21
-62.753955
  0
LINE
  8
ボルト／ビス
  6
DOT
 10
30.013192
 20
-62.73729
 11
29.779858
 21
-62.73729
  0
LINE
  8
ボルト／ビス
  6
DOT
 10
29.779858
 20
-62.73729
 11
29.779858
 21
-62.78062
  0
LINE
  8
ボルト／ビス
  6
DOT
 10
29.763192
 20
-62.753955
 11
29.763192
 21
-62.78062
  0
LINE
  8
ボルト／ビス
  6
DOT
 10
30.029858
 20
-62.753955
 11
30.029858
 21
-62.78062
  0
LINE
  8
ボルト／ビス
  6
DOT
 10
30.013192
 20
-62.73729
 11
30.013192
 21
-62.78062
  0
LINE
  8
ボルト／ビス
  6
DOT
 10
30.263192
 20
-62.963955
 11
29.529858
 21
-62.963955
  0
LINE
  8
ボルト／ビス
  6
DOT
 10
29.479858
 20
-63.003955
 11
29.479858
 21
-63.087288
  0
LINE
  8
ボルト／ビス
  6
DOT
 10
29.479858
 20
-63.087288
 11
30.313192
 21
-63.087288
  0
LINE
  8
ボルト／ビス
  6
DOT
 10
30.313192
 20
-63.087288
 11
30.313192
 21
-63.003955
  0
LINE
  8
ボルト／ビス
  6
DOT
 10
29.479858
 20
-63.003955
 11
30.313192
 21
-63.003955
  0
LINE
  8
ボルト／ビス
  6
DOT
 10
30.263192
 20
-62.963955
 11
30.263192
 21
-63.003955
  0
LINE
  8
ボルト／ビス
  6
DOT
 10
29.529858
 20
-62.963955
 11
29.529858
 21
-63.003955
  0
LINE
  8
ボルト／ビス
  6
DOT
 10
29.896525
 20
-63.013955
 11
29.896525
 21
-62.963955
  0
ENDBLK
  0
BLOCK
  2
*GRP_0026
 70
    65
 10
0.0
 20
0.0
  0
LINE
  8
ボルト／ビス
  6
DOT
 10
30.103192
 20
-62.10412
 11
30.103192
 21
-62.037455
  0
LINE
  8
ボルト／ビス
  6
DOT
 10
30.103192
 20
-62.037455
 11
29.36986
 21
-62.037455
  0
LINE
  8
ボルト／ビス
  6
DOT
 10
29.36986
 20
-62.037455
 11
29.36986
 21
-62.10412
  0
LINE
  8
ボルト／ビス
  6
DOT
 10
30.103192
 20
-62.10412
 11
29.36986
 21
-62.10412
  0
LINE
  8
ボルト／ビス
  6
DOT
 10
30.036528
 20
-62.00412
 11
30.036528
 21
-62.037455
  0
LINE
  8
ボルト／ビス
  6
DOT
 10
30.036528
 20
-62.00412
 11
29.436528
 21
-62.00412
  0
LINE
  8
ボルト／ビス
  6
DOT
 10
29.436528
 20
-62.00412
 11
29.436528
 21
-62.037455
  0
LINE
  8
ボルト／ビス
  6
DOT
 62
    64
 10
29.896903
 20
-61.80412
 11
29.928977
 21
-61.815795
  0
ARC
  8
ボルト／ビス
  6
DOT
 62
    64
 10
29.880864
 20
-61.909098
 40
0.104978
 50
90.0
 51
117.278033
  0
ARC
  8
ボルト／ビス
  6
DOT
 62
    64
 10
29.736526
 20
-62.206521
 40
0.402402
 50
76.165015
 51
103.834998
  0
LINE
  8
ボルト／ビス
  6
DOT
 62
    64
 10
29.576152
 20
-61.80412
 11
29.544077
 21
-61.815795
  0
ARC
  8
ボルト／ビス
  6
DOT
 62
    64
 10
29.592188
 20
-61.909098
 40
0.104978
 50
62.721967
 51
90.0
  0
LINE
  8
ボルト／ビス
  6
DOT
 62
    64
 10
29.896903
 20
-61.80412
 11
29.576152
 21
-61.80412
  0
LINE
  8
ボルト／ビス
  6
DOT
 62
    64
 10
29.544077
 20
-61.815795
 11
29.544077
 21
-61.937455
  0
LINE
  8
ボルト／ビス
  6
DOT
 62
    64
 10
29.640302
 20
-61.815795
 11
29.640302
 21
-61.937455
  0
LINE
  8
ボルト／ビス
  6
DOT
 62
    64
 10
29.928977
 20
-61.815795
 11
29.928977
 21
-61.937455
  0
LINE
  8
ボルト／ビス
  6
DOT
 62
    64
 10
29.832753
 20
-61.815795
 11
29.832753
 21
-61.937455
  0
LINE
  8
ボルト／ビス
  6
DOT
 10
29.928977
 20
-61.937455
 11
29.544077
 21
-61.937455
  0
LINE
  8
ボルト／ビス
  6
DOT
 10
29.936528
 20
-61.937455
 11
29.936528
 21
-62.00412
  0
LINE
  8
ボルト／ビス
  6
DOT
 10
29.936528
 20
-61.937455
 11
29.536528
 21
-61.937455
  0
LINE
  8
ボルト／ビス
  6
DOT
 10
29.536528
 20
-61.937455
 11
29.536528
 21
-62.00412
  0
ENDBLK
  0
BLOCK
  2
*GRP_0027
 70
    65
 10
0.0
 20
0.0
  0
INSERT
  2
M8横
  8
ゴム等
  6
DOT
 10
-105.08952
 20
-62.963955
 41
0.033333
 42
0.033333
  0
LINE
  8
ボルト／ビス
  6
DOT
 10
-104.956188
 20
-62.753955
 11
-104.972853
 21
-62.73729
  0
LINE
  8
ボルト／ビス
  6
DOT
 10
-105.206188
 20
-62.73729
 11
-105.222853
 21
-62.753955
  0
LINE
  8
ボルト／ビス
  6
DOT
 10
-105.222853
 20
-62.753955
 11
-104.956188
 21
-62.753955
  0
LINE
  8
ボルト／ビス
  6
DOT
 10
-105.206188
 20
-62.73729
 11
-104.972853
 21
-62.73729
  0
LINE
  8
ボルト／ビス
  6
DOT
 10
-104.972853
 20
-62.73729
 11
-104.972853
 21
-62.78062
  0
LINE
  8
ボルト／ビス
  6
DOT
 10
-104.956188
 20
-62.753955
 11
-104.956188
 21
-62.78062
  0
LINE
  8
ボルト／ビス
  6
DOT
 10
-105.222853
 20
-62.753955
 11
-105.222853
 21
-62.78062
  0
LINE
  8
ボルト／ビス
  6
DOT
 10
-105.206188
 20
-62.73729
 11
-105.206188
 21
-62.78062
  0
LINE
  8
ボルト／ビス
  6
DOT
 10
-105.456188
 20
-62.963955
 11
-104.722853
 21
-62.963955
  0
LINE
  8
ボルト／ビス
  6
DOT
 10
-104.672853
 20
-63.003955
 11
-104.672853
 21
-63.087288
  0
LINE
  8
ボルト／ビス
  6
DOT
 10
-104.672853
 20
-63.087288
 11
-105.506188
 21
-63.087288
  0
LINE
  8
ボルト／ビス
  6
DOT
 10
-105.506188
 20
-63.087288
 11
-105.506188
 21
-63.003955
  0
LINE
  8
ボルト／ビス
  6
DOT
 10
-104.672853
 20
-63.003955
 11
-105.506188
 21
-63.003955
  0
LINE
  8
ボルト／ビス
  6
DOT
 10
-105.456188
 20
-62.963955
 11
-105.456188
 21
-63.003955
  0
LINE
  8
ボルト／ビス
  6
DOT
 10
-104.722853
 20
-62.963955
 11
-104.722853
 21
-63.003955
  0
LINE
  8
ボルト／ビス
  6
DOT
 10
-105.08952
 20
-63.013955
 11
-105.08952
 21
-62.963955
  0
ENDBLK
  0
BLOCK
  2
*GRP_0028
 70
    65
 10
0.0
 20
0.0
  0
LINE
  8
ボルト／ビス
  6
DOT
 10
-105.296188
 20
-62.10412
 11
-105.296188
 21
-62.037455
  0
LINE
  8
ボルト／ビス
  6
DOT
 10
-105.296188
 20
-62.037455
 11
-104.562855
 21
-62.037455
  0
LINE
  8
ボルト／ビス
  6
DOT
 10
-104.562855
 20
-62.037455
 11
-104.562855
 21
-62.10412
  0
LINE
  8
ボルト／ビス
  6
DOT
 10
-105.296188
 20
-62.10412
 11
-104.562855
 21
-62.10412
  0
LINE
  8
ボルト／ビス
  6
DOT
 10
-105.229522
 20
-62.00412
 11
-105.229522
 21
-62.037455
  0
LINE
  8
ボルト／ビス
  6
DOT
 10
-105.229522
 20
-62.00412
 11
-104.629522
 21
-62.00412
  0
LINE
  8
ボルト／ビス
  6
DOT
 10
-104.629522
 20
-62.00412
 11
-104.629522
 21
-62.037455
  0
LINE
  8
ボルト／ビス
  6
DOT
 62
    64
 10
-105.089898
 20
-61.80412
 11
-105.121973
 21
-61.815795
  0
ARC
  8
ボルト／ビス
  6
DOT
 62
    64
 10
-105.07386
 20
-61.909098
 40
0.104978
 50
62.721967
 51
90.0
  0
ARC
  8
ボルト／ビス
  6
DOT
 62
    64
 10
-104.929523
 20
-62.206521
 40
0.402402
 50
76.165002
 51
103.834985
  0
LINE
  8
ボルト／ビス
  6
DOT
 62
    64
 10
-104.769147
 20
-61.80412
 11
-104.737072
 21
-61.815795
  0
ARC
  8
ボルト／ビス
  6
DOT
 62
    64
 10
-104.785185
 20
-61.909098
 40
0.104978
 50
90.0
 51
117.278033
  0
LINE
  8
ボルト／ビス
  6
DOT
 62
    64
 10
-105.089898
 20
-61.80412
 11
-104.769147
 21
-61.80412
  0
LINE
  8
ボルト／ビス
  6
DOT
 62
    64
 10
-104.737072
 20
-61.815795
 11
-104.737072
 21
-61.937455
  0
LINE
  8
ボルト／ビス
  6
DOT
 62
    64
 10
-104.833298
 20
-61.815795
 11
-104.833298
 21
-61.937455
  0
LINE
  8
ボルト／ビス
  6
DOT
 62
    64
 10
-105.121973
 20
-61.815795
 11
-105.121973
 21
-61.937455
  0
LINE
  8
ボルト／ビス
  6
DOT
 62
    64
 10
-105.025748
 20
-61.815795
 11
-105.025748
 21
-61.937455
  0
LINE
  8
ボルト／ビス
  6
DOT
 10
-105.121973
 20
-61.937455
 11
-104.737072
 21
-61.937455
  0
LINE
  8
ボルト／ビス
  6
DOT
 10
-105.129522
 20
-61.937455
 11
-105.129522
 21
-62.00412
  0
LINE
  8
ボルト／ビス
  6
DOT
 10
-105.129522
 20
-61.937455
 11
-104.729522
 21
-61.937455
  0
LINE
  8
ボルト／ビス
  6
DOT
 10
-104.729522
 20
-61.937455
 11
-104.729522
 21
-62.00412
  0
ENDBLK
  0
BLOCK
  2
*DIM_0029
 70
    65
 10
0.0
 20
0.0
  0
LINE
  8
寸法
  6
CONTINUOUS
 10
34.070165
 20
-68.70412
 11
52.688638
 21
-68.70412
  0
LINE
  8
寸法
  6
CONTINUOUS
 10
34.070165
 20
-61.370788
 11
52.688638
 21
-61.370788
  0
LINE
  8
寸法
  6
CONTINUOUS
 10
52.688638
 20
-68.70412
 11
52.688638
 21
-61.370788
  0
POINT
  8
寸法
 10
52.688638
 20
-68.70412
  0
POINT
  8
寸法
 10
52.688638
 20
-61.370788
  0
TEXT
  7
TextStyle03
  8
寸法
  6
CONTINUOUS
 10
55.675
 20
-74.14375
  1
上昇199以上
 40
3.0
 50
90.0
 72
     5
 11
55.675
 21
-55.95625
  0
ENDBLK
  0
BLOCK
  2
*GRP_0030
 70
    65
 10
0.0
 20
0.0
  0
LINE
  8
補助線
  6
BYBLOCK
 62
    64
 10
-92.522347
 20
-74.31009
 11
-92.671273
 21
-74.384915
  0
LINE
  8
補助線
  6
BYBLOCK
 62
    64
 10
-92.634223
 20
-74.273038
 11
-92.559397
 21
-74.421965
  0
LINE
  8
補助線
  6
BYBLOCK
 62
    64
 10
-82.603867
 20
-69.326732
 11
-82.752795
 21
-69.401558
  0
LINE
  8
補助線
  6
BYBLOCK
 62
    64
 10
-82.715745
 20
-69.28968
 11
-82.64092
 21
-69.438608
  0
LINE
  8
補助線
  6
BYBLOCK
 62
    64
 10
-72.834317
 20
-64.4182
 11
-72.68539
 21
-64.343375
  0
LINE
  8
補助線
  6
BYBLOCK
 62
    64
 10
-72.797268
 20
-64.306322
 11
-72.722443
 21
-64.45525
  0
LINE
  8
型材断面
  6
CONTINUOUS
 10
-93.268787
 20
-73.752525
 11
-93.49109
 21
-74.423777
  0
LINE
  8
型材断面
  6
CONTINUOUS
 10
-93.49109
 20
-74.423777
 11
-93.191788
 21
-75.019482
  0
LINE
  8
型材断面
  6
CONTINUOUS
 10
-93.191788
 20
-75.019482
 11
-92.520535
 21
-75.241785
  0
LINE
  8
型材断面
  6
CONTINUOUS
 10
-72.83613
 20
-63.486507
 11
-72.164875
 21
-63.70881
  0
LINE
  8
型材断面
  6
CONTINUOUS
 10
-72.164875
 20
-63.70881
 11
-71.865572
 21
-64.304515
  0
LINE
  8
型材断面
  6
CONTINUOUS
 10
-71.865572
 20
-64.304515
 11
-72.087878
 21
-64.975767
  0
LINE
  8
型材断面
  6
CONTINUOUS
 10
-93.268787
 20
-73.752525
 11
-72.83613
 21
-63.486507
  0
LINE
  8
型材断面
  6
CONTINUOUS
 10
-92.520535
 20
-75.241785
 11
-72.087878
 21
-64.975767
  0
CIRCLE
  8
ボルト／ビス
  6
CONTINUOUS
 10
-92.59681
 20
-74.347502
 40
0.250185
  0
CIRCLE
  8
ボルト／ビス
  6
CONTINUOUS
 10
-92.59681
 20
-74.347502
 40
0.301025
  0
LINE
  8
ボルト／ビス
  6
CONTINUOUS
 62
    64
 10
-92.846575
 20
-74.333
 11
-92.70913
 21
-74.12395
  0
LINE
  8
ボルト／ビス
  6
CONTINUOUS
 62
    64
 10
-92.459365
 20
-74.138453
 11
-92.70913
 21
-74.12395
  0
LINE
  8
ボルト／ビス
  6
CONTINUOUS
 62
    64
 10
-92.734255
 20
-74.556552
 11
-92.48449
 21
-74.571055
  0
LINE
  8
ボルト／ビス
  6
CONTINUOUS
 62
    64
 10
-92.347045
 20
-74.362005
 11
-92.48449
 21
-74.571055
  0
LINE
  8
ボルト／ビス
  6
CONTINUOUS
 62
    64
 10
-92.846575
 20
-74.333
 11
-92.734255
 21
-74.556552
  0
LINE
  8
ボルト／ビス
  6
CONTINUOUS
 62
    64
 10
-92.459365
 20
-74.138453
 11
-92.347045
 21
-74.362005
  0
CIRCLE
  8
ボルト／ビス
  6
CONTINUOUS
 62
    64
 10
-92.59681
 20
-74.347502
 40
0.216668
  0
CIRCLE
  8
ボルト／ビス
  6
CONTINUOUS
 10
-82.678333
 20
-69.364145
 40
0.250185
  0
CIRCLE
  8
ボルト／ビス
  6
CONTINUOUS
 10
-82.678333
 20
-69.364145
 40
0.301025
  0
LINE
  8
ボルト／ビス
  6
CONTINUOUS
 62
    64
 10
-82.928097
 20
-69.34964
 11
-82.790653
 21
-69.14059
  0
LINE
  8
ボルト／ビス
  6
CONTINUOUS
 62
    64
 10
-82.540888
 20
-69.155092
 11
-82.790653
 21
-69.14059
  0
LINE
  8
ボルト／ビス
  6
CONTINUOUS
 62
    64
 10
-82.815777
 20
-69.573195
 11
-82.56601
 21
-69.5877
  0
LINE
  8
ボルト／ビス
  6
CONTINUOUS
 62
    64
 10
-82.428568
 20
-69.37865
 11
-82.56601
 21
-69.5877
  0
LINE
  8
ボルト／ビス
  6
CONTINUOUS
 62
    64
 10
-82.928097
 20
-69.34964
 11
-82.815777
 21
-69.573195
  0
LINE
  8
ボルト／ビス
  6
CONTINUOUS
 62
    64
 10
-82.540888
 20
-69.155092
 11
-82.428568
 21
-69.37865
  0
CIRCLE
  8
ボルト／ビス
  6
CONTINUOUS
 62
    64
 10
-82.678333
 20
-69.364145
 40
0.216668
  0
CIRCLE
  8
ボルト／ビス
  6
CONTINUOUS
 10
-72.759855
 20
-64.380788
 40
0.250185
  0
CIRCLE
  8
ボルト／ビス
  6
CONTINUOUS
 10
-72.759855
 20
-64.380788
 40
0.301025
  0
LINE
  8
ボルト／ビス
  6
CONTINUOUS
 62
    64
 10
-72.62241
 20
-64.171738
 11
-72.872175
 21
-64.157235
  0
LINE
  8
ボルト／ビス
  6
CONTINUOUS
 62
    64
 10
-73.00962
 20
-64.366285
 11
-72.872175
 21
-64.157235
  0
LINE
  8
ボルト／ビス
  6
CONTINUOUS
 62
    64
 10
-72.51009
 20
-64.395292
 11
-72.647533
 21
-64.60434
  0
LINE
  8
ボルト／ビス
  6
CONTINUOUS
 62
    64
 10
-72.8973
 20
-64.589837
 11
-72.647533
 21
-64.60434
  0
LINE
  8
ボルト／ビス
  6
CONTINUOUS
 62
    64
 10
-72.62241
 20
-64.171738
 11
-72.51009
 21
-64.395292
  0
LINE
  8
ボルト／ビス
  6
CONTINUOUS
 62
    64
 10
-73.00962
 20
-64.366285
 11
-72.8973
 21
-64.589837
  0
CIRCLE
  8
ボルト／ビス
  6
CONTINUOUS
 62
    64
 10
-72.759855
 20
-64.380788
 40
0.216668
  0
ENDBLK
  0
BLOCK
  2
*GRP_0031
 70
    65
 10
0.0
 20
0.0
  0
LINE
  8
補助線
  6
BYBLOCK
 62
    64
 10
-72.834317
 20
-74.31009
 11
-72.685393
 21
-74.384915
  0
LINE
  8
補助線
  6
BYBLOCK
 62
    64
 10
-72.722443
 20
-74.273038
 11
-72.797268
 21
-74.421965
  0
LINE
  8
補助線
  6
BYBLOCK
 62
    64
 10
-82.752798
 20
-69.326732
 11
-82.60387
 21
-69.401558
  0
LINE
  8
補助線
  6
BYBLOCK
 62
    64
 10
-82.64092
 20
-69.28968
 11
-82.715745
 21
-69.438608
  0
LINE
  8
補助線
  6
BYBLOCK
 62
    64
 10
-92.522347
 20
-64.4182
 11
-92.671275
 21
-64.343375
  0
LINE
  8
補助線
  6
BYBLOCK
 62
    64
 10
-92.559397
 20
-64.306322
 11
-92.634223
 21
-64.45525
  0
LINE
  8
型材断面
  6
CONTINUOUS
 10
-72.087878
 20
-73.752525
 11
-71.865575
 21
-74.423777
  0
LINE
  8
型材断面
  6
CONTINUOUS
 10
-71.865575
 20
-74.423777
 11
-72.164877
 21
-75.019482
  0
LINE
  8
型材断面
  6
CONTINUOUS
 10
-72.164877
 20
-75.019482
 11
-72.83613
 21
-75.241785
  0
LINE
  8
型材断面
  6
CONTINUOUS
 10
-92.520535
 20
-63.486507
 11
-93.19179
 21
-63.70881
  0
LINE
  8
型材断面
  6
CONTINUOUS
 10
-93.19179
 20
-63.70881
 11
-93.491093
 21
-64.304515
  0
LINE
  8
型材断面
  6
CONTINUOUS
 10
-93.491093
 20
-64.304515
 11
-93.268787
 21
-64.975767
  0
LINE
  8
型材断面
  6
CONTINUOUS
 10
-72.087878
 20
-73.752525
 11
-92.520535
 21
-63.486507
  0
LINE
  8
型材断面
  6
CONTINUOUS
 10
-72.83613
 20
-75.241785
 11
-93.268787
 21
-64.975767
  0
CIRCLE
  8
ボルト／ビス
  6
CONTINUOUS
 10
-72.759855
 20
-74.347502
 40
0.250185
  0
CIRCLE
  8
ボルト／ビス
  6
CONTINUOUS
 10
-72.759855
 20
-74.347502
 40
0.301025
  0
LINE
  8
ボルト／ビス
  6
CONTINUOUS
 62
    64
 10
-72.51009
 20
-74.333
 11
-72.647535
 21
-74.12395
  0
LINE
  8
ボルト／ビス
  6
CONTINUOUS
 62
    64
 10
-72.8973
 20
-74.138453
 11
-72.647535
 21
-74.12395
  0
LINE
  8
ボルト／ビス
  6
CONTINUOUS
 62
    64
 10
-72.62241
 20
-74.556552
 11
-72.872175
 21
-74.571055
  0
LINE
  8
ボルト／ビス
  6
CONTINUOUS
 62
    64
 10
-73.00962
 20
-74.362005
 11
-72.872175
 21
-74.571055
  0
LINE
  8
ボルト／ビス
  6
CONTINUOUS
 62
    64
 10
-72.51009
 20
-74.333
 11
-72.62241
 21
-74.556552
  0
LINE
  8
ボルト／ビス
  6
CONTINUOUS
 62
    64
 10
-72.8973
 20
-74.138453
 11
-73.00962
 21
-74.362005
  0
CIRCLE
  8
ボルト／ビス
  6
CONTINUOUS
 62
    64
 10
-72.759855
 20
-74.347502
 40
0.216668
  0
CIRCLE
  8
ボルト／ビス
  6
CONTINUOUS
 10
-82.678333
 20
-69.364145
 40
0.250185
  0
CIRCLE
  8
ボルト／ビス
  6
CONTINUOUS
 10
-82.678333
 20
-69.364145
 40
0.301025
  0
LINE
  8
ボルト／ビス
  6
CONTINUOUS
 62
    64
 10
-82.428568
 20
-69.34964
 11
-82.566013
 21
-69.14059
  0
LINE
  8
ボルト／ビス
  6
CONTINUOUS
 62
    64
 10
-82.815777
 20
-69.155092
 11
-82.566013
 21
-69.14059
  0
LINE
  8
ボルト／ビス
  6
CONTINUOUS
 62
    64
 10
-82.540888
 20
-69.573195
 11
-82.790655
 21
-69.5877
  0
LINE
  8
ボルト／ビス
  6
CONTINUOUS
 62
    64
 10
-82.928097
 20
-69.37865
 11
-82.790655
 21
-69.5877
  0
LINE
  8
ボルト／ビス
  6
CONTINUOUS
 62
    64
 10
-82.428568
 20
-69.34964
 11
-82.540888
 21
-69.573195
  0
LINE
  8
ボルト／ビス
  6
CONTINUOUS
 62
    64
 10
-82.815777
 20
-69.155092
 11
-82.928097
 21
-69.37865
  0
CIRCLE
  8
ボルト／ビス
  6
CONTINUOUS
 62
    64
 10
-82.678333
 20
-69.364145
 40
0.216668
  0
CIRCLE
  8
ボルト／ビス
  6
CONTINUOUS
 10
-92.59681
 20
-64.380788
 40
0.250185
  0
CIRCLE
  8
ボルト／ビス
  6
CONTINUOUS
 10
-92.59681
 20
-64.380788
 40
0.301025
  0
LINE
  8
ボルト／ビス
  6
CONTINUOUS
 62
    64
 10
-92.734255
 20
-64.171738
 11
-92.48449
 21
-64.157235
  0
LINE
  8
ボルト／ビス
  6
CONTINUOUS
 62
    64
 10
-92.347045
 20
-64.366285
 11
-92.48449
 21
-64.157235
  0
LINE
  8
ボルト／ビス
  6
CONTINUOUS
 62
    64
 10
-92.846575
 20
-64.395292
 11
-92.709133
 21
-64.60434
  0
LINE
  8
ボルト／ビス
  6
CONTINUOUS
 62
    64
 10
-92.459365
 20
-64.589837
 11
-92.709133
 21
-64.60434
  0
LINE
  8
ボルト／ビス
  6
CONTINUOUS
 62
    64
 10
-92.734255
 20
-64.171738
 11
-92.846575
 21
-64.395292
  0
LINE
  8
ボルト／ビス
  6
CONTINUOUS
 62
    64
 10
-92.347045
 20
-64.366285
 11
-92.459365
 21
-64.589837
  0
CIRCLE
  8
ボルト／ビス
  6
CONTINUOUS
 62
    64
 10
-92.59681
 20
-64.380788
 40
0.216668
  0
ENDBLK
  0
BLOCK
  2
*GRP_0032
 70
    65
 10
0.0
 20
0.0
  0
LINE
  8
補助線
  6
BYBLOCK
 62
    64
 10
17.328728
 20
-74.31009
 11
17.477652
 21
-74.384915
  0
LINE
  8
補助線
  6
BYBLOCK
 62
    64
 10
17.440603
 20
-74.273038
 11
17.365777
 21
-74.421965
  0
LINE
  8
補助線
  6
BYBLOCK
 62
    64
 10
7.410247
 20
-69.326732
 11
7.559175
 21
-69.401558
  0
LINE
  8
補助線
  6
BYBLOCK
 62
    64
 10
7.522125
 20
-69.28968
 11
7.4473
 21
-69.438608
  0
LINE
  8
補助線
  6
BYBLOCK
 62
    64
 10
-2.359303
 20
-64.4182
 11
-2.50823
 21
-64.343375
  0
LINE
  8
補助線
  6
BYBLOCK
 62
    64
 10
-2.396353
 20
-64.306322
 11
-2.471177
 21
-64.45525
  0
LINE
  8
型材断面
  6
CONTINUOUS
 10
18.075167
 20
-73.752525
 11
18.29747
 21
-74.423777
  0
LINE
  8
型材断面
  6
CONTINUOUS
 10
18.29747
 20
-74.423777
 11
17.998168
 21
-75.019482
  0
LINE
  8
型材断面
  6
CONTINUOUS
 10
17.998168
 20
-75.019482
 11
17.326915
 21
-75.241785
  0
LINE
  8
型材断面
  6
CONTINUOUS
 10
-2.35749
 20
-63.486507
 11
-3.028745
 21
-63.70881
  0
LINE
  8
型材断面
  6
CONTINUOUS
 10
-3.028745
 20
-63.70881
 11
-3.328047
 21
-64.304515
  0
LINE
  8
型材断面
  6
CONTINUOUS
 10
-3.328047
 20
-64.304515
 11
-3.105742
 21
-64.975767
  0
LINE
  8
型材断面
  6
CONTINUOUS
 10
18.075167
 20
-73.752525
 11
-2.35749
 21
-63.486507
  0
LINE
  8
型材断面
  6
CONTINUOUS
 10
17.326915
 20
-75.241785
 11
-3.105742
 21
-64.975767
  0
CIRCLE
  8
ボルト／ビス
  6
CONTINUOUS
 10
17.40319
 20
-74.347502
 40
0.250185
  0
CIRCLE
  8
ボルト／ビス
  6
CONTINUOUS
 10
17.40319
 20
-74.347502
 40
0.301025
  0
LINE
  8
ボルト／ビス
  6
CONTINUOUS
 62
    64
 10
17.652955
 20
-74.333
 11
17.51551
 21
-74.12395
  0
LINE
  8
ボルト／ビス
  6
CONTINUOUS
 62
    64
 10
17.265745
 20
-74.138453
 11
17.51551
 21
-74.12395
  0
LINE
  8
ボルト／ビス
  6
CONTINUOUS
 62
    64
 10
17.540635
 20
-74.556552
 11
17.29087
 21
-74.571055
  0
LINE
  8
ボルト／ビス
  6
CONTINUOUS
 62
    64
 10
17.153425
 20
-74.362005
 11
17.29087
 21
-74.571055
  0
LINE
  8
ボルト／ビス
  6
CONTINUOUS
 62
    64
 10
17.652955
 20
-74.333
 11
17.540635
 21
-74.556552
  0
LINE
  8
ボルト／ビス
  6
CONTINUOUS
 62
    64
 10
17.265745
 20
-74.138453
 11
17.153425
 21
-74.362005
  0
CIRCLE
  8
ボルト／ビス
  6
CONTINUOUS
 62
    64
 10
17.40319
 20
-74.347502
 40
0.216668
  0
CIRCLE
  8
ボルト／ビス
  6
CONTINUOUS
 10
7.484713
 20
-69.364145
 40
0.250185
  0
CIRCLE
  8
ボルト／ビス
  6
CONTINUOUS
 10
7.484713
 20
-69.364145
 40
0.301025
  0
LINE
  8
ボルト／ビス
  6
CONTINUOUS
 62
    64
 10
7.734477
 20
-69.34964
 11
7.597033
 21
-69.14059
  0
LINE
  8
ボルト／ビス
  6
CONTINUOUS
 62
    64
 10
7.347268
 20
-69.155092
 11
7.597033
 21
-69.14059
  0
LINE
  8
ボルト／ビス
  6
CONTINUOUS
 62
    64
 10
7.622157
 20
-69.573195
 11
7.37239
 21
-69.5877
  0
LINE
  8
ボルト／ビス
  6
CONTINUOUS
 62
    64
 10
7.234948
 20
-69.37865
 11
7.37239
 21
-69.5877
  0
LINE
  8
ボルト／ビス
  6
CONTINUOUS
 62
    64
 10
7.734477
 20
-69.34964
 11
7.622157
 21
-69.573195
  0
LINE
  8
ボルト／ビス
  6
CONTINUOUS
 62
    64
 10
7.347268
 20
-69.155092
 11
7.234948
 21
-69.37865
  0
CIRCLE
  8
ボルト／ビス
  6
CONTINUOUS
 62
    64
 10
7.484713
 20
-69.364145
 40
0.216668
  0
CIRCLE
  8
ボルト／ビス
  6
CONTINUOUS
 10
-2.433765
 20
-64.380788
 40
0.250185
  0
CIRCLE
  8
ボルト／ビス
  6
CONTINUOUS
 10
-2.433765
 20
-64.380788
 40
0.301025
  0
LINE
  8
ボルト／ビス
  6
CONTINUOUS
 62
    64
 10
-2.57121
 20
-64.171738
 11
-2.321445
 21
-64.157235
  0
LINE
  8
ボルト／ビス
  6
CONTINUOUS
 62
    64
 10
-2.184
 20
-64.366285
 11
-2.321445
 21
-64.157235
  0
LINE
  8
ボルト／ビス
  6
CONTINUOUS
 62
    64
 10
-2.68353
 20
-64.395292
 11
-2.546087
 21
-64.60434
  0
LINE
  8
ボルト／ビス
  6
CONTINUOUS
 62
    64
 10
-2.29632
 20
-64.589837
 11
-2.546087
 21
-64.60434
  0
LINE
  8
ボルト／ビス
  6
CONTINUOUS
 62
    64
 10
-2.57121
 20
-64.171738
 11
-2.68353
 21
-64.395292
  0
LINE
  8
ボルト／ビス
  6
CONTINUOUS
 62
    64
 10
-2.184
 20
-64.366285
 11
-2.29632
 21
-64.589837
  0
CIRCLE
  8
ボルト／ビス
  6
CONTINUOUS
 62
    64
 10
-2.433765
 20
-64.380788
 40
0.216668
  0
ENDBLK
  0
BLOCK
  2
*GRP_0033
 70
    65
 10
0.0
 20
0.0
  0
LINE
  8
補助線
  6
BYBLOCK
 62
    64
 10
-2.359303
 20
-74.31009
 11
-2.508227
 21
-74.384915
  0
LINE
  8
補助線
  6
BYBLOCK
 62
    64
 10
-2.471177
 20
-74.273038
 11
-2.396353
 21
-74.421965
  0
LINE
  8
補助線
  6
BYBLOCK
 62
    64
 10
7.559178
 20
-69.326732
 11
7.41025
 21
-69.401558
  0
LINE
  8
補助線
  6
BYBLOCK
 62
    64
 10
7.4473
 20
-69.28968
 11
7.522125
 21
-69.438608
  0
LINE
  8
補助線
  6
BYBLOCK
 62
    64
 10
17.328728
 20
-64.4182
 11
17.477655
 21
-64.343375
  0
LINE
  8
補助線
  6
BYBLOCK
 62
    64
 10
17.365777
 20
-64.306322
 11
17.440603
 21
-64.45525
  0
LINE
  8
型材断面
  6
CONTINUOUS
 10
-3.105742
 20
-73.752525
 11
-3.328045
 21
-74.423777
  0
LINE
  8
型材断面
  6
CONTINUOUS
 10
-3.328045
 20
-74.423777
 11
-3.028743
 21
-75.019482
  0
LINE
  8
型材断面
  6
CONTINUOUS
 10
-3.028743
 20
-75.019482
 11
-2.35749
 21
-75.241785
  0
LINE
  8
型材断面
  6
CONTINUOUS
 10
17.326915
 20
-63.486507
 11
17.99817
 21
-63.70881
  0
LINE
  8
型材断面
  6
CONTINUOUS
 10
17.99817
 20
-63.70881
 11
18.297473
 21
-64.304515
  0
LINE
  8
型材断面
  6
CONTINUOUS
 10
18.297473
 20
-64.304515
 11
18.075167
 21
-64.975767
  0
LINE
  8
型材断面
  6
CONTINUOUS
 10
-3.105742
 20
-73.752525
 11
17.326915
 21
-63.486507
  0
LINE
  8
型材断面
  6
CONTINUOUS
 10
-2.35749
 20
-75.241785
 11
18.075167
 21
-64.975767
  0
CIRCLE
  8
ボルト／ビス
  6
CONTINUOUS
 10
-2.433765
 20
-74.347502
 40
0.250185
  0
CIRCLE
  8
ボルト／ビス
  6
CONTINUOUS
 10
-2.433765
 20
-74.347502
 40
0.301025
  0
LINE
  8
ボルト／ビス
  6
CONTINUOUS
 62
    64
 10
-2.68353
 20
-74.333
 11
-2.546085
 21
-74.12395
  0
LINE
  8
ボルト／ビス
  6
CONTINUOUS
 62
    64
 10
-2.29632
 20
-74.138453
 11
-2.546085
 21
-74.12395
  0
LINE
  8
ボルト／ビス
  6
CONTINUOUS
 62
    64
 10
-2.57121
 20
-74.556552
 11
-2.321445
 21
-74.571055
  0
LINE
  8
ボルト／ビス
  6
CONTINUOUS
 62
    64
 10
-2.184
 20
-74.362005
 11
-2.321445
 21
-74.571055
  0
LINE
  8
ボルト／ビス
  6
CONTINUOUS
 62
    64
 10
-2.68353
 20
-74.333
 11
-2.57121
 21
-74.556552
  0
LINE
  8
ボルト／ビス
  6
CONTINUOUS
 62
    64
 10
-2.29632
 20
-74.138453
 11
-2.184
 21
-74.362005
  0
CIRCLE
  8
ボルト／ビス
  6
CONTINUOUS
 62
    64
 10
-2.433765
 20
-74.347502
 40
0.216668
  0
CIRCLE
  8
ボルト／ビス
  6
CONTINUOUS
 10
7.484713
 20
-69.364145
 40
0.250185
  0
CIRCLE
  8
ボルト／ビス
  6
CONTINUOUS
 10
7.484713
 20
-69.364145
 40
0.301025
  0
LINE
  8
ボルト／ビス
  6
CONTINUOUS
 62
    64
 10
7.234948
 20
-69.34964
 11
7.372393
 21
-69.14059
  0
LINE
  8
ボルト／ビス
  6
CONTINUOUS
 62
    64
 10
7.622157
 20
-69.155092
 11
7.372393
 21
-69.14059
  0
LINE
  8
ボルト／ビス
  6
CONTINUOUS
 62
    64
 10
7.347268
 20
-69.573195
 11
7.597035
 21
-69.5877
  0
LINE
  8
ボルト／ビス
  6
CONTINUOUS
 62
    64
 10
7.734477
 20
-69.37865
 11
7.597035
 21
-69.5877
  0
LINE
  8
ボルト／ビス
  6
CONTINUOUS
 62
    64
 10
7.234948
 20
-69.34964
 11
7.347268
 21
-69.573195
  0
LINE
  8
ボルト／ビス
  6
CONTINUOUS
 62
    64
 10
7.622157
 20
-69.155092
 11
7.734477
 21
-69.37865
  0
CIRCLE
  8
ボルト／ビス
  6
CONTINUOUS
 62
    64
 10
7.484713
 20
-69.364145
 40
0.216668
  0
CIRCLE
  8
ボルト／ビス
  6
CONTINUOUS
 10
17.40319
 20
-64.380788
 40
0.250185
  0
CIRCLE
  8
ボルト／ビス
  6
CONTINUOUS
 10
17.40319
 20
-64.380788
 40
0.301025
  0
LINE
  8
ボルト／ビス
  6
CONTINUOUS
 62
    64
 10
17.540635
 20
-64.171738
 11
17.29087
 21
-64.157235
  0
LINE
  8
ボルト／ビス
  6
CONTINUOUS
 62
    64
 10
17.153425
 20
-64.366285
 11
17.29087
 21
-64.157235
  0
LINE
  8
ボルト／ビス
  6
CONTINUOUS
 62
    64
 10
17.652955
 20
-64.395292
 11
17.515512
 21
-64.60434
  0
LINE
  8
ボルト／ビス
  6
CONTINUOUS
 62
    64
 10
17.265745
 20
-64.589837
 11
17.515512
 21
-64.60434
  0
LINE
  8
ボルト／ビス
  6
CONTINUOUS
 62
    64
 10
17.540635
 20
-64.171738
 11
17.652955
 21
-64.395292
  0
LINE
  8
ボルト／ビス
  6
CONTINUOUS
 62
    64
 10
17.153425
 20
-64.366285
 11
17.265745
 21
-64.589837
  0
CIRCLE
  8
ボルト／ビス
  6
CONTINUOUS
 62
    64
 10
17.40319
 20
-64.380788
 40
0.216668
  0
ENDBLK
  0
BLOCK
  2
*DIM_0034
 70
    65
 10
0.0
 20
0.0
  0
LINE
  8
寸法
  6
CONTINUOUS
 10
114.281892
 20
-48.273362
 11
114.281892
 21
-39.580933
  0
LINE
  8
寸法
  6
CONTINUOUS
 10
146.438558
 20
-48.273362
 11
146.438558
 21
-39.580933
  0
LINE
  8
寸法
  6
CONTINUOUS
 10
114.281892
 20
-39.580933
 11
146.438558
 21
-39.580933
  0
POINT
  8
寸法
 10
114.281892
 20
-39.580933
  0
POINT
  8
寸法
 10
146.438558
 20
-39.580933
  0
TEXT
  7
TextStyle03
  8
寸法
  6
CONTINUOUS
 10
126.225
 20
-39.225
  1
964.7
 40
3.0
 72
     5
 11
134.475
 21
-39.225
  0
ENDBLK
  0
BLOCK
  2
*DIM_0035
 70
    65
 10
0.0
 20
0.0
  0
LINE
  8
寸法
  6
CONTINUOUS
 10
151.438558
 20
-53.273362
 11
161.024837
 21
-53.273362
  0
LINE
  8
寸法
  6
CONTINUOUS
 10
151.438558
 20
-72.606695
 11
161.024837
 21
-72.606695
  0
LINE
  8
寸法
  6
CONTINUOUS
 10
161.024837
 20
-53.273362
 11
161.024837
 21
-72.606695
  0
POINT
  8
寸法
 10
161.024837
 20
-53.273362
  0
POINT
  8
寸法
 10
161.024837
 20
-72.606695
  0
TEXT
  7
TextStyle03
  8
寸法
  6
CONTINUOUS
 10
160.625
 20
-65.3875
  1
580
 40
3.0
 50
90.0
 72
     5
 11
160.625
 21
-60.5125
  0
ENDBLK
  0
BLOCK
  2
*DIM_0036
 70
    65
 10
0.0
 20
0.0
  0
LINE
  8
寸法
  6
CONTINUOUS
 10
31.34986
 20
-68.209977
 11
31.34986
 21
-32.437345
  0
LINE
  8
寸法
  6
CONTINUOUS
 10
29.070165
 20
-32.437345
 11
31.34986
 21
-32.437345
  0
POINT
  8
寸法
 10
29.070165
 20
-32.437345
  0
POINT
  8
寸法
 10
31.34986
 20
-32.437345
  0
TEXT
  7
TextStyle03
  8
寸法
  6
CONTINUOUS
 10
33.66875
 20
-32.075
  1
68.4
 40
3.0
 72
     5
 11
40.23125
 21
-32.075
  0
ENDBLK
  0
BLOCK
  2
*DIM_0037
 70
    65
 10
0.0
 20
0.0
  0
LINE
  8
寸法
  6
CONTINUOUS
 10
-106.542855
 20
-68.209977
 11
-106.542855
 21
-32.437345
  0
LINE
  8
寸法
  6
CONTINUOUS
 10
-104.26316
 20
-32.437345
 11
-106.542855
 21
-32.437345
  0
POINT
  8
寸法
 10
-104.26316
 20
-32.437345
  0
POINT
  8
寸法
 10
-106.542855
 20
-32.437345
  0
TEXT
  7
TextStyle03
  8
寸法
  6
CONTINUOUS
 10
-115.45625
 20
-32.075
  1
68.4
 40
3.0
 72
     5
 11
-108.89375
 21
-32.075
  0
ENDBLK
  0
BLOCK
  2
*DIM_0038
 70
    65
 10
0.0
 20
0.0
  0
LINE
  8
寸法
  6
CONTINUOUS
 10
29.070165
 20
-32.437345
 11
-104.26316
 21
-32.437345
  0
POINT
  8
寸法
 10
29.070165
 20
-32.437345
  0
POINT
  8
寸法
 10
-104.26316
 20
-32.437345
  0
TEXT
  7
TextStyle03
  8
寸法
  6
CONTINUOUS
 10
-49.31875
 20
-32.075
  1
呼称寸法　4000
 40
3.0
 72
     5
 11
-25.88125
 21
-32.075
  0
ENDBLK
  0
BLOCK
  2
M8横
 70
    64
 10
-88.370132
 20
140.837665
  0
LINE
  8
ボルト／ビス
 10
-95.870132
 20
140.837665
 11
-80.870132
 21
140.837665
  0
LINE
  8
ボルト／ビス
 10
-80.870132
 20
145.837665
 11
-81.370132
 21
146.337665
  0
POLYLINE
  8
ボルト／ビス
 66
     1
  0
VERTEX
  8
ボルト／ビス
 10
-84.120132
 20
146.337665
  0
VERTEX
  8
ボルト／ビス
 10
-84.620132
 20
145.837665
  0
VERTEX
  8
ボルト／ビス
 10
-85.120132
 20
146.337665
  0
SEQEND
  0
POLYLINE
  8
ボルト／ビス
 66
     1
  0
VERTEX
  8
ボルト／ビス
 10
-91.620132
 20
146.337665
  0
VERTEX
  8
ボルト／ビス
 10
-92.120132
 20
145.837665
  0
VERTEX
  8
ボルト／ビス
 10
-92.620132
 20
146.337665
  0
SEQEND
  0
LINE
  8
ボルト／ビス
 10
-95.370132
 20
146.337665
 11
-95.870132
 21
145.837665
  0
LINE
  8
ボルト／ビス
 10
-95.870132
 20
140.837665
 11
-95.870132
 21
145.837665
  0
LINE
  8
ボルト／ビス
 10
-80.870132
 20
140.837665
 11
-80.870132
 21
145.837665
  0
LINE
  8
ボルト／ビス
 10
-95.370132
 20
146.337665
 11
-81.370132
 21
146.337665
  0
LINE
  8
ボルト／ビス
 10
-84.620132
 20
140.837665
 11
-84.620132
 21
145.837665
  0
LINE
  8
ボルト／ビス
 10
-92.120132
 20
140.837665
 11
-92.120132
 21
145.837665
  0
ENDBLK
  0
ENDSEC
  0
SECTION
  2
ENTITIES
  0
POLYLINE
  8
通り芯
  6
CONTINUOUS
 66
     1
 70
     1
  0
VERTEX
  8
通り芯
 10
-210.0
 20
-148.5
  0
VERTEX
  8
通り芯
 10
210.0
 20
-148.5
  0
VERTEX
  8
通り芯
 10
210.0
 20
148.5
  0
VERTEX
  8
通り芯
 10
-210.0
 20
148.5
  0
SEQEND
  0
INSERT
  2
*GRP_0001
  8
型材断面
  6
CONTINUOUS
 10
0.0
 20
0.0
  0
LINE
  8
型材断面
  6
CONTINUOUS
 10
162.97617
 20
61.869993
 11
162.97617
 21
61.819993
  0
LINE
  8
型材断面
  6
CONTINUOUS
 10
162.47617
 20
60.203325
 11
161.742835
 21
60.203325
  0
LINE
  8
型材断面
  6
CONTINUOUS
 62
    47
 10
169.709335
 20
61.60302
 11
169.709335
 21
61.55302
  0
LINE
  8
型材断面
  6
CONTINUOUS
 62
    47
 10
169.709335
 20
61.60302
 11
169.209335
 21
61.60302
  0
LINE
  8
型材断面
  6
CONTINUOUS
 10
163.459335
 20
60.25302
 11
163.459335
 21
61.699688
  0
LINE
  8
型材断面
  6
CONTINUOUS
 10
163.909335
 20
61.699688
 11
163.459335
 21
61.699688
  0
LINE
  8
型材断面
  6
CONTINUOUS
 62
    47
 10
166.582028
 20
62.43302
 11
166.582028
 21
62.48302
  0
LINE
  8
型材断面
  6
CONTINUOUS
 62
    47
 10
166.582028
 20
62.48302
 11
166.248695
 21
62.48302
  0
LINE
  8
型材断面
  6
CONTINUOUS
 62
    47
 10
166.248695
 20
62.48302
 11
166.148695
 21
61.699688
  0
LINE
  8
型材断面
  6
CONTINUOUS
 62
    47
 10
165.74267
 20
61.699688
 11
166.148695
 21
61.699688
  0
LINE
  8
型材断面
  6
CONTINUOUS
 62
    47
 10
165.74267
 20
62.169687
 11
163.909335
 21
62.169687
  0
LINE
  8
型材断面
  6
CONTINUOUS
 10
162.97617
 20
61.869993
 11
162.47617
 21
61.869993
  0
LINE
  8
型材断面
  6
CONTINUOUS
 10
163.459335
 20
60.25302
 11
162.97617
 21
60.25302
  0
LINE
  8
型材断面
  6
CONTINUOUS
 62
    47
 10
169.209335
 20
62.169687
 11
166.582028
 21
62.169687
  0
INSERT
  2
*GRP_0002
  8
型材断面
  6
DOT
 10
0.0
 20
0.0
  0
INSERT
  2
*GRP_0003
  8
型材断面
  6
DOT
 10
0.0
 20
0.0
  0
LINE
  8
型材断面
  6
CONTINUOUS
 10
169.209335
 20
62.169687
 11
169.209335
 21
50.203325
  0
LINE
  8
型材断面
  6
CONTINUOUS
 10
169.709335
 20
61.60302
 11
169.709335
 21
50.203325
  0
LINE
  8
型材断面
  6
CONTINUOUS
 10
166.582028
 20
62.48302
 11
166.582028
 21
50.203325
  0
LINE
  8
型材断面
  6
CONTINUOUS
 10
166.248695
 20
62.48302
 11
166.248695
 21
50.203325
  0
LINE
  8
型材断面
  6
CONTINUOUS
 10
166.148695
 20
61.699688
 11
166.148695
 21
50.203325
  0
LINE
  8
型材断面
  6
CONTINUOUS
 10
165.74267
 20
62.169687
 11
165.74267
 21
50.203325
  0
LINE
  8
型材断面
  6
CONTINUOUS
 10
162.97617
 20
61.869993
 11
162.97617
 21
50.203325
  0
LINE
  8
型材断面
  6
CONTINUOUS
 10
161.742835
 20
60.203325
 11
161.742835
 21
50.203325
  0
LINE
  8
型材断面
  6
CONTINUOUS
 10
162.47617
 20
61.869993
 11
162.47617
 21
50.203325
  0
LINE
  8
型材断面
  6
CONTINUOUS
 10
163.459335
 20
61.699688
 11
163.459335
 21
50.203325
  0
LINE
  8
型材断面
  6
CONTINUOUS
 10
163.909335
 20
62.169687
 11
163.909335
 21
50.203325
  0
LINE
  8
型材断面
  6
CONTINUOUS
 10
162.97617
 20
38.53666
 11
162.97617
 21
38.58666
  0
LINE
  8
型材断面
  6
CONTINUOUS
 10
162.47617
 20
40.203325
 11
161.742835
 21
40.203325
  0
LINE
  8
型材断面
  6
CONTINUOUS
 62
    47
 10
169.709335
 20
38.80363
 11
169.709335
 21
38.85363
  0
LINE
  8
型材断面
  6
CONTINUOUS
 62
    47
 10
169.709335
 20
38.80363
 11
169.209335
 21
38.80363
  0
LINE
  8
型材断面
  6
CONTINUOUS
 10
163.459335
 20
40.15363
 11
163.459335
 21
38.706965
  0
LINE
  8
型材断面
  6
CONTINUOUS
 10
163.909335
 20
38.706965
 11
163.459335
 21
38.706965
  0
LINE
  8
型材断面
  6
CONTINUOUS
 62
    47
 10
166.582028
 20
37.97363
 11
166.582028
 21
37.92363
  0
LINE
  8
型材断面
  6
CONTINUOUS
 62
    47
 10
166.582028
 20
37.92363
 11
166.248695
 21
37.92363
  0
LINE
  8
型材断面
  6
CONTINUOUS
 62
    47
 10
166.248695
 20
37.92363
 11
166.148695
 21
38.706965
  0
LINE
  8
型材断面
  6
CONTINUOUS
 62
    47
 10
165.74267
 20
38.706965
 11
166.148695
 21
38.706965
  0
LINE
  8
型材断面
  6
CONTINUOUS
 62
    47
 10
165.74267
 20
38.236965
 11
163.909335
 21
38.236965
  0
LINE
  8
型材断面
  6
CONTINUOUS
 10
162.97617
 20
38.53666
 11
162.47617
 21
38.53666
  0
LINE
  8
型材断面
  6
CONTINUOUS
 10
163.459335
 20
40.15363
 11
162.97617
 21
40.15363
  0
LINE
  8
型材断面
  6
CONTINUOUS
 62
    47
 10
169.209335
 20
38.236965
 11
166.582028
 21
38.236965
  0
INSERT
  2
*GRP_0004
  8
型材断面
  6
DOT
 10
0.0
 20
0.0
  0
INSERT
  2
*GRP_0005
  8
型材断面
  6
DOT
 10
0.0
 20
0.0
  0
LINE
  8
型材断面
  6
CONTINUOUS
 10
169.209335
 20
38.236965
 11
169.209335
 21
50.203325
  0
LINE
  8
型材断面
  6
CONTINUOUS
 10
169.709335
 20
38.80363
 11
169.709335
 21
50.203325
  0
LINE
  8
型材断面
  6
CONTINUOUS
 10
166.582028
 20
37.92363
 11
166.582028
 21
50.203325
  0
LINE
  8
型材断面
  6
CONTINUOUS
 10
166.248695
 20
37.92363
 11
166.248695
 21
50.203325
  0
LINE
  8
型材断面
  6
CONTINUOUS
 10
166.148695
 20
38.706965
 11
166.148695
 21
50.203325
  0
LINE
  8
型材断面
  6
CONTINUOUS
 10
165.74267
 20
38.236965
 11
165.74267
 21
50.203325
  0
LINE
  8
型材断面
  6
CONTINUOUS
 10
162.97617
 20
38.53666
 11
162.97617
 21
50.203325
  0
LINE
  8
型材断面
  6
CONTINUOUS
 10
161.742835
 20
40.203325
 11
161.742835
 21
50.203325
  0
LINE
  8
型材断面
  6
CONTINUOUS
 10
162.47617
 20
38.53666
 11
162.47617
 21
50.203325
  0
LINE
  8
型材断面
  6
CONTINUOUS
 10
163.459335
 20
38.706965
 11
163.459335
 21
50.203325
  0
LINE
  8
型材断面
  6
CONTINUOUS
 10
163.909335
 20
38.236965
 11
163.909335
 21
50.203325
  0
LINE
  8
型材断面
  6
DASHDOT
 10
-37.596497
 20
-79.253555
 11
-37.596497
 21
60.203325
  0
LINE
  8
型材断面
  6
CONTINUOUS
 10
30.736832
 20
-69.937453
 11
30.686832
 21
-69.937453
  0
LINE
  8
型材断面
  6
CONTINUOUS
 10
29.070165
 20
-69.437453
 11
29.070165
 21
-68.70412
  0
LINE
  8
型材断面
  6
CONTINUOUS
 62
    47
 10
30.46986
 20
-76.67062
 11
30.41986
 21
-76.67062
  0
LINE
  8
型材断面
  6
CONTINUOUS
 62
    47
 10
30.46986
 20
-76.67062
 11
30.46986
 21
-76.17062
  0
LINE
  8
型材断面
  6
CONTINUOUS
 10
29.11986
 20
-70.42062
 11
30.566527
 21
-70.42062
  0
LINE
  8
型材断面
  6
CONTINUOUS
 10
30.566527
 20
-70.87062
 11
30.566527
 21
-70.42062
  0
LINE
  8
型材断面
  6
CONTINUOUS
 62
    47
 10
31.29986
 20
-73.543312
 11
31.34986
 21
-73.543312
  0
LINE
  8
型材断面
  6
CONTINUOUS
 62
    47
 10
31.34986
 20
-73.543312
 11
31.34986
 21
-73.209977
  0
LINE
  8
型材断面
  6
CONTINUOUS
 62
    47
 10
31.34986
 20
-73.209977
 11
30.566527
 21
-73.109977
  0
LINE
  8
型材断面
  6
CONTINUOUS
 62
    47
 10
30.566527
 20
-72.703953
 11
30.566527
 21
-73.109977
  0
LINE
  8
型材断面
  6
CONTINUOUS
 62
    47
 10
31.036528
 20
-72.703953
 11
31.036528
 21
-70.87062
  0
LINE
  8
型材断面
  6
CONTINUOUS
 10
30.736832
 20
-69.937453
 11
30.736832
 21
-69.437453
  0
LINE
  8
型材断面
  6
CONTINUOUS
 10
29.11986
 20
-70.42062
 11
29.11986
 21
-69.937453
  0
LINE
  8
型材断面
  6
CONTINUOUS
 62
    47
 10
31.036528
 20
-76.17062
 11
31.036528
 21
-73.543312
  0
INSERT
  2
*GRP_0010
  8
型材断面
  6
DOT
 10
0.0
 20
0.0
  0
INSERT
  2
*GRP_0011
  8
型材断面
  6
DOT
 10
0.0
 20
0.0
  0
LINE
  8
型材断面
  6
CONTINUOUS
 10
31.036528
 20
-76.17062
 11
-37.596497
 21
-76.17062
  0
LINE
  8
型材断面
  6
CONTINUOUS
 10
30.46986
 20
-76.67062
 11
-37.596497
 21
-76.67062
  0
LINE
  8
型材断面
  6
CONTINUOUS
 10
31.34986
 20
-73.543312
 11
-37.596497
 21
-73.543312
  0
LINE
  8
型材断面
  6
CONTINUOUS
 10
31.34986
 20
-73.209977
 11
-37.596497
 21
-73.209977
  0
LINE
  8
型材断面
  6
CONTINUOUS
 10
30.566527
 20
-73.109977
 11
-37.596497
 21
-73.109977
  0
LINE
  8
型材断面
  6
CONTINUOUS
 10
31.036528
 20
-72.703953
 11
-37.596497
 21
-72.703953
  0
LINE
  8
型材断面
  6
CONTINUOUS
 10
30.736832
 20
-69.937453
 11
-37.596497
 21
-69.937453
  0
LINE
  8
型材断面
  6
CONTINUOUS
 10
29.070165
 20
-68.70412
 11
-37.596497
 21
-68.70412
  0
LINE
  8
型材断面
  6
CONTINUOUS
 10
30.736832
 20
-69.437453
 11
-37.596497
 21
-69.437453
  0
LINE
  8
型材断面
  6
CONTINUOUS
 10
30.566527
 20
-70.42062
 11
-37.596497
 21
-70.42062
  0
LINE
  8
型材断面
  6
CONTINUOUS
 10
31.036528
 20
-70.87062
 11
-37.596497
 21
-70.87062
  0
LINE
  8
型材断面
  6
CONTINUOUS
 10
29.070165
 20
40.203325
 11
29.070165
 21
60.203325
  0
LINE
  8
型材断面
  6
CONTINUOUS
 10
31.036528
 20
38.236962
 11
31.036528
 21
62.169687
  0
LINE
  8
型材断面
  6
CONTINUOUS
 10
31.34986
 20
37.92363
 11
31.34986
 21
62.48302
  0
LINE
  8
型材断面
  6
CONTINUOUS
 10
30.736832
 20
38.536658
 11
30.736832
 21
61.869993
  0
LINE
  8
型材断面
  6
CONTINUOUS
 10
28.236832
 20
41.036658
 11
31.34986
 21
37.92363
  0
LINE
  8
型材断面
  6
CONTINUOUS
 10
28.236832
 20
59.369993
 11
31.34986
 21
62.48302
  0
LINE
  8
型材断面
  6
CONTINUOUS
 10
28.236832
 20
50.619993
 11
29.070165
 21
50.619993
  0
LINE
  8
型材断面
  6
CONTINUOUS
 10
28.236832
 20
49.786658
 11
29.070165
 21
49.786658
  0
LINE
  8
型材断面
  6
CONTINUOUS
 10
28.236832
 20
41.036658
 11
28.236832
 21
49.786658
  0
LINE
  8
型材断面
  6
CONTINUOUS
 10
28.236832
 20
50.619993
 11
28.236832
 21
59.369993
  0
LINE
  8
型材断面
  6
DASHDOT
 10
172.29227
 20
40.203325
 11
29.070165
 21
40.203325
  0
LINE
  8
型材断面
  6
DASHDOT
 10
172.29227
 20
60.203325
 11
29.070165
 21
60.203325
  0
LINE
  8
型材断面
  6
DASHDOT
 10
29.070165
 20
-79.253555
 11
29.070165
 21
40.203325
  0
LINE
  8
型材断面
  6
CONTINUOUS
 10
-105.929828
 20
-69.937453
 11
-105.879828
 21
-69.937453
  0
LINE
  8
型材断面
  6
CONTINUOUS
 10
-104.26316
 20
-69.437453
 11
-104.26316
 21
-68.70412
  0
LINE
  8
型材断面
  6
CONTINUOUS
 62
    47
 10
-105.662855
 20
-76.67062
 11
-105.612855
 21
-76.67062
  0
LINE
  8
型材断面
  6
CONTINUOUS
 62
    47
 10
-105.662855
 20
-76.67062
 11
-105.662855
 21
-76.17062
  0
LINE
  8
型材断面
  6
CONTINUOUS
 10
-104.312855
 20
-70.42062
 11
-105.759523
 21
-70.42062
  0
LINE
  8
型材断面
  6
CONTINUOUS
 10
-105.759523
 20
-70.87062
 11
-105.759523
 21
-70.42062
  0
LINE
  8
型材断面
  6
CONTINUOUS
 62
    47
 10
-106.492855
 20
-73.543312
 11
-106.542855
 21
-73.543312
  0
LINE
  8
型材断面
  6
CONTINUOUS
 62
    47
 10
-106.542855
 20
-73.543312
 11
-106.542855
 21
-73.209977
  0
LINE
  8
型材断面
  6
CONTINUOUS
 62
    47
 10
-106.542855
 20
-73.209977
 11
-105.759523
 21
-73.109977
  0
LINE
  8
型材断面
  6
CONTINUOUS
 62
    47
 10
-105.759523
 20
-72.703953
 11
-105.759523
 21
-73.109977
  0
LINE
  8
型材断面
  6
CONTINUOUS
 62
    47
 10
-106.229522
 20
-72.703953
 11
-106.229522
 21
-70.87062
  0
LINE
  8
型材断面
  6
CONTINUOUS
 10
-105.929828
 20
-69.937453
 11
-105.929828
 21
-69.437453
  0
LINE
  8
型材断面
  6
CONTINUOUS
 10
-104.312855
 20
-70.42062
 11
-104.312855
 21
-69.937453
  0
LINE
  8
型材断面
  6
CONTINUOUS
 62
    47
 10
-106.229522
 20
-76.17062
 11
-106.229522
 21
-73.543312
  0
INSERT
  2
*GRP_0013
  8
型材断面
  6
DOT
 10
0.0
 20
0.0
  0
INSERT
  2
*GRP_0014
  8
型材断面
  6
DOT
 10
0.0
 20
0.0
  0
LINE
  8
型材断面
  6
CONTINUOUS
 10
-106.229522
 20
-76.17062
 11
-37.596497
 21
-76.17062
  0
LINE
  8
型材断面
  6
CONTINUOUS
 10
-105.662855
 20
-76.67062
 11
-37.596497
 21
-76.67062
  0
LINE
  8
型材断面
  6
CONTINUOUS
 10
-106.542855
 20
-73.543312
 11
-37.596497
 21
-73.543312
  0
LINE
  8
型材断面
  6
CONTINUOUS
 10
-106.542855
 20
-73.209977
 11
-37.596497
 21
-73.209977
  0
LINE
  8
型材断面
  6
CONTINUOUS
 10
-105.759523
 20
-73.109977
 11
-37.596497
 21
-73.109977
  0
LINE
  8
型材断面
  6
CONTINUOUS
 10
-106.229522
 20
-72.703953
 11
-37.596497
 21
-72.703953
  0
LINE
  8
型材断面
  6
CONTINUOUS
 10
-105.929828
 20
-69.937453
 11
-37.596497
 21
-69.937453
  0
LINE
  8
型材断面
  6
CONTINUOUS
 10
-104.26316
 20
-68.70412
 11
-37.596497
 21
-68.70412
  0
LINE
  8
型材断面
  6
CONTINUOUS
 10
-105.929828
 20
-69.437453
 11
-37.596497
 21
-69.437453
  0
LINE
  8
型材断面
  6
CONTINUOUS
 10
-105.759523
 20
-70.42062
 11
-37.596497
 21
-70.42062
  0
LINE
  8
型材断面
  6
CONTINUOUS
 10
-106.229522
 20
-70.87062
 11
-37.596497
 21
-70.87062
  0
LINE
  8
型材断面
  6
CONTINUOUS
 10
-104.26316
 20
40.203325
 11
-104.26316
 21
60.203325
  0
LINE
  8
型材断面
  6
CONTINUOUS
 10
-106.229522
 20
38.236962
 11
-106.229522
 21
62.169687
  0
LINE
  8
型材断面
  6
CONTINUOUS
 10
-106.542855
 20
37.92363
 11
-106.542855
 21
62.48302
  0
LINE
  8
型材断面
  6
CONTINUOUS
 10
-105.929828
 20
38.536658
 11
-105.929828
 21
61.869993
  0
LINE
  8
型材断面
  6
CONTINUOUS
 10
-103.429828
 20
59.369993
 11
-106.542855
 21
62.48302
  0
LINE
  8
型材断面
  6
CONTINUOUS
 10
-103.429828
 20
41.036658
 11
-106.542855
 21
37.92363
  0
LINE
  8
型材断面
  6
CONTINUOUS
 10
-103.429828
 20
49.786658
 11
-104.26316
 21
49.786658
  0
LINE
  8
型材断面
  6
CONTINUOUS
 10
-103.429828
 20
50.619993
 11
-104.26316
 21
50.619993
  0
LINE
  8
型材断面
  6
CONTINUOUS
 10
-103.429828
 20
41.036658
 11
-103.429828
 21
49.786658
  0
LINE
  8
型材断面
  6
CONTINUOUS
 10
-103.429828
 20
50.619993
 11
-103.429828
 21
59.369993
  0
LINE
  8
型材断面
  6
DASHDOT
 10
172.29227
 20
50.203325
 11
-104.26316
 21
50.203325
  0
LINE
  8
型材断面
  6
DASHDOT
 10
-104.26316
 20
-79.253555
 11
-104.26316
 21
40.203325
  0
LINE
  8
型材断面
  6
CONTINUOUS
 10
29.070165
 20
40.203325
 11
-104.26316
 21
40.203325
  0
LINE
  8
型材断面
  6
CONTINUOUS
 10
31.036528
 20
38.236962
 11
-106.229522
 21
38.236962
  0
LINE
  8
型材断面
  6
CONTINUOUS
 10
31.34986
 20
37.92363
 11
-106.542855
 21
37.92363
  0
LINE
  8
型材断面
  6
CONTINUOUS
 10
30.736832
 20
38.536658
 11
-105.929828
 21
38.536658
  0
LINE
  8
型材断面
  6
CONTINUOUS
 10
29.070165
 20
60.203325
 11
-104.26316
 21
60.203325
  0
LINE
  8
型材断面
  6
CONTINUOUS
 10
31.036528
 20
62.169687
 11
-106.229522
 21
62.169687
  0
LINE
  8
型材断面
  6
CONTINUOUS
 10
31.34986
 20
62.48302
 11
-106.542855
 21
62.48302
  0
LINE
  8
型材断面
  6
CONTINUOUS
 10
30.736832
 20
61.869993
 11
-105.929828
 21
61.869993
  0
POLYLINE
  8
型材断面
  6
CONTINUOUS
 66
     1
 70
     1
  0
VERTEX
  8
型材断面
 10
45.603685
 20
-91.899758
  0
VERTEX
  8
型材断面
 10
-3.07499
 20
-91.899758
  0
VERTEX
  8
型材断面
 10
-3.07499
 20
-108.244423
  0
VERTEX
  8
型材断面
 10
45.603685
 20
-108.244423
  0
SEQEND
  0
POLYLINE
  8
型材断面
  6
CONTINUOUS
 66
     1
 70
     1
  0
VERTEX
  8
型材断面
 10
-27.924855
 20
30.427403
  0
VERTEX
  8
型材断面
 10
-46.696785
 20
30.427403
  0
VERTEX
  8
型材断面
 10
-46.696785
 20
25.69056
  0
VERTEX
  8
型材断面
 10
-27.924855
 20
25.69056
  0
SEQEND
  0
POLYLINE
  8
型材断面
  6
CONTINUOUS
 66
     1
 70
     1
  0
VERTEX
  8
型材断面
 10
-27.924855
 20
69.979248
  0
VERTEX
  8
型材断面
 10
-46.696785
 20
69.979248
  0
VERTEX
  8
型材断面
 10
-46.696785
 20
74.71609
  0
VERTEX
  8
型材断面
 10
-27.924855
 20
74.71609
  0
SEQEND
  0
LINE
  8
型材断面
  6
CONTINUOUS
 10
-87.596495
 20
62.833455
 11
-89.092125
 21
65.423963
  0
LINE
  8
型材断面
  6
CONTINUOUS
 10
-87.596495
 20
62.833455
 11
-86.100865
 21
65.423963
  0
LINE
  8
型材断面
  6
CONTINUOUS
 10
-86.100865
 20
65.423963
 11
-89.092125
 21
65.423963
  0
LINE
  8
型材断面
  6
CONTINUOUS
 10
-145.11537
 20
98.180797
 11
-144.519315
 21
95.59029
  0
LINE
  8
型材断面
  6
CONTINUOUS
 10
-145.11537
 20
98.180797
 11
-145.711427
 21
95.59029
  0
LINE
  8
型材断面
  6
CONTINUOUS
 10
-145.711427
 20
95.59029
 11
-144.519315
 21
95.59029
  0
LINE
  8
型材断面
  6
CONTINUOUS
 10
-151.137958
 20
92.311398
 11
-104.89618
 21
92.311398
  0
LINE
  8
型材断面
  6
CONTINUOUS
 10
-145.11537
 20
104.710672
 11
-146.611
 21
102.120165
  0
LINE
  8
型材断面
  6
CONTINUOUS
 10
-145.11537
 20
104.710672
 11
-143.61974
 21
102.120165
  0
LINE
  8
型材断面
  6
CONTINUOUS
 10
-143.61974
 20
102.120165
 11
-146.611
 21
102.120165
  0
LINE
  8
型材断面
  6
CONTINUOUS
 10
-151.137958
 20
101.18157
 11
-104.89618
 21
101.18157
  0
LINE
  8
型材断面
  6
CONTINUOUS
 10
-151.137958
 20
86.523365
 11
-104.89618
 21
86.523365
  0
LINE
  8
型材断面
  6
CONTINUOUS
 10
-106.893293
 20
50.203325
 11
-109.4838
 21
51.698955
  0
LINE
  8
型材断面
  6
CONTINUOUS
 10
-106.893293
 20
50.203325
 11
-109.4838
 21
48.707695
  0
LINE
  8
型材断面
  6
CONTINUOUS
 10
-109.4838
 20
48.707695
 11
-109.4838
 21
51.698955
  0
LINE
  8
型材断面
  6
CONTINUOUS
 10
-87.596495
 20
37.573195
 11
-89.092125
 21
34.982688
  0
LINE
  8
型材断面
  6
CONTINUOUS
 10
-87.596495
 20
37.573195
 11
-86.100865
 21
34.982688
  0
LINE
  8
型材断面
  6
CONTINUOUS
 10
-86.100865
 20
34.982688
 11
-89.092125
 21
34.982688
  0
LINE
  8
型材断面
  6
CONTINUOUS
 10
12.4035
 20
62.833455
 11
13.89913
 21
65.423963
  0
LINE
  8
型材断面
  6
CONTINUOUS
 10
12.4035
 20
62.833455
 11
10.90787
 21
65.423963
  0
LINE
  8
型材断面
  6
CONTINUOUS
 10
10.90787
 20
65.423963
 11
13.89913
 21
65.423963
  0
LINE
  8
型材断面
  6
CONTINUOUS
 10
31.700297
 20
50.203325
 11
34.290805
 21
51.698955
  0
LINE
  8
型材断面
  6
CONTINUOUS
 10
31.700297
 20
50.203325
 11
34.290805
 21
48.707695
  0
LINE
  8
型材断面
  6
CONTINUOUS
 10
34.290805
 20
48.707695
 11
34.290805
 21
51.698955
  0
LINE
  8
型材断面
  6
CONTINUOUS
 10
12.4035
 20
37.573195
 11
13.89913
 21
34.982688
  0
LINE
  8
型材断面
  6
CONTINUOUS
 10
12.4035
 20
37.573195
 11
10.90787
 21
34.982688
  0
LINE
  8
型材断面
  6
CONTINUOUS
 10
10.90787
 20
34.982688
 11
13.89913
 21
34.982688
  0
LINE
  8
型材断面
  6
CONTINUOUS
 10
31.700297
 20
56.303325
 11
34.290805
 21
55.707267
  0
LINE
  8
型材断面
  6
CONTINUOUS
 10
31.700297
 20
56.303325
 11
34.290805
 21
56.899382
  0
LINE
  8
型材断面
  6
CONTINUOUS
 10
34.290805
 20
56.899382
 11
34.290805
 21
55.707267
  0
LINE
  8
型材断面
  6
CONTINUOUS
 10
31.700297
 20
44.103325
 11
34.290805
 21
44.699382
  0
LINE
  8
型材断面
  6
CONTINUOUS
 10
31.700297
 20
44.103325
 11
34.290805
 21
43.507267
  0
LINE
  8
型材断面
  6
CONTINUOUS
 10
34.290805
 20
43.507267
 11
34.290805
 21
44.699382
  0
LINE
  8
型材断面
  6
CONTINUOUS
 10
-106.893293
 20
56.303325
 11
-109.4838
 21
55.707267
  0
LINE
  8
型材断面
  6
CONTINUOUS
 10
-106.893293
 20
56.303325
 11
-109.4838
 21
56.899382
  0
LINE
  8
型材断面
  6
CONTINUOUS
 10
-109.4838
 20
56.899382
 11
-109.4838
 21
55.707267
  0
LINE
  8
型材断面
  6
CONTINUOUS
 10
-106.893293
 20
44.103325
 11
-109.4838
 21
44.699382
  0
LINE
  8
型材断面
  6
CONTINUOUS
 10
-106.893293
 20
44.103325
 11
-109.4838
 21
43.507267
  0
LINE
  8
型材断面
  6
CONTINUOUS
 10
-109.4838
 20
43.507267
 11
-109.4838
 21
44.699382
  0
LINE
  8
型材断面
  6
CONTINUOUS
 10
-151.137958
 20
80.735332
 11
-104.89618
 21
80.735332
  0
LINE
  8
型材断面
  6
DASHDOT
 10
-71.09983
 20
40.203325
 11
-71.09983
 21
60.203325
  0
LINE
  8
型材断面
  6
DASHDOT
 10
-4.093165
 20
40.203325
 11
-4.093165
 21
60.203325
  0
LINE
  8
型材断面
  6
CONTINUOUS
 10
-69.84983
 20
41.86999
 11
-72.34983
 21
41.86999
  0
LINE
  8
型材断面
  6
CONTINUOUS
 10
-69.84983
 20
58.53666
 11
-72.34983
 21
58.53666
  0
LINE
  8
型材断面
  6
CONTINUOUS
 10
-69.84983
 20
41.86999
 11
-69.84983
 21
58.53666
  0
LINE
  8
型材断面
  6
CONTINUOUS
 10
-70.84983
 20
41.86999
 11
-70.84983
 21
58.53666
  0
LINE
  8
型材断面
  6
CONTINUOUS
 10
-71.34983
 20
41.86999
 11
-71.34983
 21
58.53666
  0
LINE
  8
型材断面
  6
CONTINUOUS
 10
-72.34983
 20
41.86999
 11
-72.34983
 21
58.53666
  0
LINE
  8
型材断面
  6
CONTINUOUS
 10
-36.346497
 20
41.86999
 11
-38.846497
 21
41.86999
  0
LINE
  8
型材断面
  6
CONTINUOUS
 10
-36.346497
 20
58.53666
 11
-38.846497
 21
58.53666
  0
LINE
  8
型材断面
  6
CONTINUOUS
 10
-36.346497
 20
41.86999
 11
-36.346497
 21
58.53666
  0
LINE
  8
型材断面
  6
CONTINUOUS
 10
-37.346497
 20
41.86999
 11
-37.346497
 21
58.53666
  0
LINE
  8
型材断面
  6
CONTINUOUS
 10
-37.846497
 20
41.86999
 11
-37.846497
 21
58.53666
  0
LINE
  8
型材断面
  6
CONTINUOUS
 10
-38.846497
 20
41.86999
 11
-38.846497
 21
58.53666
  0
LINE
  8
型材断面
  6
CONTINUOUS
 10
-5.343165
 20
41.86999
 11
-2.843165
 21
41.86999
  0
LINE
  8
型材断面
  6
CONTINUOUS
 10
-5.343165
 20
58.53666
 11
-2.843165
 21
58.53666
  0
LINE
  8
型材断面
  6
CONTINUOUS
 10
-5.343165
 20
41.86999
 11
-5.343165
 21
58.53666
  0
LINE
  8
型材断面
  6
CONTINUOUS
 10
-4.343165
 20
41.86999
 11
-4.343165
 21
58.53666
  0
LINE
  8
型材断面
  6
CONTINUOUS
 10
-3.843165
 20
41.86999
 11
-3.843165
 21
58.53666
  0
LINE
  8
型材断面
  6
CONTINUOUS
 10
-2.843165
 20
41.86999
 11
-2.843165
 21
58.53666
  0
LINE
  8
型材断面
  6
CONTINUOUS
 10
-103.429828
 20
41.036658
 11
-88.098163
 21
41.036658
  0
LINE
  8
型材断面
  6
CONTINUOUS
 10
-87.264827
 20
40.203325
 11
-87.264827
 21
41.036658
  0
LINE
  8
型材断面
  6
CONTINUOUS
 10
-88.098163
 20
40.203325
 11
-88.098163
 21
41.036658
  0
LINE
  8
型材断面
  6
CONTINUOUS
 10
-53.931495
 20
40.203325
 11
-53.931495
 21
41.036658
  0
LINE
  8
型材断面
  6
CONTINUOUS
 10
-54.76483
 20
40.203325
 11
-54.76483
 21
41.036658
  0
LINE
  8
型材断面
  6
CONTINUOUS
 10
-87.264827
 20
41.036658
 11
-54.76483
 21
41.036658
  0
LINE
  8
型材断面
  6
CONTINUOUS
 10
28.236832
 20
41.036658
 11
12.905168
 21
41.036658
  0
LINE
  8
型材断面
  6
CONTINUOUS
 10
12.071832
 20
40.203325
 11
12.071832
 21
41.036658
  0
LINE
  8
型材断面
  6
CONTINUOUS
 10
12.905168
 20
40.203325
 11
12.905168
 21
41.036658
  0
LINE
  8
型材断面
  6
CONTINUOUS
 10
-21.2615
 20
40.203325
 11
-21.2615
 21
41.036658
  0
LINE
  8
型材断面
  6
CONTINUOUS
 10
-20.428165
 20
40.203325
 11
-20.428165
 21
41.036658
  0
LINE
  8
型材断面
  6
CONTINUOUS
 10
12.071832
 20
41.036658
 11
-20.428165
 21
41.036658
  0
LINE
  8
型材断面
  6
CONTINUOUS
 10
-53.931495
 20
41.036658
 11
-21.2615
 21
41.036658
  0
LINE
  8
型材断面
  6
CONTINUOUS
 10
-103.429828
 20
59.369993
 11
-88.098163
 21
59.369993
  0
LINE
  8
型材断面
  6
CONTINUOUS
 10
-87.264827
 20
60.203325
 11
-87.264827
 21
59.369993
  0
LINE
  8
型材断面
  6
CONTINUOUS
 10
-88.098163
 20
60.203325
 11
-88.098163
 21
59.369993
  0
LINE
  8
型材断面
  6
CONTINUOUS
 10
-53.931495
 20
60.203325
 11
-53.931495
 21
59.369993
  0
LINE
  8
型材断面
  6
CONTINUOUS
 10
-54.76483
 20
60.203325
 11
-54.76483
 21
59.369993
  0
LINE
  8
型材断面
  6
CONTINUOUS
 10
-87.264827
 20
59.369993
 11
-54.76483
 21
59.369993
  0
LINE
  8
型材断面
  6
CONTINUOUS
 10
28.236832
 20
59.369993
 11
12.905168
 21
59.369993
  0
LINE
  8
型材断面
  6
CONTINUOUS
 10
12.071832
 20
60.203325
 11
12.071832
 21
59.369993
  0
LINE
  8
型材断面
  6
CONTINUOUS
 10
12.905168
 20
60.203325
 11
12.905168
 21
59.369993
  0
LINE
  8
型材断面
  6
CONTINUOUS
 10
-21.2615
 20
60.203325
 11
-21.2615
 21
59.369993
  0
LINE
  8
型材断面
  6
CONTINUOUS
 10
-20.428165
 20
60.203325
 11
-20.428165
 21
59.369993
  0
LINE
  8
型材断面
  6
CONTINUOUS
 10
12.071832
 20
59.369993
 11
-20.428165
 21
59.369993
  0
LINE
  8
型材断面
  6
CONTINUOUS
 10
-53.931495
 20
59.369993
 11
-21.2615
 21
59.369993
  0
INSERT
  2
*GRP_0024
  8
型材断面
  6
DOT
 10
0.0
 20
0.0
  0
INSERT
  2
*GRP_0030
  8
型材断面
  6
CONTINUOUS
 10
0.0
 20
0.0
  0
INSERT
  2
*GRP_0031
  8
型材断面
  6
CONTINUOUS
 10
0.0
 20
0.0
  0
INSERT
  2
*GRP_0032
  8
型材断面
  6
CONTINUOUS
 10
0.0
 20
0.0
  0
INSERT
  2
*GRP_0033
  8
型材断面
  6
CONTINUOUS
 10
0.0
 20
0.0
  0
LINE
  8
型材断面
  6
CONTINUOUS
 10
132.148172
 20
-32.90548
 11
111.775995
 21
-32.90548
  0
POLYLINE
  8
ガラス
  6
CONTINUOUS
 66
     1
 70
     1
  0
VERTEX
  8
ガラス
 10
146.438558
 20
-53.273362
  0
VERTEX
  8
ガラス
 10
114.281892
 20
-53.273362
  0
VERTEX
  8
ガラス
 10
114.281892
 20
-72.606695
  0
VERTEX
  8
ガラス
 10
146.438558
 20
-72.606695
  0
SEQEND
  0
TEXT
  7
TextStyle03
  8
文字
  6
CONTINUOUS
 10
78.1
 20
125.25
  1
シリーズ：ＳＴＤＬ
 40
5.0
 72
     5
 11
128.1
 21
125.25
  0
TEXT
  7
TextStyle03
  8
文字
  6
CONTINUOUS
 10
78.1
 20
119.625
  1
　　　　　（上下可動）600×4000タイプ
 40
5.0
 72
     5
 11
181.5375
 21
119.625
  0
TEXT
  7
TextStyle03
  8
文字
  6
CONTINUOUS
 10
78.1
 20
114.0
  1
図面名　：外観姿図
 40
5.0
 72
     5
 11
128.1
 21
114.0
  0
TEXT
  7
TextStyle03
  8
文字
  6
CONTINUOUS
 10
78.1
 20
108.375
  1
　　　　　　
 40
5.0
 72
     5
 11
111.225
 21
108.375
  0
TEXT
  7
TextStyle03
  8
文字
  6
CONTINUOUS
 10
1.225
 20
-97.625
  1
※トップライト枠高さ寸法
 40
3.0
 72
     5
 11
41.35
 21
-97.625
  0
TEXT
  7
TextStyle03
  8
文字
  6
CONTINUOUS
 10
1.225
 20
-101.0
  1
　シングルガラス：214
 40
3.0
 72
     5
 11
36.475
 21
-101.0
  0
TEXT
  7
TextStyle03
  8
文字
  6
CONTINUOUS
 10
1.225
 20
-104.375
  1
　ペアガラス：224
 40
3.0
 72
     5
 11
29.725
 21
-104.375
  0
TEXT
  7
TextStyle03
  8
文字
  6
CONTINUOUS
 10
-45.675
 20
26.7
  1
可動装置側
 40
3.0
 72
     5
 11
-29.175
 21
26.7
  0
TEXT
  7
TextStyle03
  8
文字
  6
CONTINUOUS
 10
-45.675
 20
70.675
  1
可動装置側
 40
3.0
 72
     5
 11
-29.175
 21
70.675
  0
TEXT
  7
TextStyle03
  8
文字
  6
CONTINUOUS
 10
-142.3
 20
96.8
  1
はケーシング位置を示す
 40
3.0
 72
     5
 11
-105.55
 21
96.8
  0
TEXT
  7
TextStyle03
  8
文字
  6
CONTINUOUS
 10
-142.3
 20
93.425
  1
４ヶ所中1ヶ所に設定
 40
3.0
 72
     5
 11
-110.6125
 21
93.425
  0
TEXT
  7
TextStyle03
  8
文字
  6
CONTINUOUS
 10
-142.3
 20
102.325
  1
は排水穴位置を示す
 40
3.0
 72
     5
 11
-112.3
 21
102.325
  0
TEXT
  7
TextStyle03
  8
文字
  6
CONTINUOUS
 10
-125.25
 20
28.65
  1
アンカーピッチ
 40
3.0
 50
90.0
 72
     5
 11
-125.25
 21
51.9
  0
TEXT
  7
TextStyle03
  8
文字
  6
CONTINUOUS
 10
-96.175
 20
98.225
  1
アンカーピッチ
 40
3.0
 72
     5
 11
-72.925
 21
98.225
  0
TEXT
  7
TextStyle03
  8
文字
  6
CONTINUOUS
 10
-146.025
 20
87.45
  1
アンカー数量　１６ヶ所
 40
3.0
 72
     5
 11
-109.275
 21
87.45
  0
TEXT
  7
TextStyle03
  8
文字
  6
CONTINUOUS
 10
-146.1
 20
81.675
  1
アームユニット数　４ヶ所
 40
3.0
 72
     5
 11
-105.975
 21
81.675
  0
TEXT
  7
TextStyle03
  8
文字
  6
CONTINUOUS
 10
113.425
 20
-32.025
  1
ガラス寸法
 40
3.0
 72
     5
 11
129.925
 21
-32.025
  0
TEXT
  7
TextStyle03
  8
文字
  6
CONTINUOUS
 10
133.4
 20
-70.1
  1
×４枚
 40
3.0
 72
     5
 11
143.15
 21
-70.1
  0
INSERT
  2
*DIM_0006
  8
寸法
  6
CONTINUOUS
 10
0.0
 20
0.0
  0
INSERT
  2
*DIM_0007
  8
寸法
  6
CONTINUOUS
 10
0.0
 20
0.0
  0
INSERT
  2
*DIM_0008
  8
寸法
  6
CONTINUOUS
 10
0.0
 20
0.0
  0
INSERT
  2
*DIM_0009
  8
寸法
  6
CONTINUOUS
 10
0.0
 20
0.0
  0
INSERT
  2
*DIM_0012
  8
寸法
  6
CONTINUOUS
 10
0.0
 20
0.0
  0
INSERT
  2
*DIM_0015
  8
寸法
  6
CONTINUOUS
 10
0.0
 20
0.0
  0
INSERT
  2
*DIM_0016
  8
寸法
  6
CONTINUOUS
 10
0.0
 20
0.0
  0
INSERT
  2
*DIM_0017
  8
寸法
  6
CONTINUOUS
 10
0.0
 20
0.0
  0
INSERT
  2
*DIM_0018
  8
寸法
  6
CONTINUOUS
 10
0.0
 20
0.0
  0
INSERT
  2
*DIM_0019
  8
寸法
  6
CONTINUOUS
 10
0.0
 20
0.0
  0
INSERT
  2
*DIM_0020
  8
寸法
  6
CONTINUOUS
 10
0.0
 20
0.0
  0
INSERT
  2
*DIM_0021
  8
寸法
  6
CONTINUOUS
 10
0.0
 20
0.0
  0
INSERT
  2
*DIM_0022
  8
寸法
  6
CONTINUOUS
 10
0.0
 20
0.0
  0
INSERT
  2
*DIM_0023
  8
寸法
  6
CONTINUOUS
 10
0.0
 20
0.0
  0
INSERT
  2
*DIM_0029
  8
寸法
  6
CONTINUOUS
 10
0.0
 20
0.0
  0
INSERT
  2
*DIM_0034
  8
寸法
  6
CONTINUOUS
 10
0.0
 20
0.0
  0
INSERT
  2
*DIM_0035
  8
寸法
  6
CONTINUOUS
 10
0.0
 20
0.0
  0
INSERT
  2
*DIM_0036
  8
寸法
  6
CONTINUOUS
 10
0.0
 20
0.0
  0
INSERT
  2
*DIM_0037
  8
寸法
  6
CONTINUOUS
 10
0.0
 20
0.0
  0
INSERT
  2
*DIM_0038
  8
寸法
  6
CONTINUOUS
 10
0.0
 20
0.0
  0
LINE
  8
曲げ物
  6
CONTINUOUS
 10
13.7959
 20
52.128875
 11
10.100588
 21
48.433562
  0
LINE
  8
曲げ物
  6
CONTINUOUS
 10
13.09243
 20
50.592765
 11
11.6367
 21
49.137035
  0
LINE
  8
曲げ物
  6
CONTINUOUS
 10
12.25979
 20
51.425405
 11
10.80406
 21
49.969675
  0
LINE
  8
曲げ物
  6
CONTINUOUS
 10
-18.38841
 20
52.128875
 11
-22.083723
 21
48.433562
  0
LINE
  8
曲げ物
  6
CONTINUOUS
 10
-19.09188
 20
50.592765
 11
-20.54761
 21
49.137035
  0
LINE
  8
曲げ物
  6
CONTINUOUS
 10
-19.92452
 20
51.425405
 11
-21.38025
 21
49.969675
  0
LINE
  8
曲げ物
  6
CONTINUOUS
 10
-52.490355
 20
52.128875
 11
-56.185668
 21
48.433562
  0
LINE
  8
曲げ物
  6
CONTINUOUS
 10
-53.193825
 20
50.592765
 11
-54.649555
 21
49.137035
  0
LINE
  8
曲げ物
  6
CONTINUOUS
 10
-54.026465
 20
51.425405
 11
-55.482195
 21
49.969675
  0
LINE
  8
曲げ物
  6
CONTINUOUS
 10
-86.01341
 20
52.128875
 11
-89.708723
 21
48.433562
  0
LINE
  8
曲げ物
  6
CONTINUOUS
 10
-86.71688
 20
50.592765
 11
-88.17261
 21
49.137035
  0
LINE
  8
曲げ物
  6
CONTINUOUS
 10
-87.54952
 20
51.425405
 11
-89.00525
 21
49.969675
  0
ENDSEC
  0
EOF
