  0
SECTION
  2
HEADER
  9
$EXTMIN
 10
-210.0
 20
-148.5
  9
$EXTMAX
 10
210.0
 20
148.5
  9
$PDMODE
 70
    32
  9
$PDSIZE
 40
1.5
  9
$LTSCALE
 40
10.0
  0
ENDSEC
  0
SECTION
  2
TABLES
  0
TABLE
  2
LTYPE
 70
    15
  0
LTYPE
  2
CONTINUOUS
 70
    64
  3
実線
 72
    65
 73
     0
 40
0.0
  0
LTYPE
  2
DASHED
 70
    64
  3
破線A
 72
    65
 73
     2
 40
0.6
 49
0.4
 49
-0.2
  0
LTYPE
  2
DASHEDX2
 70
    64
  3
破線B
 72
    65
 73
     2
 40
1.3
 49
0.9
 49
-0.4
  0
LTYPE
  2
DASHDOT
 70
    64
  3
１点鎖線A
 72
    65
 73
     4
 40
0.5375
 49
0.375
 49
-0.05
 49
0.0625
 49
-0.05
  0
LTYPE
  2
DASHDOTX2
 70
    64
  3
１点鎖線B
 72
    65
 73
     4
 40
1.075
 49
0.75
 49
-0.1
 49
0.125
 49
-0.1
  0
LTYPE
  2
DIVIDE2
 70
    64
  3
２点鎖線A
 72
    65
 73
     6
 40
0.5125
 49
0.3
 49
-0.0375
 49
0.05
 49
-0.0375
 49
0.05
 49
-0.0375
  0
LTYPE
  2
DIVIDE
 70
    64
  3
２点鎖線B
 72
    65
 73
     6
 40
1.05
 49
0.55
 49
-0.1
 49
0.1
 49
-0.1
 49
0.1
 49
-0.1
  0
LTYPE
  2
DOT
 70
    64
  3
点線A
 72
    65
 73
     2
 40
0.1125
 49
0.0625
 49
-0.05
  0
LTYPE
  2
DOTX2
 70
    64
  3
点線B
 72
    65
 73
     2
 40
0.275
 49
0.15
 49
-0.125
  0
LTYPE
  2
CONTINUOUS
 70
    64
  3
実線
 72
    65
 73
     0
 40
0.0
  0
LTYPE
  2
CONTINUOUS
 70
    64
  3
実線
 72
    65
 73
     0
 40
0.0
  0
LTYPE
  2
CONTINUOUS
 70
    64
  3
実線
 72
    65
 73
     0
 40
0.0
  0
LTYPE
  2
CONTINUOUS
 70
    64
  3
実線
 72
    65
 73
     0
 40
0.0
  0
LTYPE
  2
CONTINUOUS
 70
    64
  3
実線
 72
    65
 73
     0
 40
0.0
  0
LTYPE
  2
CONTINUOUS
 70
    64
  3
実線
 72
    65
 73
     0
 40
0.0
  0
ENDTAB
  0
TABLE
  2
LAYER
 70
    34
  0
LAYER
  2
通り芯
 70
     0
 62
    15
  6
CONTINUOUS
  0
LAYER
  2
補助線
 70
     0
 62
    16
  6
DOT
  0
LAYER
  2
躯体
 70
     0
 62
    31
  6
CONTINUOUS
  0
LAYER
  2
型材
 70
     0
 62
    32
  6
CONTINUOUS
  0
LAYER
  2
型材断面
 70
     0
 62
    47
  6
CONTINUOUS
  0
LAYER
  2
ガラス
 70
     0
 62
    48
  6
CONTINUOUS
  0
LAYER
  2
ゴム等
 70
     0
 62
    63
  6
CONTINUOUS
  0
LAYER
  2
ボルト／ビス
 70
     0
 62
    64
  6
CONTINUOUS
  0
LAYER
  2
文字
 70
     0
 62
    79
  6
CONTINUOUS
  0
LAYER
  2
寸法
 70
     0
 62
    80
  6
CONTINUOUS
  0
LAYER
  2
ﾊｯﾁﾝｸﾞ
 70
     0
 62
    95
  6
CONTINUOUS
  0
LAYER
  2
別途部材
 70
     0
 62
    96
  6
CONTINUOUS
  0
LAYER
  2
曲げ物
 70
     0
 62
   111
  6
CONTINUOUS
  0
LAYER
  2
鉄骨等
 70
     0
 62
   112
  6
CONTINUOUS
  0
LAYER
  2
St
 70
     0
 62
   127
  6
CONTINUOUS
  0
LAYER
  2
その他部品等
 70
     0
 62
   128
  6
CONTINUOUS
  0
LAYER
  2
ｶﾞｽｹｯﾄ
 70
     0
 62
   143
  6
CONTINUOUS
  0
LAYER
  2
ｽｹｯﾁ
 70
     0
 62
    14
  6
CONTINUOUS
  0
LAYER
  2
0
 70
     0
 62
    17
  6
CONTINUOUS
  0
LAYER
  2
1
 70
     0
 62
    30
  6
CONTINUOUS
  0
LAYER
  2
4
 70
     0
 62
    33
  6
CONTINUOUS
  0
LAYER
  2
ﾚｲﾔ3
 70
     0
 62
    46
  6
CONTINUOUS
  0
LAYER
  2
外形線
 70
     0
 62
    49
  6
CONTINUOUS
  0
LAYER
  2
部品
 70
     0
 62
    14
  6
CONTINUOUS
  0
LAYER
  2
サッシ芯
 70
     0
 62
    17
  6
DASHDOTX2
  0
LAYER
  2
寸法線
 70
     0
 62
    62
  6
CONTINUOUS
  0
LAYER
  2
姿図外形線
 70
     0
 62
    65
  6
CONTINUOUS
  0
LAYER
  2
姿補助線
 70
     0
 62
    30
  6
CONTINUOUS
  0
LAYER
  2
透視線
 70
     0
 62
    78
  6
DOT
  0
LAYER
  2
用紙
 70
     0
 62
    81
  6
CONTINUOUS
  0
LAYER
  2
実線図枠
 70
     0
 62
    94
  6
CONTINUOUS
  0
LAYER
  2
補助図枠
 70
     0
 62
    97
  6
CONTINUOUS
  0
LAYER
  2
建具記号
 70
     0
 62
   110
  6
CONTINUOUS
  0
LAYER
  2
補助文字
 70
     0
 62
   113
  6
CONTINUOUS
  0
ENDTAB
  0
TABLE
  2
STYLE
 70
    10
  0
STYLE
  2
STANDARD
 70
     0
 40
1.0
 41
1.0
 42
1.0
 50
0.0
 71
     0
  3
TXT
  4
BIGFONT
  0
STYLE
  2
TATE
 70
     4
 40
1.0
 41
1.0
 42
1.0
 50
0.0
 71
     0
  3
TXT
  4
BIGFONT
  0
STYLE
  2
TextStyle03
 70
     0
 40
1.0
 41
1.0
 42
1.0
 50
0.0
 71
     0
  3
MONOTXT
  4
BIGFONT
  0
STYLE
  2
TextStyle04
 70
     0
 40
1.0
 41
1.0
 42
1.0
 50
0.0
 71
     0
  3
MONOTXT
  4
BIGFONT
  0
STYLE
  2
TextStyle05
 70
     0
 40
1.0
 41
1.0
 42
1.0
 50
0.0
 71
     0
  3
MONOTXT
  4
BIGFONT
  0
STYLE
  2
TextStyle06
 70
     0
 40
1.0
 41
1.0
 42
1.0
 50
0.0
 71
     0
  3
MONOTXT
  4
BIGFONT
  0
STYLE
  2
TextStyle07
 70
     0
 40
1.0
 41
1.0
 42
1.0
 50
0.0
 71
     0
  3
MONOTXT
  4
BIGFONT
  0
STYLE
  2
TextStyle08
 70
     0
 40
1.0
 41
1.0
 42
1.0
 50
0.0
 71
     0
  3
MONOTXT
  4
BIGFONT
  0
STYLE
  2
TextStyle09
 70
     0
 40
1.0
 41
1.0
 42
1.0
 50
0.0
 71
     0
  3
MONOTXT
  4
BIGFONT
  0
STYLE
  2
TextStyle10
 70
     0
 40
1.0
 41
1.0
 42
1.0
 50
0.0
 71
     0
  3
MONOTXT
  4
BIGFONT
  0
ENDTAB
  0
ENDSEC
  0
SECTION
  2
BLOCKS
  0
BLOCK
  2
*GRP_0001
 70
    65
 10
0.0
 20
0.0
  0
LINE
  8
型材断面
  6
CONTINUOUS
 10
195.0
 20
133.5
 11
195.0
 21
-133.5
  0
LINE
  8
型材断面
  6
CONTINUOUS
 10
195.0
 20
-133.5
 11
-185.0
 21
-133.5
  0
LINE
  8
型材断面
  6
CONTINUOUS
 10
-185.0
 20
-133.5
 11
-185.0
 21
133.5
  0
LINE
  8
型材断面
  6
CONTINUOUS
 10
195.0
 20
133.5
 11
-185.0
 21
133.5
  0
LINE
  8
型材断面
  6
CONTINUOUS
 10
145.0
 20
-133.5
 11
145.0
 21
-118.5
  0
LINE
  8
型材断面
  6
CONTINUOUS
 10
195.0
 20
-118.5
 11
145.0
 21
-118.5
  0
ENDBLK
  0
BLOCK
  2
*GRP_0002
 70
    65
 10
0.0
 20
0.0
  0
INSERT
  2
M8横
  8
ゴム等
  6
CONTINUOUS
 10
-3.436805
 20
-70.297288
 50
180.0
 41
0.033333
 42
-0.033333
  0
LINE
  8
ボルト／ビス
  6
CONTINUOUS
 10
-3.570137
 20
-70.087288
 11
-3.553473
 21
-70.070622
  0
LINE
  8
ボルト／ビス
  6
CONTINUOUS
 10
-3.320137
 20
-70.070622
 11
-3.303473
 21
-70.087288
  0
LINE
  8
ボルト／ビス
  6
CONTINUOUS
 10
-3.303473
 20
-70.087288
 11
-3.570137
 21
-70.087288
  0
LINE
  8
ボルト／ビス
  6
CONTINUOUS
 10
-3.320137
 20
-70.070622
 11
-3.553473
 21
-70.070622
  0
LINE
  8
ボルト／ビス
  6
CONTINUOUS
 10
-3.553473
 20
-70.070622
 11
-3.553473
 21
-70.113952
  0
LINE
  8
ボルト／ビス
  6
CONTINUOUS
 10
-3.570137
 20
-70.087288
 11
-3.570137
 21
-70.113952
  0
LINE
  8
ボルト／ビス
  6
CONTINUOUS
 10
-3.303473
 20
-70.087288
 11
-3.303473
 21
-70.113952
  0
LINE
  8
ボルト／ビス
  6
CONTINUOUS
 10
-3.320137
 20
-70.070622
 11
-3.320137
 21
-70.113952
  0
LINE
  8
ボルト／ビス
  6
CONTINUOUS
 10
-3.070137
 20
-70.297288
 11
-3.803473
 21
-70.297288
  0
LINE
  8
ボルト／ビス
  6
CONTINUOUS
 10
-3.853473
 20
-70.337288
 11
-3.853473
 21
-70.42062
  0
LINE
  8
ボルト／ビス
  6
CONTINUOUS
 10
-3.853473
 20
-70.42062
 11
-3.020137
 21
-70.42062
  0
LINE
  8
ボルト／ビス
  6
CONTINUOUS
 10
-3.020137
 20
-70.42062
 11
-3.020137
 21
-70.337288
  0
LINE
  8
ボルト／ビス
  6
CONTINUOUS
 10
-3.853473
 20
-70.337288
 11
-3.020137
 21
-70.337288
  0
LINE
  8
ボルト／ビス
  6
CONTINUOUS
 10
-3.070137
 20
-70.297288
 11
-3.070137
 21
-70.337288
  0
LINE
  8
ボルト／ビス
  6
CONTINUOUS
 10
-3.803473
 20
-70.297288
 11
-3.803473
 21
-70.337288
  0
LINE
  8
ボルト／ビス
  6
CONTINUOUS
 10
-3.436805
 20
-70.347288
 11
-3.436805
 21
-70.297288
  0
ENDBLK
  0
BLOCK
  2
*GRP_0003
 70
    65
 10
0.0
 20
0.0
  0
LINE
  8
ボルト／ビス
  6
CONTINUOUS
 10
-3.230138
 20
-69.437453
 11
-3.230138
 21
-69.370788
  0
LINE
  8
ボルト／ビス
  6
CONTINUOUS
 10
-3.230138
 20
-69.370788
 11
-3.96347
 21
-69.370788
  0
LINE
  8
ボルト／ビス
  6
CONTINUOUS
 10
-3.96347
 20
-69.370788
 11
-3.96347
 21
-69.437453
  0
LINE
  8
ボルト／ビス
  6
CONTINUOUS
 10
-3.230138
 20
-69.437453
 11
-3.96347
 21
-69.437453
  0
LINE
  8
ボルト／ビス
  6
CONTINUOUS
 10
-3.296803
 20
-69.337453
 11
-3.296803
 21
-69.370788
  0
LINE
  8
ボルト／ビス
  6
CONTINUOUS
 10
-3.296803
 20
-69.337453
 11
-3.896803
 21
-69.337453
  0
LINE
  8
ボルト／ビス
  6
CONTINUOUS
 10
-3.896803
 20
-69.337453
 11
-3.896803
 21
-69.370788
  0
LINE
  8
ボルト／ビス
  6
CONTINUOUS
 62
    64
 10
-3.436427
 20
-69.137453
 11
-3.404353
 21
-69.149128
  0
ARC
  8
ボルト／ビス
  6
CONTINUOUS
 62
    64
 10
-3.452466
 20
-69.242431
 40
0.104978
 50
90.0
 51
117.278033
  0
ARC
  8
ボルト／ビス
  6
CONTINUOUS
 62
    64
 10
-3.596804
 20
-69.539855
 40
0.402402
 50
76.165015
 51
103.834998
  0
LINE
  8
ボルト／ビス
  6
CONTINUOUS
 62
    64
 10
-3.757178
 20
-69.137453
 11
-3.789253
 21
-69.149128
  0
ARC
  8
ボルト／ビス
  6
CONTINUOUS
 62
    64
 10
-3.741142
 20
-69.242431
 40
0.104978
 50
62.721967
 51
90.0
  0
LINE
  8
ボルト／ビス
  6
CONTINUOUS
 62
    64
 10
-3.436427
 20
-69.137453
 11
-3.757178
 21
-69.137453
  0
LINE
  8
ボルト／ビス
  6
CONTINUOUS
 62
    64
 10
-3.789253
 20
-69.149128
 11
-3.789253
 21
-69.270788
  0
LINE
  8
ボルト／ビス
  6
CONTINUOUS
 62
    64
 10
-3.693027
 20
-69.149128
 11
-3.693027
 21
-69.270788
  0
LINE
  8
ボルト／ビス
  6
CONTINUOUS
 62
    64
 10
-3.404353
 20
-69.149128
 11
-3.404353
 21
-69.270788
  0
LINE
  8
ボルト／ビス
  6
CONTINUOUS
 62
    64
 10
-3.500577
 20
-69.149128
 11
-3.500577
 21
-69.270788
  0
LINE
  8
ボルト／ビス
  6
CONTINUOUS
 10
-3.404353
 20
-69.270788
 11
-3.789253
 21
-69.270788
  0
LINE
  8
ボルト／ビス
  6
CONTINUOUS
 10
-3.396803
 20
-69.270788
 11
-3.396803
 21
-69.337453
  0
LINE
  8
ボルト／ビス
  6
CONTINUOUS
 10
-3.396803
 20
-69.270788
 11
-3.796803
 21
-69.270788
  0
LINE
  8
ボルト／ビス
  6
CONTINUOUS
 10
-3.796803
 20
-69.270788
 11
-3.796803
 21
-69.337453
  0
ENDBLK
  0
BLOCK
  2
*GRP_0004
 70
    65
 10
0.0
 20
0.0
  0
INSERT
  2
M8横
  8
ゴム等
  6
CONTINUOUS
 10
-71.75619
 20
-70.297288
 41
0.033333
 42
0.033333
  0
LINE
  8
ボルト／ビス
  6
CONTINUOUS
 10
-71.622858
 20
-70.087288
 11
-71.639523
 21
-70.070622
  0
LINE
  8
ボルト／ビス
  6
CONTINUOUS
 10
-71.872858
 20
-70.070622
 11
-71.889523
 21
-70.087288
  0
LINE
  8
ボルト／ビス
  6
CONTINUOUS
 10
-71.889523
 20
-70.087288
 11
-71.622858
 21
-70.087288
  0
LINE
  8
ボルト／ビス
  6
CONTINUOUS
 10
-71.872858
 20
-70.070622
 11
-71.639523
 21
-70.070622
  0
LINE
  8
ボルト／ビス
  6
CONTINUOUS
 10
-71.639523
 20
-70.070622
 11
-71.639523
 21
-70.113952
  0
LINE
  8
ボルト／ビス
  6
CONTINUOUS
 10
-71.622858
 20
-70.087288
 11
-71.622858
 21
-70.113952
  0
LINE
  8
ボルト／ビス
  6
CONTINUOUS
 10
-71.889523
 20
-70.087288
 11
-71.889523
 21
-70.113952
  0
LINE
  8
ボルト／ビス
  6
CONTINUOUS
 10
-71.872858
 20
-70.070622
 11
-71.872858
 21
-70.113952
  0
LINE
  8
ボルト／ビス
  6
CONTINUOUS
 10
-72.122858
 20
-70.297288
 11
-71.389523
 21
-70.297288
  0
LINE
  8
ボルト／ビス
  6
CONTINUOUS
 10
-71.339523
 20
-70.337288
 11
-71.339523
 21
-70.42062
  0
LINE
  8
ボルト／ビス
  6
CONTINUOUS
 10
-71.339523
 20
-70.42062
 11
-72.172858
 21
-70.42062
  0
LINE
  8
ボルト／ビス
  6
CONTINUOUS
 10
-72.172858
 20
-70.42062
 11
-72.172858
 21
-70.337288
  0
LINE
  8
ボルト／ビス
  6
CONTINUOUS
 10
-71.339523
 20
-70.337288
 11
-72.172858
 21
-70.337288
  0
LINE
  8
ボルト／ビス
  6
CONTINUOUS
 10
-72.122858
 20
-70.297288
 11
-72.122858
 21
-70.337288
  0
LINE
  8
ボルト／ビス
  6
CONTINUOUS
 10
-71.389523
 20
-70.297288
 11
-71.389523
 21
-70.337288
  0
LINE
  8
ボルト／ビス
  6
CONTINUOUS
 10
-71.75619
 20
-70.347288
 11
-71.75619
 21
-70.297288
  0
ENDBLK
  0
BLOCK
  2
*GRP_0005
 70
    65
 10
0.0
 20
0.0
  0
LINE
  8
ボルト／ビス
  6
CONTINUOUS
 10
-71.962857
 20
-69.437453
 11
-71.962857
 21
-69.370788
  0
LINE
  8
ボルト／ビス
  6
CONTINUOUS
 10
-71.962857
 20
-69.370788
 11
-71.229525
 21
-69.370788
  0
LINE
  8
ボルト／ビス
  6
CONTINUOUS
 10
-71.229525
 20
-69.370788
 11
-71.229525
 21
-69.437453
  0
LINE
  8
ボルト／ビス
  6
CONTINUOUS
 10
-71.962857
 20
-69.437453
 11
-71.229525
 21
-69.437453
  0
LINE
  8
ボルト／ビス
  6
CONTINUOUS
 10
-71.896192
 20
-69.337453
 11
-71.896192
 21
-69.370788
  0
LINE
  8
ボルト／ビス
  6
CONTINUOUS
 10
-71.896192
 20
-69.337453
 11
-71.296192
 21
-69.337453
  0
LINE
  8
ボルト／ビス
  6
CONTINUOUS
 10
-71.296192
 20
-69.337453
 11
-71.296192
 21
-69.370788
  0
LINE
  8
ボルト／ビス
  6
CONTINUOUS
 62
    64
 10
-71.756567
 20
-69.137453
 11
-71.788642
 21
-69.149128
  0
ARC
  8
ボルト／ビス
  6
CONTINUOUS
 62
    64
 10
-71.74053
 20
-69.242431
 40
0.104978
 50
62.721967
 51
90.0
  0
ARC
  8
ボルト／ビス
  6
CONTINUOUS
 62
    64
 10
-71.596193
 20
-69.539855
 40
0.402402
 50
76.165002
 51
103.834985
  0
LINE
  8
ボルト／ビス
  6
CONTINUOUS
 62
    64
 10
-71.435818
 20
-69.137453
 11
-71.403743
 21
-69.149128
  0
ARC
  8
ボルト／ビス
  6
CONTINUOUS
 62
    64
 10
-71.451855
 20
-69.242431
 40
0.104978
 50
90.0
 51
117.278033
  0
LINE
  8
ボルト／ビス
  6
CONTINUOUS
 62
    64
 10
-71.756567
 20
-69.137453
 11
-71.435818
 21
-69.137453
  0
LINE
  8
ボルト／ビス
  6
CONTINUOUS
 62
    64
 10
-71.403743
 20
-69.149128
 11
-71.403743
 21
-69.270788
  0
LINE
  8
ボルト／ビス
  6
CONTINUOUS
 62
    64
 10
-71.499967
 20
-69.149128
 11
-71.499967
 21
-69.270788
  0
LINE
  8
ボルト／ビス
  6
CONTINUOUS
 62
    64
 10
-71.788642
 20
-69.149128
 11
-71.788642
 21
-69.270788
  0
LINE
  8
ボルト／ビス
  6
CONTINUOUS
 62
    64
 10
-71.692418
 20
-69.149128
 11
-71.692418
 21
-69.270788
  0
LINE
  8
ボルト／ビス
  6
CONTINUOUS
 10
-71.788642
 20
-69.270788
 11
-71.403743
 21
-69.270788
  0
LINE
  8
ボルト／ビス
  6
CONTINUOUS
 10
-71.796192
 20
-69.270788
 11
-71.796192
 21
-69.337453
  0
LINE
  8
ボルト／ビス
  6
CONTINUOUS
 10
-71.796192
 20
-69.270788
 11
-71.396192
 21
-69.270788
  0
LINE
  8
ボルト／ビス
  6
CONTINUOUS
 10
-71.396192
 20
-69.270788
 11
-71.396192
 21
-69.337453
  0
ENDBLK
  0
BLOCK
  2
*GRP_0006
 70
    65
 10
0.0
 20
0.0
  0
INSERT
  2
M8横
  8
ゴム等
  6
CONTINUOUS
 10
163.336003
 20
61.029685
 50
270.0
 41
0.033333
 42
-0.033333
  0
LINE
  8
ボルト／ビス
  6
CONTINUOUS
 10
163.126005
 20
60.896352
 11
163.109338
 21
60.91302
  0
LINE
  8
ボルト／ビス
  6
CONTINUOUS
 10
163.109338
 20
61.146352
 11
163.126005
 21
61.16302
  0
LINE
  8
ボルト／ビス
  6
CONTINUOUS
 10
163.126005
 20
61.16302
 11
163.126005
 21
60.896352
  0
LINE
  8
ボルト／ビス
  6
CONTINUOUS
 10
163.109338
 20
61.146352
 11
163.109338
 21
60.91302
  0
LINE
  8
ボルト／ビス
  6
CONTINUOUS
 10
163.109338
 20
60.91302
 11
163.15267
 21
60.91302
  0
LINE
  8
ボルト／ビス
  6
CONTINUOUS
 10
163.126005
 20
60.896352
 11
163.15267
 21
60.896352
  0
LINE
  8
ボルト／ビス
  6
CONTINUOUS
 10
163.126005
 20
61.16302
 11
163.15267
 21
61.16302
  0
LINE
  8
ボルト／ビス
  6
CONTINUOUS
 10
163.109338
 20
61.146352
 11
163.15267
 21
61.146352
  0
LINE
  8
ボルト／ビス
  6
CONTINUOUS
 10
163.336003
 20
61.396352
 11
163.336003
 21
60.66302
  0
LINE
  8
ボルト／ビス
  6
CONTINUOUS
 10
163.376002
 20
60.61302
 11
163.459335
 21
60.61302
  0
LINE
  8
ボルト／ビス
  6
CONTINUOUS
 10
163.459335
 20
60.61302
 11
163.459335
 21
61.446352
  0
LINE
  8
ボルト／ビス
  6
CONTINUOUS
 10
163.459335
 20
61.446352
 11
163.376002
 21
61.446352
  0
LINE
  8
ボルト／ビス
  6
CONTINUOUS
 10
163.376002
 20
60.61302
 11
163.376002
 21
61.446352
  0
LINE
  8
ボルト／ビス
  6
CONTINUOUS
 10
163.336003
 20
61.396352
 11
163.376002
 21
61.396352
  0
LINE
  8
ボルト／ビス
  6
CONTINUOUS
 10
163.336003
 20
60.66302
 11
163.376002
 21
60.66302
  0
LINE
  8
ボルト／ビス
  6
CONTINUOUS
 10
163.386002
 20
61.029685
 11
163.336003
 21
61.029685
  0
ENDBLK
  0
BLOCK
  2
*GRP_0007
 70
    65
 10
0.0
 20
0.0
  0
LINE
  8
ボルト／ビス
  6
CONTINUOUS
 10
162.47617
 20
61.236355
 11
162.409503
 21
61.236355
  0
LINE
  8
ボルト／ビス
  6
CONTINUOUS
 10
162.409503
 20
61.236355
 11
162.409503
 21
60.50302
  0
LINE
  8
ボルト／ビス
  6
CONTINUOUS
 10
162.409503
 20
60.50302
 11
162.47617
 21
60.50302
  0
LINE
  8
ボルト／ビス
  6
CONTINUOUS
 10
162.47617
 20
61.236355
 11
162.47617
 21
60.50302
  0
LINE
  8
ボルト／ビス
  6
CONTINUOUS
 10
162.37617
 20
61.169687
 11
162.409503
 21
61.169687
  0
LINE
  8
ボルト／ビス
  6
CONTINUOUS
 10
162.37617
 20
61.169687
 11
162.37617
 21
60.569687
  0
LINE
  8
ボルト／ビス
  6
CONTINUOUS
 10
162.37617
 20
60.569687
 11
162.409503
 21
60.569687
  0
LINE
  8
ボルト／ビス
  6
CONTINUOUS
 62
    64
 10
162.17617
 20
61.030062
 11
162.187845
 21
61.062138
  0
ARC
  8
ボルト／ビス
  6
CONTINUOUS
 62
    64
 10
162.281149
 20
61.014031
 40
0.104978
 50
180.0
 51
207.278033
  0
ARC
  8
ボルト／ビス
  6
CONTINUOUS
 62
    64
 10
162.578573
 20
60.869693
 40
0.402402
 50
166.165015
 51
193.834998
  0
LINE
  8
ボルト／ビス
  6
CONTINUOUS
 62
    64
 10
162.17617
 20
60.709312
 11
162.187845
 21
60.677238
  0
ARC
  8
ボルト／ビス
  6
CONTINUOUS
 62
    64
 10
162.281149
 20
60.725355
 40
0.104978
 50
152.721967
 51
180.0
  0
LINE
  8
ボルト／ビス
  6
CONTINUOUS
 62
    64
 10
162.17617
 20
61.030062
 11
162.17617
 21
60.709312
  0
LINE
  8
ボルト／ビス
  6
CONTINUOUS
 62
    64
 10
162.187845
 20
60.677238
 11
162.309503
 21
60.677238
  0
LINE
  8
ボルト／ビス
  6
CONTINUOUS
 62
    64
 10
162.187845
 20
60.773462
 11
162.309503
 21
60.773462
  0
LINE
  8
ボルト／ビス
  6
CONTINUOUS
 62
    64
 10
162.187845
 20
61.062138
 11
162.309503
 21
61.062138
  0
LINE
  8
ボルト／ビス
  6
CONTINUOUS
 62
    64
 10
162.187845
 20
60.965913
 11
162.309503
 21
60.965913
  0
LINE
  8
ボルト／ビス
  6
CONTINUOUS
 10
162.309503
 20
61.062138
 11
162.309503
 21
60.677238
  0
LINE
  8
ボルト／ビス
  6
CONTINUOUS
 10
162.309503
 20
61.069687
 11
162.37617
 21
61.069687
  0
LINE
  8
ボルト／ビス
  6
CONTINUOUS
 10
162.309503
 20
61.069687
 11
162.309503
 21
60.669687
  0
LINE
  8
ボルト／ビス
  6
CONTINUOUS
 10
162.309503
 20
60.669687
 11
162.37617
 21
60.669687
  0
ENDBLK
  0
BLOCK
  2
*GRP_0008
 70
    65
 10
0.0
 20
0.0
  0
INSERT
  2
M8横
  8
ゴム等
  6
CONTINUOUS
 10
163.336003
 20
39.376965
 50
90.0
 41
0.033333
 42
0.033333
  0
LINE
  8
ボルト／ビス
  6
CONTINUOUS
 10
163.126005
 20
39.5103
 11
163.109338
 21
39.493633
  0
LINE
  8
ボルト／ビス
  6
CONTINUOUS
 10
163.109338
 20
39.2603
 11
163.126005
 21
39.243633
  0
LINE
  8
ボルト／ビス
  6
CONTINUOUS
 10
163.126005
 20
39.243633
 11
163.126005
 21
39.5103
  0
LINE
  8
ボルト／ビス
  6
CONTINUOUS
 10
163.109338
 20
39.2603
 11
163.109338
 21
39.493633
  0
LINE
  8
ボルト／ビス
  6
CONTINUOUS
 10
163.109338
 20
39.493633
 11
163.15267
 21
39.493633
  0
LINE
  8
ボルト／ビス
  6
CONTINUOUS
 10
163.126005
 20
39.5103
 11
163.15267
 21
39.5103
  0
LINE
  8
ボルト／ビス
  6
CONTINUOUS
 10
163.126005
 20
39.243633
 11
163.15267
 21
39.243633
  0
LINE
  8
ボルト／ビス
  6
CONTINUOUS
 10
163.109338
 20
39.2603
 11
163.15267
 21
39.2603
  0
LINE
  8
ボルト／ビス
  6
CONTINUOUS
 10
163.336003
 20
39.0103
 11
163.336003
 21
39.743633
  0
LINE
  8
ボルト／ビス
  6
CONTINUOUS
 10
163.376002
 20
39.793633
 11
163.459335
 21
39.793633
  0
LINE
  8
ボルト／ビス
  6
CONTINUOUS
 10
163.459335
 20
39.793633
 11
163.459335
 21
38.9603
  0
LINE
  8
ボルト／ビス
  6
CONTINUOUS
 10
163.459335
 20
38.9603
 11
163.376002
 21
38.9603
  0
LINE
  8
ボルト／ビス
  6
CONTINUOUS
 10
163.376002
 20
39.793633
 11
163.376002
 21
38.9603
  0
LINE
  8
ボルト／ビス
  6
CONTINUOUS
 10
163.336003
 20
39.0103
 11
163.376002
 21
39.0103
  0
LINE
  8
ボルト／ビス
  6
CONTINUOUS
 10
163.336003
 20
39.743633
 11
163.376002
 21
39.743633
  0
LINE
  8
ボルト／ビス
  6
CONTINUOUS
 10
163.386002
 20
39.376965
 11
163.336003
 21
39.376965
  0
ENDBLK
  0
BLOCK
  2
*GRP_0009
 70
    65
 10
0.0
 20
0.0
  0
LINE
  8
ボルト／ビス
  6
CONTINUOUS
 10
162.47617
 20
39.170298
 11
162.409503
 21
39.170298
  0
LINE
  8
ボルト／ビス
  6
CONTINUOUS
 10
162.409503
 20
39.170298
 11
162.409503
 21
39.90363
  0
LINE
  8
ボルト／ビス
  6
CONTINUOUS
 10
162.409503
 20
39.90363
 11
162.47617
 21
39.90363
  0
LINE
  8
ボルト／ビス
  6
CONTINUOUS
 10
162.47617
 20
39.170298
 11
162.47617
 21
39.90363
  0
LINE
  8
ボルト／ビス
  6
CONTINUOUS
 10
162.37617
 20
39.236965
 11
162.409503
 21
39.236965
  0
LINE
  8
ボルト／ビス
  6
CONTINUOUS
 10
162.37617
 20
39.236965
 11
162.37617
 21
39.836965
  0
LINE
  8
ボルト／ビス
  6
CONTINUOUS
 10
162.37617
 20
39.836965
 11
162.409503
 21
39.836965
  0
LINE
  8
ボルト／ビス
  6
CONTINUOUS
 62
    64
 10
162.17617
 20
39.37659
 11
162.187845
 21
39.344515
  0
ARC
  8
ボルト／ビス
  6
CONTINUOUS
 62
    64
 10
162.281149
 20
39.392632
 40
0.104978
 50
152.721967
 51
180.0
  0
ARC
  8
ボルト／ビス
  6
CONTINUOUS
 62
    64
 10
162.578573
 20
39.536969
 40
0.402402
 50
166.165002
 51
193.834985
  0
LINE
  8
ボルト／ビス
  6
CONTINUOUS
 62
    64
 10
162.17617
 20
39.69734
 11
162.187845
 21
39.729415
  0
ARC
  8
ボルト／ビス
  6
CONTINUOUS
 62
    64
 10
162.281149
 20
39.681307
 40
0.104978
 50
180.0
 51
207.278033
  0
LINE
  8
ボルト／ビス
  6
CONTINUOUS
 62
    64
 10
162.17617
 20
39.37659
 11
162.17617
 21
39.69734
  0
LINE
  8
ボルト／ビス
  6
CONTINUOUS
 62
    64
 10
162.187845
 20
39.729415
 11
162.309503
 21
39.729415
  0
LINE
  8
ボルト／ビス
  6
CONTINUOUS
 62
    64
 10
162.187845
 20
39.63319
 11
162.309503
 21
39.63319
  0
LINE
  8
ボルト／ビス
  6
CONTINUOUS
 62
    64
 10
162.187845
 20
39.344515
 11
162.309503
 21
39.344515
  0
LINE
  8
ボルト／ビス
  6
CONTINUOUS
 62
    64
 10
162.187845
 20
39.44074
 11
162.309503
 21
39.44074
  0
LINE
  8
ボルト／ビス
  6
CONTINUOUS
 10
162.309503
 20
39.344515
 11
162.309503
 21
39.729415
  0
LINE
  8
ボルト／ビス
  6
CONTINUOUS
 10
162.309503
 20
39.336965
 11
162.37617
 21
39.336965
  0
LINE
  8
ボルト／ビス
  6
CONTINUOUS
 10
162.309503
 20
39.336965
 11
162.309503
 21
39.736965
  0
LINE
  8
ボルト／ビス
  6
CONTINUOUS
 10
162.309503
 20
39.736965
 11
162.37617
 21
39.736965
  0
ENDBLK
  0
BLOCK
  2
*DIM_0010
 70
    65
 10
0.0
 20
0.0
  0
LINE
  8
寸法
  6
CONTINUOUS
 10
161.248695
 20
62.48302
 11
142.14273
 21
62.48302
  0
LINE
  8
寸法
  6
CONTINUOUS
 10
142.14273
 20
60.203325
 11
142.14273
 21
62.48302
  0
POINT
  8
寸法
 10
142.14273
 20
60.203325
 50
-90.0
  0
POINT
  8
寸法
 10
142.14273
 20
62.48302
 50
-90.0
  0
TEXT
  7
TextStyle03
  8
寸法
  6
CONTINUOUS
 10
141.775
 20
64.76875
  1
68.4
 40
3.0
 50
90.0
 72
     5
 11
141.775
 21
71.33125
  0
ENDBLK
  0
BLOCK
  2
*DIM_0011
 70
    65
 10
0.0
 20
0.0
  0
LINE
  8
寸法
  6
CONTINUOUS
 10
161.248695
 20
37.92363
 11
142.14273
 21
37.92363
  0
LINE
  8
寸法
  6
CONTINUOUS
 10
142.14273
 20
40.203325
 11
142.14273
 21
37.92363
  0
POINT
  8
寸法
 10
142.14273
 20
40.203325
 50
-90.0
  0
POINT
  8
寸法
 10
142.14273
 20
37.92363
 50
-90.0
  0
TEXT
  7
TextStyle03
  8
寸法
  6
CONTINUOUS
 10
141.775
 20
28.99375
  1
68.4
 40
3.0
 50
90.0
 72
     5
 11
141.775
 21
35.55625
  0
ENDBLK
  0
BLOCK
  2
*DIM_0012
 70
    65
 10
0.0
 20
0.0
  0
LINE
  8
寸法
  6
CONTINUOUS
 10
142.14273
 20
60.203325
 11
142.14273
 21
40.203325
  0
POINT
  8
寸法
 10
142.14273
 20
60.203325
 50
-90.0
  0
POINT
  8
寸法
 10
142.14273
 20
40.203325
 50
-90.0
  0
TEXT
  7
TextStyle03
  8
寸法
  6
CONTINUOUS
 10
141.775
 20
39.3
  1
呼称寸法　600
 40
3.0
 50
90.0
 72
     5
 11
141.775
 21
61.05
  0
ENDBLK
  0
BLOCK
  2
*DIM_0013
 70
    65
 10
0.0
 20
0.0
  0
LINE
  8
寸法
  6
CONTINUOUS
 10
169.209335
 20
33.236965
 11
169.209335
 21
25.327945
  0
LINE
  8
寸法
  6
CONTINUOUS
 10
161.742835
 20
35.203325
 11
161.742835
 21
25.327945
  0
LINE
  8
寸法
  6
CONTINUOUS
 10
169.209335
 20
25.327945
 11
161.742835
 21
25.327945
  0
POINT
  8
寸法
 10
169.209335
 20
25.327945
  0
POINT
  8
寸法
 10
161.742835
 20
25.327945
  0
TEXT
  7
TextStyle03
  8
寸法
  6
CONTINUOUS
 10
163.0375
 20
25.7
  1
224
 40
3.0
 72
     5
 11
167.9125
 21
25.7
  0
ENDBLK
  0
BLOCK
  2
*DIM_0014
 70
    65
 10
0.0
 20
0.0
  0
LINE
  8
寸法
  6
CONTINUOUS
 10
0.736835
 20
-68.70412
 11
19.355307
 21
-68.70412
  0
LINE
  8
寸法
  6
CONTINUOUS
 10
2.703197
 20
-76.17062
 11
19.355307
 21
-76.17062
  0
LINE
  8
寸法
  6
CONTINUOUS
 10
19.355307
 20
-68.70412
 11
19.355307
 21
-76.17062
  0
POINT
  8
寸法
 10
19.355307
 20
-68.70412
  0
POINT
  8
寸法
 10
19.355307
 20
-76.17062
  0
TEXT
  7
TextStyle03
  8
寸法
  6
CONTINUOUS
 10
18.975
 20
-74.8875
  1
224
 40
3.0
 50
90.0
 72
     5
 11
18.975
 21
-70.0125
  0
ENDBLK
  0
BLOCK
  2
*DIM_0015
 70
    65
 10
0.0
 20
0.0
  0
LINE
  8
寸法
  6
BYBLOCK
 62
     0
 10
-54.263165
 20
36.573195
 11
-54.263165
 21
31.57147
  0
LINE
  8
寸法
  6
BYBLOCK
 62
     0
 10
-20.92983
 20
36.573195
 11
-20.92983
 21
31.57147
  0
LINE
  8
寸法
  6
BYBLOCK
 62
     0
 10
-54.263165
 20
31.57147
 11
-20.92983
 21
31.57147
  0
POINT
  8
寸法
 62
     0
 10
-54.263165
 20
31.57147
  0
POINT
  8
寸法
 62
     0
 10
-20.92983
 20
31.57147
  0
TEXT
  7
TextStyle03
  8
寸法
  6
CONTINUOUS
 62
     0
 10
-40.88125
 20
31.925
  1
1000
 40
3.0
 72
     5
 11
-34.31875
 21
31.925
  0
ENDBLK
  0
BLOCK
  2
*DIM_0016
 70
    65
 10
0.0
 20
0.0
  0
LINE
  8
寸法
  6
BYBLOCK
 62
     0
 10
-0.633037
 20
56.303325
 11
6.144255
 21
56.303325
  0
LINE
  8
寸法
  6
BYBLOCK
 62
     0
 10
6.144255
 20
60.203325
 11
6.144255
 21
56.303325
  0
POINT
  8
寸法
 62
     0
 10
6.144255
 20
60.203325
  0
POINT
  8
寸法
 62
     0
 10
6.144255
 20
56.303325
  0
TEXT
  7
TextStyle03
  8
寸法
  6
CONTINUOUS
 62
     0
 10
5.9
 20
60.8625
  1
117
 40
3.0
 50
90.0
 72
     5
 11
5.9
 21
65.7375
  0
ENDBLK
  0
BLOCK
  2
*DIM_0017
 70
    65
 10
0.0
 20
0.0
  0
LINE
  8
寸法
  6
BYBLOCK
 62
     0
 10
-0.633037
 20
44.103325
 11
6.144255
 21
44.103325
  0
LINE
  8
寸法
  6
BYBLOCK
 62
     0
 10
6.144255
 20
40.203325
 11
6.144255
 21
44.103325
  0
POINT
  8
寸法
 62
     0
 10
6.144255
 20
40.203325
  0
POINT
  8
寸法
 62
     0
 10
6.144255
 20
44.103325
  0
TEXT
  7
TextStyle03
  8
寸法
  6
CONTINUOUS
 62
     0
 10
6.075
 20
34.3875
  1
117
 40
3.0
 50
90.0
 72
     5
 11
6.075
 21
39.2625
  0
ENDBLK
  0
BLOCK
  2
*DIM_0018
 70
    65
 10
0.0
 20
0.0
  0
LINE
  8
寸法
  6
BYBLOCK
 62
     0
 10
-73.929832
 20
56.869993
 11
-87.22267
 21
56.869993
  0
LINE
  8
寸法
  6
BYBLOCK
 62
     0
 10
-73.929832
 20
43.536658
 11
-87.22267
 21
43.536658
  0
LINE
  8
寸法
  6
BYBLOCK
 62
     0
 10
-87.22267
 20
56.869993
 11
-87.22267
 21
43.536658
  0
POINT
  8
寸法
 62
     0
 10
-87.22267
 20
56.869993
  0
POINT
  8
寸法
 62
     0
 10
-87.22267
 20
43.536658
  0
TEXT
  7
TextStyle03
  8
寸法
  6
CONTINUOUS
 62
     0
 10
-87.6
 20
47.7375
  1
400
 40
3.0
 50
90.0
 72
     5
 11
-87.6
 21
52.6125
  0
ENDBLK
  0
BLOCK
  2
*DIM_0019
 70
    65
 10
0.0
 20
0.0
  0
LINE
  8
寸法
  6
BYBLOCK
 62
     0
 10
-60.92983
 20
63.203325
 11
-60.92983
 21
92.130945
  0
LINE
  8
寸法
  6
BYBLOCK
 62
     0
 10
-37.596497
 20
63.203325
 11
-37.596497
 21
92.130945
  0
LINE
  8
寸法
  6
BYBLOCK
 62
     0
 10
-60.92983
 20
92.130945
 11
-37.596497
 21
92.130945
  0
POINT
  8
寸法
 62
     0
 10
-60.92983
 20
92.130945
  0
POINT
  8
寸法
 62
     0
 10
-37.596497
 20
92.130945
  0
TEXT
  7
TextStyle03
  8
寸法
  6
CONTINUOUS
 62
     0
 10
-51.6875
 20
92.5
  1
700
 40
3.0
 72
     5
 11
-46.8125
 21
92.5
  0
ENDBLK
  0
BLOCK
  2
*DIM_0020
 70
    65
 10
0.0
 20
0.0
  0
LINE
  8
寸法
  6
BYBLOCK
 62
     0
 10
-14.263165
 20
63.203325
 11
-14.263165
 21
92.130945
  0
LINE
  8
寸法
  6
BYBLOCK
 62
     0
 10
-37.596497
 20
92.130945
 11
-14.263165
 21
92.130945
  0
POINT
  8
寸法
 62
     0
 10
-14.263165
 20
92.130945
  0
TEXT
  7
TextStyle03
  8
寸法
  6
CONTINUOUS
 62
     0
 10
-28.3625
 20
92.5
  1
700
 40
3.0
 72
     5
 11
-23.4875
 21
92.5
  0
ENDBLK
  0
BLOCK
  2
*GRP_0021
 70
    65
 10
0.0
 20
0.0
  0
LINE
  8
型材断面
  6
DOT
 10
-2.596497
 20
-62.60412
 11
-2.646497
 21
-62.60412
  0
LINE
  8
型材断面
  6
DOT
 10
-4.263165
 20
-62.10412
 11
-4.263165
 21
-61.370788
  0
LINE
  8
型材断面
  6
DOT
 10
-4.21347
 20
-63.087288
 11
-2.766802
 21
-63.087288
  0
LINE
  8
型材断面
  6
DOT
 10
-2.766802
 20
-63.537288
 11
-2.766802
 21
-63.087288
  0
LINE
  8
型材断面
  6
DOT
 62
    47
 10
-2.03347
 20
-66.20998
 11
-1.98347
 21
-66.20998
  0
LINE
  8
型材断面
  6
DOT
 62
    47
 10
-1.98347
 20
-66.20998
 11
-1.98347
 21
-65.876645
  0
LINE
  8
型材断面
  6
DOT
 62
    47
 10
-1.98347
 20
-65.876645
 11
-2.766802
 21
-65.776645
  0
LINE
  8
型材断面
  6
DOT
 62
    47
 10
-2.766802
 20
-65.37062
 11
-2.766802
 21
-65.776645
  0
LINE
  8
型材断面
  6
DOT
 62
    47
 10
-2.296803
 20
-65.37062
 11
-2.296803
 21
-63.537288
  0
LINE
  8
型材断面
  6
DOT
 10
-2.596497
 20
-62.60412
 11
-2.596497
 21
-62.10412
  0
LINE
  8
型材断面
  6
DOT
 10
-4.21347
 20
-63.087288
 11
-4.21347
 21
-62.60412
  0
INSERT
  2
*GRP_0022
  8
型材断面
  6
DOT
 10
0.0
 20
0.0
  0
INSERT
  2
*GRP_0023
  8
型材断面
  6
DOT
 10
0.0
 20
0.0
  0
LINE
  8
型材断面
  6
DOT
 10
-1.98347
 20
-66.20998
 11
-37.596497
 21
-66.20998
  0
LINE
  8
型材断面
  6
DOT
 10
-1.98347
 20
-65.876645
 11
-37.596497
 21
-65.876645
  0
LINE
  8
型材断面
  6
DOT
 10
-2.766802
 20
-65.776645
 11
-37.596497
 21
-65.776645
  0
LINE
  8
型材断面
  6
DOT
 10
-2.296803
 20
-65.37062
 11
-37.596497
 21
-65.37062
  0
LINE
  8
型材断面
  6
DOT
 10
-2.596497
 20
-62.60412
 11
-37.596497
 21
-62.60412
  0
LINE
  8
型材断面
  6
DOT
 10
-4.263165
 20
-61.370788
 11
-37.596497
 21
-61.370788
  0
LINE
  8
型材断面
  6
DOT
 10
-2.596497
 20
-62.10412
 11
-37.596497
 21
-62.10412
  0
LINE
  8
型材断面
  6
DOT
 10
-2.766802
 20
-63.087288
 11
-37.596497
 21
-63.087288
  0
LINE
  8
型材断面
  6
DOT
 10
-2.296803
 20
-63.537288
 11
-37.596497
 21
-63.537288
  0
LINE
  8
型材断面
  6
DOT
 10
-72.596497
 20
-62.60412
 11
-72.546497
 21
-62.60412
  0
LINE
  8
型材断面
  6
DOT
 10
-70.92983
 20
-62.10412
 11
-70.92983
 21
-61.370788
  0
LINE
  8
型材断面
  6
DOT
 10
-70.979525
 20
-63.087288
 11
-72.426192
 21
-63.087288
  0
LINE
  8
型材断面
  6
DOT
 10
-72.426192
 20
-63.537288
 11
-72.426192
 21
-63.087288
  0
LINE
  8
型材断面
  6
DOT
 62
    47
 10
-73.159525
 20
-66.20998
 11
-73.209525
 21
-66.20998
  0
LINE
  8
型材断面
  6
DOT
 62
    47
 10
-73.209525
 20
-66.20998
 11
-73.209525
 21
-65.876645
  0
LINE
  8
型材断面
  6
DOT
 62
    47
 10
-73.209525
 20
-65.876645
 11
-72.426192
 21
-65.776645
  0
LINE
  8
型材断面
  6
DOT
 62
    47
 10
-72.426192
 20
-65.37062
 11
-72.426192
 21
-65.776645
  0
LINE
  8
型材断面
  6
DOT
 62
    47
 10
-72.896192
 20
-65.37062
 11
-72.896192
 21
-63.537288
  0
LINE
  8
型材断面
  6
DOT
 10
-72.596497
 20
-62.60412
 11
-72.596497
 21
-62.10412
  0
LINE
  8
型材断面
  6
DOT
 10
-70.979525
 20
-63.087288
 11
-70.979525
 21
-62.60412
  0
INSERT
  2
*GRP_0024
  8
型材断面
  6
DOT
 10
0.0
 20
0.0
  0
INSERT
  2
*GRP_0025
  8
型材断面
  6
DOT
 10
0.0
 20
0.0
  0
LINE
  8
型材断面
  6
DOT
 10
-73.209525
 20
-66.20998
 11
-37.596497
 21
-66.20998
  0
LINE
  8
型材断面
  6
DOT
 10
-73.209525
 20
-65.876645
 11
-37.596497
 21
-65.876645
  0
LINE
  8
型材断面
  6
DOT
 10
-72.426192
 20
-65.776645
 11
-37.596497
 21
-65.776645
  0
LINE
  8
型材断面
  6
DOT
 10
-72.896192
 20
-65.37062
 11
-37.596497
 21
-65.37062
  0
LINE
  8
型材断面
  6
DOT
 10
-72.596497
 20
-62.60412
 11
-37.596497
 21
-62.60412
  0
LINE
  8
型材断面
  6
DOT
 10
-70.92983
 20
-61.370788
 11
-37.596497
 21
-61.370788
  0
LINE
  8
型材断面
  6
DOT
 10
-72.596497
 20
-62.10412
 11
-37.596497
 21
-62.10412
  0
LINE
  8
型材断面
  6
DOT
 10
-72.426192
 20
-63.087288
 11
-37.596497
 21
-63.087288
  0
LINE
  8
型材断面
  6
DOT
 10
-72.896192
 20
-63.537288
 11
-37.596497
 21
-63.537288
  0
ENDBLK
  0
BLOCK
  2
*GRP_0022
 70
    65
 10
0.0
 20
0.0
  0
INSERT
  2
M8横
  8
ゴム等
  6
DOT
 10
-3.436805
 20
-62.963955
 50
180.0
 41
0.033333
 42
-0.033333
  0
LINE
  8
ボルト／ビス
  6
DOT
 10
-3.570137
 20
-62.753955
 11
-3.553473
 21
-62.73729
  0
LINE
  8
ボルト／ビス
  6
DOT
 10
-3.320137
 20
-62.73729
 11
-3.303473
 21
-62.753955
  0
LINE
  8
ボルト／ビス
  6
DOT
 10
-3.303473
 20
-62.753955
 11
-3.570137
 21
-62.753955
  0
LINE
  8
ボルト／ビス
  6
DOT
 10
-3.320137
 20
-62.73729
 11
-3.553473
 21
-62.73729
  0
LINE
  8
ボルト／ビス
  6
DOT
 10
-3.553473
 20
-62.73729
 11
-3.553473
 21
-62.78062
  0
LINE
  8
ボルト／ビス
  6
DOT
 10
-3.570137
 20
-62.753955
 11
-3.570137
 21
-62.78062
  0
LINE
  8
ボルト／ビス
  6
DOT
 10
-3.303473
 20
-62.753955
 11
-3.303473
 21
-62.78062
  0
LINE
  8
ボルト／ビス
  6
DOT
 10
-3.320137
 20
-62.73729
 11
-3.320137
 21
-62.78062
  0
LINE
  8
ボルト／ビス
  6
DOT
 10
-3.070137
 20
-62.963955
 11
-3.803473
 21
-62.963955
  0
LINE
  8
ボルト／ビス
  6
DOT
 10
-3.853473
 20
-63.003955
 11
-3.853473
 21
-63.087288
  0
LINE
  8
ボルト／ビス
  6
DOT
 10
-3.853473
 20
-63.087288
 11
-3.020137
 21
-63.087288
  0
LINE
  8
ボルト／ビス
  6
DOT
 10
-3.020137
 20
-63.087288
 11
-3.020137
 21
-63.003955
  0
LINE
  8
ボルト／ビス
  6
DOT
 10
-3.853473
 20
-63.003955
 11
-3.020137
 21
-63.003955
  0
LINE
  8
ボルト／ビス
  6
DOT
 10
-3.070137
 20
-62.963955
 11
-3.070137
 21
-63.003955
  0
LINE
  8
ボルト／ビス
  6
DOT
 10
-3.803473
 20
-62.963955
 11
-3.803473
 21
-63.003955
  0
LINE
  8
ボルト／ビス
  6
DOT
 10
-3.436805
 20
-63.013955
 11
-3.436805
 21
-62.963955
  0
ENDBLK
  0
BLOCK
  2
*GRP_0023
 70
    65
 10
0.0
 20
0.0
  0
LINE
  8
ボルト／ビス
  6
DOT
 10
-3.230138
 20
-62.10412
 11
-3.230138
 21
-62.037455
  0
LINE
  8
ボルト／ビス
  6
DOT
 10
-3.230138
 20
-62.037455
 11
-3.96347
 21
-62.037455
  0
LINE
  8
ボルト／ビス
  6
DOT
 10
-3.96347
 20
-62.037455
 11
-3.96347
 21
-62.10412
  0
LINE
  8
ボルト／ビス
  6
DOT
 10
-3.230138
 20
-62.10412
 11
-3.96347
 21
-62.10412
  0
LINE
  8
ボルト／ビス
  6
DOT
 10
-3.296803
 20
-62.00412
 11
-3.296803
 21
-62.037455
  0
LINE
  8
ボルト／ビス
  6
DOT
 10
-3.296803
 20
-62.00412
 11
-3.896803
 21
-62.00412
  0
LINE
  8
ボルト／ビス
  6
DOT
 10
-3.896803
 20
-62.00412
 11
-3.896803
 21
-62.037455
  0
LINE
  8
ボルト／ビス
  6
DOT
 62
    64
 10
-3.436427
 20
-61.80412
 11
-3.404353
 21
-61.815795
  0
ARC
  8
ボルト／ビス
  6
DOT
 62
    64
 10
-3.452466
 20
-61.909097
 40
0.104978
 50
90.0
 51
117.278033
  0
ARC
  8
ボルト／ビス
  6
DOT
 62
    64
 10
-3.596804
 20
-62.206521
 40
0.402402
 50
76.165015
 51
103.834998
  0
LINE
  8
ボルト／ビス
  6
DOT
 62
    64
 10
-3.757178
 20
-61.80412
 11
-3.789253
 21
-61.815795
  0
ARC
  8
ボルト／ビス
  6
DOT
 62
    64
 10
-3.741142
 20
-61.909097
 40
0.104978
 50
62.721967
 51
90.0
  0
LINE
  8
ボルト／ビス
  6
DOT
 62
    64
 10
-3.436427
 20
-61.80412
 11
-3.757178
 21
-61.80412
  0
LINE
  8
ボルト／ビス
  6
DOT
 62
    64
 10
-3.789253
 20
-61.815795
 11
-3.789253
 21
-61.937455
  0
LINE
  8
ボルト／ビス
  6
DOT
 62
    64
 10
-3.693027
 20
-61.815795
 11
-3.693027
 21
-61.937455
  0
LINE
  8
ボルト／ビス
  6
DOT
 62
    64
 10
-3.404353
 20
-61.815795
 11
-3.404353
 21
-61.937455
  0
LINE
  8
ボルト／ビス
  6
DOT
 62
    64
 10
-3.500577
 20
-61.815795
 11
-3.500577
 21
-61.937455
  0
LINE
  8
ボルト／ビス
  6
DOT
 10
-3.404353
 20
-61.937455
 11
-3.789253
 21
-61.937455
  0
LINE
  8
ボルト／ビス
  6
DOT
 10
-3.396803
 20
-61.937455
 11
-3.396803
 21
-62.00412
  0
LINE
  8
ボルト／ビス
  6
DOT
 10
-3.396803
 20
-61.937455
 11
-3.796803
 21
-61.937455
  0
LINE
  8
ボルト／ビス
  6
DOT
 10
-3.796803
 20
-61.937455
 11
-3.796803
 21
-62.00412
  0
ENDBLK
  0
BLOCK
  2
*GRP_0024
 70
    65
 10
0.0
 20
0.0
  0
INSERT
  2
M8横
  8
ゴム等
  6
DOT
 10
-71.75619
 20
-62.963955
 41
0.033333
 42
0.033333
  0
LINE
  8
ボルト／ビス
  6
DOT
 10
-71.622858
 20
-62.753955
 11
-71.639523
 21
-62.73729
  0
LINE
  8
ボルト／ビス
  6
DOT
 10
-71.872858
 20
-62.73729
 11
-71.889523
 21
-62.753955
  0
LINE
  8
ボルト／ビス
  6
DOT
 10
-71.889523
 20
-62.753955
 11
-71.622858
 21
-62.753955
  0
LINE
  8
ボルト／ビス
  6
DOT
 10
-71.872858
 20
-62.73729
 11
-71.639523
 21
-62.73729
  0
LINE
  8
ボルト／ビス
  6
DOT
 10
-71.639523
 20
-62.73729
 11
-71.639523
 21
-62.78062
  0
LINE
  8
ボルト／ビス
  6
DOT
 10
-71.622858
 20
-62.753955
 11
-71.622858
 21
-62.78062
  0
LINE
  8
ボルト／ビス
  6
DOT
 10
-71.889523
 20
-62.753955
 11
-71.889523
 21
-62.78062
  0
LINE
  8
ボルト／ビス
  6
DOT
 10
-71.872858
 20
-62.73729
 11
-71.872858
 21
-62.78062
  0
LINE
  8
ボルト／ビス
  6
DOT
 10
-72.122858
 20
-62.963955
 11
-71.389523
 21
-62.963955
  0
LINE
  8
ボルト／ビス
  6
DOT
 10
-71.339523
 20
-63.003955
 11
-71.339523
 21
-63.087288
  0
LINE
  8
ボルト／ビス
  6
DOT
 10
-71.339523
 20
-63.087288
 11
-72.172858
 21
-63.087288
  0
LINE
  8
ボルト／ビス
  6
DOT
 10
-72.172858
 20
-63.087288
 11
-72.172858
 21
-63.003955
  0
LINE
  8
ボルト／ビス
  6
DOT
 10
-71.339523
 20
-63.003955
 11
-72.172858
 21
-63.003955
  0
LINE
  8
ボルト／ビス
  6
DOT
 10
-72.122858
 20
-62.963955
 11
-72.122858
 21
-63.003955
  0
LINE
  8
ボルト／ビス
  6
DOT
 10
-71.389523
 20
-62.963955
 11
-71.389523
 21
-63.003955
  0
LINE
  8
ボルト／ビス
  6
DOT
 10
-71.75619
 20
-63.013955
 11
-71.75619
 21
-62.963955
  0
ENDBLK
  0
BLOCK
  2
*GRP_0025
 70
    65
 10
0.0
 20
0.0
  0
LINE
  8
ボルト／ビス
  6
DOT
 10
-71.962857
 20
-62.10412
 11
-71.962857
 21
-62.037455
  0
LINE
  8
ボルト／ビス
  6
DOT
 10
-71.962857
 20
-62.037455
 11
-71.229525
 21
-62.037455
  0
LINE
  8
ボルト／ビス
  6
DOT
 10
-71.229525
 20
-62.037455
 11
-71.229525
 21
-62.10412
  0
LINE
  8
ボルト／ビス
  6
DOT
 10
-71.962857
 20
-62.10412
 11
-71.229525
 21
-62.10412
  0
LINE
  8
ボルト／ビス
  6
DOT
 10
-71.896192
 20
-62.00412
 11
-71.896192
 21
-62.037455
  0
LINE
  8
ボルト／ビス
  6
DOT
 10
-71.896192
 20
-62.00412
 11
-71.296192
 21
-62.00412
  0
LINE
  8
ボルト／ビス
  6
DOT
 10
-71.296192
 20
-62.00412
 11
-71.296192
 21
-62.037455
  0
LINE
  8
ボルト／ビス
  6
DOT
 62
    64
 10
-71.756567
 20
-61.80412
 11
-71.788642
 21
-61.815795
  0
ARC
  8
ボルト／ビス
  6
DOT
 62
    64
 10
-71.74053
 20
-61.909097
 40
0.104978
 50
62.721967
 51
90.0
  0
ARC
  8
ボルト／ビス
  6
DOT
 62
    64
 10
-71.596193
 20
-62.206521
 40
0.402402
 50
76.165002
 51
103.834985
  0
LINE
  8
ボルト／ビス
  6
DOT
 62
    64
 10
-71.435818
 20
-61.80412
 11
-71.403743
 21
-61.815795
  0
ARC
  8
ボルト／ビス
  6
DOT
 62
    64
 10
-71.451855
 20
-61.909097
 40
0.104978
 50
90.0
 51
117.278033
  0
LINE
  8
ボルト／ビス
  6
DOT
 62
    64
 10
-71.756567
 20
-61.80412
 11
-71.435818
 21
-61.80412
  0
LINE
  8
ボルト／ビス
  6
DOT
 62
    64
 10
-71.403743
 20
-61.815795
 11
-71.403743
 21
-61.937455
  0
LINE
  8
ボルト／ビス
  6
DOT
 62
    64
 10
-71.499967
 20
-61.815795
 11
-71.499967
 21
-61.937455
  0
LINE
  8
ボルト／ビス
  6
DOT
 62
    64
 10
-71.788642
 20
-61.815795
 11
-71.788642
 21
-61.937455
  0
LINE
  8
ボルト／ビス
  6
DOT
 62
    64
 10
-71.692418
 20
-61.815795
 11
-71.692418
 21
-61.937455
  0
LINE
  8
ボルト／ビス
  6
DOT
 10
-71.788642
 20
-61.937455
 11
-71.403743
 21
-61.937455
  0
LINE
  8
ボルト／ビス
  6
DOT
 10
-71.796192
 20
-61.937455
 11
-71.796192
 21
-62.00412
  0
LINE
  8
ボルト／ビス
  6
DOT
 10
-71.796192
 20
-61.937455
 11
-71.396192
 21
-61.937455
  0
LINE
  8
ボルト／ビス
  6
DOT
 10
-71.396192
 20
-61.937455
 11
-71.396192
 21
-62.00412
  0
ENDBLK
  0
BLOCK
  2
*DIM_0026
 70
    65
 10
0.0
 20
0.0
  0
LINE
  8
寸法
  6
CONTINUOUS
 10
0.736835
 20
-68.70412
 11
19.355307
 21
-68.70412
  0
LINE
  8
寸法
  6
CONTINUOUS
 10
0.736835
 20
-61.370788
 11
19.355307
 21
-61.370788
  0
LINE
  8
寸法
  6
CONTINUOUS
 10
19.355307
 20
-68.70412
 11
19.355307
 21
-61.370788
  0
POINT
  8
寸法
 10
19.355307
 20
-68.70412
  0
POINT
  8
寸法
 10
19.355307
 20
-61.370788
  0
TEXT
  7
TextStyle03
  8
寸法
  6
CONTINUOUS
 10
22.35
 20
-74.14375
  1
上昇168以上
 40
3.0
 50
90.0
 72
     5
 11
22.35
 21
-55.95625
  0
ENDBLK
  0
BLOCK
  2
*DIM_0027
 70
    65
 10
0.0
 20
0.0
  0
LINE
  8
寸法
  6
CONTINUOUS
 10
121.788585
 20
-52.523035
 11
121.788585
 21
-44.845695
  0
LINE
  8
寸法
  6
CONTINUOUS
 10
154.115252
 20
-52.523035
 11
154.115252
 21
-44.845695
  0
LINE
  8
寸法
  6
CONTINUOUS
 10
121.788585
 20
-44.845695
 11
154.115252
 21
-44.845695
  0
POINT
  8
寸法
 10
121.788585
 20
-44.845695
  0
POINT
  8
寸法
 10
154.115252
 20
-44.845695
  0
TEXT
  7
TextStyle03
  8
寸法
  6
CONTINUOUS
 10
133.825
 20
-44.475
  1
969.8
 40
3.0
 72
     5
 11
142.075
 21
-44.475
  0
ENDBLK
  0
BLOCK
  2
*DIM_0028
 70
    65
 10
0.0
 20
0.0
  0
LINE
  8
寸法
  6
CONTINUOUS
 10
159.115252
 20
-57.523035
 11
169.274945
 21
-57.523035
  0
LINE
  8
寸法
  6
CONTINUOUS
 10
159.115252
 20
-76.85637
 11
169.274945
 21
-76.85637
  0
LINE
  8
寸法
  6
CONTINUOUS
 10
169.274945
 20
-57.523035
 11
169.274945
 21
-76.85637
  0
POINT
  8
寸法
 10
169.274945
 20
-57.523035
  0
POINT
  8
寸法
 10
169.274945
 20
-76.85637
  0
TEXT
  7
TextStyle03
  8
寸法
  6
CONTINUOUS
 10
168.875
 20
-69.6375
  1
580
 40
3.0
 50
90.0
 72
     5
 11
168.875
 21
-64.7625
  0
ENDBLK
  0
BLOCK
  2
*DIM_0029
 70
    65
 10
0.0
 20
0.0
  0
LINE
  8
寸法
  6
CONTINUOUS
 10
-73.209525
 20
-68.209977
 11
-73.209525
 21
-32.437345
  0
LINE
  8
寸法
  6
CONTINUOUS
 10
-70.92983
 20
-32.437345
 11
-73.209525
 21
-32.437345
  0
POINT
  8
寸法
 10
-70.92983
 20
-32.437345
  0
POINT
  8
寸法
 10
-73.209525
 20
-32.437345
  0
TEXT
  7
TextStyle03
  8
寸法
  6
CONTINUOUS
 10
-82.10625
 20
-32.075
  1
68.4
 40
3.0
 72
     5
 11
-75.54375
 21
-32.075
  0
ENDBLK
  0
BLOCK
  2
*DIM_0030
 70
    65
 10
0.0
 20
0.0
  0
LINE
  8
寸法
  6
CONTINUOUS
 10
-1.98347
 20
-68.209977
 11
-1.98347
 21
-32.437345
  0
LINE
  8
寸法
  6
CONTINUOUS
 10
-4.263165
 20
-32.437345
 11
-1.98347
 21
-32.437345
  0
POINT
  8
寸法
 10
-4.263165
 20
-32.437345
  0
POINT
  8
寸法
 10
-1.98347
 20
-32.437345
  0
TEXT
  7
TextStyle03
  8
寸法
  6
CONTINUOUS
 10
0.34375
 20
-32.075
  1
68.4
 40
3.0
 72
     5
 11
6.90625
 21
-32.075
  0
ENDBLK
  0
BLOCK
  2
*DIM_0031
 70
    65
 10
0.0
 20
0.0
  0
LINE
  8
寸法
  6
CONTINUOUS
 10
-4.263165
 20
-32.437345
 11
-70.92983
 21
-32.437345
  0
POINT
  8
寸法
 10
-4.263165
 20
-32.437345
  0
POINT
  8
寸法
 10
-70.92983
 20
-32.437345
  0
TEXT
  7
TextStyle03
  8
寸法
  6
CONTINUOUS
 10
-49.31875
 20
-32.075
  1
呼称寸法　2000
 40
3.0
 72
     5
 11
-25.88125
 21
-32.075
  0
ENDBLK
  0
BLOCK
  2
M8横
 70
    64
 10
-88.370132
 20
140.837665
  0
LINE
  8
ボルト／ビス
 10
-95.870132
 20
140.837665
 11
-80.870132
 21
140.837665
  0
LINE
  8
ボルト／ビス
 10
-80.870132
 20
145.837665
 11
-81.370132
 21
146.337665
  0
POLYLINE
  8
ボルト／ビス
 66
     1
  0
VERTEX
  8
ボルト／ビス
 10
-84.120132
 20
146.337665
  0
VERTEX
  8
ボルト／ビス
 10
-84.620132
 20
145.837665
  0
VERTEX
  8
ボルト／ビス
 10
-85.120132
 20
146.337665
  0
SEQEND
  0
POLYLINE
  8
ボルト／ビス
 66
     1
  0
VERTEX
  8
ボルト／ビス
 10
-91.620132
 20
146.337665
  0
VERTEX
  8
ボルト／ビス
 10
-92.120132
 20
145.837665
  0
VERTEX
  8
ボルト／ビス
 10
-92.620132
 20
146.337665
  0
SEQEND
  0
LINE
  8
ボルト／ビス
 10
-95.370132
 20
146.337665
 11
-95.870132
 21
145.837665
  0
LINE
  8
ボルト／ビス
 10
-95.870132
 20
140.837665
 11
-95.870132
 21
145.837665
  0
LINE
  8
ボルト／ビス
 10
-80.870132
 20
140.837665
 11
-80.870132
 21
145.837665
  0
LINE
  8
ボルト／ビス
 10
-95.370132
 20
146.337665
 11
-81.370132
 21
146.337665
  0
LINE
  8
ボルト／ビス
 10
-84.620132
 20
140.837665
 11
-84.620132
 21
145.837665
  0
LINE
  8
ボルト／ビス
 10
-92.120132
 20
140.837665
 11
-92.120132
 21
145.837665
  0
ENDBLK
  0
ENDSEC
  0
SECTION
  2
ENTITIES
  0
POLYLINE
  8
通り芯
  6
CONTINUOUS
 66
     1
 70
     1
  0
VERTEX
  8
通り芯
 10
-210.0
 20
-148.5
  0
VERTEX
  8
通り芯
 10
210.0
 20
-148.5
  0
VERTEX
  8
通り芯
 10
210.0
 20
148.5
  0
VERTEX
  8
通り芯
 10
-210.0
 20
148.5
  0
SEQEND
  0
INSERT
  2
*GRP_0001
  8
型材断面
  6
CONTINUOUS
 10
0.0
 20
0.0
  0
LINE
  8
型材断面
  6
CONTINUOUS
 10
-2.596497
 20
-69.937453
 11
-2.646497
 21
-69.937453
  0
LINE
  8
型材断面
  6
CONTINUOUS
 10
-4.263165
 20
-69.437453
 11
-4.263165
 21
-68.70412
  0
LINE
  8
型材断面
  6
CONTINUOUS
 62
    47
 10
-2.86347
 20
-76.67062
 11
-2.91347
 21
-76.67062
  0
LINE
  8
型材断面
  6
CONTINUOUS
 62
    47
 10
-2.86347
 20
-76.67062
 11
-2.86347
 21
-76.17062
  0
LINE
  8
型材断面
  6
CONTINUOUS
 10
-4.21347
 20
-70.42062
 11
-2.766802
 21
-70.42062
  0
LINE
  8
型材断面
  6
CONTINUOUS
 10
-2.766802
 20
-70.87062
 11
-2.766802
 21
-70.42062
  0
LINE
  8
型材断面
  6
CONTINUOUS
 62
    47
 10
-2.03347
 20
-73.543312
 11
-1.98347
 21
-73.543312
  0
LINE
  8
型材断面
  6
CONTINUOUS
 62
    47
 10
-1.98347
 20
-73.543312
 11
-1.98347
 21
-73.209977
  0
LINE
  8
型材断面
  6
CONTINUOUS
 62
    47
 10
-1.98347
 20
-73.209977
 11
-2.766802
 21
-73.109977
  0
LINE
  8
型材断面
  6
CONTINUOUS
 62
    47
 10
-2.766802
 20
-72.703953
 11
-2.766802
 21
-73.109977
  0
LINE
  8
型材断面
  6
CONTINUOUS
 62
    47
 10
-2.296803
 20
-72.703953
 11
-2.296803
 21
-70.87062
  0
LINE
  8
型材断面
  6
CONTINUOUS
 10
-2.596497
 20
-69.937453
 11
-2.596497
 21
-69.437453
  0
LINE
  8
型材断面
  6
CONTINUOUS
 10
-4.21347
 20
-70.42062
 11
-4.21347
 21
-69.937453
  0
LINE
  8
型材断面
  6
CONTINUOUS
 62
    47
 10
-2.296803
 20
-76.17062
 11
-2.296803
 21
-73.543312
  0
INSERT
  2
*GRP_0002
  8
型材断面
  6
DOT
 10
0.0
 20
0.0
  0
INSERT
  2
*GRP_0003
  8
型材断面
  6
DOT
 10
0.0
 20
0.0
  0
LINE
  8
型材断面
  6
CONTINUOUS
 10
-2.296803
 20
-76.17062
 11
-37.596497
 21
-76.17062
  0
LINE
  8
型材断面
  6
CONTINUOUS
 10
-2.86347
 20
-76.67062
 11
-37.596497
 21
-76.67062
  0
LINE
  8
型材断面
  6
CONTINUOUS
 10
-1.98347
 20
-73.543312
 11
-37.596497
 21
-73.543312
  0
LINE
  8
型材断面
  6
CONTINUOUS
 10
-1.98347
 20
-73.209977
 11
-37.596497
 21
-73.209977
  0
LINE
  8
型材断面
  6
CONTINUOUS
 10
-2.766802
 20
-73.109977
 11
-37.596497
 21
-73.109977
  0
LINE
  8
型材断面
  6
CONTINUOUS
 10
-2.296803
 20
-72.703953
 11
-37.596497
 21
-72.703953
  0
LINE
  8
型材断面
  6
CONTINUOUS
 10
-2.596497
 20
-69.937453
 11
-37.596497
 21
-69.937453
  0
LINE
  8
型材断面
  6
CONTINUOUS
 10
-4.263165
 20
-68.70412
 11
-37.596497
 21
-68.70412
  0
LINE
  8
型材断面
  6
CONTINUOUS
 10
-2.596497
 20
-69.437453
 11
-37.596497
 21
-69.437453
  0
LINE
  8
型材断面
  6
CONTINUOUS
 10
-2.766802
 20
-70.42062
 11
-37.596497
 21
-70.42062
  0
LINE
  8
型材断面
  6
CONTINUOUS
 10
-2.296803
 20
-70.87062
 11
-37.596497
 21
-70.87062
  0
LINE
  8
型材断面
  6
CONTINUOUS
 10
-72.596497
 20
-69.937453
 11
-72.546497
 21
-69.937453
  0
LINE
  8
型材断面
  6
CONTINUOUS
 10
-70.92983
 20
-69.437453
 11
-70.92983
 21
-68.70412
  0
LINE
  8
型材断面
  6
CONTINUOUS
 62
    47
 10
-72.329525
 20
-76.67062
 11
-72.279525
 21
-76.67062
  0
LINE
  8
型材断面
  6
CONTINUOUS
 62
    47
 10
-72.329525
 20
-76.67062
 11
-72.329525
 21
-76.17062
  0
LINE
  8
型材断面
  6
CONTINUOUS
 10
-70.979525
 20
-70.42062
 11
-72.426192
 21
-70.42062
  0
LINE
  8
型材断面
  6
CONTINUOUS
 10
-72.426192
 20
-70.87062
 11
-72.426192
 21
-70.42062
  0
LINE
  8
型材断面
  6
CONTINUOUS
 62
    47
 10
-73.159525
 20
-73.543312
 11
-73.209525
 21
-73.543312
  0
LINE
  8
型材断面
  6
CONTINUOUS
 62
    47
 10
-73.209525
 20
-73.543312
 11
-73.209525
 21
-73.209977
  0
LINE
  8
型材断面
  6
CONTINUOUS
 62
    47
 10
-73.209525
 20
-73.209977
 11
-72.426192
 21
-73.109977
  0
LINE
  8
型材断面
  6
CONTINUOUS
 62
    47
 10
-72.426192
 20
-72.703953
 11
-72.426192
 21
-73.109977
  0
LINE
  8
型材断面
  6
CONTINUOUS
 62
    47
 10
-72.896192
 20
-72.703953
 11
-72.896192
 21
-70.87062
  0
LINE
  8
型材断面
  6
CONTINUOUS
 10
-72.596497
 20
-69.937453
 11
-72.596497
 21
-69.437453
  0
LINE
  8
型材断面
  6
CONTINUOUS
 10
-70.979525
 20
-70.42062
 11
-70.979525
 21
-69.937453
  0
LINE
  8
型材断面
  6
CONTINUOUS
 62
    47
 10
-72.896192
 20
-76.17062
 11
-72.896192
 21
-73.543312
  0
INSERT
  2
*GRP_0004
  8
型材断面
  6
DOT
 10
0.0
 20
0.0
  0
INSERT
  2
*GRP_0005
  8
型材断面
  6
DOT
 10
0.0
 20
0.0
  0
LINE
  8
型材断面
  6
CONTINUOUS
 10
-72.896192
 20
-76.17062
 11
-37.596497
 21
-76.17062
  0
LINE
  8
型材断面
  6
CONTINUOUS
 10
-72.329525
 20
-76.67062
 11
-37.596497
 21
-76.67062
  0
LINE
  8
型材断面
  6
CONTINUOUS
 10
-73.209525
 20
-73.543312
 11
-37.596497
 21
-73.543312
  0
LINE
  8
型材断面
  6
CONTINUOUS
 10
-73.209525
 20
-73.209977
 11
-37.596497
 21
-73.209977
  0
LINE
  8
型材断面
  6
CONTINUOUS
 10
-72.426192
 20
-73.109977
 11
-37.596497
 21
-73.109977
  0
LINE
  8
型材断面
  6
CONTINUOUS
 10
-72.896192
 20
-72.703953
 11
-37.596497
 21
-72.703953
  0
LINE
  8
型材断面
  6
CONTINUOUS
 10
-72.596497
 20
-69.937453
 11
-37.596497
 21
-69.937453
  0
LINE
  8
型材断面
  6
CONTINUOUS
 10
-70.92983
 20
-68.70412
 11
-37.596497
 21
-68.70412
  0
LINE
  8
型材断面
  6
CONTINUOUS
 10
-72.596497
 20
-69.437453
 11
-37.596497
 21
-69.437453
  0
LINE
  8
型材断面
  6
CONTINUOUS
 10
-72.426192
 20
-70.42062
 11
-37.596497
 21
-70.42062
  0
LINE
  8
型材断面
  6
CONTINUOUS
 10
-72.896192
 20
-70.87062
 11
-37.596497
 21
-70.87062
  0
LINE
  8
型材断面
  6
CONTINUOUS
 10
-4.263165
 20
40.203325
 11
-4.263165
 21
60.203325
  0
LINE
  8
型材断面
  6
CONTINUOUS
 10
-2.296803
 20
38.236962
 11
-2.296803
 21
62.169687
  0
LINE
  8
型材断面
  6
CONTINUOUS
 10
-1.98347
 20
37.92363
 11
-1.98347
 21
62.48302
  0
LINE
  8
型材断面
  6
CONTINUOUS
 10
-2.596497
 20
38.536658
 11
-2.596497
 21
61.869993
  0
LINE
  8
型材断面
  6
CONTINUOUS
 10
-5.096497
 20
41.036658
 11
-1.98347
 21
37.92363
  0
LINE
  8
型材断面
  6
CONTINUOUS
 10
-5.096497
 20
59.369993
 11
-1.98347
 21
62.48302
  0
LINE
  8
型材断面
  6
CONTINUOUS
 10
-5.096497
 20
50.619993
 11
-4.263165
 21
50.619993
  0
LINE
  8
型材断面
  6
CONTINUOUS
 10
-5.096497
 20
49.786658
 11
-4.263165
 21
49.786658
  0
LINE
  8
型材断面
  6
CONTINUOUS
 10
-5.096497
 20
41.036658
 11
-5.096497
 21
49.786658
  0
LINE
  8
型材断面
  6
CONTINUOUS
 10
-5.096497
 20
50.619993
 11
-5.096497
 21
59.369993
  0
LINE
  8
型材断面
  6
CONTINUOUS
 10
-70.92983
 20
40.203325
 11
-70.92983
 21
60.203325
  0
LINE
  8
型材断面
  6
CONTINUOUS
 10
-72.896192
 20
38.236962
 11
-72.896192
 21
62.169687
  0
LINE
  8
型材断面
  6
CONTINUOUS
 10
-73.209525
 20
37.92363
 11
-73.209525
 21
62.48302
  0
LINE
  8
型材断面
  6
CONTINUOUS
 10
-72.596497
 20
38.536658
 11
-72.596497
 21
61.869993
  0
LINE
  8
型材断面
  6
CONTINUOUS
 10
-70.096497
 20
59.369993
 11
-73.209525
 21
62.48302
  0
LINE
  8
型材断面
  6
CONTINUOUS
 10
-70.096497
 20
41.036658
 11
-73.209525
 21
37.92363
  0
LINE
  8
型材断面
  6
CONTINUOUS
 10
-70.096497
 20
49.786658
 11
-70.92983
 21
49.786658
  0
LINE
  8
型材断面
  6
CONTINUOUS
 10
-70.096497
 20
50.619993
 11
-70.92983
 21
50.619993
  0
LINE
  8
型材断面
  6
CONTINUOUS
 10
-70.096497
 20
41.036658
 11
-70.096497
 21
49.786658
  0
LINE
  8
型材断面
  6
CONTINUOUS
 10
-70.096497
 20
50.619993
 11
-70.096497
 21
59.369993
  0
LINE
  8
型材断面
  6
CONTINUOUS
 10
-4.263165
 20
40.203325
 11
-70.92983
 21
40.203325
  0
LINE
  8
型材断面
  6
CONTINUOUS
 10
-2.296803
 20
38.236962
 11
-72.896192
 21
38.236962
  0
LINE
  8
型材断面
  6
CONTINUOUS
 10
-1.98347
 20
37.92363
 11
-73.209525
 21
37.92363
  0
LINE
  8
型材断面
  6
CONTINUOUS
 10
-2.596497
 20
38.536658
 11
-72.596497
 21
38.536658
  0
LINE
  8
型材断面
  6
CONTINUOUS
 10
-4.263165
 20
60.203325
 11
-70.92983
 21
60.203325
  0
LINE
  8
型材断面
  6
CONTINUOUS
 10
-2.296803
 20
62.169687
 11
-72.896192
 21
62.169687
  0
LINE
  8
型材断面
  6
CONTINUOUS
 10
-1.98347
 20
62.48302
 11
-73.209525
 21
62.48302
  0
LINE
  8
型材断面
  6
CONTINUOUS
 10
-2.596497
 20
61.869993
 11
-72.596497
 21
61.869993
  0
LINE
  8
型材断面
  6
CONTINUOUS
 10
162.97617
 20
61.869993
 11
162.97617
 21
61.819993
  0
LINE
  8
型材断面
  6
CONTINUOUS
 10
162.47617
 20
60.203325
 11
161.742835
 21
60.203325
  0
LINE
  8
型材断面
  6
CONTINUOUS
 62
    47
 10
169.709335
 20
61.60302
 11
169.709335
 21
61.55302
  0
LINE
  8
型材断面
  6
CONTINUOUS
 62
    47
 10
169.709335
 20
61.60302
 11
169.209335
 21
61.60302
  0
LINE
  8
型材断面
  6
CONTINUOUS
 10
163.459335
 20
60.25302
 11
163.459335
 21
61.699688
  0
LINE
  8
型材断面
  6
CONTINUOUS
 10
163.909335
 20
61.699688
 11
163.459335
 21
61.699688
  0
LINE
  8
型材断面
  6
CONTINUOUS
 62
    47
 10
166.582028
 20
62.43302
 11
166.582028
 21
62.48302
  0
LINE
  8
型材断面
  6
CONTINUOUS
 62
    47
 10
166.582028
 20
62.48302
 11
166.248695
 21
62.48302
  0
LINE
  8
型材断面
  6
CONTINUOUS
 62
    47
 10
166.248695
 20
62.48302
 11
166.148695
 21
61.699688
  0
LINE
  8
型材断面
  6
CONTINUOUS
 62
    47
 10
165.74267
 20
61.699688
 11
166.148695
 21
61.699688
  0
LINE
  8
型材断面
  6
CONTINUOUS
 62
    47
 10
165.74267
 20
62.169687
 11
163.909335
 21
62.169687
  0
LINE
  8
型材断面
  6
CONTINUOUS
 10
162.97617
 20
61.869993
 11
162.47617
 21
61.869993
  0
LINE
  8
型材断面
  6
CONTINUOUS
 10
163.459335
 20
60.25302
 11
162.97617
 21
60.25302
  0
LINE
  8
型材断面
  6
CONTINUOUS
 62
    47
 10
169.209335
 20
62.169687
 11
166.582028
 21
62.169687
  0
INSERT
  2
*GRP_0006
  8
型材断面
  6
DOT
 10
0.0
 20
0.0
  0
INSERT
  2
*GRP_0007
  8
型材断面
  6
DOT
 10
0.0
 20
0.0
  0
LINE
  8
型材断面
  6
CONTINUOUS
 10
169.209335
 20
62.169687
 11
169.209335
 21
50.203325
  0
LINE
  8
型材断面
  6
CONTINUOUS
 10
169.709335
 20
61.60302
 11
169.709335
 21
50.203325
  0
LINE
  8
型材断面
  6
CONTINUOUS
 10
166.582028
 20
62.48302
 11
166.582028
 21
50.203325
  0
LINE
  8
型材断面
  6
CONTINUOUS
 10
166.248695
 20
62.48302
 11
166.248695
 21
50.203325
  0
LINE
  8
型材断面
  6
CONTINUOUS
 10
166.148695
 20
61.699688
 11
166.148695
 21
50.203325
  0
LINE
  8
型材断面
  6
CONTINUOUS
 10
165.74267
 20
62.169687
 11
165.74267
 21
50.203325
  0
LINE
  8
型材断面
  6
CONTINUOUS
 10
162.97617
 20
61.869993
 11
162.97617
 21
50.203325
  0
LINE
  8
型材断面
  6
CONTINUOUS
 10
161.742835
 20
60.203325
 11
161.742835
 21
50.203325
  0
LINE
  8
型材断面
  6
CONTINUOUS
 10
162.47617
 20
61.869993
 11
162.47617
 21
50.203325
  0
LINE
  8
型材断面
  6
CONTINUOUS
 10
163.459335
 20
61.699688
 11
163.459335
 21
50.203325
  0
LINE
  8
型材断面
  6
CONTINUOUS
 10
163.909335
 20
62.169687
 11
163.909335
 21
50.203325
  0
LINE
  8
型材断面
  6
CONTINUOUS
 10
162.97617
 20
38.53666
 11
162.97617
 21
38.58666
  0
LINE
  8
型材断面
  6
CONTINUOUS
 10
162.47617
 20
40.203325
 11
161.742835
 21
40.203325
  0
LINE
  8
型材断面
  6
CONTINUOUS
 62
    47
 10
169.709335
 20
38.80363
 11
169.709335
 21
38.85363
  0
LINE
  8
型材断面
  6
CONTINUOUS
 62
    47
 10
169.709335
 20
38.80363
 11
169.209335
 21
38.80363
  0
LINE
  8
型材断面
  6
CONTINUOUS
 10
163.459335
 20
40.15363
 11
163.459335
 21
38.706965
  0
LINE
  8
型材断面
  6
CONTINUOUS
 10
163.909335
 20
38.706965
 11
163.459335
 21
38.706965
  0
LINE
  8
型材断面
  6
CONTINUOUS
 62
    47
 10
166.582028
 20
37.97363
 11
166.582028
 21
37.92363
  0
LINE
  8
型材断面
  6
CONTINUOUS
 62
    47
 10
166.582028
 20
37.92363
 11
166.248695
 21
37.92363
  0
LINE
  8
型材断面
  6
CONTINUOUS
 62
    47
 10
166.248695
 20
37.92363
 11
166.148695
 21
38.706965
  0
LINE
  8
型材断面
  6
CONTINUOUS
 62
    47
 10
165.74267
 20
38.706965
 11
166.148695
 21
38.706965
  0
LINE
  8
型材断面
  6
CONTINUOUS
 62
    47
 10
165.74267
 20
38.236965
 11
163.909335
 21
38.236965
  0
LINE
  8
型材断面
  6
CONTINUOUS
 10
162.97617
 20
38.53666
 11
162.47617
 21
38.53666
  0
LINE
  8
型材断面
  6
CONTINUOUS
 10
163.459335
 20
40.15363
 11
162.97617
 21
40.15363
  0
LINE
  8
型材断面
  6
CONTINUOUS
 62
    47
 10
169.209335
 20
38.236965
 11
166.582028
 21
38.236965
  0
INSERT
  2
*GRP_0008
  8
型材断面
  6
DOT
 10
0.0
 20
0.0
  0
INSERT
  2
*GRP_0009
  8
型材断面
  6
DOT
 10
0.0
 20
0.0
  0
LINE
  8
型材断面
  6
CONTINUOUS
 10
169.209335
 20
38.236965
 11
169.209335
 21
50.203325
  0
LINE
  8
型材断面
  6
CONTINUOUS
 10
169.709335
 20
38.80363
 11
169.709335
 21
50.203325
  0
LINE
  8
型材断面
  6
CONTINUOUS
 10
166.582028
 20
37.92363
 11
166.582028
 21
50.203325
  0
LINE
  8
型材断面
  6
CONTINUOUS
 10
166.248695
 20
37.92363
 11
166.248695
 21
50.203325
  0
LINE
  8
型材断面
  6
CONTINUOUS
 10
166.148695
 20
38.706965
 11
166.148695
 21
50.203325
  0
LINE
  8
型材断面
  6
CONTINUOUS
 10
165.74267
 20
38.236965
 11
165.74267
 21
50.203325
  0
LINE
  8
型材断面
  6
CONTINUOUS
 10
162.97617
 20
38.53666
 11
162.97617
 21
50.203325
  0
LINE
  8
型材断面
  6
CONTINUOUS
 10
161.742835
 20
40.203325
 11
161.742835
 21
50.203325
  0
LINE
  8
型材断面
  6
CONTINUOUS
 10
162.47617
 20
38.53666
 11
162.47617
 21
50.203325
  0
LINE
  8
型材断面
  6
CONTINUOUS
 10
163.459335
 20
38.706965
 11
163.459335
 21
50.203325
  0
LINE
  8
型材断面
  6
CONTINUOUS
 10
163.909335
 20
38.236965
 11
163.909335
 21
50.203325
  0
LINE
  8
型材断面
  6
DASHDOT
 10
172.29227
 20
40.203325
 11
-4.263165
 21
40.203325
  0
LINE
  8
型材断面
  6
DASHDOT
 10
172.29227
 20
60.203325
 11
-4.263165
 21
60.203325
  0
LINE
  8
型材断面
  6
DASHDOT
 10
172.29227
 20
50.203325
 11
-70.92983
 21
50.203325
  0
LINE
  8
型材断面
  6
DASHDOT
 10
-37.596497
 20
-79.253555
 11
-37.596497
 21
60.203325
  0
LINE
  8
型材断面
  6
DASHDOT
 10
-70.92983
 20
-79.253555
 11
-70.92983
 21
40.203325
  0
LINE
  8
型材断面
  6
DASHDOT
 10
-4.263165
 20
-79.253555
 11
-4.263165
 21
40.203325
  0
LINE
  8
型材断面
  6
CONTINUOUS
 10
-36.346497
 20
41.86999
 11
-38.846497
 21
41.86999
  0
LINE
  8
型材断面
  6
CONTINUOUS
 10
-36.346497
 20
58.53666
 11
-38.846497
 21
58.53666
  0
LINE
  8
型材断面
  6
CONTINUOUS
 10
-36.346497
 20
41.86999
 11
-36.346497
 21
58.53666
  0
LINE
  8
型材断面
  6
CONTINUOUS
 10
-37.346497
 20
41.86999
 11
-37.346497
 21
58.53666
  0
LINE
  8
型材断面
  6
CONTINUOUS
 10
-37.846497
 20
41.86999
 11
-37.846497
 21
58.53666
  0
LINE
  8
型材断面
  6
CONTINUOUS
 10
-38.846497
 20
41.86999
 11
-38.846497
 21
58.53666
  0
POLYLINE
  8
型材断面
  6
CONTINUOUS
 66
     1
 70
     1
  0
VERTEX
  8
型材断面
 10
13.709952
 20
-94.850355
  0
VERTEX
  8
型材断面
 10
-34.968722
 20
-94.850355
  0
VERTEX
  8
型材断面
 10
-34.968722
 20
-111.19502
  0
VERTEX
  8
型材断面
 10
13.709952
 20
-111.19502
  0
SEQEND
  0
POLYLINE
  8
型材断面
  6
CONTINUOUS
 66
     1
 70
     1
  0
VERTEX
  8
型材断面
 10
-28.74345
 20
30.427403
  0
VERTEX
  8
型材断面
 10
-47.51538
 20
30.427403
  0
VERTEX
  8
型材断面
 10
-47.51538
 20
25.69056
  0
VERTEX
  8
型材断面
 10
-28.74345
 20
25.69056
  0
SEQEND
  0
POLYLINE
  8
型材断面
  6
CONTINUOUS
 66
     1
 70
     1
  0
VERTEX
  8
型材断面
 10
-28.74345
 20
69.979248
  0
VERTEX
  8
型材断面
 10
-47.51538
 20
69.979248
  0
VERTEX
  8
型材断面
 10
-47.51538
 20
74.71609
  0
VERTEX
  8
型材断面
 10
-28.74345
 20
74.71609
  0
SEQEND
  0
LINE
  8
型材断面
  6
CONTINUOUS
 10
-54.263165
 20
62.833455
 11
-55.758795
 21
65.423963
  0
LINE
  8
型材断面
  6
CONTINUOUS
 10
-54.263165
 20
62.833455
 11
-52.767535
 21
65.423963
  0
LINE
  8
型材断面
  6
CONTINUOUS
 10
-52.767535
 20
65.423963
 11
-55.758795
 21
65.423963
  0
LINE
  8
型材断面
  6
CONTINUOUS
 10
-111.78204
 20
98.180797
 11
-111.185985
 21
95.59029
  0
LINE
  8
型材断面
  6
CONTINUOUS
 10
-111.78204
 20
98.180797
 11
-112.378097
 21
95.59029
  0
LINE
  8
型材断面
  6
CONTINUOUS
 10
-112.378097
 20
95.59029
 11
-111.185985
 21
95.59029
  0
LINE
  8
型材断面
  6
CONTINUOUS
 10
-117.804627
 20
92.311398
 11
-71.56285
 21
92.311398
  0
LINE
  8
型材断面
  6
CONTINUOUS
 10
-111.78204
 20
104.710672
 11
-113.27767
 21
102.120165
  0
LINE
  8
型材断面
  6
CONTINUOUS
 10
-111.78204
 20
104.710672
 11
-110.28641
 21
102.120165
  0
LINE
  8
型材断面
  6
CONTINUOUS
 10
-110.28641
 20
102.120165
 11
-113.27767
 21
102.120165
  0
LINE
  8
型材断面
  6
CONTINUOUS
 10
-117.804627
 20
101.18157
 11
-71.56285
 21
101.18157
  0
LINE
  8
型材断面
  6
CONTINUOUS
 10
-117.804627
 20
86.523365
 11
-71.56285
 21
86.523365
  0
LINE
  8
型材断面
  6
CONTINUOUS
 10
-73.559962
 20
50.203325
 11
-76.15047
 21
51.698955
  0
LINE
  8
型材断面
  6
CONTINUOUS
 10
-73.559962
 20
50.203325
 11
-76.15047
 21
48.707695
  0
LINE
  8
型材断面
  6
CONTINUOUS
 10
-76.15047
 20
48.707695
 11
-76.15047
 21
51.698955
  0
LINE
  8
型材断面
  6
CONTINUOUS
 10
-54.263165
 20
37.573195
 11
-55.758795
 21
34.982688
  0
LINE
  8
型材断面
  6
CONTINUOUS
 10
-54.263165
 20
37.573195
 11
-52.767535
 21
34.982688
  0
LINE
  8
型材断面
  6
CONTINUOUS
 10
-52.767535
 20
34.982688
 11
-55.758795
 21
34.982688
  0
LINE
  8
型材断面
  6
CONTINUOUS
 10
-20.92983
 20
62.833455
 11
-19.4342
 21
65.423963
  0
LINE
  8
型材断面
  6
CONTINUOUS
 10
-20.92983
 20
62.833455
 11
-22.42546
 21
65.423963
  0
LINE
  8
型材断面
  6
CONTINUOUS
 10
-22.42546
 20
65.423963
 11
-19.4342
 21
65.423963
  0
LINE
  8
型材断面
  6
CONTINUOUS
 10
-1.633032
 20
50.203325
 11
0.957475
 21
51.698955
  0
LINE
  8
型材断面
  6
CONTINUOUS
 10
-1.633032
 20
50.203325
 11
0.957475
 21
48.707695
  0
LINE
  8
型材断面
  6
CONTINUOUS
 10
0.957475
 20
48.707695
 11
0.957475
 21
51.698955
  0
LINE
  8
型材断面
  6
CONTINUOUS
 10
-20.92983
 20
37.573195
 11
-19.4342
 21
34.982688
  0
LINE
  8
型材断面
  6
CONTINUOUS
 10
-20.92983
 20
37.573195
 11
-22.42546
 21
34.982688
  0
LINE
  8
型材断面
  6
CONTINUOUS
 10
-22.42546
 20
34.982688
 11
-19.4342
 21
34.982688
  0
LINE
  8
型材断面
  6
CONTINUOUS
 10
-1.633037
 20
56.303325
 11
0.95747
 21
55.707267
  0
LINE
  8
型材断面
  6
CONTINUOUS
 10
-1.633037
 20
56.303325
 11
0.95747
 21
56.899382
  0
LINE
  8
型材断面
  6
CONTINUOUS
 10
0.95747
 20
56.899382
 11
0.95747
 21
55.707267
  0
LINE
  8
型材断面
  6
CONTINUOUS
 10
-1.633037
 20
44.103325
 11
0.95747
 21
44.699382
  0
LINE
  8
型材断面
  6
CONTINUOUS
 10
-1.633037
 20
44.103325
 11
0.95747
 21
43.507267
  0
LINE
  8
型材断面
  6
CONTINUOUS
 10
0.95747
 20
43.507267
 11
0.95747
 21
44.699382
  0
LINE
  8
型材断面
  6
CONTINUOUS
 10
-73.559958
 20
56.303325
 11
-76.150465
 21
55.707267
  0
LINE
  8
型材断面
  6
CONTINUOUS
 10
-73.559958
 20
56.303325
 11
-76.150465
 21
56.899382
  0
LINE
  8
型材断面
  6
CONTINUOUS
 10
-76.150465
 20
56.899382
 11
-76.150465
 21
55.707267
  0
LINE
  8
型材断面
  6
CONTINUOUS
 10
-73.559958
 20
44.103325
 11
-76.150465
 21
44.699382
  0
LINE
  8
型材断面
  6
CONTINUOUS
 10
-73.559958
 20
44.103325
 11
-76.150465
 21
43.507267
  0
LINE
  8
型材断面
  6
CONTINUOUS
 10
-76.150465
 20
43.507267
 11
-76.150465
 21
44.699382
  0
LINE
  8
型材断面
  6
CONTINUOUS
 10
-117.804627
 20
80.735332
 11
-71.56285
 21
80.735332
  0
LINE
  8
型材断面
  6
CONTINUOUS
 10
-20.513163
 20
41.036658
 11
-20.513163
 21
40.203325
  0
LINE
  8
型材断面
  6
CONTINUOUS
 10
-21.346497
 20
41.036658
 11
-21.346497
 21
40.203325
  0
LINE
  8
型材断面
  6
CONTINUOUS
 10
-20.513163
 20
41.036658
 11
-5.096497
 21
41.036658
  0
LINE
  8
型材断面
  6
CONTINUOUS
 10
-54.679832
 20
41.036658
 11
-54.679832
 21
40.203325
  0
LINE
  8
型材断面
  6
CONTINUOUS
 10
-53.846497
 20
41.036658
 11
-53.846497
 21
40.203325
  0
LINE
  8
型材断面
  6
CONTINUOUS
 10
-54.679832
 20
41.036658
 11
-70.096497
 21
41.036658
  0
LINE
  8
型材断面
  6
CONTINUOUS
 10
-21.346497
 20
41.036658
 11
-53.846497
 21
41.036658
  0
LINE
  8
型材断面
  6
CONTINUOUS
 10
-20.513163
 20
59.369993
 11
-20.513163
 21
60.203325
  0
LINE
  8
型材断面
  6
CONTINUOUS
 10
-21.346497
 20
59.369993
 11
-21.346497
 21
60.203325
  0
LINE
  8
型材断面
  6
CONTINUOUS
 10
-20.513163
 20
59.369993
 11
-5.096497
 21
59.369993
  0
LINE
  8
型材断面
  6
CONTINUOUS
 10
-54.679832
 20
59.369993
 11
-54.679832
 21
60.203325
  0
LINE
  8
型材断面
  6
CONTINUOUS
 10
-53.846497
 20
59.369993
 11
-53.846497
 21
60.203325
  0
LINE
  8
型材断面
  6
CONTINUOUS
 10
-54.679832
 20
59.369993
 11
-70.096497
 21
59.369993
  0
LINE
  8
型材断面
  6
CONTINUOUS
 10
-21.346497
 20
59.369993
 11
-53.846497
 21
59.369993
  0
INSERT
  2
*GRP_0021
  8
型材断面
  6
DOT
 10
0.0
 20
0.0
  0
LINE
  8
型材断面
  6
CONTINUOUS
 10
139.300163
 20
-38.350598
 11
118.442728
 21
-38.350598
  0
POLYLINE
  8
ガラス
  6
CONTINUOUS
 66
     1
 70
     1
  0
VERTEX
  8
ガラス
 10
154.115252
 20
-57.523035
  0
VERTEX
  8
ガラス
 10
121.788585
 20
-57.523035
  0
VERTEX
  8
ガラス
 10
121.788585
 20
-76.85637
  0
VERTEX
  8
ガラス
 10
154.115252
 20
-76.85637
  0
SEQEND
  0
TEXT
  7
TextStyle03
  8
文字
  6
CONTINUOUS
 10
78.1
 20
125.25
  1
シリーズ：ＳＴＤＬ
 40
5.0
 72
     5
 11
128.1
 21
125.25
  0
TEXT
  7
TextStyle03
  8
文字
  6
CONTINUOUS
 10
78.1
 20
119.625
  1
　　　　　（上下可動）600×2000タイプ
 40
5.0
 72
     5
 11
181.5375
 21
119.625
  0
TEXT
  7
TextStyle03
  8
文字
  6
CONTINUOUS
 10
78.1
 20
114.0
  1
図面名　：外観姿図
 40
5.0
 72
     5
 11
128.1
 21
114.0
  0
TEXT
  7
TextStyle03
  8
文字
  6
CONTINUOUS
 10
78.1
 20
108.375
  1
　　　　　　
 40
5.0
 72
     5
 11
111.225
 21
108.375
  0
TEXT
  7
TextStyle03
  8
文字
  6
CONTINUOUS
 10
-30.65
 20
-100.575
  1
※トップライト枠高さ寸法
 40
3.0
 72
     5
 11
9.475
 21
-100.575
  0
TEXT
  7
TextStyle03
  8
文字
  6
CONTINUOUS
 10
-30.65
 20
-103.95
  1
　シングルガラス：214
 40
3.0
 72
     5
 11
4.6
 21
-103.95
  0
TEXT
  7
TextStyle03
  8
文字
  6
CONTINUOUS
 10
-30.65
 20
-107.325
  1
　ペアガラス：224
 40
3.0
 72
     5
 11
-2.15
 21
-107.325
  0
TEXT
  7
TextStyle03
  8
文字
  6
CONTINUOUS
 10
-46.55
 20
26.7
  1
可動装置側
 40
3.0
 72
     5
 11
-30.05
 21
26.7
  0
TEXT
  7
TextStyle03
  8
文字
  6
CONTINUOUS
 10
-46.55
 20
70.675
  1
可動装置側
 40
3.0
 72
     5
 11
-30.05
 21
70.675
  0
TEXT
  7
TextStyle03
  8
文字
  6
CONTINUOUS
 10
-109.0
 20
96.8
  1
はケーシング位置を示す
 40
3.0
 72
     5
 11
-72.25
 21
96.8
  0
TEXT
  7
TextStyle03
  8
文字
  6
CONTINUOUS
 10
-109.0
 20
93.425
  1
４ヶ所中1ヶ所に設定
 40
3.0
 72
     5
 11
-77.3125
 21
93.425
  0
TEXT
  7
TextStyle03
  8
文字
  6
CONTINUOUS
 10
-109.0
 20
102.325
  1
は排水穴位置を示す
 40
3.0
 72
     5
 11
-79.0
 21
102.325
  0
TEXT
  7
TextStyle03
  8
文字
  6
CONTINUOUS
 10
-91.95
 20
28.65
  1
アンカーピッチ
 40
3.0
 50
90.0
 72
     5
 11
-91.95
 21
51.9
  0
TEXT
  7
TextStyle03
  8
文字
  6
CONTINUOUS
 10
-63.475
 20
97.05
  1
アンカーピッチ
 40
3.0
 72
     5
 11
-40.225
 21
97.05
  0
TEXT
  7
TextStyle03
  8
文字
  6
CONTINUOUS
 10
-112.725
 20
87.45
  1
アンカー数量　１０ヶ所
 40
3.0
 72
     5
 11
-75.975
 21
87.45
  0
TEXT
  7
TextStyle03
  8
文字
  6
CONTINUOUS
 10
-112.8
 20
81.675
  1
アームユニット数　２ヶ所
 40
3.0
 72
     5
 11
-72.675
 21
81.675
  0
TEXT
  7
TextStyle03
  8
文字
  6
CONTINUOUS
 10
119.9
 20
-37.5
  1
ガラス寸法
 40
3.0
 72
     5
 11
136.4
 21
-37.5
  0
TEXT
  7
TextStyle03
  8
文字
  6
CONTINUOUS
 10
141.775
 20
-74.025
  1
×２枚
 40
3.0
 72
     5
 11
151.525
 21
-74.025
  0
INSERT
  2
*DIM_0010
  8
寸法
  6
CONTINUOUS
 10
0.0
 20
0.0
  0
INSERT
  2
*DIM_0011
  8
寸法
  6
CONTINUOUS
 10
0.0
 20
0.0
  0
INSERT
  2
*DIM_0012
  8
寸法
  6
CONTINUOUS
 10
0.0
 20
0.0
  0
INSERT
  2
*DIM_0013
  8
寸法
  6
CONTINUOUS
 10
0.0
 20
0.0
  0
INSERT
  2
*DIM_0014
  8
寸法
  6
CONTINUOUS
 10
0.0
 20
0.0
  0
INSERT
  2
*DIM_0015
  8
寸法
  6
CONTINUOUS
 10
0.0
 20
0.0
  0
INSERT
  2
*DIM_0016
  8
寸法
  6
CONTINUOUS
 10
0.0
 20
0.0
  0
INSERT
  2
*DIM_0017
  8
寸法
  6
CONTINUOUS
 10
0.0
 20
0.0
  0
INSERT
  2
*DIM_0018
  8
寸法
  6
CONTINUOUS
 10
0.0
 20
0.0
  0
INSERT
  2
*DIM_0019
  8
寸法
  6
CONTINUOUS
 10
0.0
 20
0.0
  0
INSERT
  2
*DIM_0020
  8
寸法
  6
CONTINUOUS
 10
0.0
 20
0.0
  0
INSERT
  2
*DIM_0026
  8
寸法
  6
CONTINUOUS
 10
0.0
 20
0.0
  0
INSERT
  2
*DIM_0027
  8
寸法
  6
CONTINUOUS
 10
0.0
 20
0.0
  0
INSERT
  2
*DIM_0028
  8
寸法
  6
CONTINUOUS
 10
0.0
 20
0.0
  0
INSERT
  2
*DIM_0029
  8
寸法
  6
CONTINUOUS
 10
0.0
 20
0.0
  0
INSERT
  2
*DIM_0030
  8
寸法
  6
CONTINUOUS
 10
0.0
 20
0.0
  0
INSERT
  2
*DIM_0031
  8
寸法
  6
CONTINUOUS
 10
0.0
 20
0.0
  0
LINE
  8
曲げ物
  6
CONTINUOUS
 10
-18.50085
 20
52.128875
 11
-22.196162
 21
48.433562
  0
LINE
  8
曲げ物
  6
CONTINUOUS
 10
-19.20432
 20
50.592765
 11
-20.66005
 21
49.137035
  0
LINE
  8
曲げ物
  6
CONTINUOUS
 10
-20.03696
 20
51.425405
 11
-21.49269
 21
49.969675
  0
LINE
  8
曲げ物
  6
CONTINUOUS
 10
-51.85287
 20
52.128875
 11
-55.548182
 21
48.433562
  0
LINE
  8
曲げ物
  6
CONTINUOUS
 10
-52.55634
 20
50.592765
 11
-54.01207
 21
49.137035
  0
LINE
  8
曲げ物
  6
CONTINUOUS
 10
-53.38898
 20
51.425405
 11
-54.84471
 21
49.969675
  0
ENDSEC
  0
EOF
