  0
SECTION
  2
HEADER
  9
$EXTMIN
 10
-210.0
 20
-148.5
  9
$EXTMAX
 10
210.0
 20
148.5
  9
$PDMODE
 70
    32
  9
$PDSIZE
 40
1.5
  9
$LTSCALE
 40
10.0
  0
ENDSEC
  0
SECTION
  2
TABLES
  0
TABLE
  2
LTYPE
 70
    15
  0
LTYPE
  2
CONTINUOUS
 70
    64
  3
実線
 72
    65
 73
     0
 40
0.0
  0
LTYPE
  2
DASHED
 70
    64
  3
破線A
 72
    65
 73
     2
 40
0.6
 49
0.4
 49
-0.2
  0
LTYPE
  2
DASHEDX2
 70
    64
  3
破線B
 72
    65
 73
     2
 40
1.3
 49
0.9
 49
-0.4
  0
LTYPE
  2
DASHDOT
 70
    64
  3
１点鎖線A
 72
    65
 73
     4
 40
0.5375
 49
0.375
 49
-0.05
 49
0.0625
 49
-0.05
  0
LTYPE
  2
DASHDOTX2
 70
    64
  3
１点鎖線B
 72
    65
 73
     4
 40
1.075
 49
0.75
 49
-0.1
 49
0.125
 49
-0.1
  0
LTYPE
  2
DIVIDE2
 70
    64
  3
２点鎖線A
 72
    65
 73
     6
 40
0.5125
 49
0.3
 49
-0.0375
 49
0.05
 49
-0.0375
 49
0.05
 49
-0.0375
  0
LTYPE
  2
DIVIDE
 70
    64
  3
２点鎖線B
 72
    65
 73
     6
 40
1.05
 49
0.55
 49
-0.1
 49
0.1
 49
-0.1
 49
0.1
 49
-0.1
  0
LTYPE
  2
DOT
 70
    64
  3
点線A
 72
    65
 73
     2
 40
0.1125
 49
0.0625
 49
-0.05
  0
LTYPE
  2
DOTX2
 70
    64
  3
点線B
 72
    65
 73
     2
 40
0.275
 49
0.15
 49
-0.125
  0
LTYPE
  2
CONTINUOUS
 70
    64
  3
実線
 72
    65
 73
     0
 40
0.0
  0
LTYPE
  2
CONTINUOUS
 70
    64
  3
実線
 72
    65
 73
     0
 40
0.0
  0
LTYPE
  2
CONTINUOUS
 70
    64
  3
実線
 72
    65
 73
     0
 40
0.0
  0
LTYPE
  2
CONTINUOUS
 70
    64
  3
実線
 72
    65
 73
     0
 40
0.0
  0
LTYPE
  2
CONTINUOUS
 70
    64
  3
実線
 72
    65
 73
     0
 40
0.0
  0
LTYPE
  2
CONTINUOUS
 70
    64
  3
実線
 72
    65
 73
     0
 40
0.0
  0
ENDTAB
  0
TABLE
  2
LAYER
 70
    34
  0
LAYER
  2
通り芯
 70
     0
 62
    15
  6
CONTINUOUS
  0
LAYER
  2
補助線
 70
     0
 62
    16
  6
DOT
  0
LAYER
  2
躯体
 70
     0
 62
    31
  6
CONTINUOUS
  0
LAYER
  2
型材
 70
     0
 62
    32
  6
CONTINUOUS
  0
LAYER
  2
型材断面
 70
     0
 62
    47
  6
CONTINUOUS
  0
LAYER
  2
ガラス
 70
     0
 62
    48
  6
CONTINUOUS
  0
LAYER
  2
ゴム等
 70
     0
 62
    63
  6
CONTINUOUS
  0
LAYER
  2
ボルト／ビス
 70
     0
 62
    64
  6
CONTINUOUS
  0
LAYER
  2
文字
 70
     0
 62
    79
  6
CONTINUOUS
  0
LAYER
  2
寸法
 70
     0
 62
    80
  6
CONTINUOUS
  0
LAYER
  2
ﾊｯﾁﾝｸﾞ
 70
     0
 62
    95
  6
CONTINUOUS
  0
LAYER
  2
別途部材
 70
     0
 62
    96
  6
CONTINUOUS
  0
LAYER
  2
曲げ物
 70
     0
 62
   111
  6
CONTINUOUS
  0
LAYER
  2
鉄骨等
 70
     0
 62
   112
  6
CONTINUOUS
  0
LAYER
  2
St
 70
     0
 62
   127
  6
CONTINUOUS
  0
LAYER
  2
その他部品等
 70
     0
 62
   128
  6
CONTINUOUS
  0
LAYER
  2
ｶﾞｽｹｯﾄ
 70
     0
 62
   143
  6
CONTINUOUS
  0
LAYER
  2
ｽｹｯﾁ
 70
     0
 62
    14
  6
CONTINUOUS
  0
LAYER
  2
0
 70
     0
 62
    17
  6
CONTINUOUS
  0
LAYER
  2
1
 70
     0
 62
    30
  6
CONTINUOUS
  0
LAYER
  2
4
 70
     0
 62
    33
  6
CONTINUOUS
  0
LAYER
  2
ﾚｲﾔ3
 70
     0
 62
    46
  6
CONTINUOUS
  0
LAYER
  2
外形線
 70
     0
 62
    49
  6
CONTINUOUS
  0
LAYER
  2
部品
 70
     0
 62
    14
  6
CONTINUOUS
  0
LAYER
  2
サッシ芯
 70
     0
 62
    17
  6
DASHDOTX2
  0
LAYER
  2
寸法線
 70
     0
 62
    62
  6
CONTINUOUS
  0
LAYER
  2
姿図外形線
 70
     0
 62
    65
  6
CONTINUOUS
  0
LAYER
  2
姿補助線
 70
     0
 62
    30
  6
CONTINUOUS
  0
LAYER
  2
透視線
 70
     0
 62
    78
  6
DOT
  0
LAYER
  2
用紙
 70
     0
 62
    81
  6
CONTINUOUS
  0
LAYER
  2
実線図枠
 70
     0
 62
    94
  6
CONTINUOUS
  0
LAYER
  2
補助図枠
 70
     0
 62
    97
  6
CONTINUOUS
  0
LAYER
  2
建具記号
 70
     0
 62
   110
  6
CONTINUOUS
  0
LAYER
  2
補助文字
 70
     0
 62
   113
  6
CONTINUOUS
  0
ENDTAB
  0
TABLE
  2
STYLE
 70
    10
  0
STYLE
  2
STANDARD
 70
     0
 40
1.0
 41
1.0
 42
1.0
 50
0.0
 71
     0
  3
TXT
  4
BIGFONT
  0
STYLE
  2
TATE
 70
     4
 40
1.0
 41
1.0
 42
1.0
 50
0.0
 71
     0
  3
TXT
  4
BIGFONT
  0
STYLE
  2
TextStyle03
 70
     0
 40
1.0
 41
1.0
 42
1.0
 50
0.0
 71
     0
  3
MONOTXT
  4
BIGFONT
  0
STYLE
  2
TextStyle04
 70
     0
 40
1.0
 41
1.0
 42
1.0
 50
0.0
 71
     0
  3
MONOTXT
  4
BIGFONT
  0
STYLE
  2
TextStyle05
 70
     0
 40
1.0
 41
1.0
 42
1.0
 50
0.0
 71
     0
  3
MONOTXT
  4
BIGFONT
  0
STYLE
  2
TextStyle06
 70
     0
 40
1.0
 41
1.0
 42
1.0
 50
0.0
 71
     0
  3
MONOTXT
  4
BIGFONT
  0
STYLE
  2
TextStyle07
 70
     0
 40
1.0
 41
1.0
 42
1.0
 50
0.0
 71
     0
  3
MONOTXT
  4
BIGFONT
  0
STYLE
  2
TextStyle08
 70
     0
 40
1.0
 41
1.0
 42
1.0
 50
0.0
 71
     0
  3
MONOTXT
  4
BIGFONT
  0
STYLE
  2
TextStyle09
 70
     0
 40
1.0
 41
1.0
 42
1.0
 50
0.0
 71
     0
  3
MONOTXT
  4
BIGFONT
  0
STYLE
  2
TextStyle10
 70
     0
 40
1.0
 41
1.0
 42
1.0
 50
0.0
 71
     0
  3
MONOTXT
  4
BIGFONT
  0
ENDTAB
  0
ENDSEC
  0
SECTION
  2
BLOCKS
  0
BLOCK
  2
*GRP_0001
 70
    65
 10
0.0
 20
0.0
  0
LINE
  8
型材断面
  6
CONTINUOUS
 10
195.0
 20
133.5
 11
195.0
 21
-133.5
  0
LINE
  8
型材断面
  6
CONTINUOUS
 10
195.0
 20
-133.5
 11
-185.0
 21
-133.5
  0
LINE
  8
型材断面
  6
CONTINUOUS
 10
-185.0
 20
-133.5
 11
-185.0
 21
133.5
  0
LINE
  8
型材断面
  6
CONTINUOUS
 10
195.0
 20
133.5
 11
-185.0
 21
133.5
  0
LINE
  8
型材断面
  6
CONTINUOUS
 10
145.0
 20
-133.5
 11
145.0
 21
-118.5
  0
LINE
  8
型材断面
  6
CONTINUOUS
 10
195.0
 20
-118.5
 11
145.0
 21
-118.5
  0
ENDBLK
  0
BLOCK
  2
*GRP_0002
 70
    65
 10
0.0
 20
0.0
  0
INSERT
  2
M8横
  8
ゴム等
  6
CONTINUOUS
 10
163.336003
 20
27.710297
 50
90.0
 41
0.033333
 42
0.033333
  0
LINE
  8
ボルト／ビス
  6
CONTINUOUS
 10
163.126005
 20
27.843633
 11
163.109338
 21
27.826965
  0
LINE
  8
ボルト／ビス
  6
CONTINUOUS
 10
163.109338
 20
27.593633
 11
163.126005
 21
27.576965
  0
LINE
  8
ボルト／ビス
  6
CONTINUOUS
 10
163.126005
 20
27.576965
 11
163.126005
 21
27.843633
  0
LINE
  8
ボルト／ビス
  6
CONTINUOUS
 10
163.109338
 20
27.593633
 11
163.109338
 21
27.826965
  0
LINE
  8
ボルト／ビス
  6
CONTINUOUS
 10
163.109338
 20
27.826965
 11
163.15267
 21
27.826965
  0
LINE
  8
ボルト／ビス
  6
CONTINUOUS
 10
163.126005
 20
27.843633
 11
163.15267
 21
27.843633
  0
LINE
  8
ボルト／ビス
  6
CONTINUOUS
 10
163.126005
 20
27.576965
 11
163.15267
 21
27.576965
  0
LINE
  8
ボルト／ビス
  6
CONTINUOUS
 10
163.109338
 20
27.593633
 11
163.15267
 21
27.593633
  0
LINE
  8
ボルト／ビス
  6
CONTINUOUS
 10
163.336003
 20
27.343633
 11
163.336003
 21
28.076965
  0
LINE
  8
ボルト／ビス
  6
CONTINUOUS
 10
163.376002
 20
28.126965
 11
163.459335
 21
28.126965
  0
LINE
  8
ボルト／ビス
  6
CONTINUOUS
 10
163.459335
 20
28.126965
 11
163.459335
 21
27.293633
  0
LINE
  8
ボルト／ビス
  6
CONTINUOUS
 10
163.459335
 20
27.293633
 11
163.376002
 21
27.293633
  0
LINE
  8
ボルト／ビス
  6
CONTINUOUS
 10
163.376002
 20
28.126965
 11
163.376002
 21
27.293633
  0
LINE
  8
ボルト／ビス
  6
CONTINUOUS
 10
163.336003
 20
27.343633
 11
163.376002
 21
27.343633
  0
LINE
  8
ボルト／ビス
  6
CONTINUOUS
 10
163.336003
 20
28.076965
 11
163.376002
 21
28.076965
  0
LINE
  8
ボルト／ビス
  6
CONTINUOUS
 10
163.386002
 20
27.710297
 11
163.336003
 21
27.710297
  0
ENDBLK
  0
BLOCK
  2
*GRP_0003
 70
    65
 10
0.0
 20
0.0
  0
LINE
  8
ボルト／ビス
  6
CONTINUOUS
 10
162.47617
 20
27.50363
 11
162.409503
 21
27.50363
  0
LINE
  8
ボルト／ビス
  6
CONTINUOUS
 10
162.409503
 20
27.50363
 11
162.409503
 21
28.236962
  0
LINE
  8
ボルト／ビス
  6
CONTINUOUS
 10
162.409503
 20
28.236962
 11
162.47617
 21
28.236962
  0
LINE
  8
ボルト／ビス
  6
CONTINUOUS
 10
162.47617
 20
27.50363
 11
162.47617
 21
28.236962
  0
LINE
  8
ボルト／ビス
  6
CONTINUOUS
 10
162.37617
 20
27.570298
 11
162.409503
 21
27.570298
  0
LINE
  8
ボルト／ビス
  6
CONTINUOUS
 10
162.37617
 20
27.570298
 11
162.37617
 21
28.170298
  0
LINE
  8
ボルト／ビス
  6
CONTINUOUS
 10
162.37617
 20
28.170298
 11
162.409503
 21
28.170298
  0
LINE
  8
ボルト／ビス
  6
CONTINUOUS
 62
    64
 10
162.17617
 20
27.709922
 11
162.187845
 21
27.677847
  0
ARC
  8
ボルト／ビス
  6
CONTINUOUS
 62
    64
 10
162.281149
 20
27.725964
 40
0.104978
 50
152.721967
 51
180.0
  0
ARC
  8
ボルト／ビス
  6
CONTINUOUS
 62
    64
 10
162.578573
 20
27.870302
 40
0.402402
 50
166.165002
 51
193.834985
  0
LINE
  8
ボルト／ビス
  6
CONTINUOUS
 62
    64
 10
162.17617
 20
28.030673
 11
162.187845
 21
28.062747
  0
ARC
  8
ボルト／ビス
  6
CONTINUOUS
 62
    64
 10
162.281149
 20
28.014639
 40
0.104978
 50
180.0
 51
207.278033
  0
LINE
  8
ボルト／ビス
  6
CONTINUOUS
 62
    64
 10
162.17617
 20
27.709922
 11
162.17617
 21
28.030673
  0
LINE
  8
ボルト／ビス
  6
CONTINUOUS
 62
    64
 10
162.187845
 20
28.062747
 11
162.309503
 21
28.062747
  0
LINE
  8
ボルト／ビス
  6
CONTINUOUS
 62
    64
 10
162.187845
 20
27.966523
 11
162.309503
 21
27.966523
  0
LINE
  8
ボルト／ビス
  6
CONTINUOUS
 62
    64
 10
162.187845
 20
27.677847
 11
162.309503
 21
27.677847
  0
LINE
  8
ボルト／ビス
  6
CONTINUOUS
 62
    64
 10
162.187845
 20
27.774072
 11
162.309503
 21
27.774072
  0
LINE
  8
ボルト／ビス
  6
CONTINUOUS
 10
162.309503
 20
27.677847
 11
162.309503
 21
28.062747
  0
LINE
  8
ボルト／ビス
  6
CONTINUOUS
 10
162.309503
 20
27.670298
 11
162.37617
 21
27.670298
  0
LINE
  8
ボルト／ビス
  6
CONTINUOUS
 10
162.309503
 20
27.670298
 11
162.309503
 21
28.070298
  0
LINE
  8
ボルト／ビス
  6
CONTINUOUS
 10
162.309503
 20
28.070298
 11
162.37617
 21
28.070298
  0
ENDBLK
  0
BLOCK
  2
*DIM_0004
 70
    65
 10
0.0
 20
0.0
  0
LINE
  8
寸法
  6
CONTINUOUS
 10
161.248695
 20
26.256963
 11
142.14273
 21
26.256963
  0
LINE
  8
寸法
  6
CONTINUOUS
 10
142.14273
 20
28.536658
 11
142.14273
 21
26.256963
  0
POINT
  8
寸法
 10
142.14273
 20
28.536658
  0
POINT
  8
寸法
 10
142.14273
 20
26.256963
  0
TEXT
  7
TextStyle03
  8
寸法
  6
CONTINUOUS
 10
141.75
 20
17.34375
  1
68.4
 40
3.0
 50
90.0
 72
     5
 11
141.75
 21
23.90625
  0
ENDBLK
  0
BLOCK
  2
*DIM_0005
 70
    65
 10
0.0
 20
0.0
  0
LINE
  8
寸法
  6
CONTINUOUS
 10
169.209335
 20
21.570298
 11
169.209335
 21
13.661277
  0
LINE
  8
寸法
  6
CONTINUOUS
 10
161.742835
 20
23.536658
 11
161.742835
 21
13.661277
  0
LINE
  8
寸法
  6
CONTINUOUS
 10
169.209335
 20
13.661277
 11
161.742835
 21
13.661277
  0
POINT
  8
寸法
 10
169.209335
 20
13.661277
  0
POINT
  8
寸法
 10
161.742835
 20
13.661277
  0
TEXT
  7
TextStyle03
  8
寸法
  6
CONTINUOUS
 10
163.0375
 20
14.025
  1
224
 40
3.0
 72
     5
 11
167.9125
 21
14.025
  0
ENDBLK
  0
BLOCK
  2
*GRP_0006
 70
    65
 10
0.0
 20
0.0
  0
INSERT
  2
M8横
  8
ゴム等
  6
CONTINUOUS
 10
163.336003
 20
72.696352
 50
270.0
 41
0.033333
 42
-0.033333
  0
LINE
  8
ボルト／ビス
  6
CONTINUOUS
 10
163.126005
 20
72.56302
 11
163.109338
 21
72.579688
  0
LINE
  8
ボルト／ビス
  6
CONTINUOUS
 10
163.109338
 20
72.81302
 11
163.126005
 21
72.829688
  0
LINE
  8
ボルト／ビス
  6
CONTINUOUS
 10
163.126005
 20
72.829688
 11
163.126005
 21
72.56302
  0
LINE
  8
ボルト／ビス
  6
CONTINUOUS
 10
163.109338
 20
72.81302
 11
163.109338
 21
72.579688
  0
LINE
  8
ボルト／ビス
  6
CONTINUOUS
 10
163.109338
 20
72.579688
 11
163.15267
 21
72.579688
  0
LINE
  8
ボルト／ビス
  6
CONTINUOUS
 10
163.126005
 20
72.56302
 11
163.15267
 21
72.56302
  0
LINE
  8
ボルト／ビス
  6
CONTINUOUS
 10
163.126005
 20
72.829688
 11
163.15267
 21
72.829688
  0
LINE
  8
ボルト／ビス
  6
CONTINUOUS
 10
163.109338
 20
72.81302
 11
163.15267
 21
72.81302
  0
LINE
  8
ボルト／ビス
  6
CONTINUOUS
 10
163.336003
 20
73.06302
 11
163.336003
 21
72.329688
  0
LINE
  8
ボルト／ビス
  6
CONTINUOUS
 10
163.376002
 20
72.279687
 11
163.459335
 21
72.279687
  0
LINE
  8
ボルト／ビス
  6
CONTINUOUS
 10
163.459335
 20
72.279687
 11
163.459335
 21
73.11302
  0
LINE
  8
ボルト／ビス
  6
CONTINUOUS
 10
163.459335
 20
73.11302
 11
163.376002
 21
73.11302
  0
LINE
  8
ボルト／ビス
  6
CONTINUOUS
 10
163.376002
 20
72.279687
 11
163.376002
 21
73.11302
  0
LINE
  8
ボルト／ビス
  6
CONTINUOUS
 10
163.336003
 20
73.06302
 11
163.376002
 21
73.06302
  0
LINE
  8
ボルト／ビス
  6
CONTINUOUS
 10
163.336003
 20
72.329688
 11
163.376002
 21
72.329688
  0
LINE
  8
ボルト／ビス
  6
CONTINUOUS
 10
163.386002
 20
72.696352
 11
163.336003
 21
72.696352
  0
ENDBLK
  0
BLOCK
  2
*GRP_0007
 70
    65
 10
0.0
 20
0.0
  0
LINE
  8
ボルト／ビス
  6
CONTINUOUS
 10
162.47617
 20
72.903023
 11
162.409503
 21
72.903023
  0
LINE
  8
ボルト／ビス
  6
CONTINUOUS
 10
162.409503
 20
72.903023
 11
162.409503
 21
72.169687
  0
LINE
  8
ボルト／ビス
  6
CONTINUOUS
 10
162.409503
 20
72.169687
 11
162.47617
 21
72.169687
  0
LINE
  8
ボルト／ビス
  6
CONTINUOUS
 10
162.47617
 20
72.903023
 11
162.47617
 21
72.169687
  0
LINE
  8
ボルト／ビス
  6
CONTINUOUS
 10
162.37617
 20
72.836355
 11
162.409503
 21
72.836355
  0
LINE
  8
ボルト／ビス
  6
CONTINUOUS
 10
162.37617
 20
72.836355
 11
162.37617
 21
72.236355
  0
LINE
  8
ボルト／ビス
  6
CONTINUOUS
 10
162.37617
 20
72.236355
 11
162.409503
 21
72.236355
  0
LINE
  8
ボルト／ビス
  6
CONTINUOUS
 62
    64
 10
162.17617
 20
72.69673
 11
162.187845
 21
72.728805
  0
ARC
  8
ボルト／ビス
  6
CONTINUOUS
 62
    64
 10
162.281149
 20
72.680698
 40
0.104978
 50
180.0
 51
207.278033
  0
ARC
  8
ボルト／ビス
  6
CONTINUOUS
 62
    64
 10
162.578573
 20
72.536361
 40
0.402402
 50
166.165015
 51
193.834998
  0
LINE
  8
ボルト／ビス
  6
CONTINUOUS
 62
    64
 10
162.17617
 20
72.37598
 11
162.187845
 21
72.343905
  0
ARC
  8
ボルト／ビス
  6
CONTINUOUS
 62
    64
 10
162.281149
 20
72.392023
 40
0.104978
 50
152.721967
 51
180.0
  0
LINE
  8
ボルト／ビス
  6
CONTINUOUS
 62
    64
 10
162.17617
 20
72.69673
 11
162.17617
 21
72.37598
  0
LINE
  8
ボルト／ビス
  6
CONTINUOUS
 62
    64
 10
162.187845
 20
72.343905
 11
162.309503
 21
72.343905
  0
LINE
  8
ボルト／ビス
  6
CONTINUOUS
 62
    64
 10
162.187845
 20
72.44013
 11
162.309503
 21
72.44013
  0
LINE
  8
ボルト／ビス
  6
CONTINUOUS
 62
    64
 10
162.187845
 20
72.728805
 11
162.309503
 21
72.728805
  0
LINE
  8
ボルト／ビス
  6
CONTINUOUS
 62
    64
 10
162.187845
 20
72.63258
 11
162.309503
 21
72.63258
  0
LINE
  8
ボルト／ビス
  6
CONTINUOUS
 10
162.309503
 20
72.728805
 11
162.309503
 21
72.343905
  0
LINE
  8
ボルト／ビス
  6
CONTINUOUS
 10
162.309503
 20
72.736355
 11
162.37617
 21
72.736355
  0
LINE
  8
ボルト／ビス
  6
CONTINUOUS
 10
162.309503
 20
72.736355
 11
162.309503
 21
72.336355
  0
LINE
  8
ボルト／ビス
  6
CONTINUOUS
 10
162.309503
 20
72.336355
 11
162.37617
 21
72.336355
  0
ENDBLK
  0
BLOCK
  2
*DIM_0008
 70
    65
 10
0.0
 20
0.0
  0
LINE
  8
寸法
  6
CONTINUOUS
 10
161.248695
 20
74.149688
 11
142.14273
 21
74.149688
  0
LINE
  8
寸法
  6
CONTINUOUS
 10
142.14273
 20
71.869993
 11
142.14273
 21
74.149688
  0
POINT
  8
寸法
 10
142.14273
 20
71.869993
  0
POINT
  8
寸法
 10
142.14273
 20
74.149688
  0
TEXT
  7
TextStyle03
  8
寸法
  6
CONTINUOUS
 10
141.75
 20
76.46875
  1
68.4
 40
3.0
 50
90.0
 72
     5
 11
141.75
 21
83.03125
  0
ENDBLK
  0
BLOCK
  2
*DIM_0009
 70
    65
 10
0.0
 20
0.0
  0
LINE
  8
寸法
  6
CONTINUOUS
 10
142.14273
 20
71.869993
 11
142.14273
 21
28.536658
  0
POINT
  8
寸法
 10
142.14273
 20
71.869993
  0
POINT
  8
寸法
 10
142.14273
 20
28.536658
  0
TEXT
  7
TextStyle03
  8
寸法
  6
CONTINUOUS
 10
141.75
 20
38.48125
  1
呼称寸法　1300
 40
3.0
 50
90.0
 72
     5
 11
141.75
 21
61.91875
  0
ENDBLK
  0
BLOCK
  2
*GRP_0010
 70
    65
 10
0.0
 20
0.0
  0
INSERT
  2
M8横
  8
ゴム等
  6
CONTINUOUS
 10
54.896522
 20
-70.297288
 50
180.0
 41
0.033333
 42
-0.033333
  0
LINE
  8
ボルト／ビス
  6
CONTINUOUS
 10
54.76319
 20
-70.087288
 11
54.779855
 21
-70.070622
  0
LINE
  8
ボルト／ビス
  6
CONTINUOUS
 10
55.01319
 20
-70.070622
 11
55.029855
 21
-70.087288
  0
LINE
  8
ボルト／ビス
  6
CONTINUOUS
 10
55.029855
 20
-70.087288
 11
54.76319
 21
-70.087288
  0
LINE
  8
ボルト／ビス
  6
CONTINUOUS
 10
55.01319
 20
-70.070622
 11
54.779855
 21
-70.070622
  0
LINE
  8
ボルト／ビス
  6
CONTINUOUS
 10
54.779855
 20
-70.070622
 11
54.779855
 21
-70.113952
  0
LINE
  8
ボルト／ビス
  6
CONTINUOUS
 10
54.76319
 20
-70.087288
 11
54.76319
 21
-70.113952
  0
LINE
  8
ボルト／ビス
  6
CONTINUOUS
 10
55.029855
 20
-70.087288
 11
55.029855
 21
-70.113952
  0
LINE
  8
ボルト／ビス
  6
CONTINUOUS
 10
55.01319
 20
-70.070622
 11
55.01319
 21
-70.113952
  0
LINE
  8
ボルト／ビス
  6
CONTINUOUS
 10
55.26319
 20
-70.297288
 11
54.529855
 21
-70.297288
  0
LINE
  8
ボルト／ビス
  6
CONTINUOUS
 10
54.479855
 20
-70.337288
 11
54.479855
 21
-70.42062
  0
LINE
  8
ボルト／ビス
  6
CONTINUOUS
 10
54.479855
 20
-70.42062
 11
55.31319
 21
-70.42062
  0
LINE
  8
ボルト／ビス
  6
CONTINUOUS
 10
55.31319
 20
-70.42062
 11
55.31319
 21
-70.337288
  0
LINE
  8
ボルト／ビス
  6
CONTINUOUS
 10
54.479855
 20
-70.337288
 11
55.31319
 21
-70.337288
  0
LINE
  8
ボルト／ビス
  6
CONTINUOUS
 10
55.26319
 20
-70.297288
 11
55.26319
 21
-70.337288
  0
LINE
  8
ボルト／ビス
  6
CONTINUOUS
 10
54.529855
 20
-70.297288
 11
54.529855
 21
-70.337288
  0
LINE
  8
ボルト／ビス
  6
CONTINUOUS
 10
54.896522
 20
-70.347288
 11
54.896522
 21
-70.297288
  0
ENDBLK
  0
BLOCK
  2
*GRP_0011
 70
    65
 10
0.0
 20
0.0
  0
LINE
  8
ボルト／ビス
  6
CONTINUOUS
 10
55.10319
 20
-69.437453
 11
55.10319
 21
-69.370788
  0
LINE
  8
ボルト／ビス
  6
CONTINUOUS
 10
55.10319
 20
-69.370788
 11
54.369858
 21
-69.370788
  0
LINE
  8
ボルト／ビス
  6
CONTINUOUS
 10
54.369858
 20
-69.370788
 11
54.369858
 21
-69.437453
  0
LINE
  8
ボルト／ビス
  6
CONTINUOUS
 10
55.10319
 20
-69.437453
 11
54.369858
 21
-69.437453
  0
LINE
  8
ボルト／ビス
  6
CONTINUOUS
 10
55.036525
 20
-69.337453
 11
55.036525
 21
-69.370788
  0
LINE
  8
ボルト／ビス
  6
CONTINUOUS
 10
55.036525
 20
-69.337453
 11
54.436525
 21
-69.337453
  0
LINE
  8
ボルト／ビス
  6
CONTINUOUS
 10
54.436525
 20
-69.337453
 11
54.436525
 21
-69.370788
  0
LINE
  8
ボルト／ビス
  6
CONTINUOUS
 62
    64
 10
54.8969
 20
-69.137453
 11
54.928975
 21
-69.149128
  0
ARC
  8
ボルト／ビス
  6
CONTINUOUS
 62
    64
 10
54.880861
 20
-69.242431
 40
0.104978
 50
90.0
 51
117.278033
  0
ARC
  8
ボルト／ビス
  6
CONTINUOUS
 62
    64
 10
54.736524
 20
-69.539855
 40
0.402402
 50
76.165015
 51
103.834998
  0
LINE
  8
ボルト／ビス
  6
CONTINUOUS
 62
    64
 10
54.57615
 20
-69.137453
 11
54.544075
 21
-69.149128
  0
ARC
  8
ボルト／ビス
  6
CONTINUOUS
 62
    64
 10
54.592186
 20
-69.242431
 40
0.104978
 50
62.721967
 51
90.0
  0
LINE
  8
ボルト／ビス
  6
CONTINUOUS
 62
    64
 10
54.8969
 20
-69.137453
 11
54.57615
 21
-69.137453
  0
LINE
  8
ボルト／ビス
  6
CONTINUOUS
 62
    64
 10
54.544075
 20
-69.149128
 11
54.544075
 21
-69.270788
  0
LINE
  8
ボルト／ビス
  6
CONTINUOUS
 62
    64
 10
54.6403
 20
-69.149128
 11
54.6403
 21
-69.270788
  0
LINE
  8
ボルト／ビス
  6
CONTINUOUS
 62
    64
 10
54.928975
 20
-69.149128
 11
54.928975
 21
-69.270788
  0
LINE
  8
ボルト／ビス
  6
CONTINUOUS
 62
    64
 10
54.83275
 20
-69.149128
 11
54.83275
 21
-69.270788
  0
LINE
  8
ボルト／ビス
  6
CONTINUOUS
 10
54.928975
 20
-69.270788
 11
54.544075
 21
-69.270788
  0
LINE
  8
ボルト／ビス
  6
CONTINUOUS
 10
54.936525
 20
-69.270788
 11
54.936525
 21
-69.337453
  0
LINE
  8
ボルト／ビス
  6
CONTINUOUS
 10
54.936525
 20
-69.270788
 11
54.536525
 21
-69.270788
  0
LINE
  8
ボルト／ビス
  6
CONTINUOUS
 10
54.536525
 20
-69.270788
 11
54.536525
 21
-69.337453
  0
ENDBLK
  0
BLOCK
  2
*DIM_0012
 70
    65
 10
0.0
 20
0.0
  0
LINE
  8
寸法
  6
CONTINUOUS
 10
59.070162
 20
-68.70412
 11
77.688635
 21
-68.70412
  0
LINE
  8
寸法
  6
CONTINUOUS
 10
61.036525
 20
-76.17062
 11
77.688635
 21
-76.17062
  0
LINE
  8
寸法
  6
CONTINUOUS
 10
77.688635
 20
-68.70412
 11
77.688635
 21
-76.17062
  0
POINT
  8
寸法
 10
77.688635
 20
-68.70412
  0
POINT
  8
寸法
 10
77.688635
 20
-76.17062
  0
TEXT
  7
TextStyle03
  8
寸法
  6
CONTINUOUS
 10
77.3
 20
-74.8875
  1
224
 40
3.0
 50
90.0
 72
     5
 11
77.3
 21
-70.0125
  0
ENDBLK
  0
BLOCK
  2
*GRP_0013
 70
    65
 10
0.0
 20
0.0
  0
INSERT
  2
M8横
  8
ゴム等
  6
CONTINUOUS
 10
-130.089517
 20
-70.297288
 41
0.033333
 42
0.033333
  0
LINE
  8
ボルト／ビス
  6
CONTINUOUS
 10
-129.956185
 20
-70.087288
 11
-129.97285
 21
-70.070622
  0
LINE
  8
ボルト／ビス
  6
CONTINUOUS
 10
-130.206185
 20
-70.070622
 11
-130.22285
 21
-70.087288
  0
LINE
  8
ボルト／ビス
  6
CONTINUOUS
 10
-130.22285
 20
-70.087288
 11
-129.956185
 21
-70.087288
  0
LINE
  8
ボルト／ビス
  6
CONTINUOUS
 10
-130.206185
 20
-70.070622
 11
-129.97285
 21
-70.070622
  0
LINE
  8
ボルト／ビス
  6
CONTINUOUS
 10
-129.97285
 20
-70.070622
 11
-129.97285
 21
-70.113952
  0
LINE
  8
ボルト／ビス
  6
CONTINUOUS
 10
-129.956185
 20
-70.087288
 11
-129.956185
 21
-70.113952
  0
LINE
  8
ボルト／ビス
  6
CONTINUOUS
 10
-130.22285
 20
-70.087288
 11
-130.22285
 21
-70.113952
  0
LINE
  8
ボルト／ビス
  6
CONTINUOUS
 10
-130.206185
 20
-70.070622
 11
-130.206185
 21
-70.113952
  0
LINE
  8
ボルト／ビス
  6
CONTINUOUS
 10
-130.456185
 20
-70.297288
 11
-129.72285
 21
-70.297288
  0
LINE
  8
ボルト／ビス
  6
CONTINUOUS
 10
-129.67285
 20
-70.337288
 11
-129.67285
 21
-70.42062
  0
LINE
  8
ボルト／ビス
  6
CONTINUOUS
 10
-129.67285
 20
-70.42062
 11
-130.506185
 21
-70.42062
  0
LINE
  8
ボルト／ビス
  6
CONTINUOUS
 10
-130.506185
 20
-70.42062
 11
-130.506185
 21
-70.337288
  0
LINE
  8
ボルト／ビス
  6
CONTINUOUS
 10
-129.67285
 20
-70.337288
 11
-130.506185
 21
-70.337288
  0
LINE
  8
ボルト／ビス
  6
CONTINUOUS
 10
-130.456185
 20
-70.297288
 11
-130.456185
 21
-70.337288
  0
LINE
  8
ボルト／ビス
  6
CONTINUOUS
 10
-129.72285
 20
-70.297288
 11
-129.72285
 21
-70.337288
  0
LINE
  8
ボルト／ビス
  6
CONTINUOUS
 10
-130.089517
 20
-70.347288
 11
-130.089517
 21
-70.297288
  0
ENDBLK
  0
BLOCK
  2
*GRP_0014
 70
    65
 10
0.0
 20
0.0
  0
LINE
  8
ボルト／ビス
  6
CONTINUOUS
 10
-130.296185
 20
-69.437453
 11
-130.296185
 21
-69.370788
  0
LINE
  8
ボルト／ビス
  6
CONTINUOUS
 10
-130.296185
 20
-69.370788
 11
-129.562853
 21
-69.370788
  0
LINE
  8
ボルト／ビス
  6
CONTINUOUS
 10
-129.562853
 20
-69.370788
 11
-129.562853
 21
-69.437453
  0
LINE
  8
ボルト／ビス
  6
CONTINUOUS
 10
-130.296185
 20
-69.437453
 11
-129.562853
 21
-69.437453
  0
LINE
  8
ボルト／ビス
  6
CONTINUOUS
 10
-130.22952
 20
-69.337453
 11
-130.22952
 21
-69.370788
  0
LINE
  8
ボルト／ビス
  6
CONTINUOUS
 10
-130.22952
 20
-69.337453
 11
-129.62952
 21
-69.337453
  0
LINE
  8
ボルト／ビス
  6
CONTINUOUS
 10
-129.62952
 20
-69.337453
 11
-129.62952
 21
-69.370788
  0
LINE
  8
ボルト／ビス
  6
CONTINUOUS
 62
    64
 10
-130.089895
 20
-69.137453
 11
-130.12197
 21
-69.149128
  0
ARC
  8
ボルト／ビス
  6
CONTINUOUS
 62
    64
 10
-130.073858
 20
-69.242431
 40
0.104978
 50
62.721967
 51
90.0
  0
ARC
  8
ボルト／ビス
  6
CONTINUOUS
 62
    64
 10
-129.92952
 20
-69.539855
 40
0.402402
 50
76.165002
 51
103.834985
  0
LINE
  8
ボルト／ビス
  6
CONTINUOUS
 62
    64
 10
-129.769145
 20
-69.137453
 11
-129.73707
 21
-69.149128
  0
ARC
  8
ボルト／ビス
  6
CONTINUOUS
 62
    64
 10
-129.785183
 20
-69.242431
 40
0.104978
 50
90.0
 51
117.278033
  0
LINE
  8
ボルト／ビス
  6
CONTINUOUS
 62
    64
 10
-130.089895
 20
-69.137453
 11
-129.769145
 21
-69.137453
  0
LINE
  8
ボルト／ビス
  6
CONTINUOUS
 62
    64
 10
-129.73707
 20
-69.149128
 11
-129.73707
 21
-69.270788
  0
LINE
  8
ボルト／ビス
  6
CONTINUOUS
 62
    64
 10
-129.833295
 20
-69.149128
 11
-129.833295
 21
-69.270788
  0
LINE
  8
ボルト／ビス
  6
CONTINUOUS
 62
    64
 10
-130.12197
 20
-69.149128
 11
-130.12197
 21
-69.270788
  0
LINE
  8
ボルト／ビス
  6
CONTINUOUS
 62
    64
 10
-130.025745
 20
-69.149128
 11
-130.025745
 21
-69.270788
  0
LINE
  8
ボルト／ビス
  6
CONTINUOUS
 10
-130.12197
 20
-69.270788
 11
-129.73707
 21
-69.270788
  0
LINE
  8
ボルト／ビス
  6
CONTINUOUS
 10
-130.12952
 20
-69.270788
 11
-130.12952
 21
-69.337453
  0
LINE
  8
ボルト／ビス
  6
CONTINUOUS
 10
-130.12952
 20
-69.270788
 11
-129.72952
 21
-69.270788
  0
LINE
  8
ボルト／ビス
  6
CONTINUOUS
 10
-129.72952
 20
-69.270788
 11
-129.72952
 21
-69.337453
  0
ENDBLK
  0
BLOCK
  2
*DIM_0015
 70
    65
 10
0.0
 20
0.0
  0
LINE
  8
寸法
  6
BYBLOCK
 62
     0
 10
-112.596495
 20
24.90653
 11
-112.596495
 21
19.576425
  0
LINE
  8
寸法
  6
BYBLOCK
 62
     0
 10
-37.596497
 20
24.90653
 11
-37.596497
 21
19.576425
  0
LINE
  8
寸法
  6
BYBLOCK
 62
     0
 10
-112.596495
 20
19.576425
 11
-37.596497
 21
19.576425
  0
POINT
  8
寸法
 62
     0
 10
-112.596495
 20
19.576425
  0
POINT
  8
寸法
 62
     0
 10
-37.596497
 20
19.576425
  0
TEXT
  7
TextStyle03
  8
寸法
  6
CONTINUOUS
 62
     0
 10
-78.38125
 20
19.925
  1
2250
 40
3.0
 72
     5
 11
-71.81875
 21
19.925
  0
ENDBLK
  0
BLOCK
  2
*DIM_0016
 70
    65
 10
0.0
 20
0.0
  0
LINE
  8
寸法
  6
BYBLOCK
 62
     0
 10
37.4035
 20
24.90653
 11
37.4035
 21
19.576425
  0
LINE
  8
寸法
  6
BYBLOCK
 62
     0
 10
-37.596497
 20
19.576425
 11
37.4035
 21
19.576425
  0
POINT
  8
寸法
 62
     0
 10
37.4035
 20
19.576425
  0
TEXT
  7
TextStyle03
  8
寸法
  6
CONTINUOUS
 62
     0
 10
-3.38125
 20
19.925
  1
2250
 40
3.0
 72
     5
 11
3.18125
 21
19.925
  0
ENDBLK
  0
BLOCK
  2
*DIM_0017
 70
    65
 10
0.0
 20
0.0
  0
LINE
  8
寸法
  6
BYBLOCK
 62
     0
 10
57.700297
 20
67.96999
 11
64.47759
 21
67.96999
  0
LINE
  8
寸法
  6
BYBLOCK
 62
     0
 10
64.47759
 20
71.86999
 11
64.47759
 21
67.96999
  0
POINT
  8
寸法
 62
     0
 10
64.47759
 20
71.86999
  0
POINT
  8
寸法
 62
     0
 10
64.47759
 20
67.96999
  0
TEXT
  7
TextStyle03
  8
寸法
  6
CONTINUOUS
 62
     0
 10
64.125
 20
72.5375
  1
117
 40
3.0
 50
90.0
 72
     5
 11
64.125
 21
77.4125
  0
ENDBLK
  0
BLOCK
  2
*DIM_0018
 70
    65
 10
0.0
 20
0.0
  0
LINE
  8
寸法
  6
BYBLOCK
 62
     0
 10
57.700297
 20
32.43666
 11
64.47759
 21
32.43666
  0
LINE
  8
寸法
  6
BYBLOCK
 62
     0
 10
64.47759
 20
28.53666
 11
64.47759
 21
32.43666
  0
POINT
  8
寸法
 62
     0
 10
64.47759
 20
28.53666
  0
POINT
  8
寸法
 62
     0
 10
64.47759
 20
32.43666
  0
TEXT
  7
TextStyle03
  8
寸法
  6
CONTINUOUS
 62
     0
 10
64.55
 20
22.5875
  1
117
 40
3.0
 50
90.0
 72
     5
 11
64.55
 21
27.4625
  0
ENDBLK
  0
BLOCK
  2
*DIM_0019
 70
    65
 10
0.0
 20
0.0
  0
LINE
  8
寸法
  6
BYBLOCK
 62
     0
 10
-132.263162
 20
38.536658
 11
-161.208328
 21
38.536658
  0
LINE
  8
寸法
  6
BYBLOCK
 62
     0
 10
-132.263162
 20
61.869993
 11
-161.208328
 21
61.869993
  0
LINE
  8
寸法
  6
BYBLOCK
 62
     0
 10
-161.208328
 20
38.536658
 11
-161.208328
 21
61.869993
  0
POINT
  8
寸法
 62
     0
 10
-161.208328
 20
38.536658
  0
POINT
  8
寸法
 62
     0
 10
-161.208328
 20
61.869993
  0
TEXT
  7
TextStyle03
  8
寸法
  6
CONTINUOUS
 62
     0
 10
-161.525
 20
47.7375
  1
700
 40
3.0
 50
90.0
 72
     5
 11
-161.525
 21
52.6125
  0
ENDBLK
  0
BLOCK
  2
*DIM_0020
 70
    65
 10
0.0
 20
0.0
  0
LINE
  8
寸法
  6
BYBLOCK
 62
     0
 10
-117.596497
 20
74.86999
 11
-117.596497
 21
103.978062
  0
LINE
  8
寸法
  6
BYBLOCK
 62
     0
 10
-90.92983
 20
74.86999
 11
-90.92983
 21
103.978062
  0
LINE
  8
寸法
  6
BYBLOCK
 62
     0
 10
-117.596497
 20
103.978062
 11
-90.92983
 21
103.978062
  0
POINT
  8
寸法
 62
     0
 10
-117.596497
 20
103.978062
  0
POINT
  8
寸法
 62
     0
 10
-90.92983
 20
103.978062
  0
TEXT
  7
TextStyle03
  8
寸法
  6
CONTINUOUS
 62
     0
 10
-106.7125
 20
104.325
  1
800
 40
3.0
 72
     5
 11
-101.8375
 21
104.325
  0
ENDBLK
  0
BLOCK
  2
*DIM_0021
 70
    65
 10
0.0
 20
0.0
  0
LINE
  8
寸法
  6
BYBLOCK
 62
     0
 10
-64.263165
 20
74.86999
 11
-64.263165
 21
103.978062
  0
LINE
  8
寸法
  6
BYBLOCK
 62
     0
 10
-90.92983
 20
103.978062
 11
-64.263165
 21
103.978062
  0
POINT
  8
寸法
 62
     0
 10
-64.263165
 20
103.978062
  0
TEXT
  7
TextStyle03
  8
寸法
  6
CONTINUOUS
 62
     0
 10
-80.0375
 20
104.325
  1
800
 40
3.0
 72
     5
 11
-75.1625
 21
104.325
  0
ENDBLK
  0
BLOCK
  2
*DIM_0022
 70
    65
 10
0.0
 20
0.0
  0
LINE
  8
寸法
  6
BYBLOCK
 62
     0
 10
-37.596497
 20
74.86999
 11
-37.596497
 21
103.978062
  0
LINE
  8
寸法
  6
BYBLOCK
 62
     0
 10
-64.263165
 20
103.978062
 11
-37.596497
 21
103.978062
  0
POINT
  8
寸法
 62
     0
 10
-37.596497
 20
103.978062
  0
TEXT
  7
TextStyle03
  8
寸法
  6
CONTINUOUS
 62
     0
 10
-53.3625
 20
104.325
  1
800
 40
3.0
 72
     5
 11
-48.4875
 21
104.325
  0
ENDBLK
  0
BLOCK
  2
*DIM_0023
 70
    65
 10
0.0
 20
0.0
  0
LINE
  8
寸法
  6
BYBLOCK
 62
     0
 10
-10.92983
 20
74.86999
 11
-10.92983
 21
103.978062
  0
LINE
  8
寸法
  6
BYBLOCK
 62
     0
 10
-37.596497
 20
103.978062
 11
-10.92983
 21
103.978062
  0
POINT
  8
寸法
 62
     0
 10
-10.92983
 20
103.978062
  0
TEXT
  7
TextStyle03
  8
寸法
  6
CONTINUOUS
 62
     0
 10
-26.7125
 20
104.325
  1
800
 40
3.0
 72
     5
 11
-21.8375
 21
104.325
  0
ENDBLK
  0
BLOCK
  2
*DIM_0024
 70
    65
 10
0.0
 20
0.0
  0
LINE
  8
寸法
  6
BYBLOCK
 62
     0
 10
15.736835
 20
74.86999
 11
15.736835
 21
103.978062
  0
LINE
  8
寸法
  6
BYBLOCK
 62
     0
 10
-10.92983
 20
103.978062
 11
15.736835
 21
103.978062
  0
POINT
  8
寸法
 62
     0
 10
15.736835
 20
103.978062
  0
TEXT
  7
TextStyle03
  8
寸法
  6
CONTINUOUS
 62
     0
 10
-0.0375
 20
104.325
  1
800
 40
3.0
 72
     5
 11
4.8375
 21
104.325
  0
ENDBLK
  0
BLOCK
  2
*DIM_0025
 70
    65
 10
0.0
 20
0.0
  0
LINE
  8
寸法
  6
BYBLOCK
 62
     0
 10
42.403502
 20
74.86999
 11
42.403502
 21
103.978062
  0
LINE
  8
寸法
  6
BYBLOCK
 62
     0
 10
15.736835
 20
103.978062
 11
42.403502
 21
103.978062
  0
POINT
  8
寸法
 62
     0
 10
42.403502
 20
103.978062
  0
TEXT
  7
TextStyle03
  8
寸法
  6
CONTINUOUS
 62
     0
 10
26.6375
 20
104.325
  1
800
 40
3.0
 72
     5
 11
31.5125
 21
104.325
  0
ENDBLK
  0
BLOCK
  2
*DIM_0026
 70
    65
 10
0.0
 20
0.0
  0
LINE
  8
寸法
  6
CONTINUOUS
 10
59.070162
 20
-68.70412
 11
77.688635
 21
-68.70412
  0
LINE
  8
寸法
  6
CONTINUOUS
 10
59.070162
 20
-52.037453
 11
77.688635
 21
-52.037453
  0
LINE
  8
寸法
  6
CONTINUOUS
 10
77.688635
 20
-68.70412
 11
77.688635
 21
-52.037453
  0
POINT
  8
寸法
 10
77.688635
 20
-68.70412
  0
POINT
  8
寸法
 10
77.688635
 20
-52.037453
  0
TEXT
  7
TextStyle03
  8
寸法
  6
CONTINUOUS
 10
80.675
 20
-69.46875
  1
上昇463以上
 40
3.0
 50
90.0
 72
     5
 11
80.675
 21
-51.28125
  0
ENDBLK
  0
BLOCK
  2
*GRP_0027
 70
    65
 10
0.0
 20
0.0
  0
LINE
  8
型材断面
  6
DOT
 10
55.73683
 20
-53.270785
 11
55.68683
 21
-53.270785
  0
LINE
  8
型材断面
  6
DOT
 10
54.070162
 20
-52.770785
 11
54.070162
 21
-52.037453
  0
LINE
  8
型材断面
  6
DOT
 10
54.119858
 20
-53.753953
 11
55.566525
 21
-53.753953
  0
LINE
  8
型材断面
  6
DOT
 10
55.566525
 20
-54.203953
 11
55.566525
 21
-53.753953
  0
LINE
  8
型材断面
  6
DOT
 62
    47
 10
56.299857
 20
-56.876645
 11
56.349857
 21
-56.876645
  0
LINE
  8
型材断面
  6
DOT
 62
    47
 10
56.349857
 20
-56.876645
 11
56.349857
 21
-56.54331
  0
LINE
  8
型材断面
  6
DOT
 62
    47
 10
56.349857
 20
-56.54331
 11
55.566525
 21
-56.44331
  0
LINE
  8
型材断面
  6
DOT
 62
    47
 10
55.566525
 20
-56.037285
 11
55.566525
 21
-56.44331
  0
LINE
  8
型材断面
  6
DOT
 62
    47
 10
56.036525
 20
-56.037285
 11
56.036525
 21
-54.203953
  0
LINE
  8
型材断面
  6
DOT
 10
55.73683
 20
-53.270785
 11
55.73683
 21
-52.770785
  0
LINE
  8
型材断面
  6
DOT
 10
54.119858
 20
-53.753953
 11
54.119858
 21
-53.270785
  0
INSERT
  2
*GRP_0028
  8
型材断面
  6
DOT
 10
0.0
 20
0.0
  0
INSERT
  2
*GRP_0029
  8
型材断面
  6
DOT
 10
0.0
 20
0.0
  0
LINE
  8
型材断面
  6
DOT
 10
56.349857
 20
-56.876645
 11
-37.596497
 21
-56.876645
  0
LINE
  8
型材断面
  6
DOT
 10
56.349857
 20
-56.54331
 11
-37.596497
 21
-56.54331
  0
LINE
  8
型材断面
  6
DOT
 10
55.566525
 20
-56.44331
 11
-37.596497
 21
-56.44331
  0
LINE
  8
型材断面
  6
DOT
 10
56.036525
 20
-56.037285
 11
-37.596497
 21
-56.037285
  0
LINE
  8
型材断面
  6
DOT
 10
55.73683
 20
-53.270785
 11
-37.596497
 21
-53.270785
  0
LINE
  8
型材断面
  6
DOT
 10
54.070162
 20
-52.037453
 11
-37.596497
 21
-52.037453
  0
LINE
  8
型材断面
  6
DOT
 10
55.73683
 20
-52.770785
 11
-37.596497
 21
-52.770785
  0
LINE
  8
型材断面
  6
DOT
 10
55.566525
 20
-53.753953
 11
-37.596497
 21
-53.753953
  0
LINE
  8
型材断面
  6
DOT
 10
56.036525
 20
-54.203953
 11
-37.596497
 21
-54.203953
  0
LINE
  8
型材断面
  6
DOT
 10
-130.929825
 20
-53.270785
 11
-130.879825
 21
-53.270785
  0
LINE
  8
型材断面
  6
DOT
 10
-129.263158
 20
-52.770785
 11
-129.263158
 21
-52.037453
  0
LINE
  8
型材断面
  6
DOT
 10
-129.312853
 20
-53.753953
 11
-130.75952
 21
-53.753953
  0
LINE
  8
型材断面
  6
DOT
 10
-130.75952
 20
-54.203953
 11
-130.75952
 21
-53.753953
  0
LINE
  8
型材断面
  6
DOT
 62
    47
 10
-131.492853
 20
-56.876645
 11
-131.542853
 21
-56.876645
  0
LINE
  8
型材断面
  6
DOT
 62
    47
 10
-131.542853
 20
-56.876645
 11
-131.542853
 21
-56.54331
  0
LINE
  8
型材断面
  6
DOT
 62
    47
 10
-131.542853
 20
-56.54331
 11
-130.75952
 21
-56.44331
  0
LINE
  8
型材断面
  6
DOT
 62
    47
 10
-130.75952
 20
-56.037285
 11
-130.75952
 21
-56.44331
  0
LINE
  8
型材断面
  6
DOT
 62
    47
 10
-131.22952
 20
-56.037285
 11
-131.22952
 21
-54.203953
  0
LINE
  8
型材断面
  6
DOT
 10
-130.929825
 20
-53.270785
 11
-130.929825
 21
-52.770785
  0
LINE
  8
型材断面
  6
DOT
 10
-129.312853
 20
-53.753953
 11
-129.312853
 21
-53.270785
  0
INSERT
  2
*GRP_0030
  8
型材断面
  6
DOT
 10
0.0
 20
0.0
  0
INSERT
  2
*GRP_0031
  8
型材断面
  6
DOT
 10
0.0
 20
0.0
  0
LINE
  8
型材断面
  6
DOT
 10
-131.542853
 20
-56.876645
 11
-37.596497
 21
-56.876645
  0
LINE
  8
型材断面
  6
DOT
 10
-131.542853
 20
-56.54331
 11
-37.596497
 21
-56.54331
  0
LINE
  8
型材断面
  6
DOT
 10
-130.75952
 20
-56.44331
 11
-37.596497
 21
-56.44331
  0
LINE
  8
型材断面
  6
DOT
 10
-131.22952
 20
-56.037285
 11
-37.596497
 21
-56.037285
  0
LINE
  8
型材断面
  6
DOT
 10
-130.929825
 20
-53.270785
 11
-37.596497
 21
-53.270785
  0
LINE
  8
型材断面
  6
DOT
 10
-129.263158
 20
-52.037453
 11
-37.596497
 21
-52.037453
  0
LINE
  8
型材断面
  6
DOT
 10
-130.929825
 20
-52.770785
 11
-37.596497
 21
-52.770785
  0
LINE
  8
型材断面
  6
DOT
 10
-130.75952
 20
-53.753953
 11
-37.596497
 21
-53.753953
  0
LINE
  8
型材断面
  6
DOT
 10
-131.22952
 20
-54.203953
 11
-37.596497
 21
-54.203953
  0
ENDBLK
  0
BLOCK
  2
*GRP_0028
 70
    65
 10
0.0
 20
0.0
  0
INSERT
  2
M8横
  8
ゴム等
  6
DOT
 10
54.896522
 20
-53.63062
 50
180.0
 41
0.033333
 42
-0.033333
  0
LINE
  8
ボルト／ビス
  6
DOT
 10
54.76319
 20
-53.42062
 11
54.779855
 21
-53.403955
  0
LINE
  8
ボルト／ビス
  6
DOT
 10
55.01319
 20
-53.403955
 11
55.029855
 21
-53.42062
  0
LINE
  8
ボルト／ビス
  6
DOT
 10
55.029855
 20
-53.42062
 11
54.76319
 21
-53.42062
  0
LINE
  8
ボルト／ビス
  6
DOT
 10
55.01319
 20
-53.403955
 11
54.779855
 21
-53.403955
  0
LINE
  8
ボルト／ビス
  6
DOT
 10
54.779855
 20
-53.403955
 11
54.779855
 21
-53.447285
  0
LINE
  8
ボルト／ビス
  6
DOT
 10
54.76319
 20
-53.42062
 11
54.76319
 21
-53.447285
  0
LINE
  8
ボルト／ビス
  6
DOT
 10
55.029855
 20
-53.42062
 11
55.029855
 21
-53.447285
  0
LINE
  8
ボルト／ビス
  6
DOT
 10
55.01319
 20
-53.403955
 11
55.01319
 21
-53.447285
  0
LINE
  8
ボルト／ビス
  6
DOT
 10
55.26319
 20
-53.63062
 11
54.529855
 21
-53.63062
  0
LINE
  8
ボルト／ビス
  6
DOT
 10
54.479855
 20
-53.67062
 11
54.479855
 21
-53.753953
  0
LINE
  8
ボルト／ビス
  6
DOT
 10
54.479855
 20
-53.753953
 11
55.31319
 21
-53.753953
  0
LINE
  8
ボルト／ビス
  6
DOT
 10
55.31319
 20
-53.753953
 11
55.31319
 21
-53.67062
  0
LINE
  8
ボルト／ビス
  6
DOT
 10
54.479855
 20
-53.67062
 11
55.31319
 21
-53.67062
  0
LINE
  8
ボルト／ビス
  6
DOT
 10
55.26319
 20
-53.63062
 11
55.26319
 21
-53.67062
  0
LINE
  8
ボルト／ビス
  6
DOT
 10
54.529855
 20
-53.63062
 11
54.529855
 21
-53.67062
  0
LINE
  8
ボルト／ビス
  6
DOT
 10
54.896522
 20
-53.68062
 11
54.896522
 21
-53.63062
  0
ENDBLK
  0
BLOCK
  2
*GRP_0029
 70
    65
 10
0.0
 20
0.0
  0
LINE
  8
ボルト／ビス
  6
DOT
 10
55.10319
 20
-52.770785
 11
55.10319
 21
-52.70412
  0
LINE
  8
ボルト／ビス
  6
DOT
 10
55.10319
 20
-52.70412
 11
54.369858
 21
-52.70412
  0
LINE
  8
ボルト／ビス
  6
DOT
 10
54.369858
 20
-52.70412
 11
54.369858
 21
-52.770785
  0
LINE
  8
ボルト／ビス
  6
DOT
 10
55.10319
 20
-52.770785
 11
54.369858
 21
-52.770785
  0
LINE
  8
ボルト／ビス
  6
DOT
 10
55.036525
 20
-52.670785
 11
55.036525
 21
-52.70412
  0
LINE
  8
ボルト／ビス
  6
DOT
 10
55.036525
 20
-52.670785
 11
54.436525
 21
-52.670785
  0
LINE
  8
ボルト／ビス
  6
DOT
 10
54.436525
 20
-52.670785
 11
54.436525
 21
-52.70412
  0
LINE
  8
ボルト／ビス
  6
DOT
 62
    64
 10
54.8969
 20
-52.470785
 11
54.928975
 21
-52.48246
  0
ARC
  8
ボルト／ビス
  6
DOT
 62
    64
 10
54.880861
 20
-52.575764
 40
0.104978
 50
90.0
 51
117.278033
  0
ARC
  8
ボルト／ビス
  6
DOT
 62
    64
 10
54.736524
 20
-52.873188
 40
0.402402
 50
76.165015
 51
103.834998
  0
LINE
  8
ボルト／ビス
  6
DOT
 62
    64
 10
54.57615
 20
-52.470785
 11
54.544075
 21
-52.48246
  0
ARC
  8
ボルト／ビス
  6
DOT
 62
    64
 10
54.592186
 20
-52.575764
 40
0.104978
 50
62.721967
 51
90.0
  0
LINE
  8
ボルト／ビス
  6
DOT
 62
    64
 10
54.8969
 20
-52.470785
 11
54.57615
 21
-52.470785
  0
LINE
  8
ボルト／ビス
  6
DOT
 62
    64
 10
54.544075
 20
-52.48246
 11
54.544075
 21
-52.60412
  0
LINE
  8
ボルト／ビス
  6
DOT
 62
    64
 10
54.6403
 20
-52.48246
 11
54.6403
 21
-52.60412
  0
LINE
  8
ボルト／ビス
  6
DOT
 62
    64
 10
54.928975
 20
-52.48246
 11
54.928975
 21
-52.60412
  0
LINE
  8
ボルト／ビス
  6
DOT
 62
    64
 10
54.83275
 20
-52.48246
 11
54.83275
 21
-52.60412
  0
LINE
  8
ボルト／ビス
  6
DOT
 10
54.928975
 20
-52.60412
 11
54.544075
 21
-52.60412
  0
LINE
  8
ボルト／ビス
  6
DOT
 10
54.936525
 20
-52.60412
 11
54.936525
 21
-52.670785
  0
LINE
  8
ボルト／ビス
  6
DOT
 10
54.936525
 20
-52.60412
 11
54.536525
 21
-52.60412
  0
LINE
  8
ボルト／ビス
  6
DOT
 10
54.536525
 20
-52.60412
 11
54.536525
 21
-52.670785
  0
ENDBLK
  0
BLOCK
  2
*GRP_0030
 70
    65
 10
0.0
 20
0.0
  0
INSERT
  2
M8横
  8
ゴム等
  6
DOT
 10
-130.089517
 20
-53.63062
 41
0.033333
 42
0.033333
  0
LINE
  8
ボルト／ビス
  6
DOT
 10
-129.956185
 20
-53.42062
 11
-129.97285
 21
-53.403955
  0
LINE
  8
ボルト／ビス
  6
DOT
 10
-130.206185
 20
-53.403955
 11
-130.22285
 21
-53.42062
  0
LINE
  8
ボルト／ビス
  6
DOT
 10
-130.22285
 20
-53.42062
 11
-129.956185
 21
-53.42062
  0
LINE
  8
ボルト／ビス
  6
DOT
 10
-130.206185
 20
-53.403955
 11
-129.97285
 21
-53.403955
  0
LINE
  8
ボルト／ビス
  6
DOT
 10
-129.97285
 20
-53.403955
 11
-129.97285
 21
-53.447285
  0
LINE
  8
ボルト／ビス
  6
DOT
 10
-129.956185
 20
-53.42062
 11
-129.956185
 21
-53.447285
  0
LINE
  8
ボルト／ビス
  6
DOT
 10
-130.22285
 20
-53.42062
 11
-130.22285
 21
-53.447285
  0
LINE
  8
ボルト／ビス
  6
DOT
 10
-130.206185
 20
-53.403955
 11
-130.206185
 21
-53.447285
  0
LINE
  8
ボルト／ビス
  6
DOT
 10
-130.456185
 20
-53.63062
 11
-129.72285
 21
-53.63062
  0
LINE
  8
ボルト／ビス
  6
DOT
 10
-129.67285
 20
-53.67062
 11
-129.67285
 21
-53.753953
  0
LINE
  8
ボルト／ビス
  6
DOT
 10
-129.67285
 20
-53.753953
 11
-130.506185
 21
-53.753953
  0
LINE
  8
ボルト／ビス
  6
DOT
 10
-130.506185
 20
-53.753953
 11
-130.506185
 21
-53.67062
  0
LINE
  8
ボルト／ビス
  6
DOT
 10
-129.67285
 20
-53.67062
 11
-130.506185
 21
-53.67062
  0
LINE
  8
ボルト／ビス
  6
DOT
 10
-130.456185
 20
-53.63062
 11
-130.456185
 21
-53.67062
  0
LINE
  8
ボルト／ビス
  6
DOT
 10
-129.72285
 20
-53.63062
 11
-129.72285
 21
-53.67062
  0
LINE
  8
ボルト／ビス
  6
DOT
 10
-130.089517
 20
-53.68062
 11
-130.089517
 21
-53.63062
  0
ENDBLK
  0
BLOCK
  2
*GRP_0031
 70
    65
 10
0.0
 20
0.0
  0
LINE
  8
ボルト／ビス
  6
DOT
 10
-130.296185
 20
-52.770785
 11
-130.296185
 21
-52.70412
  0
LINE
  8
ボルト／ビス
  6
DOT
 10
-130.296185
 20
-52.70412
 11
-129.562853
 21
-52.70412
  0
LINE
  8
ボルト／ビス
  6
DOT
 10
-129.562853
 20
-52.70412
 11
-129.562853
 21
-52.770785
  0
LINE
  8
ボルト／ビス
  6
DOT
 10
-130.296185
 20
-52.770785
 11
-129.562853
 21
-52.770785
  0
LINE
  8
ボルト／ビス
  6
DOT
 10
-130.22952
 20
-52.670785
 11
-130.22952
 21
-52.70412
  0
LINE
  8
ボルト／ビス
  6
DOT
 10
-130.22952
 20
-52.670785
 11
-129.62952
 21
-52.670785
  0
LINE
  8
ボルト／ビス
  6
DOT
 10
-129.62952
 20
-52.670785
 11
-129.62952
 21
-52.70412
  0
LINE
  8
ボルト／ビス
  6
DOT
 62
    64
 10
-130.089895
 20
-52.470785
 11
-130.12197
 21
-52.48246
  0
ARC
  8
ボルト／ビス
  6
DOT
 62
    64
 10
-130.073858
 20
-52.575764
 40
0.104978
 50
62.721967
 51
90.0
  0
ARC
  8
ボルト／ビス
  6
DOT
 62
    64
 10
-129.92952
 20
-52.873188
 40
0.402402
 50
76.165002
 51
103.834985
  0
LINE
  8
ボルト／ビス
  6
DOT
 62
    64
 10
-129.769145
 20
-52.470785
 11
-129.73707
 21
-52.48246
  0
ARC
  8
ボルト／ビス
  6
DOT
 62
    64
 10
-129.785183
 20
-52.575764
 40
0.104978
 50
90.0
 51
117.278033
  0
LINE
  8
ボルト／ビス
  6
DOT
 62
    64
 10
-130.089895
 20
-52.470785
 11
-129.769145
 21
-52.470785
  0
LINE
  8
ボルト／ビス
  6
DOT
 62
    64
 10
-129.73707
 20
-52.48246
 11
-129.73707
 21
-52.60412
  0
LINE
  8
ボルト／ビス
  6
DOT
 62
    64
 10
-129.833295
 20
-52.48246
 11
-129.833295
 21
-52.60412
  0
LINE
  8
ボルト／ビス
  6
DOT
 62
    64
 10
-130.12197
 20
-52.48246
 11
-130.12197
 21
-52.60412
  0
LINE
  8
ボルト／ビス
  6
DOT
 62
    64
 10
-130.025745
 20
-52.48246
 11
-130.025745
 21
-52.60412
  0
LINE
  8
ボルト／ビス
  6
DOT
 10
-130.12197
 20
-52.60412
 11
-129.73707
 21
-52.60412
  0
LINE
  8
ボルト／ビス
  6
DOT
 10
-130.12952
 20
-52.60412
 11
-130.12952
 21
-52.670785
  0
LINE
  8
ボルト／ビス
  6
DOT
 10
-130.12952
 20
-52.60412
 11
-129.72952
 21
-52.60412
  0
LINE
  8
ボルト／ビス
  6
DOT
 10
-129.72952
 20
-52.60412
 11
-129.72952
 21
-52.670785
  0
ENDBLK
  0
BLOCK
  2
*GRP_0032
 70
    65
 10
0.0
 20
0.0
  0
LINE
  8
補助線
  6
BYBLOCK
 62
    64
 10
-125.868225
 20
-74.291733
 11
-125.99207
 21
-74.403268
  0
LINE
  8
補助線
  6
BYBLOCK
 62
    64
 10
-125.985917
 20
-74.285575
 11
-125.87438
 21
-74.409422
  0
LINE
  8
補助線
  6
BYBLOCK
 62
    64
 10
-115.153122
 20
-64.641708
 11
-115.276967
 21
-64.753243
  0
LINE
  8
補助線
  6
BYBLOCK
 62
    64
 10
-115.270813
 20
-64.63555
 11
-115.159278
 21
-64.759397
  0
LINE
  8
補助線
  6
BYBLOCK
 62
    64
 10
-104.561865
 20
-55.103218
 11
-104.438022
 21
-54.991683
  0
LINE
  8
補助線
  6
BYBLOCK
 62
    64
 10
-104.555713
 20
-54.985525
 11
-104.444175
 21
-55.109372
  0
LINE
  8
型材断面
  6
CONTINUOUS
 10
-126.735515
 20
-73.951345
 11
-126.772443
 21
-74.657485
  0
LINE
  8
型材断面
  6
CONTINUOUS
 10
-126.772443
 20
-74.657485
 11
-126.326303
 21
-75.152867
  0
LINE
  8
型材断面
  6
CONTINUOUS
 10
-126.326303
 20
-75.152867
 11
-125.62016
 21
-75.189797
  0
LINE
  8
型材断面
  6
CONTINUOUS
 10
-104.809927
 20
-54.205155
 11
-104.103788
 21
-54.242085
  0
LINE
  8
型材断面
  6
CONTINUOUS
 10
-104.103788
 20
-54.242085
 11
-103.657645
 21
-54.737465
  0
LINE
  8
型材断面
  6
CONTINUOUS
 10
-103.657645
 20
-54.737465
 11
-103.694575
 21
-55.44361
  0
LINE
  8
型材断面
  6
CONTINUOUS
 10
-125.62016
 20
-75.189797
 11
-103.694575
 21
-55.44361
  0
LINE
  8
型材断面
  6
CONTINUOUS
 10
-126.735515
 20
-73.951345
 11
-104.809927
 21
-54.205155
  0
CIRCLE
  8
ボルト／ビス
  6
CONTINUOUS
 10
-125.930148
 20
-74.3475
 40
0.250185
  0
CIRCLE
  8
ボルト／ビス
  6
CONTINUOUS
 10
-125.930148
 20
-74.3475
 40
0.301025
  0
LINE
  8
ボルト／ビス
  6
CONTINUOUS
 62
    64
 10
-126.17486
 20
-74.399545
 11
-126.097575
 21
-74.161595
  0
LINE
  8
ボルト／ビス
  6
CONTINUOUS
 62
    64
 10
-125.852862
 20
-74.10955
 11
-126.097575
 21
-74.161595
  0
LINE
  8
ボルト／ビス
  6
CONTINUOUS
 62
    64
 10
-126.007432
 20
-74.58545
 11
-125.76272
 21
-74.533405
  0
LINE
  8
ボルト／ビス
  6
CONTINUOUS
 62
    64
 10
-125.685435
 20
-74.295455
 11
-125.76272
 21
-74.533405
  0
LINE
  8
ボルト／ビス
  6
CONTINUOUS
 62
    64
 10
-126.17486
 20
-74.399545
 11
-126.007432
 21
-74.58545
  0
LINE
  8
ボルト／ビス
  6
CONTINUOUS
 62
    64
 10
-125.852862
 20
-74.10955
 11
-125.685435
 21
-74.295455
  0
CIRCLE
  8
ボルト／ビス
  6
CONTINUOUS
 62
    64
 10
-125.930148
 20
-74.3475
 40
0.216668
  0
CIRCLE
  8
ボルト／ビス
  6
CONTINUOUS
 10
-115.215045
 20
-64.697477
 40
0.250185
  0
CIRCLE
  8
ボルト／ビス
  6
CONTINUOUS
 10
-115.215045
 20
-64.697477
 40
0.301025
  0
LINE
  8
ボルト／ビス
  6
CONTINUOUS
 62
    64
 10
-115.45976
 20
-64.74952
 11
-115.382473
 21
-64.51157
  0
LINE
  8
ボルト／ビス
  6
CONTINUOUS
 62
    64
 10
-115.13776
 20
-64.459527
 11
-115.382473
 21
-64.51157
  0
LINE
  8
ボルト／ビス
  6
CONTINUOUS
 62
    64
 10
-115.292332
 20
-64.935425
 11
-115.04762
 21
-64.88338
  0
LINE
  8
ボルト／ビス
  6
CONTINUOUS
 62
    64
 10
-114.970333
 20
-64.645432
 11
-115.04762
 21
-64.88338
  0
LINE
  8
ボルト／ビス
  6
CONTINUOUS
 62
    64
 10
-115.45976
 20
-64.74952
 11
-115.292332
 21
-64.935425
  0
LINE
  8
ボルト／ビス
  6
CONTINUOUS
 62
    64
 10
-115.13776
 20
-64.459527
 11
-114.970333
 21
-64.645432
  0
CIRCLE
  8
ボルト／ビス
  6
CONTINUOUS
 62
    64
 10
-115.215045
 20
-64.697477
 40
0.216668
  0
CIRCLE
  8
ボルト／ビス
  6
CONTINUOUS
 10
-104.499945
 20
-55.04745
 40
0.250185
  0
CIRCLE
  8
ボルト／ビス
  6
CONTINUOUS
 10
-104.499945
 20
-55.04745
 40
0.301025
  0
LINE
  8
ボルト／ビス
  6
CONTINUOUS
 62
    64
 10
-104.422657
 20
-54.8095
 11
-104.66737
 21
-54.861545
  0
LINE
  8
ボルト／ビス
  6
CONTINUOUS
 62
    64
 10
-104.744655
 20
-55.099495
 11
-104.66737
 21
-54.861545
  0
LINE
  8
ボルト／ビス
  6
CONTINUOUS
 62
    64
 10
-104.25523
 20
-54.995405
 11
-104.332517
 21
-55.233355
  0
LINE
  8
ボルト／ビス
  6
CONTINUOUS
 62
    64
 10
-104.57723
 20
-55.2854
 11
-104.332517
 21
-55.233355
  0
LINE
  8
ボルト／ビス
  6
CONTINUOUS
 62
    64
 10
-104.422657
 20
-54.8095
 11
-104.25523
 21
-54.995405
  0
LINE
  8
ボルト／ビス
  6
CONTINUOUS
 62
    64
 10
-104.744655
 20
-55.099495
 11
-104.57723
 21
-55.2854
  0
CIRCLE
  8
ボルト／ビス
  6
CONTINUOUS
 62
    64
 10
-104.499945
 20
-55.04745
 40
0.216668
  0
ENDBLK
  0
BLOCK
  2
*GRP_0033
 70
    65
 10
0.0
 20
0.0
  0
LINE
  8
補助線
  6
BYBLOCK
 62
    64
 10
-104.561865
 20
-74.291733
 11
-104.43802
 21
-74.403268
  0
LINE
  8
補助線
  6
BYBLOCK
 62
    64
 10
-104.444172
 20
-74.285575
 11
-104.55571
 21
-74.409422
  0
LINE
  8
補助線
  6
BYBLOCK
 62
    64
 10
-115.276967
 20
-64.641708
 11
-115.153122
 21
-64.753243
  0
LINE
  8
補助線
  6
BYBLOCK
 62
    64
 10
-115.159278
 20
-64.63555
 11
-115.270813
 21
-64.759397
  0
LINE
  8
補助線
  6
BYBLOCK
 62
    64
 10
-125.868225
 20
-55.103218
 11
-125.992068
 21
-54.991683
  0
LINE
  8
補助線
  6
BYBLOCK
 62
    64
 10
-125.874377
 20
-54.985525
 11
-125.985915
 21
-55.109372
  0
LINE
  8
型材断面
  6
CONTINUOUS
 10
-103.694575
 20
-73.951345
 11
-103.657647
 21
-74.657485
  0
LINE
  8
型材断面
  6
CONTINUOUS
 10
-103.657647
 20
-74.657485
 11
-104.103788
 21
-75.152867
  0
LINE
  8
型材断面
  6
CONTINUOUS
 10
-104.103788
 20
-75.152867
 11
-104.80993
 21
-75.189797
  0
LINE
  8
型材断面
  6
CONTINUOUS
 10
-125.620162
 20
-54.205155
 11
-126.326303
 21
-54.242085
  0
LINE
  8
型材断面
  6
CONTINUOUS
 10
-126.326303
 20
-54.242085
 11
-126.772445
 21
-54.737465
  0
LINE
  8
型材断面
  6
CONTINUOUS
 10
-126.772445
 20
-54.737465
 11
-126.735515
 21
-55.44361
  0
LINE
  8
型材断面
  6
CONTINUOUS
 10
-104.80993
 20
-75.189797
 11
-126.735515
 21
-55.44361
  0
LINE
  8
型材断面
  6
CONTINUOUS
 10
-103.694575
 20
-73.951345
 11
-125.620162
 21
-54.205155
  0
CIRCLE
  8
ボルト／ビス
  6
CONTINUOUS
 10
-104.499943
 20
-74.3475
 40
0.250185
  0
CIRCLE
  8
ボルト／ビス
  6
CONTINUOUS
 10
-104.499943
 20
-74.3475
 40
0.301025
  0
LINE
  8
ボルト／ビス
  6
CONTINUOUS
 62
    64
 10
-104.25523
 20
-74.399545
 11
-104.332515
 21
-74.161595
  0
LINE
  8
ボルト／ビス
  6
CONTINUOUS
 62
    64
 10
-104.577228
 20
-74.10955
 11
-104.332515
 21
-74.161595
  0
LINE
  8
ボルト／ビス
  6
CONTINUOUS
 62
    64
 10
-104.422657
 20
-74.58545
 11
-104.66737
 21
-74.533405
  0
LINE
  8
ボルト／ビス
  6
CONTINUOUS
 62
    64
 10
-104.744655
 20
-74.295455
 11
-104.66737
 21
-74.533405
  0
LINE
  8
ボルト／ビス
  6
CONTINUOUS
 62
    64
 10
-104.25523
 20
-74.399545
 11
-104.422657
 21
-74.58545
  0
LINE
  8
ボルト／ビス
  6
CONTINUOUS
 62
    64
 10
-104.577228
 20
-74.10955
 11
-104.744655
 21
-74.295455
  0
CIRCLE
  8
ボルト／ビス
  6
CONTINUOUS
 62
    64
 10
-104.499943
 20
-74.3475
 40
0.216668
  0
CIRCLE
  8
ボルト／ビス
  6
CONTINUOUS
 10
-115.215045
 20
-64.697477
 40
0.250185
  0
CIRCLE
  8
ボルト／ビス
  6
CONTINUOUS
 10
-115.215045
 20
-64.697477
 40
0.301025
  0
LINE
  8
ボルト／ビス
  6
CONTINUOUS
 62
    64
 10
-114.97033
 20
-64.74952
 11
-115.047617
 21
-64.51157
  0
LINE
  8
ボルト／ビス
  6
CONTINUOUS
 62
    64
 10
-115.29233
 20
-64.459527
 11
-115.047617
 21
-64.51157
  0
LINE
  8
ボルト／ビス
  6
CONTINUOUS
 62
    64
 10
-115.137758
 20
-64.935425
 11
-115.38247
 21
-64.88338
  0
LINE
  8
ボルト／ビス
  6
CONTINUOUS
 62
    64
 10
-115.459757
 20
-64.645432
 11
-115.38247
 21
-64.88338
  0
LINE
  8
ボルト／ビス
  6
CONTINUOUS
 62
    64
 10
-114.97033
 20
-64.74952
 11
-115.137758
 21
-64.935425
  0
LINE
  8
ボルト／ビス
  6
CONTINUOUS
 62
    64
 10
-115.29233
 20
-64.459527
 11
-115.459757
 21
-64.645432
  0
CIRCLE
  8
ボルト／ビス
  6
CONTINUOUS
 62
    64
 10
-115.215045
 20
-64.697477
 40
0.216668
  0
CIRCLE
  8
ボルト／ビス
  6
CONTINUOUS
 10
-125.930145
 20
-55.04745
 40
0.250185
  0
CIRCLE
  8
ボルト／ビス
  6
CONTINUOUS
 10
-125.930145
 20
-55.04745
 40
0.301025
  0
LINE
  8
ボルト／ビス
  6
CONTINUOUS
 62
    64
 10
-126.007432
 20
-54.8095
 11
-125.76272
 21
-54.861545
  0
LINE
  8
ボルト／ビス
  6
CONTINUOUS
 62
    64
 10
-125.685435
 20
-55.099495
 11
-125.76272
 21
-54.861545
  0
LINE
  8
ボルト／ビス
  6
CONTINUOUS
 62
    64
 10
-126.17486
 20
-54.995405
 11
-126.097573
 21
-55.233355
  0
LINE
  8
ボルト／ビス
  6
CONTINUOUS
 62
    64
 10
-125.85286
 20
-55.2854
 11
-126.097573
 21
-55.233355
  0
LINE
  8
ボルト／ビス
  6
CONTINUOUS
 62
    64
 10
-126.007432
 20
-54.8095
 11
-126.17486
 21
-54.995405
  0
LINE
  8
ボルト／ビス
  6
CONTINUOUS
 62
    64
 10
-125.685435
 20
-55.099495
 11
-125.85286
 21
-55.2854
  0
CIRCLE
  8
ボルト／ビス
  6
CONTINUOUS
 62
    64
 10
-125.930145
 20
-55.04745
 40
0.216668
  0
ENDBLK
  0
BLOCK
  2
*GRP_0034
 70
    65
 10
0.0
 20
0.0
  0
LINE
  8
補助線
  6
BYBLOCK
 62
    64
 10
50.6746
 20
-74.291733
 11
50.798445
 21
-74.403268
  0
LINE
  8
補助線
  6
BYBLOCK
 62
    64
 10
50.792293
 20
-74.285575
 11
50.680755
 21
-74.409422
  0
LINE
  8
補助線
  6
BYBLOCK
 62
    64
 10
39.959497
 20
-64.641708
 11
40.083343
 21
-64.753243
  0
LINE
  8
補助線
  6
BYBLOCK
 62
    64
 10
40.077188
 20
-64.63555
 11
39.965653
 21
-64.759397
  0
LINE
  8
補助線
  6
BYBLOCK
 62
    64
 10
29.36824
 20
-55.103218
 11
29.244398
 21
-54.991683
  0
LINE
  8
補助線
  6
BYBLOCK
 62
    64
 10
29.362088
 20
-54.985525
 11
29.25055
 21
-55.109372
  0
LINE
  8
型材断面
  6
CONTINUOUS
 10
51.54189
 20
-73.951345
 11
51.578817
 21
-74.657485
  0
LINE
  8
型材断面
  6
CONTINUOUS
 10
51.578817
 20
-74.657485
 11
51.132677
 21
-75.152867
  0
LINE
  8
型材断面
  6
CONTINUOUS
 10
51.132677
 20
-75.152867
 11
50.426535
 21
-75.189797
  0
LINE
  8
型材断面
  6
CONTINUOUS
 10
29.616302
 20
-54.205155
 11
28.910162
 21
-54.242085
  0
LINE
  8
型材断面
  6
CONTINUOUS
 10
28.910162
 20
-54.242085
 11
28.46402
 21
-54.737465
  0
LINE
  8
型材断面
  6
CONTINUOUS
 10
28.46402
 20
-54.737465
 11
28.50095
 21
-55.44361
  0
LINE
  8
型材断面
  6
CONTINUOUS
 10
50.426535
 20
-75.189797
 11
28.50095
 21
-55.44361
  0
LINE
  8
型材断面
  6
CONTINUOUS
 10
51.54189
 20
-73.951345
 11
29.616302
 21
-54.205155
  0
CIRCLE
  8
ボルト／ビス
  6
CONTINUOUS
 10
50.736522
 20
-74.3475
 40
0.250185
  0
CIRCLE
  8
ボルト／ビス
  6
CONTINUOUS
 10
50.736522
 20
-74.3475
 40
0.301025
  0
LINE
  8
ボルト／ビス
  6
CONTINUOUS
 62
    64
 10
50.981235
 20
-74.399545
 11
50.90395
 21
-74.161595
  0
LINE
  8
ボルト／ビス
  6
CONTINUOUS
 62
    64
 10
50.659238
 20
-74.10955
 11
50.90395
 21
-74.161595
  0
LINE
  8
ボルト／ビス
  6
CONTINUOUS
 62
    64
 10
50.813808
 20
-74.58545
 11
50.569095
 21
-74.533405
  0
LINE
  8
ボルト／ビス
  6
CONTINUOUS
 62
    64
 10
50.49181
 20
-74.295455
 11
50.569095
 21
-74.533405
  0
LINE
  8
ボルト／ビス
  6
CONTINUOUS
 62
    64
 10
50.981235
 20
-74.399545
 11
50.813808
 21
-74.58545
  0
LINE
  8
ボルト／ビス
  6
CONTINUOUS
 62
    64
 10
50.659238
 20
-74.10955
 11
50.49181
 21
-74.295455
  0
CIRCLE
  8
ボルト／ビス
  6
CONTINUOUS
 62
    64
 10
50.736522
 20
-74.3475
 40
0.216668
  0
CIRCLE
  8
ボルト／ビス
  6
CONTINUOUS
 10
40.02142
 20
-64.697477
 40
0.250185
  0
CIRCLE
  8
ボルト／ビス
  6
CONTINUOUS
 10
40.02142
 20
-64.697477
 40
0.301025
  0
LINE
  8
ボルト／ビス
  6
CONTINUOUS
 62
    64
 10
40.266135
 20
-64.74952
 11
40.188847
 21
-64.51157
  0
LINE
  8
ボルト／ビス
  6
CONTINUOUS
 62
    64
 10
39.944135
 20
-64.459527
 11
40.188847
 21
-64.51157
  0
LINE
  8
ボルト／ビス
  6
CONTINUOUS
 62
    64
 10
40.098707
 20
-64.935425
 11
39.853995
 21
-64.88338
  0
LINE
  8
ボルト／ビス
  6
CONTINUOUS
 62
    64
 10
39.776707
 20
-64.645432
 11
39.853995
 21
-64.88338
  0
LINE
  8
ボルト／ビス
  6
CONTINUOUS
 62
    64
 10
40.266135
 20
-64.74952
 11
40.098707
 21
-64.935425
  0
LINE
  8
ボルト／ビス
  6
CONTINUOUS
 62
    64
 10
39.944135
 20
-64.459527
 11
39.776707
 21
-64.645432
  0
CIRCLE
  8
ボルト／ビス
  6
CONTINUOUS
 62
    64
 10
40.02142
 20
-64.697477
 40
0.216668
  0
CIRCLE
  8
ボルト／ビス
  6
CONTINUOUS
 10
29.30632
 20
-55.04745
 40
0.250185
  0
CIRCLE
  8
ボルト／ビス
  6
CONTINUOUS
 10
29.30632
 20
-55.04745
 40
0.301025
  0
LINE
  8
ボルト／ビス
  6
CONTINUOUS
 62
    64
 10
29.229032
 20
-54.8095
 11
29.473745
 21
-54.861545
  0
LINE
  8
ボルト／ビス
  6
CONTINUOUS
 62
    64
 10
29.55103
 20
-55.099495
 11
29.473745
 21
-54.861545
  0
LINE
  8
ボルト／ビス
  6
CONTINUOUS
 62
    64
 10
29.061605
 20
-54.995405
 11
29.138892
 21
-55.233355
  0
LINE
  8
ボルト／ビス
  6
CONTINUOUS
 62
    64
 10
29.383605
 20
-55.2854
 11
29.138892
 21
-55.233355
  0
LINE
  8
ボルト／ビス
  6
CONTINUOUS
 62
    64
 10
29.229032
 20
-54.8095
 11
29.061605
 21
-54.995405
  0
LINE
  8
ボルト／ビス
  6
CONTINUOUS
 62
    64
 10
29.55103
 20
-55.099495
 11
29.383605
 21
-55.2854
  0
CIRCLE
  8
ボルト／ビス
  6
CONTINUOUS
 62
    64
 10
29.30632
 20
-55.04745
 40
0.216668
  0
ENDBLK
  0
BLOCK
  2
*GRP_0035
 70
    65
 10
0.0
 20
0.0
  0
LINE
  8
補助線
  6
BYBLOCK
 62
    64
 10
29.36824
 20
-74.291733
 11
29.244395
 21
-74.403268
  0
LINE
  8
補助線
  6
BYBLOCK
 62
    64
 10
29.250547
 20
-74.285575
 11
29.362085
 21
-74.409422
  0
LINE
  8
補助線
  6
BYBLOCK
 62
    64
 10
40.083343
 20
-64.641708
 11
39.959497
 21
-64.753243
  0
LINE
  8
補助線
  6
BYBLOCK
 62
    64
 10
39.965653
 20
-64.63555
 11
40.077188
 21
-64.759397
  0
LINE
  8
補助線
  6
BYBLOCK
 62
    64
 10
50.6746
 20
-55.103218
 11
50.798443
 21
-54.991683
  0
LINE
  8
補助線
  6
BYBLOCK
 62
    64
 10
50.680753
 20
-54.985525
 11
50.79229
 21
-55.109372
  0
LINE
  8
型材断面
  6
CONTINUOUS
 10
28.50095
 20
-73.951345
 11
28.464022
 21
-74.657485
  0
LINE
  8
型材断面
  6
CONTINUOUS
 10
28.464022
 20
-74.657485
 11
28.910162
 21
-75.152867
  0
LINE
  8
型材断面
  6
CONTINUOUS
 10
28.910162
 20
-75.152867
 11
29.616305
 21
-75.189797
  0
LINE
  8
型材断面
  6
CONTINUOUS
 10
50.426538
 20
-54.205155
 11
51.132677
 21
-54.242085
  0
LINE
  8
型材断面
  6
CONTINUOUS
 10
51.132677
 20
-54.242085
 11
51.57882
 21
-54.737465
  0
LINE
  8
型材断面
  6
CONTINUOUS
 10
51.57882
 20
-54.737465
 11
51.54189
 21
-55.44361
  0
LINE
  8
型材断面
  6
CONTINUOUS
 10
29.616305
 20
-75.189797
 11
51.54189
 21
-55.44361
  0
LINE
  8
型材断面
  6
CONTINUOUS
 10
28.50095
 20
-73.951345
 11
50.426538
 21
-54.205155
  0
CIRCLE
  8
ボルト／ビス
  6
CONTINUOUS
 10
29.306317
 20
-74.3475
 40
0.250185
  0
CIRCLE
  8
ボルト／ビス
  6
CONTINUOUS
 10
29.306317
 20
-74.3475
 40
0.301025
  0
LINE
  8
ボルト／ビス
  6
CONTINUOUS
 62
    64
 10
29.061605
 20
-74.399545
 11
29.13889
 21
-74.161595
  0
LINE
  8
ボルト／ビス
  6
CONTINUOUS
 62
    64
 10
29.383603
 20
-74.10955
 11
29.13889
 21
-74.161595
  0
LINE
  8
ボルト／ビス
  6
CONTINUOUS
 62
    64
 10
29.229032
 20
-74.58545
 11
29.473745
 21
-74.533405
  0
LINE
  8
ボルト／ビス
  6
CONTINUOUS
 62
    64
 10
29.55103
 20
-74.295455
 11
29.473745
 21
-74.533405
  0
LINE
  8
ボルト／ビス
  6
CONTINUOUS
 62
    64
 10
29.061605
 20
-74.399545
 11
29.229032
 21
-74.58545
  0
LINE
  8
ボルト／ビス
  6
CONTINUOUS
 62
    64
 10
29.383603
 20
-74.10955
 11
29.55103
 21
-74.295455
  0
CIRCLE
  8
ボルト／ビス
  6
CONTINUOUS
 62
    64
 10
29.306317
 20
-74.3475
 40
0.216668
  0
CIRCLE
  8
ボルト／ビス
  6
CONTINUOUS
 10
40.02142
 20
-64.697477
 40
0.250185
  0
CIRCLE
  8
ボルト／ビス
  6
CONTINUOUS
 10
40.02142
 20
-64.697477
 40
0.301025
  0
LINE
  8
ボルト／ビス
  6
CONTINUOUS
 62
    64
 10
39.776705
 20
-64.74952
 11
39.853992
 21
-64.51157
  0
LINE
  8
ボルト／ビス
  6
CONTINUOUS
 62
    64
 10
40.098705
 20
-64.459527
 11
39.853992
 21
-64.51157
  0
LINE
  8
ボルト／ビス
  6
CONTINUOUS
 62
    64
 10
39.944132
 20
-64.935425
 11
40.188845
 21
-64.88338
  0
LINE
  8
ボルト／ビス
  6
CONTINUOUS
 62
    64
 10
40.266132
 20
-64.645432
 11
40.188845
 21
-64.88338
  0
LINE
  8
ボルト／ビス
  6
CONTINUOUS
 62
    64
 10
39.776705
 20
-64.74952
 11
39.944132
 21
-64.935425
  0
LINE
  8
ボルト／ビス
  6
CONTINUOUS
 62
    64
 10
40.098705
 20
-64.459527
 11
40.266132
 21
-64.645432
  0
CIRCLE
  8
ボルト／ビス
  6
CONTINUOUS
 62
    64
 10
40.02142
 20
-64.697477
 40
0.216668
  0
CIRCLE
  8
ボルト／ビス
  6
CONTINUOUS
 10
50.73652
 20
-55.04745
 40
0.250185
  0
CIRCLE
  8
ボルト／ビス
  6
CONTINUOUS
 10
50.73652
 20
-55.04745
 40
0.301025
  0
LINE
  8
ボルト／ビス
  6
CONTINUOUS
 62
    64
 10
50.813808
 20
-54.8095
 11
50.569095
 21
-54.861545
  0
LINE
  8
ボルト／ビス
  6
CONTINUOUS
 62
    64
 10
50.49181
 20
-55.099495
 11
50.569095
 21
-54.861545
  0
LINE
  8
ボルト／ビス
  6
CONTINUOUS
 62
    64
 10
50.981235
 20
-54.995405
 11
50.903947
 21
-55.233355
  0
LINE
  8
ボルト／ビス
  6
CONTINUOUS
 62
    64
 10
50.659235
 20
-55.2854
 11
50.903947
 21
-55.233355
  0
LINE
  8
ボルト／ビス
  6
CONTINUOUS
 62
    64
 10
50.813808
 20
-54.8095
 11
50.981235
 21
-54.995405
  0
LINE
  8
ボルト／ビス
  6
CONTINUOUS
 62
    64
 10
50.49181
 20
-55.099495
 11
50.659235
 21
-55.2854
  0
CIRCLE
  8
ボルト／ビス
  6
CONTINUOUS
 62
    64
 10
50.73652
 20
-55.04745
 40
0.216668
  0
ENDBLK
  0
BLOCK
  2
*GRP_0036
 70
    65
 10
0.0
 20
0.0
  0
LINE
  8
補助線
  6
BYBLOCK
 62
    64
 10
-26.943632
 20
-74.291733
 11
-26.819787
 21
-74.403268
  0
LINE
  8
補助線
  6
BYBLOCK
 62
    64
 10
-26.82594
 20
-74.285575
 11
-26.937478
 21
-74.409422
  0
LINE
  8
補助線
  6
BYBLOCK
 62
    64
 10
-37.658735
 20
-64.641708
 11
-37.53489
 21
-64.753243
  0
LINE
  8
補助線
  6
BYBLOCK
 62
    64
 10
-37.541045
 20
-64.63555
 11
-37.65258
 21
-64.759397
  0
LINE
  8
補助線
  6
BYBLOCK
 62
    64
 10
-48.249993
 20
-55.103218
 11
-48.373835
 21
-54.991683
  0
LINE
  8
補助線
  6
BYBLOCK
 62
    64
 10
-48.256145
 20
-54.985525
 11
-48.367682
 21
-55.109372
  0
LINE
  8
型材断面
  6
CONTINUOUS
 10
-26.076343
 20
-73.951345
 11
-26.039415
 21
-74.657485
  0
LINE
  8
型材断面
  6
CONTINUOUS
 10
-26.039415
 20
-74.657485
 11
-26.485555
 21
-75.152867
  0
LINE
  8
型材断面
  6
CONTINUOUS
 10
-26.485555
 20
-75.152867
 11
-27.191698
 21
-75.189797
  0
LINE
  8
型材断面
  6
CONTINUOUS
 10
-48.00193
 20
-54.205155
 11
-48.70807
 21
-54.242085
  0
LINE
  8
型材断面
  6
CONTINUOUS
 10
-48.70807
 20
-54.242085
 11
-49.154212
 21
-54.737465
  0
LINE
  8
型材断面
  6
CONTINUOUS
 10
-49.154212
 20
-54.737465
 11
-49.117282
 21
-55.44361
  0
LINE
  8
型材断面
  6
CONTINUOUS
 10
-27.191698
 20
-75.189797
 11
-49.117282
 21
-55.44361
  0
LINE
  8
型材断面
  6
CONTINUOUS
 10
-26.076343
 20
-73.951345
 11
-48.00193
 21
-54.205155
  0
CIRCLE
  8
ボルト／ビス
  6
CONTINUOUS
 10
-26.88171
 20
-74.3475
 40
0.250185
  0
CIRCLE
  8
ボルト／ビス
  6
CONTINUOUS
 10
-26.88171
 20
-74.3475
 40
0.301025
  0
LINE
  8
ボルト／ビス
  6
CONTINUOUS
 62
    64
 10
-26.636997
 20
-74.399545
 11
-26.714282
 21
-74.161595
  0
LINE
  8
ボルト／ビス
  6
CONTINUOUS
 62
    64
 10
-26.958995
 20
-74.10955
 11
-26.714282
 21
-74.161595
  0
LINE
  8
ボルト／ビス
  6
CONTINUOUS
 62
    64
 10
-26.804425
 20
-74.58545
 11
-27.049137
 21
-74.533405
  0
LINE
  8
ボルト／ビス
  6
CONTINUOUS
 62
    64
 10
-27.126422
 20
-74.295455
 11
-27.049137
 21
-74.533405
  0
LINE
  8
ボルト／ビス
  6
CONTINUOUS
 62
    64
 10
-26.636997
 20
-74.399545
 11
-26.804425
 21
-74.58545
  0
LINE
  8
ボルト／ビス
  6
CONTINUOUS
 62
    64
 10
-26.958995
 20
-74.10955
 11
-27.126422
 21
-74.295455
  0
CIRCLE
  8
ボルト／ビス
  6
CONTINUOUS
 62
    64
 10
-26.88171
 20
-74.3475
 40
0.216668
  0
CIRCLE
  8
ボルト／ビス
  6
CONTINUOUS
 10
-37.596813
 20
-64.697477
 40
0.250185
  0
CIRCLE
  8
ボルト／ビス
  6
CONTINUOUS
 10
-37.596813
 20
-64.697477
 40
0.301025
  0
LINE
  8
ボルト／ビス
  6
CONTINUOUS
 62
    64
 10
-37.352098
 20
-64.74952
 11
-37.429385
 21
-64.51157
  0
LINE
  8
ボルト／ビス
  6
CONTINUOUS
 62
    64
 10
-37.674097
 20
-64.459527
 11
-37.429385
 21
-64.51157
  0
LINE
  8
ボルト／ビス
  6
CONTINUOUS
 62
    64
 10
-37.519525
 20
-64.935425
 11
-37.764238
 21
-64.88338
  0
LINE
  8
ボルト／ビス
  6
CONTINUOUS
 62
    64
 10
-37.841525
 20
-64.645432
 11
-37.764238
 21
-64.88338
  0
LINE
  8
ボルト／ビス
  6
CONTINUOUS
 62
    64
 10
-37.352098
 20
-64.74952
 11
-37.519525
 21
-64.935425
  0
LINE
  8
ボルト／ビス
  6
CONTINUOUS
 62
    64
 10
-37.674097
 20
-64.459527
 11
-37.841525
 21
-64.645432
  0
CIRCLE
  8
ボルト／ビス
  6
CONTINUOUS
 62
    64
 10
-37.596813
 20
-64.697477
 40
0.216668
  0
CIRCLE
  8
ボルト／ビス
  6
CONTINUOUS
 10
-48.311913
 20
-55.04745
 40
0.250185
  0
CIRCLE
  8
ボルト／ビス
  6
CONTINUOUS
 10
-48.311913
 20
-55.04745
 40
0.301025
  0
LINE
  8
ボルト／ビス
  6
CONTINUOUS
 62
    64
 10
-48.3892
 20
-54.8095
 11
-48.144488
 21
-54.861545
  0
LINE
  8
ボルト／ビス
  6
CONTINUOUS
 62
    64
 10
-48.067202
 20
-55.099495
 11
-48.144488
 21
-54.861545
  0
LINE
  8
ボルト／ビス
  6
CONTINUOUS
 62
    64
 10
-48.556628
 20
-54.995405
 11
-48.47934
 21
-55.233355
  0
LINE
  8
ボルト／ビス
  6
CONTINUOUS
 62
    64
 10
-48.234627
 20
-55.2854
 11
-48.47934
 21
-55.233355
  0
LINE
  8
ボルト／ビス
  6
CONTINUOUS
 62
    64
 10
-48.3892
 20
-54.8095
 11
-48.556628
 21
-54.995405
  0
LINE
  8
ボルト／ビス
  6
CONTINUOUS
 62
    64
 10
-48.067202
 20
-55.099495
 11
-48.234627
 21
-55.2854
  0
CIRCLE
  8
ボルト／ビス
  6
CONTINUOUS
 62
    64
 10
-48.311913
 20
-55.04745
 40
0.216668
  0
ENDBLK
  0
BLOCK
  2
*GRP_0037
 70
    65
 10
0.0
 20
0.0
  0
LINE
  8
補助線
  6
BYBLOCK
 62
    64
 10
-48.249993
 20
-74.291733
 11
-48.373837
 21
-74.403268
  0
LINE
  8
補助線
  6
BYBLOCK
 62
    64
 10
-48.367685
 20
-74.285575
 11
-48.256148
 21
-74.409422
  0
LINE
  8
補助線
  6
BYBLOCK
 62
    64
 10
-37.53489
 20
-64.641708
 11
-37.658735
 21
-64.753243
  0
LINE
  8
補助線
  6
BYBLOCK
 62
    64
 10
-37.65258
 20
-64.63555
 11
-37.541045
 21
-64.759397
  0
LINE
  8
補助線
  6
BYBLOCK
 62
    64
 10
-26.943632
 20
-55.103218
 11
-26.81979
 21
-54.991683
  0
LINE
  8
補助線
  6
BYBLOCK
 62
    64
 10
-26.93748
 20
-54.985525
 11
-26.825943
 21
-55.109372
  0
LINE
  8
型材断面
  6
CONTINUOUS
 10
-49.117282
 20
-73.951345
 11
-49.15421
 21
-74.657485
  0
LINE
  8
型材断面
  6
CONTINUOUS
 10
-49.15421
 20
-74.657485
 11
-48.70807
 21
-75.152867
  0
LINE
  8
型材断面
  6
CONTINUOUS
 10
-48.70807
 20
-75.152867
 11
-48.001927
 21
-75.189797
  0
LINE
  8
型材断面
  6
CONTINUOUS
 10
-27.191695
 20
-54.205155
 11
-26.485555
 21
-54.242085
  0
LINE
  8
型材断面
  6
CONTINUOUS
 10
-26.485555
 20
-54.242085
 11
-26.039412
 21
-54.737465
  0
LINE
  8
型材断面
  6
CONTINUOUS
 10
-26.039412
 20
-54.737465
 11
-26.076343
 21
-55.44361
  0
LINE
  8
型材断面
  6
CONTINUOUS
 10
-48.001927
 20
-75.189797
 11
-26.076343
 21
-55.44361
  0
LINE
  8
型材断面
  6
CONTINUOUS
 10
-49.117282
 20
-73.951345
 11
-27.191695
 21
-54.205155
  0
CIRCLE
  8
ボルト／ビス
  6
CONTINUOUS
 10
-48.311915
 20
-74.3475
 40
0.250185
  0
CIRCLE
  8
ボルト／ビス
  6
CONTINUOUS
 10
-48.311915
 20
-74.3475
 40
0.301025
  0
LINE
  8
ボルト／ビス
  6
CONTINUOUS
 62
    64
 10
-48.556628
 20
-74.399545
 11
-48.479342
 21
-74.161595
  0
LINE
  8
ボルト／ビス
  6
CONTINUOUS
 62
    64
 10
-48.23463
 20
-74.10955
 11
-48.479342
 21
-74.161595
  0
LINE
  8
ボルト／ビス
  6
CONTINUOUS
 62
    64
 10
-48.3892
 20
-74.58545
 11
-48.144488
 21
-74.533405
  0
LINE
  8
ボルト／ビス
  6
CONTINUOUS
 62
    64
 10
-48.067202
 20
-74.295455
 11
-48.144488
 21
-74.533405
  0
LINE
  8
ボルト／ビス
  6
CONTINUOUS
 62
    64
 10
-48.556628
 20
-74.399545
 11
-48.3892
 21
-74.58545
  0
LINE
  8
ボルト／ビス
  6
CONTINUOUS
 62
    64
 10
-48.23463
 20
-74.10955
 11
-48.067202
 21
-74.295455
  0
CIRCLE
  8
ボルト／ビス
  6
CONTINUOUS
 62
    64
 10
-48.311915
 20
-74.3475
 40
0.216668
  0
CIRCLE
  8
ボルト／ビス
  6
CONTINUOUS
 10
-37.596813
 20
-64.697477
 40
0.250185
  0
CIRCLE
  8
ボルト／ビス
  6
CONTINUOUS
 10
-37.596813
 20
-64.697477
 40
0.301025
  0
LINE
  8
ボルト／ビス
  6
CONTINUOUS
 62
    64
 10
-37.841528
 20
-64.74952
 11
-37.76424
 21
-64.51157
  0
LINE
  8
ボルト／ビス
  6
CONTINUOUS
 62
    64
 10
-37.519528
 20
-64.459527
 11
-37.76424
 21
-64.51157
  0
LINE
  8
ボルト／ビス
  6
CONTINUOUS
 62
    64
 10
-37.6741
 20
-64.935425
 11
-37.429388
 21
-64.88338
  0
LINE
  8
ボルト／ビス
  6
CONTINUOUS
 62
    64
 10
-37.3521
 20
-64.645432
 11
-37.429388
 21
-64.88338
  0
LINE
  8
ボルト／ビス
  6
CONTINUOUS
 62
    64
 10
-37.841528
 20
-64.74952
 11
-37.6741
 21
-64.935425
  0
LINE
  8
ボルト／ビス
  6
CONTINUOUS
 62
    64
 10
-37.519528
 20
-64.459527
 11
-37.3521
 21
-64.645432
  0
CIRCLE
  8
ボルト／ビス
  6
CONTINUOUS
 62
    64
 10
-37.596813
 20
-64.697477
 40
0.216668
  0
CIRCLE
  8
ボルト／ビス
  6
CONTINUOUS
 10
-26.881712
 20
-55.04745
 40
0.250185
  0
CIRCLE
  8
ボルト／ビス
  6
CONTINUOUS
 10
-26.881712
 20
-55.04745
 40
0.301025
  0
LINE
  8
ボルト／ビス
  6
CONTINUOUS
 62
    64
 10
-26.804425
 20
-54.8095
 11
-27.049137
 21
-54.861545
  0
LINE
  8
ボルト／ビス
  6
CONTINUOUS
 62
    64
 10
-27.126422
 20
-55.099495
 11
-27.049137
 21
-54.861545
  0
LINE
  8
ボルト／ビス
  6
CONTINUOUS
 62
    64
 10
-26.636997
 20
-54.995405
 11
-26.714285
 21
-55.233355
  0
LINE
  8
ボルト／ビス
  6
CONTINUOUS
 62
    64
 10
-26.958997
 20
-55.2854
 11
-26.714285
 21
-55.233355
  0
LINE
  8
ボルト／ビス
  6
CONTINUOUS
 62
    64
 10
-26.804425
 20
-54.8095
 11
-26.636997
 21
-54.995405
  0
LINE
  8
ボルト／ビス
  6
CONTINUOUS
 62
    64
 10
-27.126422
 20
-55.099495
 11
-26.958997
 21
-55.2854
  0
CIRCLE
  8
ボルト／ビス
  6
CONTINUOUS
 62
    64
 10
-26.881712
 20
-55.04745
 40
0.216668
  0
ENDBLK
  0
BLOCK
  2
*DIM_0038
 70
    65
 10
0.0
 20
0.0
  0
LINE
  8
寸法
  6
CONTINUOUS
 10
56.349857
 20
-68.209977
 11
56.349857
 21
-32.437345
  0
LINE
  8
寸法
  6
CONTINUOUS
 10
54.070162
 20
-32.437345
 11
56.349857
 21
-32.437345
  0
POINT
  8
寸法
 10
54.070162
 20
-32.437345
  0
POINT
  8
寸法
 10
56.349857
 20
-32.437345
  0
TEXT
  7
TextStyle03
  8
寸法
  6
CONTINUOUS
 10
58.66875
 20
-32.075
  1
68.4
 40
3.0
 72
     5
 11
65.23125
 21
-32.075
  0
ENDBLK
  0
BLOCK
  2
*DIM_0039
 70
    65
 10
0.0
 20
0.0
  0
LINE
  8
寸法
  6
CONTINUOUS
 10
-131.542853
 20
-68.209977
 11
-131.542853
 21
-32.437345
  0
LINE
  8
寸法
  6
CONTINUOUS
 10
-129.263158
 20
-32.437345
 11
-131.542853
 21
-32.437345
  0
POINT
  8
寸法
 10
-129.263158
 20
-32.437345
  0
POINT
  8
寸法
 10
-131.542853
 20
-32.437345
  0
TEXT
  7
TextStyle03
  8
寸法
  6
CONTINUOUS
 10
-140.45625
 20
-32.075
  1
68.4
 40
3.0
 72
     5
 11
-133.89375
 21
-32.075
  0
ENDBLK
  0
BLOCK
  2
*DIM_0040
 70
    65
 10
0.0
 20
0.0
  0
LINE
  8
寸法
  6
CONTINUOUS
 10
54.070162
 20
-32.437345
 11
-129.263158
 21
-32.437345
  0
POINT
  8
寸法
 10
54.070162
 20
-32.437345
  0
POINT
  8
寸法
 10
-129.263158
 20
-32.437345
  0
TEXT
  7
TextStyle03
  8
寸法
  6
CONTINUOUS
 10
-49.31875
 20
-32.075
  1
呼称寸法　5500
 40
3.0
 72
     5
 11
-25.88125
 21
-32.075
  0
ENDBLK
  0
BLOCK
  2
*DIM_0041
 70
    65
 10
0.0
 20
0.0
  0
LINE
  8
寸法
  6
CONTINUOUS
 10
131.489163
 20
-31.410732
 11
131.489163
 21
-21.616485
  0
LINE
  8
寸法
  6
CONTINUOUS
 10
166.94583
 20
-31.410732
 11
166.94583
 21
-21.616485
  0
LINE
  8
寸法
  6
CONTINUOUS
 10
131.489163
 20
-21.616485
 11
166.94583
 21
-21.616485
  0
POINT
  8
寸法
 10
131.489163
 20
-21.616485
  0
POINT
  8
寸法
 10
166.94583
 20
-21.616485
  0
TEXT
  7
TextStyle03
  8
寸法
  6
CONTINUOUS
 10
144.23125
 20
-21.25
  1
1063.7
 40
3.0
 72
     5
 11
154.16875
 21
-21.25
  0
ENDBLK
  0
BLOCK
  2
*DIM_0042
 70
    65
 10
0.0
 20
0.0
  0
LINE
  8
寸法
  6
CONTINUOUS
 10
171.94583
 20
-36.410732
 11
183.790092
 21
-36.410732
  0
LINE
  8
寸法
  6
CONTINUOUS
 10
171.94583
 20
-79.0774
 11
183.790092
 21
-79.0774
  0
LINE
  8
寸法
  6
CONTINUOUS
 10
183.790092
 20
-36.410732
 11
183.790092
 21
-79.0774
  0
POINT
  8
寸法
 10
183.790092
 20
-36.410732
  0
POINT
  8
寸法
 10
183.790092
 20
-79.0774
  0
TEXT
  7
TextStyle03
  8
寸法
  6
CONTINUOUS
 10
183.4
 20
-61.03125
  1
1280
 40
3.0
 50
90.0
 72
     5
 11
183.4
 21
-54.46875
  0
ENDBLK
  0
BLOCK
  2
M8横
 70
    64
 10
-88.370132
 20
140.837665
  0
LINE
  8
ボルト／ビス
 10
-95.870132
 20
140.837665
 11
-80.870132
 21
140.837665
  0
LINE
  8
ボルト／ビス
 10
-80.870132
 20
145.837665
 11
-81.370132
 21
146.337665
  0
POLYLINE
  8
ボルト／ビス
 66
     1
  0
VERTEX
  8
ボルト／ビス
 10
-84.120132
 20
146.337665
  0
VERTEX
  8
ボルト／ビス
 10
-84.620132
 20
145.837665
  0
VERTEX
  8
ボルト／ビス
 10
-85.120132
 20
146.337665
  0
SEQEND
  0
POLYLINE
  8
ボルト／ビス
 66
     1
  0
VERTEX
  8
ボルト／ビス
 10
-91.620132
 20
146.337665
  0
VERTEX
  8
ボルト／ビス
 10
-92.120132
 20
145.837665
  0
VERTEX
  8
ボルト／ビス
 10
-92.620132
 20
146.337665
  0
SEQEND
  0
LINE
  8
ボルト／ビス
 10
-95.370132
 20
146.337665
 11
-95.870132
 21
145.837665
  0
LINE
  8
ボルト／ビス
 10
-95.870132
 20
140.837665
 11
-95.870132
 21
145.837665
  0
LINE
  8
ボルト／ビス
 10
-80.870132
 20
140.837665
 11
-80.870132
 21
145.837665
  0
LINE
  8
ボルト／ビス
 10
-95.370132
 20
146.337665
 11
-81.370132
 21
146.337665
  0
LINE
  8
ボルト／ビス
 10
-84.620132
 20
140.837665
 11
-84.620132
 21
145.837665
  0
LINE
  8
ボルト／ビス
 10
-92.120132
 20
140.837665
 11
-92.120132
 21
145.837665
  0
ENDBLK
  0
ENDSEC
  0
SECTION
  2
ENTITIES
  0
POLYLINE
  8
通り芯
  6
CONTINUOUS
 66
     1
 70
     1
  0
VERTEX
  8
通り芯
 10
-210.0
 20
-148.5
  0
VERTEX
  8
通り芯
 10
210.0
 20
-148.5
  0
VERTEX
  8
通り芯
 10
210.0
 20
148.5
  0
VERTEX
  8
通り芯
 10
-210.0
 20
148.5
  0
SEQEND
  0
INSERT
  2
*GRP_0001
  8
型材断面
  6
CONTINUOUS
 10
0.0
 20
0.0
  0
POLYLINE
  8
型材断面
  6
CONTINUOUS
 66
     1
 70
     1
  0
VERTEX
  8
型材断面
 10
20.695927
 20
-94.850355
  0
VERTEX
  8
型材断面
 10
-27.982748
 20
-94.850355
  0
VERTEX
  8
型材断面
 10
-27.982748
 20
-111.19502
  0
VERTEX
  8
型材断面
 10
20.695927
 20
-111.19502
  0
SEQEND
  0
LINE
  8
型材断面
  6
CONTINUOUS
 10
162.97617
 20
26.869993
 11
162.97617
 21
26.919993
  0
LINE
  8
型材断面
  6
CONTINUOUS
 10
162.47617
 20
28.536658
 11
161.742835
 21
28.536658
  0
LINE
  8
型材断面
  6
CONTINUOUS
 62
    47
 10
169.709335
 20
27.136962
 11
169.709335
 21
27.186962
  0
LINE
  8
型材断面
  6
CONTINUOUS
 62
    47
 10
169.709335
 20
27.136962
 11
169.209335
 21
27.136962
  0
LINE
  8
型材断面
  6
CONTINUOUS
 10
163.459335
 20
28.486962
 11
163.459335
 21
27.040298
  0
LINE
  8
型材断面
  6
CONTINUOUS
 10
163.909335
 20
27.040298
 11
163.459335
 21
27.040298
  0
LINE
  8
型材断面
  6
CONTINUOUS
 62
    47
 10
166.582028
 20
26.306963
 11
166.582028
 21
26.256963
  0
LINE
  8
型材断面
  6
CONTINUOUS
 62
    47
 10
166.582028
 20
26.256963
 11
166.248695
 21
26.256963
  0
LINE
  8
型材断面
  6
CONTINUOUS
 62
    47
 10
166.248695
 20
26.256963
 11
166.148695
 21
27.040298
  0
LINE
  8
型材断面
  6
CONTINUOUS
 62
    47
 10
165.74267
 20
27.040298
 11
166.148695
 21
27.040298
  0
LINE
  8
型材断面
  6
CONTINUOUS
 62
    47
 10
165.74267
 20
26.570298
 11
163.909335
 21
26.570298
  0
LINE
  8
型材断面
  6
CONTINUOUS
 10
162.97617
 20
26.869993
 11
162.47617
 21
26.869993
  0
LINE
  8
型材断面
  6
CONTINUOUS
 10
163.459335
 20
28.486962
 11
162.97617
 21
28.486962
  0
LINE
  8
型材断面
  6
CONTINUOUS
 62
    47
 10
169.209335
 20
26.570298
 11
166.582028
 21
26.570298
  0
INSERT
  2
*GRP_0002
  8
型材断面
  6
DOT
 10
0.0
 20
0.0
  0
INSERT
  2
*GRP_0003
  8
型材断面
  6
DOT
 10
0.0
 20
0.0
  0
LINE
  8
型材断面
  6
CONTINUOUS
 10
169.209335
 20
26.570298
 11
169.209335
 21
50.203325
  0
LINE
  8
型材断面
  6
CONTINUOUS
 10
169.709335
 20
27.136962
 11
169.709335
 21
50.203325
  0
LINE
  8
型材断面
  6
CONTINUOUS
 10
166.582028
 20
26.256963
 11
166.582028
 21
50.203325
  0
LINE
  8
型材断面
  6
CONTINUOUS
 10
166.248695
 20
26.256963
 11
166.248695
 21
50.203325
  0
LINE
  8
型材断面
  6
CONTINUOUS
 10
166.148695
 20
27.040298
 11
166.148695
 21
50.203325
  0
LINE
  8
型材断面
  6
CONTINUOUS
 10
165.74267
 20
26.570298
 11
165.74267
 21
50.203325
  0
LINE
  8
型材断面
  6
CONTINUOUS
 10
162.97617
 20
26.869993
 11
162.97617
 21
50.203325
  0
LINE
  8
型材断面
  6
CONTINUOUS
 10
161.742835
 20
28.536658
 11
161.742835
 21
50.203325
  0
LINE
  8
型材断面
  6
CONTINUOUS
 10
162.47617
 20
26.869993
 11
162.47617
 21
50.203325
  0
LINE
  8
型材断面
  6
CONTINUOUS
 10
163.459335
 20
27.040298
 11
163.459335
 21
50.203325
  0
LINE
  8
型材断面
  6
CONTINUOUS
 10
163.909335
 20
26.570298
 11
163.909335
 21
50.203325
  0
LINE
  8
型材断面
  6
CONTINUOUS
 10
162.97617
 20
73.53666
 11
162.97617
 21
73.48666
  0
LINE
  8
型材断面
  6
CONTINUOUS
 10
162.47617
 20
71.869993
 11
161.742835
 21
71.869993
  0
LINE
  8
型材断面
  6
CONTINUOUS
 62
    47
 10
169.709335
 20
73.269687
 11
169.709335
 21
73.219687
  0
LINE
  8
型材断面
  6
CONTINUOUS
 62
    47
 10
169.709335
 20
73.269687
 11
169.209335
 21
73.269687
  0
LINE
  8
型材断面
  6
CONTINUOUS
 10
163.459335
 20
71.919687
 11
163.459335
 21
73.366355
  0
LINE
  8
型材断面
  6
CONTINUOUS
 10
163.909335
 20
73.366355
 11
163.459335
 21
73.366355
  0
LINE
  8
型材断面
  6
CONTINUOUS
 62
    47
 10
166.582028
 20
74.099688
 11
166.582028
 21
74.149688
  0
LINE
  8
型材断面
  6
CONTINUOUS
 62
    47
 10
166.582028
 20
74.149688
 11
166.248695
 21
74.149688
  0
LINE
  8
型材断面
  6
CONTINUOUS
 62
    47
 10
166.248695
 20
74.149688
 11
166.148695
 21
73.366355
  0
LINE
  8
型材断面
  6
CONTINUOUS
 62
    47
 10
165.74267
 20
73.366355
 11
166.148695
 21
73.366355
  0
LINE
  8
型材断面
  6
CONTINUOUS
 62
    47
 10
165.74267
 20
73.836355
 11
163.909335
 21
73.836355
  0
LINE
  8
型材断面
  6
CONTINUOUS
 10
162.97617
 20
73.53666
 11
162.47617
 21
73.53666
  0
LINE
  8
型材断面
  6
CONTINUOUS
 10
163.459335
 20
71.919687
 11
162.97617
 21
71.919687
  0
LINE
  8
型材断面
  6
CONTINUOUS
 62
    47
 10
169.209335
 20
73.836355
 11
166.582028
 21
73.836355
  0
INSERT
  2
*GRP_0006
  8
型材断面
  6
DOT
 10
0.0
 20
0.0
  0
INSERT
  2
*GRP_0007
  8
型材断面
  6
DOT
 10
0.0
 20
0.0
  0
LINE
  8
型材断面
  6
CONTINUOUS
 10
169.209335
 20
73.836355
 11
169.209335
 21
50.203325
  0
LINE
  8
型材断面
  6
CONTINUOUS
 10
169.709335
 20
73.269687
 11
169.709335
 21
50.203325
  0
LINE
  8
型材断面
  6
CONTINUOUS
 10
166.582028
 20
74.149688
 11
166.582028
 21
50.203325
  0
LINE
  8
型材断面
  6
CONTINUOUS
 10
166.248695
 20
74.149688
 11
166.248695
 21
50.203325
  0
LINE
  8
型材断面
  6
CONTINUOUS
 10
166.148695
 20
73.366355
 11
166.148695
 21
50.203325
  0
LINE
  8
型材断面
  6
CONTINUOUS
 10
165.74267
 20
73.836355
 11
165.74267
 21
50.203325
  0
LINE
  8
型材断面
  6
CONTINUOUS
 10
162.97617
 20
73.53666
 11
162.97617
 21
50.203325
  0
LINE
  8
型材断面
  6
CONTINUOUS
 10
161.742835
 20
71.869993
 11
161.742835
 21
50.203325
  0
LINE
  8
型材断面
  6
CONTINUOUS
 10
162.47617
 20
73.53666
 11
162.47617
 21
50.203325
  0
LINE
  8
型材断面
  6
CONTINUOUS
 10
163.459335
 20
73.366355
 11
163.459335
 21
50.203325
  0
LINE
  8
型材断面
  6
CONTINUOUS
 10
163.909335
 20
73.836355
 11
163.909335
 21
50.203325
  0
LINE
  8
型材断面
  6
DASHDOT
 10
-37.596497
 20
-79.253555
 11
-37.596497
 21
71.869993
  0
LINE
  8
型材断面
  6
CONTINUOUS
 10
55.73683
 20
-69.937453
 11
55.68683
 21
-69.937453
  0
LINE
  8
型材断面
  6
CONTINUOUS
 10
54.070162
 20
-69.437453
 11
54.070162
 21
-68.70412
  0
LINE
  8
型材断面
  6
CONTINUOUS
 62
    47
 10
55.469858
 20
-76.67062
 11
55.419858
 21
-76.67062
  0
LINE
  8
型材断面
  6
CONTINUOUS
 62
    47
 10
55.469858
 20
-76.67062
 11
55.469858
 21
-76.17062
  0
LINE
  8
型材断面
  6
CONTINUOUS
 10
54.119858
 20
-70.42062
 11
55.566525
 21
-70.42062
  0
LINE
  8
型材断面
  6
CONTINUOUS
 10
55.566525
 20
-70.87062
 11
55.566525
 21
-70.42062
  0
LINE
  8
型材断面
  6
CONTINUOUS
 62
    47
 10
56.299857
 20
-73.543312
 11
56.349857
 21
-73.543312
  0
LINE
  8
型材断面
  6
CONTINUOUS
 62
    47
 10
56.349857
 20
-73.543312
 11
56.349857
 21
-73.209977
  0
LINE
  8
型材断面
  6
CONTINUOUS
 62
    47
 10
56.349857
 20
-73.209977
 11
55.566525
 21
-73.109977
  0
LINE
  8
型材断面
  6
CONTINUOUS
 62
    47
 10
55.566525
 20
-72.703953
 11
55.566525
 21
-73.109977
  0
LINE
  8
型材断面
  6
CONTINUOUS
 62
    47
 10
56.036525
 20
-72.703953
 11
56.036525
 21
-70.87062
  0
LINE
  8
型材断面
  6
CONTINUOUS
 10
55.73683
 20
-69.937453
 11
55.73683
 21
-69.437453
  0
LINE
  8
型材断面
  6
CONTINUOUS
 10
54.119858
 20
-70.42062
 11
54.119858
 21
-69.937453
  0
LINE
  8
型材断面
  6
CONTINUOUS
 62
    47
 10
56.036525
 20
-76.17062
 11
56.036525
 21
-73.543312
  0
INSERT
  2
*GRP_0010
  8
型材断面
  6
DOT
 10
0.0
 20
0.0
  0
INSERT
  2
*GRP_0011
  8
型材断面
  6
DOT
 10
0.0
 20
0.0
  0
LINE
  8
型材断面
  6
CONTINUOUS
 10
56.036525
 20
-76.17062
 11
-37.596497
 21
-76.17062
  0
LINE
  8
型材断面
  6
CONTINUOUS
 10
55.469858
 20
-76.67062
 11
-37.596497
 21
-76.67062
  0
LINE
  8
型材断面
  6
CONTINUOUS
 10
56.349857
 20
-73.543312
 11
-37.596497
 21
-73.543312
  0
LINE
  8
型材断面
  6
CONTINUOUS
 10
56.349857
 20
-73.209977
 11
-37.596497
 21
-73.209977
  0
LINE
  8
型材断面
  6
CONTINUOUS
 10
55.566525
 20
-73.109977
 11
-37.596497
 21
-73.109977
  0
LINE
  8
型材断面
  6
CONTINUOUS
 10
56.036525
 20
-72.703953
 11
-37.596497
 21
-72.703953
  0
LINE
  8
型材断面
  6
CONTINUOUS
 10
55.73683
 20
-69.937453
 11
-37.596497
 21
-69.937453
  0
LINE
  8
型材断面
  6
CONTINUOUS
 10
54.070162
 20
-68.70412
 11
-37.596497
 21
-68.70412
  0
LINE
  8
型材断面
  6
CONTINUOUS
 10
55.73683
 20
-69.437453
 11
-37.596497
 21
-69.437453
  0
LINE
  8
型材断面
  6
CONTINUOUS
 10
55.566525
 20
-70.42062
 11
-37.596497
 21
-70.42062
  0
LINE
  8
型材断面
  6
CONTINUOUS
 10
56.036525
 20
-70.87062
 11
-37.596497
 21
-70.87062
  0
LINE
  8
型材断面
  6
CONTINUOUS
 10
53.23683
 20
50.619993
 11
54.070162
 21
50.619993
  0
LINE
  8
型材断面
  6
CONTINUOUS
 10
53.23683
 20
49.786658
 11
54.070162
 21
49.786658
  0
LINE
  8
型材断面
  6
CONTINUOUS
 10
53.23683
 20
29.36999
 11
56.349857
 21
26.256963
  0
LINE
  8
型材断面
  6
CONTINUOUS
 10
53.23683
 20
29.36999
 11
53.23683
 21
49.786658
  0
LINE
  8
型材断面
  6
DASHDOT
 10
172.29227
 20
28.536658
 11
54.070162
 21
28.536658
  0
LINE
  8
型材断面
  6
DASHDOT
 10
54.070162
 20
-79.253555
 11
54.070162
 21
28.536658
  0
LINE
  8
型材断面
  6
CONTINUOUS
 10
53.23683
 20
71.03666
 11
56.349857
 21
74.149688
  0
LINE
  8
型材断面
  6
CONTINUOUS
 10
53.23683
 20
50.619993
 11
53.23683
 21
71.03666
  0
LINE
  8
型材断面
  6
DASHDOT
 10
172.29227
 20
71.869993
 11
54.070162
 21
71.869993
  0
LINE
  8
型材断面
  6
CONTINUOUS
 10
54.070162
 20
28.536658
 11
54.070162
 21
71.869993
  0
LINE
  8
型材断面
  6
CONTINUOUS
 10
56.036525
 20
26.570295
 11
56.036525
 21
73.836355
  0
LINE
  8
型材断面
  6
CONTINUOUS
 10
56.349857
 20
26.256963
 11
56.349857
 21
74.149688
  0
LINE
  8
型材断面
  6
CONTINUOUS
 10
55.73683
 20
26.86999
 11
55.73683
 21
73.53666
  0
LINE
  8
型材断面
  6
CONTINUOUS
 10
-130.929825
 20
-69.937453
 11
-130.879825
 21
-69.937453
  0
LINE
  8
型材断面
  6
CONTINUOUS
 10
-129.263158
 20
-69.437453
 11
-129.263158
 21
-68.70412
  0
LINE
  8
型材断面
  6
CONTINUOUS
 62
    47
 10
-130.662853
 20
-76.67062
 11
-130.612853
 21
-76.67062
  0
LINE
  8
型材断面
  6
CONTINUOUS
 62
    47
 10
-130.662853
 20
-76.67062
 11
-130.662853
 21
-76.17062
  0
LINE
  8
型材断面
  6
CONTINUOUS
 10
-129.312853
 20
-70.42062
 11
-130.75952
 21
-70.42062
  0
LINE
  8
型材断面
  6
CONTINUOUS
 10
-130.75952
 20
-70.87062
 11
-130.75952
 21
-70.42062
  0
LINE
  8
型材断面
  6
CONTINUOUS
 62
    47
 10
-131.492853
 20
-73.543312
 11
-131.542853
 21
-73.543312
  0
LINE
  8
型材断面
  6
CONTINUOUS
 62
    47
 10
-131.542853
 20
-73.543312
 11
-131.542853
 21
-73.209977
  0
LINE
  8
型材断面
  6
CONTINUOUS
 62
    47
 10
-131.542853
 20
-73.209977
 11
-130.75952
 21
-73.109977
  0
LINE
  8
型材断面
  6
CONTINUOUS
 62
    47
 10
-130.75952
 20
-72.703953
 11
-130.75952
 21
-73.109977
  0
LINE
  8
型材断面
  6
CONTINUOUS
 62
    47
 10
-131.22952
 20
-72.703953
 11
-131.22952
 21
-70.87062
  0
LINE
  8
型材断面
  6
CONTINUOUS
 10
-130.929825
 20
-69.937453
 11
-130.929825
 21
-69.437453
  0
LINE
  8
型材断面
  6
CONTINUOUS
 10
-129.312853
 20
-70.42062
 11
-129.312853
 21
-69.937453
  0
LINE
  8
型材断面
  6
CONTINUOUS
 62
    47
 10
-131.22952
 20
-76.17062
 11
-131.22952
 21
-73.543312
  0
INSERT
  2
*GRP_0013
  8
型材断面
  6
DOT
 10
0.0
 20
0.0
  0
INSERT
  2
*GRP_0014
  8
型材断面
  6
DOT
 10
0.0
 20
0.0
  0
LINE
  8
型材断面
  6
CONTINUOUS
 10
-131.22952
 20
-76.17062
 11
-37.596497
 21
-76.17062
  0
LINE
  8
型材断面
  6
CONTINUOUS
 10
-130.662853
 20
-76.67062
 11
-37.596497
 21
-76.67062
  0
LINE
  8
型材断面
  6
CONTINUOUS
 10
-131.542853
 20
-73.543312
 11
-37.596497
 21
-73.543312
  0
LINE
  8
型材断面
  6
CONTINUOUS
 10
-131.542853
 20
-73.209977
 11
-37.596497
 21
-73.209977
  0
LINE
  8
型材断面
  6
CONTINUOUS
 10
-130.75952
 20
-73.109977
 11
-37.596497
 21
-73.109977
  0
LINE
  8
型材断面
  6
CONTINUOUS
 10
-131.22952
 20
-72.703953
 11
-37.596497
 21
-72.703953
  0
LINE
  8
型材断面
  6
CONTINUOUS
 10
-130.929825
 20
-69.937453
 11
-37.596497
 21
-69.937453
  0
LINE
  8
型材断面
  6
CONTINUOUS
 10
-129.263158
 20
-68.70412
 11
-37.596497
 21
-68.70412
  0
LINE
  8
型材断面
  6
CONTINUOUS
 10
-130.929825
 20
-69.437453
 11
-37.596497
 21
-69.437453
  0
LINE
  8
型材断面
  6
CONTINUOUS
 10
-130.75952
 20
-70.42062
 11
-37.596497
 21
-70.42062
  0
LINE
  8
型材断面
  6
CONTINUOUS
 10
-131.22952
 20
-70.87062
 11
-37.596497
 21
-70.87062
  0
LINE
  8
型材断面
  6
CONTINUOUS
 10
-128.429825
 20
49.786658
 11
-129.263158
 21
49.786658
  0
LINE
  8
型材断面
  6
CONTINUOUS
 10
-128.429825
 20
50.619993
 11
-129.263158
 21
50.619993
  0
LINE
  8
型材断面
  6
DASHDOT
 10
172.29227
 20
50.203325
 11
-129.263158
 21
50.203325
  0
LINE
  8
型材断面
  6
CONTINUOUS
 10
-128.429825
 20
29.36999
 11
-131.542853
 21
26.256963
  0
LINE
  8
型材断面
  6
CONTINUOUS
 10
-128.429825
 20
29.36999
 11
-128.429825
 21
49.786658
  0
LINE
  8
型材断面
  6
DASHDOT
 10
-129.263158
 20
-79.253555
 11
-129.263158
 21
28.536658
  0
LINE
  8
型材断面
  6
CONTINUOUS
 10
-128.429825
 20
71.03666
 11
-131.542853
 21
74.149688
  0
LINE
  8
型材断面
  6
CONTINUOUS
 10
-128.429825
 20
50.619993
 11
-128.429825
 21
71.03666
  0
LINE
  8
型材断面
  6
CONTINUOUS
 10
-129.263158
 20
28.536658
 11
-129.263158
 21
71.869993
  0
LINE
  8
型材断面
  6
CONTINUOUS
 10
-131.22952
 20
26.570295
 11
-131.22952
 21
73.836355
  0
LINE
  8
型材断面
  6
CONTINUOUS
 10
-131.542853
 20
26.256963
 11
-131.542853
 21
74.149688
  0
LINE
  8
型材断面
  6
CONTINUOUS
 10
-130.929825
 20
26.86999
 11
-130.929825
 21
73.53666
  0
LINE
  8
型材断面
  6
CONTINUOUS
 10
54.070162
 20
28.536658
 11
-129.263158
 21
28.536658
  0
LINE
  8
型材断面
  6
CONTINUOUS
 10
56.036525
 20
26.570295
 11
-131.22952
 21
26.570295
  0
LINE
  8
型材断面
  6
CONTINUOUS
 10
56.349857
 20
26.256963
 11
-131.542853
 21
26.256963
  0
LINE
  8
型材断面
  6
CONTINUOUS
 10
55.73683
 20
26.86999
 11
-130.929825
 21
26.86999
  0
LINE
  8
型材断面
  6
CONTINUOUS
 10
54.070162
 20
71.869993
 11
-129.263158
 21
71.869993
  0
LINE
  8
型材断面
  6
CONTINUOUS
 10
56.036525
 20
73.836355
 11
-131.22952
 21
73.836355
  0
LINE
  8
型材断面
  6
CONTINUOUS
 10
56.349857
 20
74.149688
 11
-131.542853
 21
74.149688
  0
LINE
  8
型材断面
  6
CONTINUOUS
 10
55.73683
 20
73.53666
 11
-130.929825
 21
73.53666
  0
LINE
  8
型材断面
  6
CONTINUOUS
 10
-91.550497
 20
30.203322
 11
-94.050497
 21
30.203322
  0
LINE
  8
型材断面
  6
CONTINUOUS
 10
-54.747833
 20
30.203322
 11
-57.247833
 21
30.203322
  0
LINE
  8
型材断面
  6
CONTINUOUS
 10
-110.61516
 20
29.36999
 11
-110.61516
 21
28.536658
  0
LINE
  8
型材断面
  6
CONTINUOUS
 10
-111.448495
 20
29.36999
 11
-111.448495
 21
28.536658
  0
LINE
  8
型材断面
  6
CONTINUOUS
 10
-128.429825
 20
29.36999
 11
-111.448495
 21
29.36999
  0
LINE
  8
型材断面
  6
CONTINUOUS
 10
-73.982498
 20
29.36999
 11
-73.982498
 21
28.536658
  0
LINE
  8
型材断面
  6
CONTINUOUS
 10
-74.815833
 20
29.36999
 11
-74.815833
 21
28.536658
  0
LINE
  8
型材断面
  6
CONTINUOUS
 10
-110.61516
 20
29.36999
 11
-74.815833
 21
29.36999
  0
LINE
  8
型材断面
  6
CONTINUOUS
 10
-73.982498
 20
29.36999
 11
-38.013165
 21
29.36999
  0
LINE
  8
型材断面
  6
CONTINUOUS
 10
-38.013165
 20
29.36999
 11
-38.013165
 21
28.536658
  0
LINE
  8
型材断面
  6
CONTINUOUS
 10
-37.17983
 20
29.36999
 11
-37.17983
 21
28.536658
  0
LINE
  8
型材断面
  6
CONTINUOUS
 10
-91.550497
 20
70.203327
 11
-94.050497
 21
70.203327
  0
LINE
  8
型材断面
  6
CONTINUOUS
 10
-54.747833
 20
70.203327
 11
-57.247833
 21
70.203327
  0
LINE
  8
型材断面
  6
CONTINUOUS
 10
-93.050497
 20
30.203322
 11
-93.050497
 21
70.203327
  0
LINE
  8
型材断面
  6
CONTINUOUS
 10
-92.550497
 20
30.203322
 11
-92.550497
 21
70.203327
  0
LINE
  8
型材断面
  6
CONTINUOUS
 10
-91.550497
 20
30.203322
 11
-91.550497
 21
70.203327
  0
LINE
  8
型材断面
  6
CONTINUOUS
 10
-94.050497
 20
30.203322
 11
-94.050497
 21
70.203327
  0
LINE
  8
型材断面
  6
CONTINUOUS
 10
-54.747833
 20
30.203322
 11
-54.747833
 21
70.203327
  0
LINE
  8
型材断面
  6
CONTINUOUS
 10
-55.747833
 20
30.203322
 11
-55.747833
 21
70.203327
  0
LINE
  8
型材断面
  6
CONTINUOUS
 10
-56.247833
 20
30.203322
 11
-56.247833
 21
70.203327
  0
LINE
  8
型材断面
  6
CONTINUOUS
 10
-57.247833
 20
30.203322
 11
-57.247833
 21
70.203327
  0
LINE
  8
型材断面
  6
DASHDOT
 10
-92.800497
 20
28.536658
 11
-92.800497
 21
71.869993
  0
LINE
  8
型材断面
  6
DASHDOT
 10
-55.997833
 20
28.536658
 11
-55.997833
 21
71.869993
  0
LINE
  8
型材断面
  6
CONTINUOUS
 10
16.357503
 20
30.203322
 11
18.857503
 21
30.203322
  0
LINE
  8
型材断面
  6
CONTINUOUS
 10
-20.445162
 20
30.203322
 11
-17.945162
 21
30.203322
  0
LINE
  8
型材断面
  6
CONTINUOUS
 10
35.422165
 20
29.36999
 11
35.422165
 21
28.536658
  0
LINE
  8
型材断面
  6
CONTINUOUS
 10
36.2555
 20
29.36999
 11
36.2555
 21
28.536658
  0
LINE
  8
型材断面
  6
CONTINUOUS
 10
53.23683
 20
29.36999
 11
36.2555
 21
29.36999
  0
LINE
  8
型材断面
  6
CONTINUOUS
 10
-1.210498
 20
29.36999
 11
-1.210498
 21
28.536658
  0
LINE
  8
型材断面
  6
CONTINUOUS
 10
-0.377163
 20
29.36999
 11
-0.377163
 21
28.536658
  0
LINE
  8
型材断面
  6
CONTINUOUS
 10
35.422165
 20
29.36999
 11
-0.377163
 21
29.36999
  0
LINE
  8
型材断面
  6
CONTINUOUS
 10
16.357503
 20
70.203327
 11
18.857503
 21
70.203327
  0
LINE
  8
型材断面
  6
CONTINUOUS
 10
-20.445162
 20
70.203327
 11
-17.945162
 21
70.203327
  0
LINE
  8
型材断面
  6
CONTINUOUS
 10
17.857503
 20
30.203322
 11
17.857503
 21
70.203327
  0
LINE
  8
型材断面
  6
CONTINUOUS
 10
17.357503
 20
30.203322
 11
17.357503
 21
70.203327
  0
LINE
  8
型材断面
  6
CONTINUOUS
 10
16.357503
 20
30.203322
 11
16.357503
 21
70.203327
  0
LINE
  8
型材断面
  6
CONTINUOUS
 10
18.857503
 20
30.203322
 11
18.857503
 21
70.203327
  0
LINE
  8
型材断面
  6
CONTINUOUS
 10
-20.445162
 20
30.203322
 11
-20.445162
 21
70.203327
  0
LINE
  8
型材断面
  6
CONTINUOUS
 10
-19.445162
 20
30.203322
 11
-19.445162
 21
70.203327
  0
LINE
  8
型材断面
  6
CONTINUOUS
 10
-18.945162
 20
30.203322
 11
-18.945162
 21
70.203327
  0
LINE
  8
型材断面
  6
CONTINUOUS
 10
-17.945162
 20
30.203322
 11
-17.945162
 21
70.203327
  0
LINE
  8
型材断面
  6
DASHDOT
 10
17.607503
 20
28.536658
 11
17.607503
 21
71.869993
  0
LINE
  8
型材断面
  6
DASHDOT
 10
-19.195162
 20
28.536658
 11
-19.195162
 21
71.869993
  0
LINE
  8
型材断面
  6
CONTINUOUS
 10
-37.17983
 20
29.36999
 11
-1.210498
 21
29.36999
  0
LINE
  8
型材断面
  6
CONTINUOUS
 10
-110.61516
 20
71.03666
 11
-110.61516
 21
71.869993
  0
LINE
  8
型材断面
  6
CONTINUOUS
 10
-111.448495
 20
71.03666
 11
-111.448495
 21
71.869993
  0
LINE
  8
型材断面
  6
CONTINUOUS
 10
-128.429825
 20
71.03666
 11
-111.448495
 21
71.03666
  0
LINE
  8
型材断面
  6
CONTINUOUS
 10
-73.982498
 20
71.03666
 11
-73.982498
 21
71.869993
  0
LINE
  8
型材断面
  6
CONTINUOUS
 10
-74.815833
 20
71.03666
 11
-74.815833
 21
71.869993
  0
LINE
  8
型材断面
  6
CONTINUOUS
 10
-110.61516
 20
71.03666
 11
-74.815833
 21
71.03666
  0
LINE
  8
型材断面
  6
CONTINUOUS
 10
-73.982498
 20
71.03666
 11
-38.013165
 21
71.03666
  0
LINE
  8
型材断面
  6
CONTINUOUS
 10
-38.013165
 20
71.03666
 11
-38.013165
 21
71.869993
  0
LINE
  8
型材断面
  6
CONTINUOUS
 10
-37.17983
 20
71.03666
 11
-37.17983
 21
71.869993
  0
LINE
  8
型材断面
  6
CONTINUOUS
 10
35.422165
 20
71.03666
 11
35.422165
 21
71.869993
  0
LINE
  8
型材断面
  6
CONTINUOUS
 10
36.2555
 20
71.03666
 11
36.2555
 21
71.869993
  0
LINE
  8
型材断面
  6
CONTINUOUS
 10
53.23683
 20
71.03666
 11
36.2555
 21
71.03666
  0
LINE
  8
型材断面
  6
CONTINUOUS
 10
-1.210498
 20
71.03666
 11
-1.210498
 21
71.869993
  0
LINE
  8
型材断面
  6
CONTINUOUS
 10
-0.377163
 20
71.03666
 11
-0.377163
 21
71.869993
  0
LINE
  8
型材断面
  6
CONTINUOUS
 10
35.422165
 20
71.03666
 11
-0.377163
 21
71.03666
  0
LINE
  8
型材断面
  6
CONTINUOUS
 10
-37.17983
 20
71.03666
 11
-1.210498
 21
71.03666
  0
POLYLINE
  8
型材断面
  6
CONTINUOUS
 66
     1
 70
     1
  0
VERTEX
  8
型材断面
 10
-28.12269
 20
81.645915
  0
VERTEX
  8
型材断面
 10
-46.89462
 20
81.645915
  0
VERTEX
  8
型材断面
 10
-46.89462
 20
86.382757
  0
VERTEX
  8
型材断面
 10
-28.12269
 20
86.382757
  0
SEQEND
  0
POLYLINE
  8
型材断面
  6
CONTINUOUS
 66
     1
 70
     1
  0
VERTEX
  8
型材断面
 10
-28.12269
 20
18.760735
  0
VERTEX
  8
型材断面
 10
-46.89462
 20
18.760735
  0
VERTEX
  8
型材断面
 10
-46.89462
 20
14.023892
  0
VERTEX
  8
型材断面
 10
-28.12269
 20
14.023892
  0
SEQEND
  0
LINE
  8
型材断面
  6
CONTINUOUS
 10
-131.893293
 20
50.203325
 11
-134.4838
 21
51.698955
  0
LINE
  8
型材断面
  6
CONTINUOUS
 10
-131.893293
 20
50.203325
 11
-134.4838
 21
48.707695
  0
LINE
  8
型材断面
  6
CONTINUOUS
 10
-134.4838
 20
48.707695
 11
-134.4838
 21
51.698955
  0
LINE
  8
型材断面
  6
CONTINUOUS
 10
-112.596495
 20
74.50012
 11
-114.092125
 21
77.090627
  0
LINE
  8
型材断面
  6
CONTINUOUS
 10
-112.596495
 20
74.50012
 11
-111.100865
 21
77.090627
  0
LINE
  8
型材断面
  6
CONTINUOUS
 10
-111.100865
 20
77.090627
 11
-114.092125
 21
77.090627
  0
LINE
  8
型材断面
  6
CONTINUOUS
 10
-170.11537
 20
109.847463
 11
-169.519315
 21
107.256955
  0
LINE
  8
型材断面
  6
CONTINUOUS
 10
-170.11537
 20
109.847463
 11
-170.711427
 21
107.256955
  0
LINE
  8
型材断面
  6
CONTINUOUS
 10
-170.711427
 20
107.256955
 11
-169.519315
 21
107.256955
  0
LINE
  8
型材断面
  6
CONTINUOUS
 10
-176.137958
 20
103.978062
 11
-129.89618
 21
103.978062
  0
LINE
  8
型材断面
  6
CONTINUOUS
 10
-170.11537
 20
116.377338
 11
-171.611
 21
113.78683
  0
LINE
  8
型材断面
  6
CONTINUOUS
 10
-170.11537
 20
116.377338
 11
-168.61974
 21
113.78683
  0
LINE
  8
型材断面
  6
CONTINUOUS
 10
-168.61974
 20
113.78683
 11
-171.611
 21
113.78683
  0
LINE
  8
型材断面
  6
CONTINUOUS
 10
-176.137958
 20
112.848235
 11
-129.89618
 21
112.848235
  0
LINE
  8
型材断面
  6
CONTINUOUS
 10
-176.137958
 20
98.19003
 11
-129.89618
 21
98.19003
  0
LINE
  8
型材断面
  6
CONTINUOUS
 10
-112.596495
 20
25.90653
 11
-114.092125
 21
23.316022
  0
LINE
  8
型材断面
  6
CONTINUOUS
 10
-112.596495
 20
25.90653
 11
-111.100865
 21
23.316022
  0
LINE
  8
型材断面
  6
CONTINUOUS
 10
-111.100865
 20
23.316022
 11
-114.092125
 21
23.316022
  0
LINE
  8
型材断面
  6
CONTINUOUS
 10
56.700297
 20
50.203325
 11
59.290805
 21
51.698955
  0
LINE
  8
型材断面
  6
CONTINUOUS
 10
56.700297
 20
50.203325
 11
59.290805
 21
48.707695
  0
LINE
  8
型材断面
  6
CONTINUOUS
 10
59.290805
 20
48.707695
 11
59.290805
 21
51.698955
  0
LINE
  8
型材断面
  6
CONTINUOUS
 10
37.4035
 20
74.50012
 11
38.89913
 21
77.090627
  0
LINE
  8
型材断面
  6
CONTINUOUS
 10
37.4035
 20
74.50012
 11
35.90787
 21
77.090627
  0
LINE
  8
型材断面
  6
CONTINUOUS
 10
35.90787
 20
77.090627
 11
38.89913
 21
77.090627
  0
LINE
  8
型材断面
  6
CONTINUOUS
 10
37.4035
 20
25.90653
 11
38.89913
 21
23.316022
  0
LINE
  8
型材断面
  6
CONTINUOUS
 10
37.4035
 20
25.90653
 11
35.90787
 21
23.316022
  0
LINE
  8
型材断面
  6
CONTINUOUS
 10
35.90787
 20
23.316022
 11
38.89913
 21
23.316022
  0
LINE
  8
型材断面
  6
CONTINUOUS
 10
-37.596497
 20
74.50012
 11
-39.092127
 21
77.090627
  0
LINE
  8
型材断面
  6
CONTINUOUS
 10
-37.596497
 20
74.50012
 11
-36.100868
 21
77.090627
  0
LINE
  8
型材断面
  6
CONTINUOUS
 10
-36.100868
 20
77.090627
 11
-39.092127
 21
77.090627
  0
LINE
  8
型材断面
  6
CONTINUOUS
 10
-37.596497
 20
25.90653
 11
-39.092127
 21
23.316022
  0
LINE
  8
型材断面
  6
CONTINUOUS
 10
-37.596497
 20
25.90653
 11
-36.100868
 21
23.316022
  0
LINE
  8
型材断面
  6
CONTINUOUS
 10
-36.100868
 20
23.316022
 11
-39.092127
 21
23.316022
  0
LINE
  8
型材断面
  6
CONTINUOUS
 10
56.700297
 20
67.96999
 11
59.290805
 21
67.373933
  0
LINE
  8
型材断面
  6
CONTINUOUS
 10
56.700297
 20
67.96999
 11
59.290805
 21
68.566048
  0
LINE
  8
型材断面
  6
CONTINUOUS
 10
59.290805
 20
68.566048
 11
59.290805
 21
67.373933
  0
LINE
  8
型材断面
  6
CONTINUOUS
 10
56.700297
 20
32.43666
 11
59.290805
 21
33.032718
  0
LINE
  8
型材断面
  6
CONTINUOUS
 10
56.700297
 20
32.43666
 11
59.290805
 21
31.840603
  0
LINE
  8
型材断面
  6
CONTINUOUS
 10
59.290805
 20
31.840603
 11
59.290805
 21
33.032718
  0
LINE
  8
型材断面
  6
CONTINUOUS
 10
-131.893293
 20
67.96999
 11
-134.4838
 21
67.373933
  0
LINE
  8
型材断面
  6
CONTINUOUS
 10
-131.893293
 20
67.96999
 11
-134.4838
 21
68.566048
  0
LINE
  8
型材断面
  6
CONTINUOUS
 10
-134.4838
 20
68.566048
 11
-134.4838
 21
67.373933
  0
LINE
  8
型材断面
  6
CONTINUOUS
 10
-131.893293
 20
32.43666
 11
-134.4838
 21
33.032718
  0
LINE
  8
型材断面
  6
CONTINUOUS
 10
-131.893293
 20
32.43666
 11
-134.4838
 21
31.840603
  0
LINE
  8
型材断面
  6
CONTINUOUS
 10
-134.4838
 20
31.840603
 11
-134.4838
 21
33.032718
  0
LINE
  8
型材断面
  6
CONTINUOUS
 10
-176.137958
 20
92.401997
 11
-129.89618
 21
92.401997
  0
INSERT
  2
*GRP_0027
  8
型材断面
  6
DOT
 10
0.0
 20
0.0
  0
INSERT
  2
*GRP_0032
  8
型材断面
  6
CONTINUOUS
 10
0.0
 20
0.0
  0
INSERT
  2
*GRP_0033
  8
型材断面
  6
CONTINUOUS
 10
0.0
 20
0.0
  0
INSERT
  2
*GRP_0034
  8
型材断面
  6
CONTINUOUS
 10
0.0
 20
0.0
  0
INSERT
  2
*GRP_0035
  8
型材断面
  6
CONTINUOUS
 10
0.0
 20
0.0
  0
INSERT
  2
*GRP_0036
  8
型材断面
  6
CONTINUOUS
 10
0.0
 20
0.0
  0
INSERT
  2
*GRP_0037
  8
型材断面
  6
CONTINUOUS
 10
0.0
 20
0.0
  0
LINE
  8
型材断面
  6
CONTINUOUS
 10
129.028715
 20
-16.3839
 11
149.308902
 21
-16.3839
  0
POLYLINE
  8
ガラス
  6
CONTINUOUS
 66
     1
 70
     1
  0
VERTEX
  8
ガラス
 10
166.94583
 20
-36.410732
  0
VERTEX
  8
ガラス
 10
131.489163
 20
-36.410732
  0
VERTEX
  8
ガラス
 10
131.489163
 20
-79.0774
  0
VERTEX
  8
ガラス
 10
166.94583
 20
-79.0774
  0
SEQEND
  0
TEXT
  7
TextStyle03
  8
文字
  6
CONTINUOUS
 10
-23.65
 20
-100.575
  1
※トップライト枠高さ寸法
 40
3.0
 72
     5
 11
16.475
 21
-100.575
  0
TEXT
  7
TextStyle03
  8
文字
  6
CONTINUOUS
 10
-23.65
 20
-103.95
  1
　シングルガラス：214
 40
3.0
 72
     5
 11
11.6
 21
-103.95
  0
TEXT
  7
TextStyle03
  8
文字
  6
CONTINUOUS
 10
-23.65
 20
-107.325
  1
　ペアガラス：224
 40
3.0
 72
     5
 11
4.85
 21
-107.325
  0
TEXT
  7
TextStyle03
  8
文字
  6
CONTINUOUS
 10
78.1
 20
125.25
  1
シリーズ：ＳＴＤＬ
 40
5.0
 72
     5
 11
128.1
 21
125.25
  0
TEXT
  7
TextStyle03
  8
文字
  6
CONTINUOUS
 10
78.1
 20
119.625
  1
　　　　　（上下可動）1300×5500タイプ
 40
5.0
 72
     5
 11
184.35
 21
119.625
  0
TEXT
  7
TextStyle03
  8
文字
  6
CONTINUOUS
 10
78.1
 20
114.0
  1
図面名　：外観姿図
 40
5.0
 72
     5
 11
128.1
 21
114.0
  0
TEXT
  7
TextStyle03
  8
文字
  6
CONTINUOUS
 10
78.1
 20
108.375
  1
　　　　　　
 40
5.0
 72
     5
 11
111.225
 21
108.375
  0
TEXT
  7
TextStyle03
  8
文字
  6
CONTINUOUS
 10
-45.8
 20
82.325
  1
可動装置側
 40
3.0
 72
     5
 11
-29.3
 21
82.325
  0
TEXT
  7
TextStyle03
  8
文字
  6
CONTINUOUS
 10
-45.8
 20
15.05
  1
可動装置側
 40
3.0
 72
     5
 11
-29.3
 21
15.05
  0
TEXT
  7
TextStyle03
  8
文字
  6
CONTINUOUS
 10
-166.725
 20
39.1
  1
アンカーピッチ
 40
3.0
 50
90.0
 72
     5
 11
-166.725
 21
62.35
  0
TEXT
  7
TextStyle03
  8
文字
  6
CONTINUOUS
 10
-167.3
 20
108.45
  1
はケーシング位置を示す
 40
3.0
 72
     5
 11
-130.55
 21
108.45
  0
TEXT
  7
TextStyle03
  8
文字
  6
CONTINUOUS
 10
-167.3
 20
105.075
  1
４ヶ所中1ヶ所に設定
 40
3.0
 72
     5
 11
-135.6125
 21
105.075
  0
TEXT
  7
TextStyle03
  8
文字
  6
CONTINUOUS
 10
-167.3
 20
113.975
  1
は排水穴位置を示す
 40
3.0
 72
     5
 11
-137.3
 21
113.975
  0
TEXT
  7
TextStyle03
  8
文字
  6
CONTINUOUS
 10
-115.2
 20
108.25
  1
アンカーピッチ
 40
3.0
 72
     5
 11
-91.95
 21
108.25
  0
TEXT
  7
TextStyle03
  8
文字
  6
CONTINUOUS
 10
-171.025
 20
99.1
  1
アンカー数量　１８ヶ所
 40
3.0
 72
     5
 11
-134.275
 21
99.1
  0
TEXT
  7
TextStyle03
  8
文字
  6
CONTINUOUS
 10
-176.025
 20
88.375
  1
※重量に依るのでご相談ください
 40
3.0
 72
     5
 11
-125.775
 21
88.375
  0
TEXT
  7
TextStyle03
  8
文字
  6
CONTINUOUS
 10
-176.025
 20
93.325
  1
アームユニット数　※６～８ヶ所
 40
3.0
 72
     5
 11
-125.775
 21
93.325
  0
TEXT
  7
TextStyle03
  8
文字
  6
CONTINUOUS
 10
130.675
 20
-15.525
  1
ガラス寸法
 40
3.0
 72
     5
 11
147.175
 21
-15.525
  0
TEXT
  7
TextStyle03
  8
文字
  6
CONTINUOUS
 10
153.1
 20
-75.55
  1
×５枚
 40
3.0
 72
     5
 11
162.85
 21
-75.55
  0
INSERT
  2
*DIM_0004
  8
寸法
  6
CONTINUOUS
 10
0.0
 20
0.0
  0
INSERT
  2
*DIM_0005
  8
寸法
  6
CONTINUOUS
 10
0.0
 20
0.0
  0
INSERT
  2
*DIM_0008
  8
寸法
  6
CONTINUOUS
 10
0.0
 20
0.0
  0
INSERT
  2
*DIM_0009
  8
寸法
  6
CONTINUOUS
 10
0.0
 20
0.0
  0
INSERT
  2
*DIM_0012
  8
寸法
  6
CONTINUOUS
 10
0.0
 20
0.0
  0
INSERT
  2
*DIM_0015
  8
寸法
  6
CONTINUOUS
 10
0.0
 20
0.0
  0
INSERT
  2
*DIM_0016
  8
寸法
  6
CONTINUOUS
 10
0.0
 20
0.0
  0
INSERT
  2
*DIM_0017
  8
寸法
  6
CONTINUOUS
 10
0.0
 20
0.0
  0
INSERT
  2
*DIM_0018
  8
寸法
  6
CONTINUOUS
 10
0.0
 20
0.0
  0
INSERT
  2
*DIM_0019
  8
寸法
  6
CONTINUOUS
 10
0.0
 20
0.0
  0
INSERT
  2
*DIM_0020
  8
寸法
  6
CONTINUOUS
 10
0.0
 20
0.0
  0
INSERT
  2
*DIM_0021
  8
寸法
  6
CONTINUOUS
 10
0.0
 20
0.0
  0
INSERT
  2
*DIM_0022
  8
寸法
  6
CONTINUOUS
 10
0.0
 20
0.0
  0
INSERT
  2
*DIM_0023
  8
寸法
  6
CONTINUOUS
 10
0.0
 20
0.0
  0
INSERT
  2
*DIM_0024
  8
寸法
  6
CONTINUOUS
 10
0.0
 20
0.0
  0
INSERT
  2
*DIM_0025
  8
寸法
  6
CONTINUOUS
 10
0.0
 20
0.0
  0
INSERT
  2
*DIM_0026
  8
寸法
  6
CONTINUOUS
 10
0.0
 20
0.0
  0
INSERT
  2
*DIM_0038
  8
寸法
  6
CONTINUOUS
 10
0.0
 20
0.0
  0
INSERT
  2
*DIM_0039
  8
寸法
  6
CONTINUOUS
 10
0.0
 20
0.0
  0
INSERT
  2
*DIM_0040
  8
寸法
  6
CONTINUOUS
 10
0.0
 20
0.0
  0
INSERT
  2
*DIM_0041
  8
寸法
  6
CONTINUOUS
 10
0.0
 20
0.0
  0
INSERT
  2
*DIM_0042
  8
寸法
  6
CONTINUOUS
 10
0.0
 20
0.0
  0
LINE
  8
曲げ物
  6
CONTINUOUS
 10
38.7959
 20
52.082655
 11
35.100588
 21
48.387342
  0
LINE
  8
曲げ物
  6
CONTINUOUS
 10
38.09243
 20
50.546545
 11
36.6367
 21
49.090815
  0
LINE
  8
曲げ物
  6
CONTINUOUS
 10
37.25979
 20
51.379185
 11
35.80406
 21
49.923455
  0
LINE
  8
曲げ物
  6
CONTINUOUS
 10
0.418303
 20
52.082655
 11
-3.27701
 21
48.387342
  0
LINE
  8
曲げ物
  6
CONTINUOUS
 10
-0.285167
 20
50.546545
 11
-1.740898
 21
49.090815
  0
LINE
  8
曲げ物
  6
CONTINUOUS
 10
-1.117807
 20
51.379185
 11
-2.573538
 21
49.923455
  0
LINE
  8
曲げ物
  6
CONTINUOUS
 10
-36.008955
 20
52.082655
 11
-39.704267
 21
48.387342
  0
LINE
  8
曲げ物
  6
CONTINUOUS
 10
-36.712425
 20
50.546545
 11
-38.168155
 21
49.090815
  0
LINE
  8
曲げ物
  6
CONTINUOUS
 10
-37.545065
 20
51.379185
 11
-39.000795
 21
49.923455
  0
LINE
  8
曲げ物
  6
CONTINUOUS
 10
-72.283558
 20
52.082655
 11
-75.97887
 21
48.387342
  0
LINE
  8
曲げ物
  6
CONTINUOUS
 10
-72.987028
 20
50.546545
 11
-74.442757
 21
49.090815
  0
LINE
  8
曲げ物
  6
CONTINUOUS
 10
-73.819668
 20
51.379185
 11
-75.275397
 21
49.923455
  0
LINE
  8
曲げ物
  6
CONTINUOUS
 10
-108.392158
 20
52.082655
 11
-112.08747
 21
48.387342
  0
LINE
  8
曲げ物
  6
CONTINUOUS
 10
-109.095627
 20
50.546545
 11
-110.551357
 21
49.090815
  0
LINE
  8
曲げ物
  6
CONTINUOUS
 10
-109.928268
 20
51.379185
 11
-111.383997
 21
49.923455
  0
ENDSEC
  0
EOF
