  0
SECTION
  2
HEADER
  9
$EXTMIN
 10
-210.0
 20
-148.5
  9
$EXTMAX
 10
210.0
 20
148.5
  9
$PDMODE
 70
    32
  9
$PDSIZE
 40
1.5
  9
$LTSCALE
 40
10.0
  0
ENDSEC
  0
SECTION
  2
TABLES
  0
TABLE
  2
LTYPE
 70
    15
  0
LTYPE
  2
CONTINUOUS
 70
    64
  3
実線
 72
    65
 73
     0
 40
0.0
  0
LTYPE
  2
DASHED
 70
    64
  3
破線A
 72
    65
 73
     2
 40
0.6
 49
0.4
 49
-0.2
  0
LTYPE
  2
DASHEDX2
 70
    64
  3
破線B
 72
    65
 73
     2
 40
1.3
 49
0.9
 49
-0.4
  0
LTYPE
  2
DASHDOT
 70
    64
  3
１点鎖線A
 72
    65
 73
     4
 40
0.5375
 49
0.375
 49
-0.05
 49
0.0625
 49
-0.05
  0
LTYPE
  2
DASHDOTX2
 70
    64
  3
１点鎖線B
 72
    65
 73
     4
 40
1.075
 49
0.75
 49
-0.1
 49
0.125
 49
-0.1
  0
LTYPE
  2
DIVIDE2
 70
    64
  3
２点鎖線A
 72
    65
 73
     6
 40
0.5125
 49
0.3
 49
-0.0375
 49
0.05
 49
-0.0375
 49
0.05
 49
-0.0375
  0
LTYPE
  2
DIVIDE
 70
    64
  3
２点鎖線B
 72
    65
 73
     6
 40
1.05
 49
0.55
 49
-0.1
 49
0.1
 49
-0.1
 49
0.1
 49
-0.1
  0
LTYPE
  2
DOT
 70
    64
  3
点線A
 72
    65
 73
     2
 40
0.1125
 49
0.0625
 49
-0.05
  0
LTYPE
  2
DOTX2
 70
    64
  3
点線B
 72
    65
 73
     2
 40
0.275
 49
0.15
 49
-0.125
  0
LTYPE
  2
CONTINUOUS
 70
    64
  3
実線
 72
    65
 73
     0
 40
0.0
  0
LTYPE
  2
CONTINUOUS
 70
    64
  3
実線
 72
    65
 73
     0
 40
0.0
  0
LTYPE
  2
CONTINUOUS
 70
    64
  3
実線
 72
    65
 73
     0
 40
0.0
  0
LTYPE
  2
CONTINUOUS
 70
    64
  3
実線
 72
    65
 73
     0
 40
0.0
  0
LTYPE
  2
CONTINUOUS
 70
    64
  3
実線
 72
    65
 73
     0
 40
0.0
  0
LTYPE
  2
CONTINUOUS
 70
    64
  3
実線
 72
    65
 73
     0
 40
0.0
  0
ENDTAB
  0
TABLE
  2
LAYER
 70
    34
  0
LAYER
  2
通り芯
 70
     0
 62
    15
  6
CONTINUOUS
  0
LAYER
  2
補助線
 70
     0
 62
    16
  6
DOT
  0
LAYER
  2
躯体
 70
     0
 62
    31
  6
CONTINUOUS
  0
LAYER
  2
型材
 70
     0
 62
    32
  6
CONTINUOUS
  0
LAYER
  2
型材断面
 70
     0
 62
    47
  6
CONTINUOUS
  0
LAYER
  2
ガラス
 70
     0
 62
    48
  6
CONTINUOUS
  0
LAYER
  2
ゴム等
 70
     0
 62
    63
  6
CONTINUOUS
  0
LAYER
  2
ボルト／ビス
 70
     0
 62
    64
  6
CONTINUOUS
  0
LAYER
  2
文字
 70
     0
 62
    79
  6
CONTINUOUS
  0
LAYER
  2
寸法
 70
     0
 62
    80
  6
CONTINUOUS
  0
LAYER
  2
ﾊｯﾁﾝｸﾞ
 70
     0
 62
    95
  6
CONTINUOUS
  0
LAYER
  2
別途部材
 70
     0
 62
    96
  6
CONTINUOUS
  0
LAYER
  2
曲げ物
 70
     0
 62
   111
  6
CONTINUOUS
  0
LAYER
  2
鉄骨等
 70
     0
 62
   112
  6
CONTINUOUS
  0
LAYER
  2
St
 70
     0
 62
   127
  6
CONTINUOUS
  0
LAYER
  2
その他部品等
 70
     0
 62
   128
  6
CONTINUOUS
  0
LAYER
  2
ｶﾞｽｹｯﾄ
 70
     0
 62
   143
  6
CONTINUOUS
  0
LAYER
  2
ｽｹｯﾁ
 70
     0
 62
    14
  6
CONTINUOUS
  0
LAYER
  2
0
 70
     0
 62
    17
  6
CONTINUOUS
  0
LAYER
  2
1
 70
     0
 62
    30
  6
CONTINUOUS
  0
LAYER
  2
4
 70
     0
 62
    33
  6
CONTINUOUS
  0
LAYER
  2
ﾚｲﾔ3
 70
     0
 62
    46
  6
CONTINUOUS
  0
LAYER
  2
外形線
 70
     0
 62
    49
  6
CONTINUOUS
  0
LAYER
  2
部品
 70
     0
 62
    14
  6
CONTINUOUS
  0
LAYER
  2
サッシ芯
 70
     0
 62
    17
  6
DASHDOTX2
  0
LAYER
  2
寸法線
 70
     0
 62
    62
  6
CONTINUOUS
  0
LAYER
  2
姿図外形線
 70
     0
 62
    65
  6
CONTINUOUS
  0
LAYER
  2
姿補助線
 70
     0
 62
    30
  6
CONTINUOUS
  0
LAYER
  2
透視線
 70
     0
 62
    78
  6
DOT
  0
LAYER
  2
用紙
 70
     0
 62
    81
  6
CONTINUOUS
  0
LAYER
  2
実線図枠
 70
     0
 62
    94
  6
CONTINUOUS
  0
LAYER
  2
補助図枠
 70
     0
 62
    97
  6
CONTINUOUS
  0
LAYER
  2
建具記号
 70
     0
 62
   110
  6
CONTINUOUS
  0
LAYER
  2
補助文字
 70
     0
 62
   113
  6
CONTINUOUS
  0
ENDTAB
  0
TABLE
  2
STYLE
 70
    10
  0
STYLE
  2
STANDARD
 70
     0
 40
1.0
 41
1.0
 42
1.0
 50
0.0
 71
     0
  3
TXT
  4
BIGFONT
  0
STYLE
  2
TATE
 70
     4
 40
1.0
 41
1.0
 42
1.0
 50
0.0
 71
     0
  3
TXT
  4
BIGFONT
  0
STYLE
  2
TextStyle03
 70
     0
 40
1.0
 41
1.0
 42
1.0
 50
0.0
 71
     0
  3
MONOTXT
  4
BIGFONT
  0
STYLE
  2
TextStyle04
 70
     0
 40
1.0
 41
1.0
 42
1.0
 50
0.0
 71
     0
  3
MONOTXT
  4
BIGFONT
  0
STYLE
  2
TextStyle05
 70
     0
 40
1.0
 41
1.0
 42
1.0
 50
0.0
 71
     0
  3
MONOTXT
  4
BIGFONT
  0
STYLE
  2
TextStyle06
 70
     0
 40
1.0
 41
1.0
 42
1.0
 50
0.0
 71
     0
  3
MONOTXT
  4
BIGFONT
  0
STYLE
  2
TextStyle07
 70
     0
 40
1.0
 41
1.0
 42
1.0
 50
0.0
 71
     0
  3
MONOTXT
  4
BIGFONT
  0
STYLE
  2
TextStyle08
 70
     0
 40
1.0
 41
1.0
 42
1.0
 50
0.0
 71
     0
  3
MONOTXT
  4
BIGFONT
  0
STYLE
  2
TextStyle09
 70
     0
 40
1.0
 41
1.0
 42
1.0
 50
0.0
 71
     0
  3
MONOTXT
  4
BIGFONT
  0
STYLE
  2
TextStyle10
 70
     0
 40
1.0
 41
1.0
 42
1.0
 50
0.0
 71
     0
  3
MONOTXT
  4
BIGFONT
  0
ENDTAB
  0
ENDSEC
  0
SECTION
  2
BLOCKS
  0
BLOCK
  2
*GRP_0001
 70
    65
 10
0.0
 20
0.0
  0
LINE
  8
型材断面
  6
CONTINUOUS
 10
195.0
 20
133.5
 11
195.0
 21
-133.5
  0
LINE
  8
型材断面
  6
CONTINUOUS
 10
195.0
 20
-133.5
 11
-185.0
 21
-133.5
  0
LINE
  8
型材断面
  6
CONTINUOUS
 10
-185.0
 20
-133.5
 11
-185.0
 21
133.5
  0
LINE
  8
型材断面
  6
CONTINUOUS
 10
195.0
 20
133.5
 11
-185.0
 21
133.5
  0
LINE
  8
型材断面
  6
CONTINUOUS
 10
145.0
 20
-133.5
 11
145.0
 21
-118.5
  0
LINE
  8
型材断面
  6
CONTINUOUS
 10
195.0
 20
-118.5
 11
145.0
 21
-118.5
  0
ENDBLK
  0
BLOCK
  2
*GRP_0002
 70
    65
 10
0.0
 20
0.0
  0
INSERT
  2
M8横
  8
ゴム等
  6
CONTINUOUS
 10
163.336003
 20
27.710297
 50
90.0
 41
0.033333
 42
0.033333
  0
LINE
  8
ボルト／ビス
  6
CONTINUOUS
 10
163.126005
 20
27.843633
 11
163.109338
 21
27.826965
  0
LINE
  8
ボルト／ビス
  6
CONTINUOUS
 10
163.109338
 20
27.593633
 11
163.126005
 21
27.576965
  0
LINE
  8
ボルト／ビス
  6
CONTINUOUS
 10
163.126005
 20
27.576965
 11
163.126005
 21
27.843633
  0
LINE
  8
ボルト／ビス
  6
CONTINUOUS
 10
163.109338
 20
27.593633
 11
163.109338
 21
27.826965
  0
LINE
  8
ボルト／ビス
  6
CONTINUOUS
 10
163.109338
 20
27.826965
 11
163.15267
 21
27.826965
  0
LINE
  8
ボルト／ビス
  6
CONTINUOUS
 10
163.126005
 20
27.843633
 11
163.15267
 21
27.843633
  0
LINE
  8
ボルト／ビス
  6
CONTINUOUS
 10
163.126005
 20
27.576965
 11
163.15267
 21
27.576965
  0
LINE
  8
ボルト／ビス
  6
CONTINUOUS
 10
163.109338
 20
27.593633
 11
163.15267
 21
27.593633
  0
LINE
  8
ボルト／ビス
  6
CONTINUOUS
 10
163.336003
 20
27.343633
 11
163.336003
 21
28.076965
  0
LINE
  8
ボルト／ビス
  6
CONTINUOUS
 10
163.376002
 20
28.126965
 11
163.459335
 21
28.126965
  0
LINE
  8
ボルト／ビス
  6
CONTINUOUS
 10
163.459335
 20
28.126965
 11
163.459335
 21
27.293633
  0
LINE
  8
ボルト／ビス
  6
CONTINUOUS
 10
163.459335
 20
27.293633
 11
163.376002
 21
27.293633
  0
LINE
  8
ボルト／ビス
  6
CONTINUOUS
 10
163.376002
 20
28.126965
 11
163.376002
 21
27.293633
  0
LINE
  8
ボルト／ビス
  6
CONTINUOUS
 10
163.336003
 20
27.343633
 11
163.376002
 21
27.343633
  0
LINE
  8
ボルト／ビス
  6
CONTINUOUS
 10
163.336003
 20
28.076965
 11
163.376002
 21
28.076965
  0
LINE
  8
ボルト／ビス
  6
CONTINUOUS
 10
163.386002
 20
27.710297
 11
163.336003
 21
27.710297
  0
ENDBLK
  0
BLOCK
  2
*GRP_0003
 70
    65
 10
0.0
 20
0.0
  0
LINE
  8
ボルト／ビス
  6
CONTINUOUS
 10
162.47617
 20
27.50363
 11
162.409503
 21
27.50363
  0
LINE
  8
ボルト／ビス
  6
CONTINUOUS
 10
162.409503
 20
27.50363
 11
162.409503
 21
28.236962
  0
LINE
  8
ボルト／ビス
  6
CONTINUOUS
 10
162.409503
 20
28.236962
 11
162.47617
 21
28.236962
  0
LINE
  8
ボルト／ビス
  6
CONTINUOUS
 10
162.47617
 20
27.50363
 11
162.47617
 21
28.236962
  0
LINE
  8
ボルト／ビス
  6
CONTINUOUS
 10
162.37617
 20
27.570298
 11
162.409503
 21
27.570298
  0
LINE
  8
ボルト／ビス
  6
CONTINUOUS
 10
162.37617
 20
27.570298
 11
162.37617
 21
28.170298
  0
LINE
  8
ボルト／ビス
  6
CONTINUOUS
 10
162.37617
 20
28.170298
 11
162.409503
 21
28.170298
  0
LINE
  8
ボルト／ビス
  6
CONTINUOUS
 62
    64
 10
162.17617
 20
27.709922
 11
162.187845
 21
27.677847
  0
ARC
  8
ボルト／ビス
  6
CONTINUOUS
 62
    64
 10
162.281149
 20
27.725964
 40
0.104978
 50
152.721967
 51
180.0
  0
ARC
  8
ボルト／ビス
  6
CONTINUOUS
 62
    64
 10
162.578573
 20
27.870302
 40
0.402402
 50
166.165002
 51
193.834985
  0
LINE
  8
ボルト／ビス
  6
CONTINUOUS
 62
    64
 10
162.17617
 20
28.030673
 11
162.187845
 21
28.062747
  0
ARC
  8
ボルト／ビス
  6
CONTINUOUS
 62
    64
 10
162.281149
 20
28.014639
 40
0.104978
 50
180.0
 51
207.278033
  0
LINE
  8
ボルト／ビス
  6
CONTINUOUS
 62
    64
 10
162.17617
 20
27.709922
 11
162.17617
 21
28.030673
  0
LINE
  8
ボルト／ビス
  6
CONTINUOUS
 62
    64
 10
162.187845
 20
28.062747
 11
162.309503
 21
28.062747
  0
LINE
  8
ボルト／ビス
  6
CONTINUOUS
 62
    64
 10
162.187845
 20
27.966523
 11
162.309503
 21
27.966523
  0
LINE
  8
ボルト／ビス
  6
CONTINUOUS
 62
    64
 10
162.187845
 20
27.677847
 11
162.309503
 21
27.677847
  0
LINE
  8
ボルト／ビス
  6
CONTINUOUS
 62
    64
 10
162.187845
 20
27.774072
 11
162.309503
 21
27.774072
  0
LINE
  8
ボルト／ビス
  6
CONTINUOUS
 10
162.309503
 20
27.677847
 11
162.309503
 21
28.062747
  0
LINE
  8
ボルト／ビス
  6
CONTINUOUS
 10
162.309503
 20
27.670298
 11
162.37617
 21
27.670298
  0
LINE
  8
ボルト／ビス
  6
CONTINUOUS
 10
162.309503
 20
27.670298
 11
162.309503
 21
28.070298
  0
LINE
  8
ボルト／ビス
  6
CONTINUOUS
 10
162.309503
 20
28.070298
 11
162.37617
 21
28.070298
  0
ENDBLK
  0
BLOCK
  2
*DIM_0004
 70
    65
 10
0.0
 20
0.0
  0
LINE
  8
寸法
  6
CONTINUOUS
 10
161.248695
 20
26.256963
 11
142.14273
 21
26.256963
  0
LINE
  8
寸法
  6
CONTINUOUS
 10
142.14273
 20
28.536658
 11
142.14273
 21
26.256963
  0
POINT
  8
寸法
 10
142.14273
 20
28.536658
  0
POINT
  8
寸法
 10
142.14273
 20
26.256963
  0
TEXT
  7
TextStyle03
  8
寸法
  6
CONTINUOUS
 10
141.75
 20
17.34375
  1
68.4
 40
3.0
 50
90.0
 72
     5
 11
141.75
 21
23.90625
  0
ENDBLK
  0
BLOCK
  2
*DIM_0005
 70
    65
 10
0.0
 20
0.0
  0
LINE
  8
寸法
  6
CONTINUOUS
 10
169.209335
 20
21.570298
 11
169.209335
 21
13.661277
  0
LINE
  8
寸法
  6
CONTINUOUS
 10
161.742835
 20
23.536658
 11
161.742835
 21
13.661277
  0
LINE
  8
寸法
  6
CONTINUOUS
 10
169.209335
 20
13.661277
 11
161.742835
 21
13.661277
  0
POINT
  8
寸法
 10
169.209335
 20
13.661277
  0
POINT
  8
寸法
 10
161.742835
 20
13.661277
  0
TEXT
  7
TextStyle03
  8
寸法
  6
CONTINUOUS
 10
163.0375
 20
14.025
  1
224
 40
3.0
 72
     5
 11
167.9125
 21
14.025
  0
ENDBLK
  0
BLOCK
  2
*GRP_0006
 70
    65
 10
0.0
 20
0.0
  0
INSERT
  2
M8横
  8
ゴム等
  6
CONTINUOUS
 10
163.336003
 20
72.696352
 50
270.0
 41
0.033333
 42
-0.033333
  0
LINE
  8
ボルト／ビス
  6
CONTINUOUS
 10
163.126005
 20
72.56302
 11
163.109338
 21
72.579688
  0
LINE
  8
ボルト／ビス
  6
CONTINUOUS
 10
163.109338
 20
72.81302
 11
163.126005
 21
72.829688
  0
LINE
  8
ボルト／ビス
  6
CONTINUOUS
 10
163.126005
 20
72.829688
 11
163.126005
 21
72.56302
  0
LINE
  8
ボルト／ビス
  6
CONTINUOUS
 10
163.109338
 20
72.81302
 11
163.109338
 21
72.579688
  0
LINE
  8
ボルト／ビス
  6
CONTINUOUS
 10
163.109338
 20
72.579688
 11
163.15267
 21
72.579688
  0
LINE
  8
ボルト／ビス
  6
CONTINUOUS
 10
163.126005
 20
72.56302
 11
163.15267
 21
72.56302
  0
LINE
  8
ボルト／ビス
  6
CONTINUOUS
 10
163.126005
 20
72.829688
 11
163.15267
 21
72.829688
  0
LINE
  8
ボルト／ビス
  6
CONTINUOUS
 10
163.109338
 20
72.81302
 11
163.15267
 21
72.81302
  0
LINE
  8
ボルト／ビス
  6
CONTINUOUS
 10
163.336003
 20
73.06302
 11
163.336003
 21
72.329688
  0
LINE
  8
ボルト／ビス
  6
CONTINUOUS
 10
163.376002
 20
72.279687
 11
163.459335
 21
72.279687
  0
LINE
  8
ボルト／ビス
  6
CONTINUOUS
 10
163.459335
 20
72.279687
 11
163.459335
 21
73.11302
  0
LINE
  8
ボルト／ビス
  6
CONTINUOUS
 10
163.459335
 20
73.11302
 11
163.376002
 21
73.11302
  0
LINE
  8
ボルト／ビス
  6
CONTINUOUS
 10
163.376002
 20
72.279687
 11
163.376002
 21
73.11302
  0
LINE
  8
ボルト／ビス
  6
CONTINUOUS
 10
163.336003
 20
73.06302
 11
163.376002
 21
73.06302
  0
LINE
  8
ボルト／ビス
  6
CONTINUOUS
 10
163.336003
 20
72.329688
 11
163.376002
 21
72.329688
  0
LINE
  8
ボルト／ビス
  6
CONTINUOUS
 10
163.386002
 20
72.696352
 11
163.336003
 21
72.696352
  0
ENDBLK
  0
BLOCK
  2
*GRP_0007
 70
    65
 10
0.0
 20
0.0
  0
LINE
  8
ボルト／ビス
  6
CONTINUOUS
 10
162.47617
 20
72.903023
 11
162.409503
 21
72.903023
  0
LINE
  8
ボルト／ビス
  6
CONTINUOUS
 10
162.409503
 20
72.903023
 11
162.409503
 21
72.169687
  0
LINE
  8
ボルト／ビス
  6
CONTINUOUS
 10
162.409503
 20
72.169687
 11
162.47617
 21
72.169687
  0
LINE
  8
ボルト／ビス
  6
CONTINUOUS
 10
162.47617
 20
72.903023
 11
162.47617
 21
72.169687
  0
LINE
  8
ボルト／ビス
  6
CONTINUOUS
 10
162.37617
 20
72.836355
 11
162.409503
 21
72.836355
  0
LINE
  8
ボルト／ビス
  6
CONTINUOUS
 10
162.37617
 20
72.836355
 11
162.37617
 21
72.236355
  0
LINE
  8
ボルト／ビス
  6
CONTINUOUS
 10
162.37617
 20
72.236355
 11
162.409503
 21
72.236355
  0
LINE
  8
ボルト／ビス
  6
CONTINUOUS
 62
    64
 10
162.17617
 20
72.69673
 11
162.187845
 21
72.728805
  0
ARC
  8
ボルト／ビス
  6
CONTINUOUS
 62
    64
 10
162.281149
 20
72.680698
 40
0.104978
 50
180.0
 51
207.278033
  0
ARC
  8
ボルト／ビス
  6
CONTINUOUS
 62
    64
 10
162.578573
 20
72.536361
 40
0.402402
 50
166.165015
 51
193.834998
  0
LINE
  8
ボルト／ビス
  6
CONTINUOUS
 62
    64
 10
162.17617
 20
72.37598
 11
162.187845
 21
72.343905
  0
ARC
  8
ボルト／ビス
  6
CONTINUOUS
 62
    64
 10
162.281149
 20
72.392023
 40
0.104978
 50
152.721967
 51
180.0
  0
LINE
  8
ボルト／ビス
  6
CONTINUOUS
 62
    64
 10
162.17617
 20
72.69673
 11
162.17617
 21
72.37598
  0
LINE
  8
ボルト／ビス
  6
CONTINUOUS
 62
    64
 10
162.187845
 20
72.343905
 11
162.309503
 21
72.343905
  0
LINE
  8
ボルト／ビス
  6
CONTINUOUS
 62
    64
 10
162.187845
 20
72.44013
 11
162.309503
 21
72.44013
  0
LINE
  8
ボルト／ビス
  6
CONTINUOUS
 62
    64
 10
162.187845
 20
72.728805
 11
162.309503
 21
72.728805
  0
LINE
  8
ボルト／ビス
  6
CONTINUOUS
 62
    64
 10
162.187845
 20
72.63258
 11
162.309503
 21
72.63258
  0
LINE
  8
ボルト／ビス
  6
CONTINUOUS
 10
162.309503
 20
72.728805
 11
162.309503
 21
72.343905
  0
LINE
  8
ボルト／ビス
  6
CONTINUOUS
 10
162.309503
 20
72.736355
 11
162.37617
 21
72.736355
  0
LINE
  8
ボルト／ビス
  6
CONTINUOUS
 10
162.309503
 20
72.736355
 11
162.309503
 21
72.336355
  0
LINE
  8
ボルト／ビス
  6
CONTINUOUS
 10
162.309503
 20
72.336355
 11
162.37617
 21
72.336355
  0
ENDBLK
  0
BLOCK
  2
*DIM_0008
 70
    65
 10
0.0
 20
0.0
  0
LINE
  8
寸法
  6
CONTINUOUS
 10
161.248695
 20
74.149688
 11
142.14273
 21
74.149688
  0
LINE
  8
寸法
  6
CONTINUOUS
 10
142.14273
 20
71.869993
 11
142.14273
 21
74.149688
  0
POINT
  8
寸法
 10
142.14273
 20
71.869993
  0
POINT
  8
寸法
 10
142.14273
 20
74.149688
  0
TEXT
  7
TextStyle03
  8
寸法
  6
CONTINUOUS
 10
141.75
 20
76.46875
  1
68.4
 40
3.0
 50
90.0
 72
     5
 11
141.75
 21
83.03125
  0
ENDBLK
  0
BLOCK
  2
*DIM_0009
 70
    65
 10
0.0
 20
0.0
  0
LINE
  8
寸法
  6
CONTINUOUS
 10
142.14273
 20
71.869993
 11
142.14273
 21
28.536658
  0
POINT
  8
寸法
 10
142.14273
 20
71.869993
  0
POINT
  8
寸法
 10
142.14273
 20
28.536658
  0
TEXT
  7
TextStyle03
  8
寸法
  6
CONTINUOUS
 10
141.75
 20
38.48125
  1
呼称寸法　1300
 40
3.0
 50
90.0
 72
     5
 11
141.75
 21
61.91875
  0
ENDBLK
  0
BLOCK
  2
*GRP_0010
 70
    65
 10
0.0
 20
0.0
  0
INSERT
  2
M8横
  8
ゴム等
  6
CONTINUOUS
 10
38.229858
 20
-70.297288
 50
180.0
 41
0.033333
 42
-0.033333
  0
LINE
  8
ボルト／ビス
  6
CONTINUOUS
 10
38.096525
 20
-70.087288
 11
38.11319
 21
-70.070622
  0
LINE
  8
ボルト／ビス
  6
CONTINUOUS
 10
38.346525
 20
-70.070622
 11
38.36319
 21
-70.087288
  0
LINE
  8
ボルト／ビス
  6
CONTINUOUS
 10
38.36319
 20
-70.087288
 11
38.096525
 21
-70.087288
  0
LINE
  8
ボルト／ビス
  6
CONTINUOUS
 10
38.346525
 20
-70.070622
 11
38.11319
 21
-70.070622
  0
LINE
  8
ボルト／ビス
  6
CONTINUOUS
 10
38.11319
 20
-70.070622
 11
38.11319
 21
-70.113952
  0
LINE
  8
ボルト／ビス
  6
CONTINUOUS
 10
38.096525
 20
-70.087288
 11
38.096525
 21
-70.113952
  0
LINE
  8
ボルト／ビス
  6
CONTINUOUS
 10
38.36319
 20
-70.087288
 11
38.36319
 21
-70.113952
  0
LINE
  8
ボルト／ビス
  6
CONTINUOUS
 10
38.346525
 20
-70.070622
 11
38.346525
 21
-70.113952
  0
LINE
  8
ボルト／ビス
  6
CONTINUOUS
 10
38.596525
 20
-70.297288
 11
37.86319
 21
-70.297288
  0
LINE
  8
ボルト／ビス
  6
CONTINUOUS
 10
37.81319
 20
-70.337288
 11
37.81319
 21
-70.42062
  0
LINE
  8
ボルト／ビス
  6
CONTINUOUS
 10
37.81319
 20
-70.42062
 11
38.646525
 21
-70.42062
  0
LINE
  8
ボルト／ビス
  6
CONTINUOUS
 10
38.646525
 20
-70.42062
 11
38.646525
 21
-70.337288
  0
LINE
  8
ボルト／ビス
  6
CONTINUOUS
 10
37.81319
 20
-70.337288
 11
38.646525
 21
-70.337288
  0
LINE
  8
ボルト／ビス
  6
CONTINUOUS
 10
38.596525
 20
-70.297288
 11
38.596525
 21
-70.337288
  0
LINE
  8
ボルト／ビス
  6
CONTINUOUS
 10
37.86319
 20
-70.297288
 11
37.86319
 21
-70.337288
  0
LINE
  8
ボルト／ビス
  6
CONTINUOUS
 10
38.229858
 20
-70.347288
 11
38.229858
 21
-70.297288
  0
ENDBLK
  0
BLOCK
  2
*GRP_0011
 70
    65
 10
0.0
 20
0.0
  0
LINE
  8
ボルト／ビス
  6
CONTINUOUS
 10
38.436525
 20
-69.437453
 11
38.436525
 21
-69.370788
  0
LINE
  8
ボルト／ビス
  6
CONTINUOUS
 10
38.436525
 20
-69.370788
 11
37.703192
 21
-69.370788
  0
LINE
  8
ボルト／ビス
  6
CONTINUOUS
 10
37.703192
 20
-69.370788
 11
37.703192
 21
-69.437453
  0
LINE
  8
ボルト／ビス
  6
CONTINUOUS
 10
38.436525
 20
-69.437453
 11
37.703192
 21
-69.437453
  0
LINE
  8
ボルト／ビス
  6
CONTINUOUS
 10
38.36986
 20
-69.337453
 11
38.36986
 21
-69.370788
  0
LINE
  8
ボルト／ビス
  6
CONTINUOUS
 10
38.36986
 20
-69.337453
 11
37.76986
 21
-69.337453
  0
LINE
  8
ボルト／ビス
  6
CONTINUOUS
 10
37.76986
 20
-69.337453
 11
37.76986
 21
-69.370788
  0
LINE
  8
ボルト／ビス
  6
CONTINUOUS
 62
    64
 10
38.230235
 20
-69.137453
 11
38.26231
 21
-69.149128
  0
ARC
  8
ボルト／ビス
  6
CONTINUOUS
 62
    64
 10
38.214196
 20
-69.242431
 40
0.104978
 50
90.0
 51
117.278033
  0
ARC
  8
ボルト／ビス
  6
CONTINUOUS
 62
    64
 10
38.069859
 20
-69.539855
 40
0.402402
 50
76.165015
 51
103.834998
  0
LINE
  8
ボルト／ビス
  6
CONTINUOUS
 62
    64
 10
37.909485
 20
-69.137453
 11
37.87741
 21
-69.149128
  0
ARC
  8
ボルト／ビス
  6
CONTINUOUS
 62
    64
 10
37.925521
 20
-69.242431
 40
0.104978
 50
62.721967
 51
90.0
  0
LINE
  8
ボルト／ビス
  6
CONTINUOUS
 62
    64
 10
38.230235
 20
-69.137453
 11
37.909485
 21
-69.137453
  0
LINE
  8
ボルト／ビス
  6
CONTINUOUS
 62
    64
 10
37.87741
 20
-69.149128
 11
37.87741
 21
-69.270788
  0
LINE
  8
ボルト／ビス
  6
CONTINUOUS
 62
    64
 10
37.973635
 20
-69.149128
 11
37.973635
 21
-69.270788
  0
LINE
  8
ボルト／ビス
  6
CONTINUOUS
 62
    64
 10
38.26231
 20
-69.149128
 11
38.26231
 21
-69.270788
  0
LINE
  8
ボルト／ビス
  6
CONTINUOUS
 62
    64
 10
38.166085
 20
-69.149128
 11
38.166085
 21
-69.270788
  0
LINE
  8
ボルト／ビス
  6
CONTINUOUS
 10
38.26231
 20
-69.270788
 11
37.87741
 21
-69.270788
  0
LINE
  8
ボルト／ビス
  6
CONTINUOUS
 10
38.26986
 20
-69.270788
 11
38.26986
 21
-69.337453
  0
LINE
  8
ボルト／ビス
  6
CONTINUOUS
 10
38.26986
 20
-69.270788
 11
37.86986
 21
-69.270788
  0
LINE
  8
ボルト／ビス
  6
CONTINUOUS
 10
37.86986
 20
-69.270788
 11
37.86986
 21
-69.337453
  0
ENDBLK
  0
BLOCK
  2
*DIM_0012
 70
    65
 10
0.0
 20
0.0
  0
LINE
  8
寸法
  6
CONTINUOUS
 10
42.403498
 20
-68.70412
 11
61.02197
 21
-68.70412
  0
LINE
  8
寸法
  6
CONTINUOUS
 10
44.36986
 20
-76.17062
 11
61.02197
 21
-76.17062
  0
LINE
  8
寸法
  6
CONTINUOUS
 10
61.02197
 20
-68.70412
 11
61.02197
 21
-76.17062
  0
POINT
  8
寸法
 10
61.02197
 20
-68.70412
  0
POINT
  8
寸法
 10
61.02197
 20
-76.17062
  0
TEXT
  7
TextStyle03
  8
寸法
  6
CONTINUOUS
 10
60.625
 20
-74.8875
  1
224
 40
3.0
 50
90.0
 72
     5
 11
60.625
 21
-70.0125
  0
ENDBLK
  0
BLOCK
  2
*GRP_0013
 70
    65
 10
0.0
 20
0.0
  0
INSERT
  2
M8横
  8
ゴム等
  6
CONTINUOUS
 10
-113.422853
 20
-70.297288
 41
0.033333
 42
0.033333
  0
LINE
  8
ボルト／ビス
  6
CONTINUOUS
 10
-113.28952
 20
-70.087288
 11
-113.306185
 21
-70.070622
  0
LINE
  8
ボルト／ビス
  6
CONTINUOUS
 10
-113.53952
 20
-70.070622
 11
-113.556185
 21
-70.087288
  0
LINE
  8
ボルト／ビス
  6
CONTINUOUS
 10
-113.556185
 20
-70.087288
 11
-113.28952
 21
-70.087288
  0
LINE
  8
ボルト／ビス
  6
CONTINUOUS
 10
-113.53952
 20
-70.070622
 11
-113.306185
 21
-70.070622
  0
LINE
  8
ボルト／ビス
  6
CONTINUOUS
 10
-113.306185
 20
-70.070622
 11
-113.306185
 21
-70.113952
  0
LINE
  8
ボルト／ビス
  6
CONTINUOUS
 10
-113.28952
 20
-70.087288
 11
-113.28952
 21
-70.113952
  0
LINE
  8
ボルト／ビス
  6
CONTINUOUS
 10
-113.556185
 20
-70.087288
 11
-113.556185
 21
-70.113952
  0
LINE
  8
ボルト／ビス
  6
CONTINUOUS
 10
-113.53952
 20
-70.070622
 11
-113.53952
 21
-70.113952
  0
LINE
  8
ボルト／ビス
  6
CONTINUOUS
 10
-113.78952
 20
-70.297288
 11
-113.056185
 21
-70.297288
  0
LINE
  8
ボルト／ビス
  6
CONTINUOUS
 10
-113.006185
 20
-70.337288
 11
-113.006185
 21
-70.42062
  0
LINE
  8
ボルト／ビス
  6
CONTINUOUS
 10
-113.006185
 20
-70.42062
 11
-113.83952
 21
-70.42062
  0
LINE
  8
ボルト／ビス
  6
CONTINUOUS
 10
-113.83952
 20
-70.42062
 11
-113.83952
 21
-70.337288
  0
LINE
  8
ボルト／ビス
  6
CONTINUOUS
 10
-113.006185
 20
-70.337288
 11
-113.83952
 21
-70.337288
  0
LINE
  8
ボルト／ビス
  6
CONTINUOUS
 10
-113.78952
 20
-70.297288
 11
-113.78952
 21
-70.337288
  0
LINE
  8
ボルト／ビス
  6
CONTINUOUS
 10
-113.056185
 20
-70.297288
 11
-113.056185
 21
-70.337288
  0
LINE
  8
ボルト／ビス
  6
CONTINUOUS
 10
-113.422853
 20
-70.347288
 11
-113.422853
 21
-70.297288
  0
ENDBLK
  0
BLOCK
  2
*GRP_0014
 70
    65
 10
0.0
 20
0.0
  0
LINE
  8
ボルト／ビス
  6
CONTINUOUS
 10
-113.62952
 20
-69.437453
 11
-113.62952
 21
-69.370788
  0
LINE
  8
ボルト／ビス
  6
CONTINUOUS
 10
-113.62952
 20
-69.370788
 11
-112.896188
 21
-69.370788
  0
LINE
  8
ボルト／ビス
  6
CONTINUOUS
 10
-112.896188
 20
-69.370788
 11
-112.896188
 21
-69.437453
  0
LINE
  8
ボルト／ビス
  6
CONTINUOUS
 10
-113.62952
 20
-69.437453
 11
-112.896188
 21
-69.437453
  0
LINE
  8
ボルト／ビス
  6
CONTINUOUS
 10
-113.562855
 20
-69.337453
 11
-113.562855
 21
-69.370788
  0
LINE
  8
ボルト／ビス
  6
CONTINUOUS
 10
-113.562855
 20
-69.337453
 11
-112.962855
 21
-69.337453
  0
LINE
  8
ボルト／ビス
  6
CONTINUOUS
 10
-112.962855
 20
-69.337453
 11
-112.962855
 21
-69.370788
  0
LINE
  8
ボルト／ビス
  6
CONTINUOUS
 62
    64
 10
-113.42323
 20
-69.137453
 11
-113.455305
 21
-69.149128
  0
ARC
  8
ボルト／ビス
  6
CONTINUOUS
 62
    64
 10
-113.407193
 20
-69.242431
 40
0.104978
 50
62.721967
 51
90.0
  0
ARC
  8
ボルト／ビス
  6
CONTINUOUS
 62
    64
 10
-113.262855
 20
-69.539855
 40
0.402402
 50
76.165002
 51
103.834985
  0
LINE
  8
ボルト／ビス
  6
CONTINUOUS
 62
    64
 10
-113.10248
 20
-69.137453
 11
-113.070405
 21
-69.149128
  0
ARC
  8
ボルト／ビス
  6
CONTINUOUS
 62
    64
 10
-113.118518
 20
-69.242431
 40
0.104978
 50
90.0
 51
117.278033
  0
LINE
  8
ボルト／ビス
  6
CONTINUOUS
 62
    64
 10
-113.42323
 20
-69.137453
 11
-113.10248
 21
-69.137453
  0
LINE
  8
ボルト／ビス
  6
CONTINUOUS
 62
    64
 10
-113.070405
 20
-69.149128
 11
-113.070405
 21
-69.270788
  0
LINE
  8
ボルト／ビス
  6
CONTINUOUS
 62
    64
 10
-113.16663
 20
-69.149128
 11
-113.16663
 21
-69.270788
  0
LINE
  8
ボルト／ビス
  6
CONTINUOUS
 62
    64
 10
-113.455305
 20
-69.149128
 11
-113.455305
 21
-69.270788
  0
LINE
  8
ボルト／ビス
  6
CONTINUOUS
 62
    64
 10
-113.35908
 20
-69.149128
 11
-113.35908
 21
-69.270788
  0
LINE
  8
ボルト／ビス
  6
CONTINUOUS
 10
-113.455305
 20
-69.270788
 11
-113.070405
 21
-69.270788
  0
LINE
  8
ボルト／ビス
  6
CONTINUOUS
 10
-113.462855
 20
-69.270788
 11
-113.462855
 21
-69.337453
  0
LINE
  8
ボルト／ビス
  6
CONTINUOUS
 10
-113.462855
 20
-69.270788
 11
-113.062855
 21
-69.270788
  0
LINE
  8
ボルト／ビス
  6
CONTINUOUS
 10
-113.062855
 20
-69.270788
 11
-113.062855
 21
-69.337453
  0
ENDBLK
  0
BLOCK
  2
*DIM_0015
 70
    65
 10
0.0
 20
0.0
  0
LINE
  8
寸法
  6
BYBLOCK
 62
     0
 10
-95.92983
 20
24.90653
 11
-95.92983
 21
19.993445
  0
LINE
  8
寸法
  6
BYBLOCK
 62
     0
 10
-37.596497
 20
24.90653
 11
-37.596497
 21
19.993445
  0
LINE
  8
寸法
  6
BYBLOCK
 62
     0
 10
-95.92983
 20
19.993445
 11
-37.596497
 21
19.993445
  0
POINT
  8
寸法
 62
     0
 10
-95.92983
 20
19.993445
  0
POINT
  8
寸法
 62
     0
 10
-37.596497
 20
19.993445
  0
TEXT
  7
TextStyle03
  8
寸法
  6
CONTINUOUS
 62
     0
 10
-70.05625
 20
20.35
  1
1750
 40
3.0
 72
     5
 11
-63.49375
 21
20.35
  0
ENDBLK
  0
BLOCK
  2
*DIM_0016
 70
    65
 10
0.0
 20
0.0
  0
LINE
  8
寸法
  6
BYBLOCK
 62
     0
 10
20.736835
 20
24.90653
 11
20.736835
 21
19.993445
  0
LINE
  8
寸法
  6
BYBLOCK
 62
     0
 10
-37.596497
 20
19.993445
 11
20.736835
 21
19.993445
  0
POINT
  8
寸法
 62
     0
 10
20.736835
 20
19.993445
  0
TEXT
  7
TextStyle03
  8
寸法
  6
CONTINUOUS
 62
     0
 10
-11.73125
 20
20.35
  1
1750
 40
3.0
 72
     5
 11
-5.16875
 21
20.35
  0
ENDBLK
  0
BLOCK
  2
*DIM_0017
 70
    65
 10
0.0
 20
0.0
  0
LINE
  8
寸法
  6
BYBLOCK
 62
     0
 10
41.03363
 20
67.96999
 11
47.810923
 21
67.96999
  0
LINE
  8
寸法
  6
BYBLOCK
 62
     0
 10
47.810923
 20
71.86999
 11
47.810923
 21
67.96999
  0
POINT
  8
寸法
 62
     0
 10
47.810923
 20
71.86999
  0
POINT
  8
寸法
 62
     0
 10
47.810923
 20
67.96999
  0
TEXT
  7
TextStyle03
  8
寸法
  6
CONTINUOUS
 62
     0
 10
47.475
 20
72.5375
  1
117
 40
3.0
 50
90.0
 72
     5
 11
47.475
 21
77.4125
  0
ENDBLK
  0
BLOCK
  2
*DIM_0018
 70
    65
 10
0.0
 20
0.0
  0
LINE
  8
寸法
  6
BYBLOCK
 62
     0
 10
41.03363
 20
32.43666
 11
47.810923
 21
32.43666
  0
LINE
  8
寸法
  6
BYBLOCK
 62
     0
 10
47.810923
 20
28.53666
 11
47.810923
 21
32.43666
  0
POINT
  8
寸法
 62
     0
 10
47.810923
 20
28.53666
  0
POINT
  8
寸法
 62
     0
 10
47.810923
 20
32.43666
  0
TEXT
  7
TextStyle03
  8
寸法
  6
CONTINUOUS
 62
     0
 10
47.9
 20
22.5875
  1
117
 40
3.0
 50
90.0
 72
     5
 11
47.9
 21
27.4625
  0
ENDBLK
  0
BLOCK
  2
*DIM_0019
 70
    65
 10
0.0
 20
0.0
  0
LINE
  8
寸法
  6
BYBLOCK
 62
     0
 10
-115.596497
 20
38.536658
 11
-144.541662
 21
38.536658
  0
LINE
  8
寸法
  6
BYBLOCK
 62
     0
 10
-115.596497
 20
61.869993
 11
-144.541662
 21
61.869993
  0
LINE
  8
寸法
  6
BYBLOCK
 62
     0
 10
-144.541662
 20
38.536658
 11
-144.541662
 21
61.869993
  0
POINT
  8
寸法
 62
     0
 10
-144.541662
 20
38.536658
  0
POINT
  8
寸法
 62
     0
 10
-144.541662
 20
61.869993
  0
TEXT
  7
TextStyle03
  8
寸法
  6
CONTINUOUS
 62
     0
 10
-144.875
 20
47.7375
  1
700
 40
3.0
 50
90.0
 72
     5
 11
-144.875
 21
52.6125
  0
ENDBLK
  0
BLOCK
  2
*DIM_0020
 70
    65
 10
0.0
 20
0.0
  0
LINE
  8
寸法
  6
BYBLOCK
 62
     0
 10
-104.263165
 20
74.86999
 11
-104.263165
 21
103.978062
  0
LINE
  8
寸法
  6
BYBLOCK
 62
     0
 10
-77.596497
 20
74.86999
 11
-77.596497
 21
103.978062
  0
LINE
  8
寸法
  6
BYBLOCK
 62
     0
 10
-104.263165
 20
103.978062
 11
-77.596497
 21
103.978062
  0
POINT
  8
寸法
 62
     0
 10
-104.263165
 20
103.978062
  0
POINT
  8
寸法
 62
     0
 10
-77.596497
 20
103.978062
  0
TEXT
  7
TextStyle03
  8
寸法
  6
CONTINUOUS
 62
     0
 10
-93.3875
 20
104.325
  1
800
 40
3.0
 72
     5
 11
-88.5125
 21
104.325
  0
ENDBLK
  0
BLOCK
  2
*DIM_0021
 70
    65
 10
0.0
 20
0.0
  0
LINE
  8
寸法
  6
BYBLOCK
 62
     0
 10
-50.92983
 20
74.86999
 11
-50.92983
 21
103.978062
  0
LINE
  8
寸法
  6
BYBLOCK
 62
     0
 10
-77.596497
 20
103.978062
 11
-50.92983
 21
103.978062
  0
POINT
  8
寸法
 62
     0
 10
-50.92983
 20
103.978062
  0
TEXT
  7
TextStyle03
  8
寸法
  6
CONTINUOUS
 62
     0
 10
-66.7125
 20
104.325
  1
800
 40
3.0
 72
     5
 11
-61.8375
 21
104.325
  0
ENDBLK
  0
BLOCK
  2
*DIM_0022
 70
    65
 10
0.0
 20
0.0
  0
LINE
  8
寸法
  6
BYBLOCK
 62
     0
 10
-24.263165
 20
74.86999
 11
-24.263165
 21
103.978062
  0
LINE
  8
寸法
  6
BYBLOCK
 62
     0
 10
-50.92983
 20
103.978062
 11
-24.263165
 21
103.978062
  0
POINT
  8
寸法
 62
     0
 10
-24.263165
 20
103.978062
  0
TEXT
  7
TextStyle03
  8
寸法
  6
CONTINUOUS
 62
     0
 10
-40.0375
 20
104.325
  1
800
 40
3.0
 72
     5
 11
-35.1625
 21
104.325
  0
ENDBLK
  0
BLOCK
  2
*DIM_0023
 70
    65
 10
0.0
 20
0.0
  0
LINE
  8
寸法
  6
BYBLOCK
 62
     0
 10
2.403502
 20
74.86999
 11
2.403502
 21
103.978062
  0
LINE
  8
寸法
  6
BYBLOCK
 62
     0
 10
-24.263165
 20
103.978062
 11
2.403502
 21
103.978062
  0
POINT
  8
寸法
 62
     0
 10
2.403502
 20
103.978062
  0
TEXT
  7
TextStyle03
  8
寸法
  6
CONTINUOUS
 62
     0
 10
-13.3875
 20
104.325
  1
800
 40
3.0
 72
     5
 11
-8.5125
 21
104.325
  0
ENDBLK
  0
BLOCK
  2
*DIM_0024
 70
    65
 10
0.0
 20
0.0
  0
LINE
  8
寸法
  6
BYBLOCK
 62
     0
 10
29.07017
 20
74.86999
 11
29.07017
 21
103.978062
  0
LINE
  8
寸法
  6
BYBLOCK
 62
     0
 10
2.403502
 20
103.978062
 11
29.07017
 21
103.978062
  0
POINT
  8
寸法
 62
     0
 10
29.07017
 20
103.978062
  0
TEXT
  7
TextStyle03
  8
寸法
  6
CONTINUOUS
 62
     0
 10
13.2875
 20
104.325
  1
800
 40
3.0
 72
     5
 11
18.1625
 21
104.325
  0
ENDBLK
  0
BLOCK
  2
*GRP_0025
 70
    65
 10
0.0
 20
0.0
  0
INSERT
  2
M8横
  8
ゴム等
  6
CONTINUOUS
 10
38.229858
 20
-53.63062
 50
180.0
 41
0.033333
 42
-0.033333
  0
LINE
  8
ボルト／ビス
  6
CONTINUOUS
 10
38.096525
 20
-53.42062
 11
38.11319
 21
-53.403955
  0
LINE
  8
ボルト／ビス
  6
CONTINUOUS
 10
38.346525
 20
-53.403955
 11
38.36319
 21
-53.42062
  0
LINE
  8
ボルト／ビス
  6
CONTINUOUS
 10
38.36319
 20
-53.42062
 11
38.096525
 21
-53.42062
  0
LINE
  8
ボルト／ビス
  6
CONTINUOUS
 10
38.346525
 20
-53.403955
 11
38.11319
 21
-53.403955
  0
LINE
  8
ボルト／ビス
  6
CONTINUOUS
 10
38.11319
 20
-53.403955
 11
38.11319
 21
-53.447285
  0
LINE
  8
ボルト／ビス
  6
CONTINUOUS
 10
38.096525
 20
-53.42062
 11
38.096525
 21
-53.447285
  0
LINE
  8
ボルト／ビス
  6
CONTINUOUS
 10
38.36319
 20
-53.42062
 11
38.36319
 21
-53.447285
  0
LINE
  8
ボルト／ビス
  6
CONTINUOUS
 10
38.346525
 20
-53.403955
 11
38.346525
 21
-53.447285
  0
LINE
  8
ボルト／ビス
  6
CONTINUOUS
 10
38.596525
 20
-53.63062
 11
37.86319
 21
-53.63062
  0
LINE
  8
ボルト／ビス
  6
CONTINUOUS
 10
37.81319
 20
-53.67062
 11
37.81319
 21
-53.753953
  0
LINE
  8
ボルト／ビス
  6
CONTINUOUS
 10
37.81319
 20
-53.753953
 11
38.646525
 21
-53.753953
  0
LINE
  8
ボルト／ビス
  6
CONTINUOUS
 10
38.646525
 20
-53.753953
 11
38.646525
 21
-53.67062
  0
LINE
  8
ボルト／ビス
  6
CONTINUOUS
 10
37.81319
 20
-53.67062
 11
38.646525
 21
-53.67062
  0
LINE
  8
ボルト／ビス
  6
CONTINUOUS
 10
38.596525
 20
-53.63062
 11
38.596525
 21
-53.67062
  0
LINE
  8
ボルト／ビス
  6
CONTINUOUS
 10
37.86319
 20
-53.63062
 11
37.86319
 21
-53.67062
  0
LINE
  8
ボルト／ビス
  6
CONTINUOUS
 10
38.229858
 20
-53.68062
 11
38.229858
 21
-53.63062
  0
ENDBLK
  0
BLOCK
  2
*GRP_0026
 70
    65
 10
0.0
 20
0.0
  0
LINE
  8
ボルト／ビス
  6
CONTINUOUS
 10
38.436525
 20
-52.770785
 11
38.436525
 21
-52.70412
  0
LINE
  8
ボルト／ビス
  6
CONTINUOUS
 10
38.436525
 20
-52.70412
 11
37.703192
 21
-52.70412
  0
LINE
  8
ボルト／ビス
  6
CONTINUOUS
 10
37.703192
 20
-52.70412
 11
37.703192
 21
-52.770785
  0
LINE
  8
ボルト／ビス
  6
CONTINUOUS
 10
38.436525
 20
-52.770785
 11
37.703192
 21
-52.770785
  0
LINE
  8
ボルト／ビス
  6
CONTINUOUS
 10
38.36986
 20
-52.670785
 11
38.36986
 21
-52.70412
  0
LINE
  8
ボルト／ビス
  6
CONTINUOUS
 10
38.36986
 20
-52.670785
 11
37.76986
 21
-52.670785
  0
LINE
  8
ボルト／ビス
  6
CONTINUOUS
 10
37.76986
 20
-52.670785
 11
37.76986
 21
-52.70412
  0
LINE
  8
ボルト／ビス
  6
CONTINUOUS
 62
    64
 10
38.230235
 20
-52.470785
 11
38.26231
 21
-52.48246
  0
ARC
  8
ボルト／ビス
  6
CONTINUOUS
 62
    64
 10
38.214196
 20
-52.575764
 40
0.104978
 50
90.0
 51
117.278033
  0
ARC
  8
ボルト／ビス
  6
CONTINUOUS
 62
    64
 10
38.069859
 20
-52.873188
 40
0.402402
 50
76.165015
 51
103.834998
  0
LINE
  8
ボルト／ビス
  6
CONTINUOUS
 62
    64
 10
37.909485
 20
-52.470785
 11
37.87741
 21
-52.48246
  0
ARC
  8
ボルト／ビス
  6
CONTINUOUS
 62
    64
 10
37.925521
 20
-52.575764
 40
0.104978
 50
62.721967
 51
90.0
  0
LINE
  8
ボルト／ビス
  6
CONTINUOUS
 62
    64
 10
38.230235
 20
-52.470785
 11
37.909485
 21
-52.470785
  0
LINE
  8
ボルト／ビス
  6
CONTINUOUS
 62
    64
 10
37.87741
 20
-52.48246
 11
37.87741
 21
-52.60412
  0
LINE
  8
ボルト／ビス
  6
CONTINUOUS
 62
    64
 10
37.973635
 20
-52.48246
 11
37.973635
 21
-52.60412
  0
LINE
  8
ボルト／ビス
  6
CONTINUOUS
 62
    64
 10
38.26231
 20
-52.48246
 11
38.26231
 21
-52.60412
  0
LINE
  8
ボルト／ビス
  6
CONTINUOUS
 62
    64
 10
38.166085
 20
-52.48246
 11
38.166085
 21
-52.60412
  0
LINE
  8
ボルト／ビス
  6
CONTINUOUS
 10
38.26231
 20
-52.60412
 11
37.87741
 21
-52.60412
  0
LINE
  8
ボルト／ビス
  6
CONTINUOUS
 10
38.26986
 20
-52.60412
 11
38.26986
 21
-52.670785
  0
LINE
  8
ボルト／ビス
  6
CONTINUOUS
 10
38.26986
 20
-52.60412
 11
37.86986
 21
-52.60412
  0
LINE
  8
ボルト／ビス
  6
CONTINUOUS
 10
37.86986
 20
-52.60412
 11
37.86986
 21
-52.670785
  0
ENDBLK
  0
BLOCK
  2
*GRP_0027
 70
    65
 10
0.0
 20
0.0
  0
INSERT
  2
M8横
  8
ゴム等
  6
CONTINUOUS
 10
-113.422853
 20
-53.63062
 41
0.033333
 42
0.033333
  0
LINE
  8
ボルト／ビス
  6
CONTINUOUS
 10
-113.28952
 20
-53.42062
 11
-113.306185
 21
-53.403955
  0
LINE
  8
ボルト／ビス
  6
CONTINUOUS
 10
-113.53952
 20
-53.403955
 11
-113.556185
 21
-53.42062
  0
LINE
  8
ボルト／ビス
  6
CONTINUOUS
 10
-113.556185
 20
-53.42062
 11
-113.28952
 21
-53.42062
  0
LINE
  8
ボルト／ビス
  6
CONTINUOUS
 10
-113.53952
 20
-53.403955
 11
-113.306185
 21
-53.403955
  0
LINE
  8
ボルト／ビス
  6
CONTINUOUS
 10
-113.306185
 20
-53.403955
 11
-113.306185
 21
-53.447285
  0
LINE
  8
ボルト／ビス
  6
CONTINUOUS
 10
-113.28952
 20
-53.42062
 11
-113.28952
 21
-53.447285
  0
LINE
  8
ボルト／ビス
  6
CONTINUOUS
 10
-113.556185
 20
-53.42062
 11
-113.556185
 21
-53.447285
  0
LINE
  8
ボルト／ビス
  6
CONTINUOUS
 10
-113.53952
 20
-53.403955
 11
-113.53952
 21
-53.447285
  0
LINE
  8
ボルト／ビス
  6
CONTINUOUS
 10
-113.78952
 20
-53.63062
 11
-113.056185
 21
-53.63062
  0
LINE
  8
ボルト／ビス
  6
CONTINUOUS
 10
-113.006185
 20
-53.67062
 11
-113.006185
 21
-53.753953
  0
LINE
  8
ボルト／ビス
  6
CONTINUOUS
 10
-113.006185
 20
-53.753953
 11
-113.83952
 21
-53.753953
  0
LINE
  8
ボルト／ビス
  6
CONTINUOUS
 10
-113.83952
 20
-53.753953
 11
-113.83952
 21
-53.67062
  0
LINE
  8
ボルト／ビス
  6
CONTINUOUS
 10
-113.006185
 20
-53.67062
 11
-113.83952
 21
-53.67062
  0
LINE
  8
ボルト／ビス
  6
CONTINUOUS
 10
-113.78952
 20
-53.63062
 11
-113.78952
 21
-53.67062
  0
LINE
  8
ボルト／ビス
  6
CONTINUOUS
 10
-113.056185
 20
-53.63062
 11
-113.056185
 21
-53.67062
  0
LINE
  8
ボルト／ビス
  6
CONTINUOUS
 10
-113.422853
 20
-53.68062
 11
-113.422853
 21
-53.63062
  0
ENDBLK
  0
BLOCK
  2
*GRP_0028
 70
    65
 10
0.0
 20
0.0
  0
LINE
  8
ボルト／ビス
  6
CONTINUOUS
 10
-113.62952
 20
-52.770785
 11
-113.62952
 21
-52.70412
  0
LINE
  8
ボルト／ビス
  6
CONTINUOUS
 10
-113.62952
 20
-52.70412
 11
-112.896188
 21
-52.70412
  0
LINE
  8
ボルト／ビス
  6
CONTINUOUS
 10
-112.896188
 20
-52.70412
 11
-112.896188
 21
-52.770785
  0
LINE
  8
ボルト／ビス
  6
CONTINUOUS
 10
-113.62952
 20
-52.770785
 11
-112.896188
 21
-52.770785
  0
LINE
  8
ボルト／ビス
  6
CONTINUOUS
 10
-113.562855
 20
-52.670785
 11
-113.562855
 21
-52.70412
  0
LINE
  8
ボルト／ビス
  6
CONTINUOUS
 10
-113.562855
 20
-52.670785
 11
-112.962855
 21
-52.670785
  0
LINE
  8
ボルト／ビス
  6
CONTINUOUS
 10
-112.962855
 20
-52.670785
 11
-112.962855
 21
-52.70412
  0
LINE
  8
ボルト／ビス
  6
CONTINUOUS
 62
    64
 10
-113.42323
 20
-52.470785
 11
-113.455305
 21
-52.48246
  0
ARC
  8
ボルト／ビス
  6
CONTINUOUS
 62
    64
 10
-113.407193
 20
-52.575764
 40
0.104978
 50
62.721967
 51
90.0
  0
ARC
  8
ボルト／ビス
  6
CONTINUOUS
 62
    64
 10
-113.262855
 20
-52.873188
 40
0.402402
 50
76.165002
 51
103.834985
  0
LINE
  8
ボルト／ビス
  6
CONTINUOUS
 62
    64
 10
-113.10248
 20
-52.470785
 11
-113.070405
 21
-52.48246
  0
ARC
  8
ボルト／ビス
  6
CONTINUOUS
 62
    64
 10
-113.118518
 20
-52.575764
 40
0.104978
 50
90.0
 51
117.278033
  0
LINE
  8
ボルト／ビス
  6
CONTINUOUS
 62
    64
 10
-113.42323
 20
-52.470785
 11
-113.10248
 21
-52.470785
  0
LINE
  8
ボルト／ビス
  6
CONTINUOUS
 62
    64
 10
-113.070405
 20
-52.48246
 11
-113.070405
 21
-52.60412
  0
LINE
  8
ボルト／ビス
  6
CONTINUOUS
 62
    64
 10
-113.16663
 20
-52.48246
 11
-113.16663
 21
-52.60412
  0
LINE
  8
ボルト／ビス
  6
CONTINUOUS
 62
    64
 10
-113.455305
 20
-52.48246
 11
-113.455305
 21
-52.60412
  0
LINE
  8
ボルト／ビス
  6
CONTINUOUS
 62
    64
 10
-113.35908
 20
-52.48246
 11
-113.35908
 21
-52.60412
  0
LINE
  8
ボルト／ビス
  6
CONTINUOUS
 10
-113.455305
 20
-52.60412
 11
-113.070405
 21
-52.60412
  0
LINE
  8
ボルト／ビス
  6
CONTINUOUS
 10
-113.462855
 20
-52.60412
 11
-113.462855
 21
-52.670785
  0
LINE
  8
ボルト／ビス
  6
CONTINUOUS
 10
-113.462855
 20
-52.60412
 11
-113.062855
 21
-52.60412
  0
LINE
  8
ボルト／ビス
  6
CONTINUOUS
 10
-113.062855
 20
-52.60412
 11
-113.062855
 21
-52.670785
  0
ENDBLK
  0
BLOCK
  2
*DIM_0029
 70
    65
 10
0.0
 20
0.0
  0
LINE
  8
寸法
  6
CONTINUOUS
 10
42.403498
 20
-68.70412
 11
61.02197
 21
-68.70412
  0
LINE
  8
寸法
  6
CONTINUOUS
 10
42.403498
 20
-52.037453
 11
61.02197
 21
-52.037453
  0
LINE
  8
寸法
  6
CONTINUOUS
 10
61.02197
 20
-68.70412
 11
61.02197
 21
-52.037453
  0
POINT
  8
寸法
 10
61.02197
 20
-68.70412
  0
POINT
  8
寸法
 10
61.02197
 20
-52.037453
  0
TEXT
  7
TextStyle03
  8
寸法
  6
CONTINUOUS
 10
64.0
 20
-69.46875
  1
上昇440以上
 40
3.0
 50
90.0
 72
     5
 11
64.0
 21
-51.28125
  0
ENDBLK
  0
BLOCK
  2
*DIM_0030
 70
    65
 10
0.0
 20
0.0
  0
LINE
  8
寸法
  6
CONTINUOUS
 10
39.683193
 20
-68.209977
 11
39.683193
 21
-32.437345
  0
LINE
  8
寸法
  6
CONTINUOUS
 10
37.403498
 20
-32.437345
 11
39.683193
 21
-32.437345
  0
POINT
  8
寸法
 10
37.403498
 20
-32.437345
  0
POINT
  8
寸法
 10
39.683193
 20
-32.437345
  0
TEXT
  7
TextStyle03
  8
寸法
  6
CONTINUOUS
 10
41.99375
 20
-32.075
  1
68.4
 40
3.0
 72
     5
 11
48.55625
 21
-32.075
  0
ENDBLK
  0
BLOCK
  2
*DIM_0031
 70
    65
 10
0.0
 20
0.0
  0
LINE
  8
寸法
  6
CONTINUOUS
 10
-114.876188
 20
-68.209977
 11
-114.876188
 21
-32.437345
  0
LINE
  8
寸法
  6
CONTINUOUS
 10
-112.596493
 20
-32.437345
 11
-114.876188
 21
-32.437345
  0
POINT
  8
寸法
 10
-112.596493
 20
-32.437345
  0
POINT
  8
寸法
 10
-114.876188
 20
-32.437345
  0
TEXT
  7
TextStyle03
  8
寸法
  6
CONTINUOUS
 10
-123.78125
 20
-32.075
  1
68.4
 40
3.0
 72
     5
 11
-117.21875
 21
-32.075
  0
ENDBLK
  0
BLOCK
  2
*DIM_0032
 70
    65
 10
0.0
 20
0.0
  0
LINE
  8
寸法
  6
CONTINUOUS
 10
37.403498
 20
-32.437345
 11
-112.596493
 21
-32.437345
  0
POINT
  8
寸法
 10
37.403498
 20
-32.437345
  0
POINT
  8
寸法
 10
-112.596493
 20
-32.437345
  0
TEXT
  7
TextStyle03
  8
寸法
  6
CONTINUOUS
 10
-49.31875
 20
-32.075
  1
呼称寸法　4500
 40
3.0
 72
     5
 11
-25.88125
 21
-32.075
  0
ENDBLK
  0
BLOCK
  2
*DIM_0033
 70
    65
 10
0.0
 20
0.0
  0
LINE
  8
寸法
  6
CONTINUOUS
 10
120.226683
 20
-33.249742
 11
120.226683
 21
-20.237925
  0
LINE
  8
寸法
  6
CONTINUOUS
 10
156.550015
 20
-33.249742
 11
156.550015
 21
-20.237925
  0
LINE
  8
寸法
  6
CONTINUOUS
 10
120.226683
 20
-20.237925
 11
156.550015
 21
-20.237925
  0
POINT
  8
寸法
 10
120.226683
 20
-20.237925
  0
POINT
  8
寸法
 10
156.550015
 20
-20.237925
  0
TEXT
  7
TextStyle03
  8
寸法
  6
CONTINUOUS
 10
133.40625
 20
-19.875
  1
1089.7
 40
3.0
 72
     5
 11
143.34375
 21
-19.875
  0
ENDBLK
  0
BLOCK
  2
*DIM_0034
 70
    65
 10
0.0
 20
0.0
  0
LINE
  8
寸法
  6
CONTINUOUS
 10
161.550015
 20
-38.249742
 11
173.333515
 21
-38.249742
  0
LINE
  8
寸法
  6
CONTINUOUS
 10
161.550015
 20
-80.916407
 11
173.333515
 21
-80.916407
  0
LINE
  8
寸法
  6
CONTINUOUS
 10
173.333515
 20
-38.249742
 11
173.333515
 21
-80.916407
  0
POINT
  8
寸法
 10
173.333515
 20
-38.249742
  0
POINT
  8
寸法
 10
173.333515
 20
-80.916407
  0
TEXT
  7
TextStyle03
  8
寸法
  6
CONTINUOUS
 10
172.95
 20
-62.88125
  1
1280
 40
3.0
 50
90.0
 72
     5
 11
172.95
 21
-56.31875
  0
ENDBLK
  0
BLOCK
  2
*GRP_0035
 70
    65
 10
0.0
 20
0.0
  0
LINE
  8
補助線
  6
BYBLOCK
 62
    64
 10
-92.534887
 20
-74.291733
 11
-92.658733
 21
-74.403268
  0
LINE
  8
補助線
  6
BYBLOCK
 62
    64
 10
-92.65258
 20
-74.285575
 11
-92.541043
 21
-74.409422
  0
LINE
  8
補助線
  6
BYBLOCK
 62
    64
 10
-81.819785
 20
-64.641708
 11
-81.94363
 21
-64.753243
  0
LINE
  8
補助線
  6
BYBLOCK
 62
    64
 10
-81.937475
 20
-64.63555
 11
-81.82594
 21
-64.759397
  0
LINE
  8
補助線
  6
BYBLOCK
 62
    64
 10
-71.228528
 20
-55.103218
 11
-71.104685
 21
-54.991683
  0
LINE
  8
補助線
  6
BYBLOCK
 62
    64
 10
-71.222375
 20
-54.985525
 11
-71.110837
 21
-55.109372
  0
LINE
  8
型材断面
  6
CONTINUOUS
 10
-93.402178
 20
-73.951345
 11
-93.439105
 21
-74.657485
  0
LINE
  8
型材断面
  6
CONTINUOUS
 10
-93.439105
 20
-74.657485
 11
-92.992965
 21
-75.152867
  0
LINE
  8
型材断面
  6
CONTINUOUS
 10
-92.992965
 20
-75.152867
 11
-92.286823
 21
-75.189797
  0
LINE
  8
型材断面
  6
CONTINUOUS
 10
-71.47659
 20
-54.205155
 11
-70.77045
 21
-54.242085
  0
LINE
  8
型材断面
  6
CONTINUOUS
 10
-70.77045
 20
-54.242085
 11
-70.324308
 21
-54.737465
  0
LINE
  8
型材断面
  6
CONTINUOUS
 10
-70.324308
 20
-54.737465
 11
-70.361237
 21
-55.44361
  0
LINE
  8
型材断面
  6
CONTINUOUS
 10
-92.286823
 20
-75.189797
 11
-70.361237
 21
-55.44361
  0
LINE
  8
型材断面
  6
CONTINUOUS
 10
-93.402178
 20
-73.951345
 11
-71.47659
 21
-54.205155
  0
CIRCLE
  8
ボルト／ビス
  6
CONTINUOUS
 10
-92.59681
 20
-74.3475
 40
0.250185
  0
CIRCLE
  8
ボルト／ビス
  6
CONTINUOUS
 10
-92.59681
 20
-74.3475
 40
0.301025
  0
LINE
  8
ボルト／ビス
  6
CONTINUOUS
 62
    64
 10
-92.841522
 20
-74.399545
 11
-92.764238
 21
-74.161595
  0
LINE
  8
ボルト／ビス
  6
CONTINUOUS
 62
    64
 10
-92.519525
 20
-74.10955
 11
-92.764238
 21
-74.161595
  0
LINE
  8
ボルト／ビス
  6
CONTINUOUS
 62
    64
 10
-92.674095
 20
-74.58545
 11
-92.429382
 21
-74.533405
  0
LINE
  8
ボルト／ビス
  6
CONTINUOUS
 62
    64
 10
-92.352098
 20
-74.295455
 11
-92.429382
 21
-74.533405
  0
LINE
  8
ボルト／ビス
  6
CONTINUOUS
 62
    64
 10
-92.841522
 20
-74.399545
 11
-92.674095
 21
-74.58545
  0
LINE
  8
ボルト／ビス
  6
CONTINUOUS
 62
    64
 10
-92.519525
 20
-74.10955
 11
-92.352098
 21
-74.295455
  0
CIRCLE
  8
ボルト／ビス
  6
CONTINUOUS
 62
    64
 10
-92.59681
 20
-74.3475
 40
0.216668
  0
CIRCLE
  8
ボルト／ビス
  6
CONTINUOUS
 10
-81.881707
 20
-64.697477
 40
0.250185
  0
CIRCLE
  8
ボルト／ビス
  6
CONTINUOUS
 10
-81.881707
 20
-64.697477
 40
0.301025
  0
LINE
  8
ボルト／ビス
  6
CONTINUOUS
 62
    64
 10
-82.126422
 20
-64.74952
 11
-82.049135
 21
-64.51157
  0
LINE
  8
ボルト／ビス
  6
CONTINUOUS
 62
    64
 10
-81.804422
 20
-64.459527
 11
-82.049135
 21
-64.51157
  0
LINE
  8
ボルト／ビス
  6
CONTINUOUS
 62
    64
 10
-81.958995
 20
-64.935425
 11
-81.714282
 21
-64.88338
  0
LINE
  8
ボルト／ビス
  6
CONTINUOUS
 62
    64
 10
-81.636995
 20
-64.645432
 11
-81.714282
 21
-64.88338
  0
LINE
  8
ボルト／ビス
  6
CONTINUOUS
 62
    64
 10
-82.126422
 20
-64.74952
 11
-81.958995
 21
-64.935425
  0
LINE
  8
ボルト／ビス
  6
CONTINUOUS
 62
    64
 10
-81.804422
 20
-64.459527
 11
-81.636995
 21
-64.645432
  0
CIRCLE
  8
ボルト／ビス
  6
CONTINUOUS
 62
    64
 10
-81.881707
 20
-64.697477
 40
0.216668
  0
CIRCLE
  8
ボルト／ビス
  6
CONTINUOUS
 10
-71.166608
 20
-55.04745
 40
0.250185
  0
CIRCLE
  8
ボルト／ビス
  6
CONTINUOUS
 10
-71.166608
 20
-55.04745
 40
0.301025
  0
LINE
  8
ボルト／ビス
  6
CONTINUOUS
 62
    64
 10
-71.08932
 20
-54.8095
 11
-71.334033
 21
-54.861545
  0
LINE
  8
ボルト／ビス
  6
CONTINUOUS
 62
    64
 10
-71.411318
 20
-55.099495
 11
-71.334033
 21
-54.861545
  0
LINE
  8
ボルト／ビス
  6
CONTINUOUS
 62
    64
 10
-70.921893
 20
-54.995405
 11
-70.99918
 21
-55.233355
  0
LINE
  8
ボルト／ビス
  6
CONTINUOUS
 62
    64
 10
-71.243893
 20
-55.2854
 11
-70.99918
 21
-55.233355
  0
LINE
  8
ボルト／ビス
  6
CONTINUOUS
 62
    64
 10
-71.08932
 20
-54.8095
 11
-70.921893
 21
-54.995405
  0
LINE
  8
ボルト／ビス
  6
CONTINUOUS
 62
    64
 10
-71.411318
 20
-55.099495
 11
-71.243893
 21
-55.2854
  0
CIRCLE
  8
ボルト／ビス
  6
CONTINUOUS
 62
    64
 10
-71.166608
 20
-55.04745
 40
0.216668
  0
ENDBLK
  0
BLOCK
  2
*GRP_0036
 70
    65
 10
0.0
 20
0.0
  0
LINE
  8
補助線
  6
BYBLOCK
 62
    64
 10
-71.228528
 20
-74.291733
 11
-71.104683
 21
-74.403268
  0
LINE
  8
補助線
  6
BYBLOCK
 62
    64
 10
-71.110835
 20
-74.285575
 11
-71.222372
 21
-74.409422
  0
LINE
  8
補助線
  6
BYBLOCK
 62
    64
 10
-81.94363
 20
-64.641708
 11
-81.819785
 21
-64.753243
  0
LINE
  8
補助線
  6
BYBLOCK
 62
    64
 10
-81.82594
 20
-64.63555
 11
-81.937475
 21
-64.759397
  0
LINE
  8
補助線
  6
BYBLOCK
 62
    64
 10
-92.534887
 20
-55.103218
 11
-92.65873
 21
-54.991683
  0
LINE
  8
補助線
  6
BYBLOCK
 62
    64
 10
-92.54104
 20
-54.985525
 11
-92.652578
 21
-55.109372
  0
LINE
  8
型材断面
  6
CONTINUOUS
 10
-70.361237
 20
-73.951345
 11
-70.32431
 21
-74.657485
  0
LINE
  8
型材断面
  6
CONTINUOUS
 10
-70.32431
 20
-74.657485
 11
-70.77045
 21
-75.152867
  0
LINE
  8
型材断面
  6
CONTINUOUS
 10
-70.77045
 20
-75.152867
 11
-71.476592
 21
-75.189797
  0
LINE
  8
型材断面
  6
CONTINUOUS
 10
-92.286825
 20
-54.205155
 11
-92.992965
 21
-54.242085
  0
LINE
  8
型材断面
  6
CONTINUOUS
 10
-92.992965
 20
-54.242085
 11
-93.439107
 21
-54.737465
  0
LINE
  8
型材断面
  6
CONTINUOUS
 10
-93.439107
 20
-54.737465
 11
-93.402178
 21
-55.44361
  0
LINE
  8
型材断面
  6
CONTINUOUS
 10
-71.476592
 20
-75.189797
 11
-93.402178
 21
-55.44361
  0
LINE
  8
型材断面
  6
CONTINUOUS
 10
-70.361237
 20
-73.951345
 11
-92.286825
 21
-54.205155
  0
CIRCLE
  8
ボルト／ビス
  6
CONTINUOUS
 10
-71.166605
 20
-74.3475
 40
0.250185
  0
CIRCLE
  8
ボルト／ビス
  6
CONTINUOUS
 10
-71.166605
 20
-74.3475
 40
0.301025
  0
LINE
  8
ボルト／ビス
  6
CONTINUOUS
 62
    64
 10
-70.921893
 20
-74.399545
 11
-70.999178
 21
-74.161595
  0
LINE
  8
ボルト／ビス
  6
CONTINUOUS
 62
    64
 10
-71.24389
 20
-74.10955
 11
-70.999178
 21
-74.161595
  0
LINE
  8
ボルト／ビス
  6
CONTINUOUS
 62
    64
 10
-71.08932
 20
-74.58545
 11
-71.334033
 21
-74.533405
  0
LINE
  8
ボルト／ビス
  6
CONTINUOUS
 62
    64
 10
-71.411318
 20
-74.295455
 11
-71.334033
 21
-74.533405
  0
LINE
  8
ボルト／ビス
  6
CONTINUOUS
 62
    64
 10
-70.921893
 20
-74.399545
 11
-71.08932
 21
-74.58545
  0
LINE
  8
ボルト／ビス
  6
CONTINUOUS
 62
    64
 10
-71.24389
 20
-74.10955
 11
-71.411318
 21
-74.295455
  0
CIRCLE
  8
ボルト／ビス
  6
CONTINUOUS
 62
    64
 10
-71.166605
 20
-74.3475
 40
0.216668
  0
CIRCLE
  8
ボルト／ビス
  6
CONTINUOUS
 10
-81.881707
 20
-64.697477
 40
0.250185
  0
CIRCLE
  8
ボルト／ビス
  6
CONTINUOUS
 10
-81.881707
 20
-64.697477
 40
0.301025
  0
LINE
  8
ボルト／ビス
  6
CONTINUOUS
 62
    64
 10
-81.636992
 20
-64.74952
 11
-81.71428
 21
-64.51157
  0
LINE
  8
ボルト／ビス
  6
CONTINUOUS
 62
    64
 10
-81.958993
 20
-64.459527
 11
-81.71428
 21
-64.51157
  0
LINE
  8
ボルト／ビス
  6
CONTINUOUS
 62
    64
 10
-81.80442
 20
-64.935425
 11
-82.049132
 21
-64.88338
  0
LINE
  8
ボルト／ビス
  6
CONTINUOUS
 62
    64
 10
-82.12642
 20
-64.645432
 11
-82.049132
 21
-64.88338
  0
LINE
  8
ボルト／ビス
  6
CONTINUOUS
 62
    64
 10
-81.636992
 20
-64.74952
 11
-81.80442
 21
-64.935425
  0
LINE
  8
ボルト／ビス
  6
CONTINUOUS
 62
    64
 10
-81.958993
 20
-64.459527
 11
-82.12642
 21
-64.645432
  0
CIRCLE
  8
ボルト／ビス
  6
CONTINUOUS
 62
    64
 10
-81.881707
 20
-64.697477
 40
0.216668
  0
CIRCLE
  8
ボルト／ビス
  6
CONTINUOUS
 10
-92.596807
 20
-55.04745
 40
0.250185
  0
CIRCLE
  8
ボルト／ビス
  6
CONTINUOUS
 10
-92.596807
 20
-55.04745
 40
0.301025
  0
LINE
  8
ボルト／ビス
  6
CONTINUOUS
 62
    64
 10
-92.674095
 20
-54.8095
 11
-92.429382
 21
-54.861545
  0
LINE
  8
ボルト／ビス
  6
CONTINUOUS
 62
    64
 10
-92.352098
 20
-55.099495
 11
-92.429382
 21
-54.861545
  0
LINE
  8
ボルト／ビス
  6
CONTINUOUS
 62
    64
 10
-92.841522
 20
-54.995405
 11
-92.764235
 21
-55.233355
  0
LINE
  8
ボルト／ビス
  6
CONTINUOUS
 62
    64
 10
-92.519523
 20
-55.2854
 11
-92.764235
 21
-55.233355
  0
LINE
  8
ボルト／ビス
  6
CONTINUOUS
 62
    64
 10
-92.674095
 20
-54.8095
 11
-92.841522
 21
-54.995405
  0
LINE
  8
ボルト／ビス
  6
CONTINUOUS
 62
    64
 10
-92.352098
 20
-55.099495
 11
-92.519523
 21
-55.2854
  0
CIRCLE
  8
ボルト／ビス
  6
CONTINUOUS
 62
    64
 10
-92.596807
 20
-55.04745
 40
0.216668
  0
ENDBLK
  0
BLOCK
  2
*GRP_0037
 70
    65
 10
0.0
 20
0.0
  0
LINE
  8
補助線
  6
BYBLOCK
 62
    64
 10
17.341267
 20
-74.291733
 11
17.465113
 21
-74.403268
  0
LINE
  8
補助線
  6
BYBLOCK
 62
    64
 10
17.45896
 20
-74.285575
 11
17.347422
 21
-74.409422
  0
LINE
  8
補助線
  6
BYBLOCK
 62
    64
 10
6.626165
 20
-64.641708
 11
6.75001
 21
-64.753243
  0
LINE
  8
補助線
  6
BYBLOCK
 62
    64
 10
6.743855
 20
-64.63555
 11
6.63232
 21
-64.759397
  0
LINE
  8
補助線
  6
BYBLOCK
 62
    64
 10
-3.965092
 20
-55.103218
 11
-4.088935
 21
-54.991683
  0
LINE
  8
補助線
  6
BYBLOCK
 62
    64
 10
-3.971245
 20
-54.985525
 11
-4.082783
 21
-55.109372
  0
LINE
  8
型材断面
  6
CONTINUOUS
 10
18.208557
 20
-73.951345
 11
18.245485
 21
-74.657485
  0
LINE
  8
型材断面
  6
CONTINUOUS
 10
18.245485
 20
-74.657485
 11
17.799345
 21
-75.152867
  0
LINE
  8
型材断面
  6
CONTINUOUS
 10
17.799345
 20
-75.152867
 11
17.093203
 21
-75.189797
  0
LINE
  8
型材断面
  6
CONTINUOUS
 10
-3.71703
 20
-54.205155
 11
-4.42317
 21
-54.242085
  0
LINE
  8
型材断面
  6
CONTINUOUS
 10
-4.42317
 20
-54.242085
 11
-4.869312
 21
-54.737465
  0
LINE
  8
型材断面
  6
CONTINUOUS
 10
-4.869312
 20
-54.737465
 11
-4.832383
 21
-55.44361
  0
LINE
  8
型材断面
  6
CONTINUOUS
 10
17.093203
 20
-75.189797
 11
-4.832383
 21
-55.44361
  0
LINE
  8
型材断面
  6
CONTINUOUS
 10
18.208557
 20
-73.951345
 11
-3.71703
 21
-54.205155
  0
CIRCLE
  8
ボルト／ビス
  6
CONTINUOUS
 10
17.40319
 20
-74.3475
 40
0.250185
  0
CIRCLE
  8
ボルト／ビス
  6
CONTINUOUS
 10
17.40319
 20
-74.3475
 40
0.301025
  0
LINE
  8
ボルト／ビス
  6
CONTINUOUS
 62
    64
 10
17.647903
 20
-74.399545
 11
17.570617
 21
-74.161595
  0
LINE
  8
ボルト／ビス
  6
CONTINUOUS
 62
    64
 10
17.325905
 20
-74.10955
 11
17.570617
 21
-74.161595
  0
LINE
  8
ボルト／ビス
  6
CONTINUOUS
 62
    64
 10
17.480475
 20
-74.58545
 11
17.235763
 21
-74.533405
  0
LINE
  8
ボルト／ビス
  6
CONTINUOUS
 62
    64
 10
17.158477
 20
-74.295455
 11
17.235763
 21
-74.533405
  0
LINE
  8
ボルト／ビス
  6
CONTINUOUS
 62
    64
 10
17.647903
 20
-74.399545
 11
17.480475
 21
-74.58545
  0
LINE
  8
ボルト／ビス
  6
CONTINUOUS
 62
    64
 10
17.325905
 20
-74.10955
 11
17.158477
 21
-74.295455
  0
CIRCLE
  8
ボルト／ビス
  6
CONTINUOUS
 62
    64
 10
17.40319
 20
-74.3475
 40
0.216668
  0
CIRCLE
  8
ボルト／ビス
  6
CONTINUOUS
 10
6.688088
 20
-64.697477
 40
0.250185
  0
CIRCLE
  8
ボルト／ビス
  6
CONTINUOUS
 10
6.688088
 20
-64.697477
 40
0.301025
  0
LINE
  8
ボルト／ビス
  6
CONTINUOUS
 62
    64
 10
6.932803
 20
-64.74952
 11
6.855515
 21
-64.51157
  0
LINE
  8
ボルト／ビス
  6
CONTINUOUS
 62
    64
 10
6.610802
 20
-64.459527
 11
6.855515
 21
-64.51157
  0
LINE
  8
ボルト／ビス
  6
CONTINUOUS
 62
    64
 10
6.765375
 20
-64.935425
 11
6.520663
 21
-64.88338
  0
LINE
  8
ボルト／ビス
  6
CONTINUOUS
 62
    64
 10
6.443375
 20
-64.645432
 11
6.520663
 21
-64.88338
  0
LINE
  8
ボルト／ビス
  6
CONTINUOUS
 62
    64
 10
6.932803
 20
-64.74952
 11
6.765375
 21
-64.935425
  0
LINE
  8
ボルト／ビス
  6
CONTINUOUS
 62
    64
 10
6.610802
 20
-64.459527
 11
6.443375
 21
-64.645432
  0
CIRCLE
  8
ボルト／ビス
  6
CONTINUOUS
 62
    64
 10
6.688088
 20
-64.697477
 40
0.216668
  0
CIRCLE
  8
ボルト／ビス
  6
CONTINUOUS
 10
-4.027013
 20
-55.04745
 40
0.250185
  0
CIRCLE
  8
ボルト／ビス
  6
CONTINUOUS
 10
-4.027013
 20
-55.04745
 40
0.301025
  0
LINE
  8
ボルト／ビス
  6
CONTINUOUS
 62
    64
 10
-4.1043
 20
-54.8095
 11
-3.859587
 21
-54.861545
  0
LINE
  8
ボルト／ビス
  6
CONTINUOUS
 62
    64
 10
-3.782302
 20
-55.099495
 11
-3.859587
 21
-54.861545
  0
LINE
  8
ボルト／ビス
  6
CONTINUOUS
 62
    64
 10
-4.271727
 20
-54.995405
 11
-4.19444
 21
-55.233355
  0
LINE
  8
ボルト／ビス
  6
CONTINUOUS
 62
    64
 10
-3.949727
 20
-55.2854
 11
-4.19444
 21
-55.233355
  0
LINE
  8
ボルト／ビス
  6
CONTINUOUS
 62
    64
 10
-4.1043
 20
-54.8095
 11
-4.271727
 21
-54.995405
  0
LINE
  8
ボルト／ビス
  6
CONTINUOUS
 62
    64
 10
-3.782302
 20
-55.099495
 11
-3.949727
 21
-55.2854
  0
CIRCLE
  8
ボルト／ビス
  6
CONTINUOUS
 62
    64
 10
-4.027013
 20
-55.04745
 40
0.216668
  0
ENDBLK
  0
BLOCK
  2
*GRP_0038
 70
    65
 10
0.0
 20
0.0
  0
LINE
  8
補助線
  6
BYBLOCK
 62
    64
 10
-3.965092
 20
-74.291733
 11
-4.088937
 21
-74.403268
  0
LINE
  8
補助線
  6
BYBLOCK
 62
    64
 10
-4.082785
 20
-74.285575
 11
-3.971248
 21
-74.409422
  0
LINE
  8
補助線
  6
BYBLOCK
 62
    64
 10
6.75001
 20
-64.641708
 11
6.626165
 21
-64.753243
  0
LINE
  8
補助線
  6
BYBLOCK
 62
    64
 10
6.63232
 20
-64.63555
 11
6.743855
 21
-64.759397
  0
LINE
  8
補助線
  6
BYBLOCK
 62
    64
 10
17.341267
 20
-55.103218
 11
17.46511
 21
-54.991683
  0
LINE
  8
補助線
  6
BYBLOCK
 62
    64
 10
17.34742
 20
-54.985525
 11
17.458957
 21
-55.109372
  0
LINE
  8
型材断面
  6
CONTINUOUS
 10
-4.832383
 20
-73.951345
 11
-4.86931
 21
-74.657485
  0
LINE
  8
型材断面
  6
CONTINUOUS
 10
-4.86931
 20
-74.657485
 11
-4.42317
 21
-75.152867
  0
LINE
  8
型材断面
  6
CONTINUOUS
 10
-4.42317
 20
-75.152867
 11
-3.717028
 21
-75.189797
  0
LINE
  8
型材断面
  6
CONTINUOUS
 10
17.093205
 20
-54.205155
 11
17.799345
 21
-54.242085
  0
LINE
  8
型材断面
  6
CONTINUOUS
 10
17.799345
 20
-54.242085
 11
18.245487
 21
-54.737465
  0
LINE
  8
型材断面
  6
CONTINUOUS
 10
18.245487
 20
-54.737465
 11
18.208557
 21
-55.44361
  0
LINE
  8
型材断面
  6
CONTINUOUS
 10
-3.717028
 20
-75.189797
 11
18.208557
 21
-55.44361
  0
LINE
  8
型材断面
  6
CONTINUOUS
 10
-4.832383
 20
-73.951345
 11
17.093205
 21
-54.205155
  0
CIRCLE
  8
ボルト／ビス
  6
CONTINUOUS
 10
-4.027015
 20
-74.3475
 40
0.250185
  0
CIRCLE
  8
ボルト／ビス
  6
CONTINUOUS
 10
-4.027015
 20
-74.3475
 40
0.301025
  0
LINE
  8
ボルト／ビス
  6
CONTINUOUS
 62
    64
 10
-4.271727
 20
-74.399545
 11
-4.194442
 21
-74.161595
  0
LINE
  8
ボルト／ビス
  6
CONTINUOUS
 62
    64
 10
-3.94973
 20
-74.10955
 11
-4.194442
 21
-74.161595
  0
LINE
  8
ボルト／ビス
  6
CONTINUOUS
 62
    64
 10
-4.1043
 20
-74.58545
 11
-3.859587
 21
-74.533405
  0
LINE
  8
ボルト／ビス
  6
CONTINUOUS
 62
    64
 10
-3.782302
 20
-74.295455
 11
-3.859587
 21
-74.533405
  0
LINE
  8
ボルト／ビス
  6
CONTINUOUS
 62
    64
 10
-4.271727
 20
-74.399545
 11
-4.1043
 21
-74.58545
  0
LINE
  8
ボルト／ビス
  6
CONTINUOUS
 62
    64
 10
-3.94973
 20
-74.10955
 11
-3.782302
 21
-74.295455
  0
CIRCLE
  8
ボルト／ビス
  6
CONTINUOUS
 62
    64
 10
-4.027015
 20
-74.3475
 40
0.216668
  0
CIRCLE
  8
ボルト／ビス
  6
CONTINUOUS
 10
6.688088
 20
-64.697477
 40
0.250185
  0
CIRCLE
  8
ボルト／ビス
  6
CONTINUOUS
 10
6.688088
 20
-64.697477
 40
0.301025
  0
LINE
  8
ボルト／ビス
  6
CONTINUOUS
 62
    64
 10
6.443373
 20
-64.74952
 11
6.52066
 21
-64.51157
  0
LINE
  8
ボルト／ビス
  6
CONTINUOUS
 62
    64
 10
6.765373
 20
-64.459527
 11
6.52066
 21
-64.51157
  0
LINE
  8
ボルト／ビス
  6
CONTINUOUS
 62
    64
 10
6.6108
 20
-64.935425
 11
6.855513
 21
-64.88338
  0
LINE
  8
ボルト／ビス
  6
CONTINUOUS
 62
    64
 10
6.9328
 20
-64.645432
 11
6.855513
 21
-64.88338
  0
LINE
  8
ボルト／ビス
  6
CONTINUOUS
 62
    64
 10
6.443373
 20
-64.74952
 11
6.6108
 21
-64.935425
  0
LINE
  8
ボルト／ビス
  6
CONTINUOUS
 62
    64
 10
6.765373
 20
-64.459527
 11
6.9328
 21
-64.645432
  0
CIRCLE
  8
ボルト／ビス
  6
CONTINUOUS
 62
    64
 10
6.688088
 20
-64.697477
 40
0.216668
  0
CIRCLE
  8
ボルト／ビス
  6
CONTINUOUS
 10
17.403188
 20
-55.04745
 40
0.250185
  0
CIRCLE
  8
ボルト／ビス
  6
CONTINUOUS
 10
17.403188
 20
-55.04745
 40
0.301025
  0
LINE
  8
ボルト／ビス
  6
CONTINUOUS
 62
    64
 10
17.480475
 20
-54.8095
 11
17.235763
 21
-54.861545
  0
LINE
  8
ボルト／ビス
  6
CONTINUOUS
 62
    64
 10
17.158477
 20
-55.099495
 11
17.235763
 21
-54.861545
  0
LINE
  8
ボルト／ビス
  6
CONTINUOUS
 62
    64
 10
17.647903
 20
-54.995405
 11
17.570615
 21
-55.233355
  0
LINE
  8
ボルト／ビス
  6
CONTINUOUS
 62
    64
 10
17.325902
 20
-55.2854
 11
17.570615
 21
-55.233355
  0
LINE
  8
ボルト／ビス
  6
CONTINUOUS
 62
    64
 10
17.480475
 20
-54.8095
 11
17.647903
 21
-54.995405
  0
LINE
  8
ボルト／ビス
  6
CONTINUOUS
 62
    64
 10
17.158477
 20
-55.099495
 11
17.325902
 21
-55.2854
  0
CIRCLE
  8
ボルト／ビス
  6
CONTINUOUS
 62
    64
 10
17.403188
 20
-55.04745
 40
0.216668
  0
ENDBLK
  0
BLOCK
  2
M8横
 70
    64
 10
-88.370132
 20
140.837665
  0
LINE
  8
ボルト／ビス
 10
-95.870132
 20
140.837665
 11
-80.870132
 21
140.837665
  0
LINE
  8
ボルト／ビス
 10
-80.870132
 20
145.837665
 11
-81.370132
 21
146.337665
  0
POLYLINE
  8
ボルト／ビス
 66
     1
  0
VERTEX
  8
ボルト／ビス
 10
-84.120132
 20
146.337665
  0
VERTEX
  8
ボルト／ビス
 10
-84.620132
 20
145.837665
  0
VERTEX
  8
ボルト／ビス
 10
-85.120132
 20
146.337665
  0
SEQEND
  0
POLYLINE
  8
ボルト／ビス
 66
     1
  0
VERTEX
  8
ボルト／ビス
 10
-91.620132
 20
146.337665
  0
VERTEX
  8
ボルト／ビス
 10
-92.120132
 20
145.837665
  0
VERTEX
  8
ボルト／ビス
 10
-92.620132
 20
146.337665
  0
SEQEND
  0
LINE
  8
ボルト／ビス
 10
-95.370132
 20
146.337665
 11
-95.870132
 21
145.837665
  0
LINE
  8
ボルト／ビス
 10
-95.870132
 20
140.837665
 11
-95.870132
 21
145.837665
  0
LINE
  8
ボルト／ビス
 10
-80.870132
 20
140.837665
 11
-80.870132
 21
145.837665
  0
LINE
  8
ボルト／ビス
 10
-95.370132
 20
146.337665
 11
-81.370132
 21
146.337665
  0
LINE
  8
ボルト／ビス
 10
-84.620132
 20
140.837665
 11
-84.620132
 21
145.837665
  0
LINE
  8
ボルト／ビス
 10
-92.120132
 20
140.837665
 11
-92.120132
 21
145.837665
  0
ENDBLK
  0
ENDSEC
  0
SECTION
  2
ENTITIES
  0
POLYLINE
  8
通り芯
  6
CONTINUOUS
 66
     1
 70
     1
  0
VERTEX
  8
通り芯
 10
-210.0
 20
-148.5
  0
VERTEX
  8
通り芯
 10
210.0
 20
-148.5
  0
VERTEX
  8
通り芯
 10
210.0
 20
148.5
  0
VERTEX
  8
通り芯
 10
-210.0
 20
148.5
  0
SEQEND
  0
INSERT
  2
*GRP_0001
  8
型材断面
  6
CONTINUOUS
 10
0.0
 20
0.0
  0
POLYLINE
  8
型材断面
  6
CONTINUOUS
 66
     1
 70
     1
  0
VERTEX
  8
型材断面
 10
20.695927
 20
-94.850355
  0
VERTEX
  8
型材断面
 10
-27.982748
 20
-94.850355
  0
VERTEX
  8
型材断面
 10
-27.982748
 20
-111.19502
  0
VERTEX
  8
型材断面
 10
20.695927
 20
-111.19502
  0
SEQEND
  0
LINE
  8
型材断面
  6
CONTINUOUS
 10
162.97617
 20
26.869993
 11
162.97617
 21
26.919993
  0
LINE
  8
型材断面
  6
CONTINUOUS
 10
162.47617
 20
28.536658
 11
161.742835
 21
28.536658
  0
LINE
  8
型材断面
  6
CONTINUOUS
 62
    47
 10
169.709335
 20
27.136962
 11
169.709335
 21
27.186962
  0
LINE
  8
型材断面
  6
CONTINUOUS
 62
    47
 10
169.709335
 20
27.136962
 11
169.209335
 21
27.136962
  0
LINE
  8
型材断面
  6
CONTINUOUS
 10
163.459335
 20
28.486962
 11
163.459335
 21
27.040298
  0
LINE
  8
型材断面
  6
CONTINUOUS
 10
163.909335
 20
27.040298
 11
163.459335
 21
27.040298
  0
LINE
  8
型材断面
  6
CONTINUOUS
 62
    47
 10
166.582028
 20
26.306963
 11
166.582028
 21
26.256963
  0
LINE
  8
型材断面
  6
CONTINUOUS
 62
    47
 10
166.582028
 20
26.256963
 11
166.248695
 21
26.256963
  0
LINE
  8
型材断面
  6
CONTINUOUS
 62
    47
 10
166.248695
 20
26.256963
 11
166.148695
 21
27.040298
  0
LINE
  8
型材断面
  6
CONTINUOUS
 62
    47
 10
165.74267
 20
27.040298
 11
166.148695
 21
27.040298
  0
LINE
  8
型材断面
  6
CONTINUOUS
 62
    47
 10
165.74267
 20
26.570298
 11
163.909335
 21
26.570298
  0
LINE
  8
型材断面
  6
CONTINUOUS
 10
162.97617
 20
26.869993
 11
162.47617
 21
26.869993
  0
LINE
  8
型材断面
  6
CONTINUOUS
 10
163.459335
 20
28.486962
 11
162.97617
 21
28.486962
  0
LINE
  8
型材断面
  6
CONTINUOUS
 62
    47
 10
169.209335
 20
26.570298
 11
166.582028
 21
26.570298
  0
INSERT
  2
*GRP_0002
  8
型材断面
  6
DOT
 10
0.0
 20
0.0
  0
INSERT
  2
*GRP_0003
  8
型材断面
  6
DOT
 10
0.0
 20
0.0
  0
LINE
  8
型材断面
  6
CONTINUOUS
 10
169.209335
 20
26.570298
 11
169.209335
 21
50.203325
  0
LINE
  8
型材断面
  6
CONTINUOUS
 10
169.709335
 20
27.136962
 11
169.709335
 21
50.203325
  0
LINE
  8
型材断面
  6
CONTINUOUS
 10
166.582028
 20
26.256963
 11
166.582028
 21
50.203325
  0
LINE
  8
型材断面
  6
CONTINUOUS
 10
166.248695
 20
26.256963
 11
166.248695
 21
50.203325
  0
LINE
  8
型材断面
  6
CONTINUOUS
 10
166.148695
 20
27.040298
 11
166.148695
 21
50.203325
  0
LINE
  8
型材断面
  6
CONTINUOUS
 10
165.74267
 20
26.570298
 11
165.74267
 21
50.203325
  0
LINE
  8
型材断面
  6
CONTINUOUS
 10
162.97617
 20
26.869993
 11
162.97617
 21
50.203325
  0
LINE
  8
型材断面
  6
CONTINUOUS
 10
161.742835
 20
28.536658
 11
161.742835
 21
50.203325
  0
LINE
  8
型材断面
  6
CONTINUOUS
 10
162.47617
 20
26.869993
 11
162.47617
 21
50.203325
  0
LINE
  8
型材断面
  6
CONTINUOUS
 10
163.459335
 20
27.040298
 11
163.459335
 21
50.203325
  0
LINE
  8
型材断面
  6
CONTINUOUS
 10
163.909335
 20
26.570298
 11
163.909335
 21
50.203325
  0
LINE
  8
型材断面
  6
CONTINUOUS
 10
162.97617
 20
73.53666
 11
162.97617
 21
73.48666
  0
LINE
  8
型材断面
  6
CONTINUOUS
 10
162.47617
 20
71.869993
 11
161.742835
 21
71.869993
  0
LINE
  8
型材断面
  6
CONTINUOUS
 62
    47
 10
169.709335
 20
73.269687
 11
169.709335
 21
73.219687
  0
LINE
  8
型材断面
  6
CONTINUOUS
 62
    47
 10
169.709335
 20
73.269687
 11
169.209335
 21
73.269687
  0
LINE
  8
型材断面
  6
CONTINUOUS
 10
163.459335
 20
71.919687
 11
163.459335
 21
73.366355
  0
LINE
  8
型材断面
  6
CONTINUOUS
 10
163.909335
 20
73.366355
 11
163.459335
 21
73.366355
  0
LINE
  8
型材断面
  6
CONTINUOUS
 62
    47
 10
166.582028
 20
74.099688
 11
166.582028
 21
74.149688
  0
LINE
  8
型材断面
  6
CONTINUOUS
 62
    47
 10
166.582028
 20
74.149688
 11
166.248695
 21
74.149688
  0
LINE
  8
型材断面
  6
CONTINUOUS
 62
    47
 10
166.248695
 20
74.149688
 11
166.148695
 21
73.366355
  0
LINE
  8
型材断面
  6
CONTINUOUS
 62
    47
 10
165.74267
 20
73.366355
 11
166.148695
 21
73.366355
  0
LINE
  8
型材断面
  6
CONTINUOUS
 62
    47
 10
165.74267
 20
73.836355
 11
163.909335
 21
73.836355
  0
LINE
  8
型材断面
  6
CONTINUOUS
 10
162.97617
 20
73.53666
 11
162.47617
 21
73.53666
  0
LINE
  8
型材断面
  6
CONTINUOUS
 10
163.459335
 20
71.919687
 11
162.97617
 21
71.919687
  0
LINE
  8
型材断面
  6
CONTINUOUS
 62
    47
 10
169.209335
 20
73.836355
 11
166.582028
 21
73.836355
  0
INSERT
  2
*GRP_0006
  8
型材断面
  6
DOT
 10
0.0
 20
0.0
  0
INSERT
  2
*GRP_0007
  8
型材断面
  6
DOT
 10
0.0
 20
0.0
  0
LINE
  8
型材断面
  6
CONTINUOUS
 10
169.209335
 20
73.836355
 11
169.209335
 21
50.203325
  0
LINE
  8
型材断面
  6
CONTINUOUS
 10
169.709335
 20
73.269687
 11
169.709335
 21
50.203325
  0
LINE
  8
型材断面
  6
CONTINUOUS
 10
166.582028
 20
74.149688
 11
166.582028
 21
50.203325
  0
LINE
  8
型材断面
  6
CONTINUOUS
 10
166.248695
 20
74.149688
 11
166.248695
 21
50.203325
  0
LINE
  8
型材断面
  6
CONTINUOUS
 10
166.148695
 20
73.366355
 11
166.148695
 21
50.203325
  0
LINE
  8
型材断面
  6
CONTINUOUS
 10
165.74267
 20
73.836355
 11
165.74267
 21
50.203325
  0
LINE
  8
型材断面
  6
CONTINUOUS
 10
162.97617
 20
73.53666
 11
162.97617
 21
50.203325
  0
LINE
  8
型材断面
  6
CONTINUOUS
 10
161.742835
 20
71.869993
 11
161.742835
 21
50.203325
  0
LINE
  8
型材断面
  6
CONTINUOUS
 10
162.47617
 20
73.53666
 11
162.47617
 21
50.203325
  0
LINE
  8
型材断面
  6
CONTINUOUS
 10
163.459335
 20
73.366355
 11
163.459335
 21
50.203325
  0
LINE
  8
型材断面
  6
CONTINUOUS
 10
163.909335
 20
73.836355
 11
163.909335
 21
50.203325
  0
LINE
  8
型材断面
  6
DASHDOT
 10
-37.596497
 20
-79.253555
 11
-37.596497
 21
71.869993
  0
LINE
  8
型材断面
  6
CONTINUOUS
 10
39.070165
 20
-69.937453
 11
39.020165
 21
-69.937453
  0
LINE
  8
型材断面
  6
CONTINUOUS
 10
37.403498
 20
-69.437453
 11
37.403498
 21
-68.70412
  0
LINE
  8
型材断面
  6
CONTINUOUS
 62
    47
 10
38.803192
 20
-76.67062
 11
38.753192
 21
-76.67062
  0
LINE
  8
型材断面
  6
CONTINUOUS
 62
    47
 10
38.803192
 20
-76.67062
 11
38.803192
 21
-76.17062
  0
LINE
  8
型材断面
  6
CONTINUOUS
 10
37.453192
 20
-70.42062
 11
38.89986
 21
-70.42062
  0
LINE
  8
型材断面
  6
CONTINUOUS
 10
38.89986
 20
-70.87062
 11
38.89986
 21
-70.42062
  0
LINE
  8
型材断面
  6
CONTINUOUS
 62
    47
 10
39.633193
 20
-73.543312
 11
39.683193
 21
-73.543312
  0
LINE
  8
型材断面
  6
CONTINUOUS
 62
    47
 10
39.683193
 20
-73.543312
 11
39.683193
 21
-73.209977
  0
LINE
  8
型材断面
  6
CONTINUOUS
 62
    47
 10
39.683193
 20
-73.209977
 11
38.89986
 21
-73.109977
  0
LINE
  8
型材断面
  6
CONTINUOUS
 62
    47
 10
38.89986
 20
-72.703953
 11
38.89986
 21
-73.109977
  0
LINE
  8
型材断面
  6
CONTINUOUS
 62
    47
 10
39.36986
 20
-72.703953
 11
39.36986
 21
-70.87062
  0
LINE
  8
型材断面
  6
CONTINUOUS
 10
39.070165
 20
-69.937453
 11
39.070165
 21
-69.437453
  0
LINE
  8
型材断面
  6
CONTINUOUS
 10
37.453192
 20
-70.42062
 11
37.453192
 21
-69.937453
  0
LINE
  8
型材断面
  6
CONTINUOUS
 62
    47
 10
39.36986
 20
-76.17062
 11
39.36986
 21
-73.543312
  0
INSERT
  2
*GRP_0010
  8
型材断面
  6
DOT
 10
0.0
 20
0.0
  0
INSERT
  2
*GRP_0011
  8
型材断面
  6
DOT
 10
0.0
 20
0.0
  0
LINE
  8
型材断面
  6
CONTINUOUS
 10
39.36986
 20
-76.17062
 11
-37.596497
 21
-76.17062
  0
LINE
  8
型材断面
  6
CONTINUOUS
 10
38.803192
 20
-76.67062
 11
-37.596497
 21
-76.67062
  0
LINE
  8
型材断面
  6
CONTINUOUS
 10
39.683193
 20
-73.543312
 11
-37.596497
 21
-73.543312
  0
LINE
  8
型材断面
  6
CONTINUOUS
 10
39.683193
 20
-73.209977
 11
-37.596497
 21
-73.209977
  0
LINE
  8
型材断面
  6
CONTINUOUS
 10
38.89986
 20
-73.109977
 11
-37.596497
 21
-73.109977
  0
LINE
  8
型材断面
  6
CONTINUOUS
 10
39.36986
 20
-72.703953
 11
-37.596497
 21
-72.703953
  0
LINE
  8
型材断面
  6
CONTINUOUS
 10
39.070165
 20
-69.937453
 11
-37.596497
 21
-69.937453
  0
LINE
  8
型材断面
  6
CONTINUOUS
 10
37.403498
 20
-68.70412
 11
-37.596497
 21
-68.70412
  0
LINE
  8
型材断面
  6
CONTINUOUS
 10
39.070165
 20
-69.437453
 11
-37.596497
 21
-69.437453
  0
LINE
  8
型材断面
  6
CONTINUOUS
 10
38.89986
 20
-70.42062
 11
-37.596497
 21
-70.42062
  0
LINE
  8
型材断面
  6
CONTINUOUS
 10
39.36986
 20
-70.87062
 11
-37.596497
 21
-70.87062
  0
LINE
  8
型材断面
  6
CONTINUOUS
 10
36.570165
 20
50.619993
 11
37.403498
 21
50.619993
  0
LINE
  8
型材断面
  6
CONTINUOUS
 10
36.570165
 20
49.786658
 11
37.403498
 21
49.786658
  0
LINE
  8
型材断面
  6
CONTINUOUS
 10
36.570165
 20
29.36999
 11
39.683193
 21
26.256963
  0
LINE
  8
型材断面
  6
CONTINUOUS
 10
36.570165
 20
29.36999
 11
36.570165
 21
49.786658
  0
LINE
  8
型材断面
  6
DASHDOT
 10
172.29227
 20
28.536658
 11
37.403498
 21
28.536658
  0
LINE
  8
型材断面
  6
DASHDOT
 10
37.403498
 20
-79.253555
 11
37.403498
 21
28.536658
  0
LINE
  8
型材断面
  6
CONTINUOUS
 10
36.570165
 20
71.03666
 11
39.683193
 21
74.149688
  0
LINE
  8
型材断面
  6
CONTINUOUS
 10
36.570165
 20
50.619993
 11
36.570165
 21
71.03666
  0
LINE
  8
型材断面
  6
DASHDOT
 10
172.29227
 20
71.869993
 11
37.403498
 21
71.869993
  0
LINE
  8
型材断面
  6
CONTINUOUS
 10
37.403498
 20
28.536658
 11
37.403498
 21
71.869993
  0
LINE
  8
型材断面
  6
CONTINUOUS
 10
39.36986
 20
26.570295
 11
39.36986
 21
73.836355
  0
LINE
  8
型材断面
  6
CONTINUOUS
 10
39.683193
 20
26.256963
 11
39.683193
 21
74.149688
  0
LINE
  8
型材断面
  6
CONTINUOUS
 10
39.070165
 20
26.86999
 11
39.070165
 21
73.53666
  0
LINE
  8
型材断面
  6
CONTINUOUS
 10
-114.26316
 20
-69.937453
 11
-114.21316
 21
-69.937453
  0
LINE
  8
型材断面
  6
CONTINUOUS
 10
-112.596493
 20
-69.437453
 11
-112.596493
 21
-68.70412
  0
LINE
  8
型材断面
  6
CONTINUOUS
 62
    47
 10
-113.996187
 20
-76.67062
 11
-113.946187
 21
-76.67062
  0
LINE
  8
型材断面
  6
CONTINUOUS
 62
    47
 10
-113.996187
 20
-76.67062
 11
-113.996187
 21
-76.17062
  0
LINE
  8
型材断面
  6
CONTINUOUS
 10
-112.646188
 20
-70.42062
 11
-114.092855
 21
-70.42062
  0
LINE
  8
型材断面
  6
CONTINUOUS
 10
-114.092855
 20
-70.87062
 11
-114.092855
 21
-70.42062
  0
LINE
  8
型材断面
  6
CONTINUOUS
 62
    47
 10
-114.826188
 20
-73.543312
 11
-114.876188
 21
-73.543312
  0
LINE
  8
型材断面
  6
CONTINUOUS
 62
    47
 10
-114.876188
 20
-73.543312
 11
-114.876188
 21
-73.209977
  0
LINE
  8
型材断面
  6
CONTINUOUS
 62
    47
 10
-114.876188
 20
-73.209977
 11
-114.092855
 21
-73.109977
  0
LINE
  8
型材断面
  6
CONTINUOUS
 62
    47
 10
-114.092855
 20
-72.703953
 11
-114.092855
 21
-73.109977
  0
LINE
  8
型材断面
  6
CONTINUOUS
 62
    47
 10
-114.562855
 20
-72.703953
 11
-114.562855
 21
-70.87062
  0
LINE
  8
型材断面
  6
CONTINUOUS
 10
-114.26316
 20
-69.937453
 11
-114.26316
 21
-69.437453
  0
LINE
  8
型材断面
  6
CONTINUOUS
 10
-112.646188
 20
-70.42062
 11
-112.646188
 21
-69.937453
  0
LINE
  8
型材断面
  6
CONTINUOUS
 62
    47
 10
-114.562855
 20
-76.17062
 11
-114.562855
 21
-73.543312
  0
INSERT
  2
*GRP_0013
  8
型材断面
  6
DOT
 10
0.0
 20
0.0
  0
INSERT
  2
*GRP_0014
  8
型材断面
  6
DOT
 10
0.0
 20
0.0
  0
LINE
  8
型材断面
  6
CONTINUOUS
 10
-114.562855
 20
-76.17062
 11
-37.596497
 21
-76.17062
  0
LINE
  8
型材断面
  6
CONTINUOUS
 10
-113.996187
 20
-76.67062
 11
-37.596497
 21
-76.67062
  0
LINE
  8
型材断面
  6
CONTINUOUS
 10
-114.876188
 20
-73.543312
 11
-37.596497
 21
-73.543312
  0
LINE
  8
型材断面
  6
CONTINUOUS
 10
-114.876188
 20
-73.209977
 11
-37.596497
 21
-73.209977
  0
LINE
  8
型材断面
  6
CONTINUOUS
 10
-114.092855
 20
-73.109977
 11
-37.596497
 21
-73.109977
  0
LINE
  8
型材断面
  6
CONTINUOUS
 10
-114.562855
 20
-72.703953
 11
-37.596497
 21
-72.703953
  0
LINE
  8
型材断面
  6
CONTINUOUS
 10
-114.26316
 20
-69.937453
 11
-37.596497
 21
-69.937453
  0
LINE
  8
型材断面
  6
CONTINUOUS
 10
-112.596493
 20
-68.70412
 11
-37.596497
 21
-68.70412
  0
LINE
  8
型材断面
  6
CONTINUOUS
 10
-114.26316
 20
-69.437453
 11
-37.596497
 21
-69.437453
  0
LINE
  8
型材断面
  6
CONTINUOUS
 10
-114.092855
 20
-70.42062
 11
-37.596497
 21
-70.42062
  0
LINE
  8
型材断面
  6
CONTINUOUS
 10
-114.562855
 20
-70.87062
 11
-37.596497
 21
-70.87062
  0
LINE
  8
型材断面
  6
CONTINUOUS
 10
-111.76316
 20
49.786658
 11
-112.596493
 21
49.786658
  0
LINE
  8
型材断面
  6
CONTINUOUS
 10
-111.76316
 20
50.619993
 11
-112.596493
 21
50.619993
  0
LINE
  8
型材断面
  6
DASHDOT
 10
172.29227
 20
50.203325
 11
-112.596493
 21
50.203325
  0
LINE
  8
型材断面
  6
CONTINUOUS
 10
-111.76316
 20
29.36999
 11
-114.876188
 21
26.256963
  0
LINE
  8
型材断面
  6
CONTINUOUS
 10
-111.76316
 20
29.36999
 11
-111.76316
 21
49.786658
  0
LINE
  8
型材断面
  6
DASHDOT
 10
-112.596493
 20
-79.253555
 11
-112.596493
 21
28.536658
  0
LINE
  8
型材断面
  6
CONTINUOUS
 10
-111.76316
 20
71.03666
 11
-114.876188
 21
74.149688
  0
LINE
  8
型材断面
  6
CONTINUOUS
 10
-111.76316
 20
50.619993
 11
-111.76316
 21
71.03666
  0
LINE
  8
型材断面
  6
CONTINUOUS
 10
-112.596493
 20
28.536658
 11
-112.596493
 21
71.869993
  0
LINE
  8
型材断面
  6
CONTINUOUS
 10
-114.562855
 20
26.570295
 11
-114.562855
 21
73.836355
  0
LINE
  8
型材断面
  6
CONTINUOUS
 10
-114.876188
 20
26.256963
 11
-114.876188
 21
74.149688
  0
LINE
  8
型材断面
  6
CONTINUOUS
 10
-114.26316
 20
26.86999
 11
-114.26316
 21
73.53666
  0
LINE
  8
型材断面
  6
CONTINUOUS
 10
37.403498
 20
28.536658
 11
-112.596493
 21
28.536658
  0
LINE
  8
型材断面
  6
CONTINUOUS
 10
39.36986
 20
26.570295
 11
-114.562855
 21
26.570295
  0
LINE
  8
型材断面
  6
CONTINUOUS
 10
39.683193
 20
26.256963
 11
-114.876188
 21
26.256963
  0
LINE
  8
型材断面
  6
CONTINUOUS
 10
39.070165
 20
26.86999
 11
-114.26316
 21
26.86999
  0
LINE
  8
型材断面
  6
CONTINUOUS
 10
37.403498
 20
71.869993
 11
-112.596493
 21
71.869993
  0
LINE
  8
型材断面
  6
CONTINUOUS
 10
39.36986
 20
73.836355
 11
-114.562855
 21
73.836355
  0
LINE
  8
型材断面
  6
CONTINUOUS
 10
39.683193
 20
74.149688
 11
-114.876188
 21
74.149688
  0
LINE
  8
型材断面
  6
CONTINUOUS
 10
39.070165
 20
73.53666
 11
-114.26316
 21
73.53666
  0
LINE
  8
型材断面
  6
CONTINUOUS
 10
-93.514827
 20
28.536658
 11
-93.514827
 21
29.36999
  0
LINE
  8
型材断面
  6
CONTINUOUS
 10
-94.348163
 20
28.536658
 11
-94.348163
 21
29.36999
  0
LINE
  8
型材断面
  6
CONTINUOUS
 10
-56.01483
 20
28.536658
 11
-56.01483
 21
29.36999
  0
LINE
  8
型材断面
  6
CONTINUOUS
 10
-56.848165
 20
28.536658
 11
-56.848165
 21
29.36999
  0
LINE
  8
型材断面
  6
CONTINUOUS
 10
-111.76316
 20
29.36999
 11
-94.348163
 21
29.36999
  0
LINE
  8
型材断面
  6
CONTINUOUS
 10
-93.514827
 20
29.36999
 11
-56.848165
 21
29.36999
  0
LINE
  8
型材断面
  6
CONTINUOUS
 10
18.321832
 20
28.536658
 11
18.321832
 21
29.36999
  0
LINE
  8
型材断面
  6
CONTINUOUS
 10
19.155168
 20
28.536658
 11
19.155168
 21
29.36999
  0
LINE
  8
型材断面
  6
CONTINUOUS
 10
-19.178165
 20
28.536658
 11
-19.178165
 21
29.36999
  0
LINE
  8
型材断面
  6
CONTINUOUS
 10
-18.34483
 20
28.536658
 11
-18.34483
 21
29.36999
  0
LINE
  8
型材断面
  6
CONTINUOUS
 10
36.570165
 20
29.36999
 11
19.155168
 21
29.36999
  0
LINE
  8
型材断面
  6
CONTINUOUS
 10
18.321832
 20
29.36999
 11
-18.34483
 21
29.36999
  0
LINE
  8
型材断面
  6
CONTINUOUS
 10
-56.01483
 20
29.36999
 11
-19.178165
 21
29.36999
  0
LINE
  8
型材断面
  6
CONTINUOUS
 10
-93.514827
 20
71.869993
 11
-93.514827
 21
71.03666
  0
LINE
  8
型材断面
  6
CONTINUOUS
 10
-94.348163
 20
71.869993
 11
-94.348163
 21
71.03666
  0
LINE
  8
型材断面
  6
CONTINUOUS
 10
-56.01483
 20
71.869993
 11
-56.01483
 21
71.03666
  0
LINE
  8
型材断面
  6
CONTINUOUS
 10
-56.848165
 20
71.869993
 11
-56.848165
 21
71.03666
  0
LINE
  8
型材断面
  6
CONTINUOUS
 10
-111.76316
 20
71.03666
 11
-94.348163
 21
71.03666
  0
LINE
  8
型材断面
  6
CONTINUOUS
 10
-93.514827
 20
71.03666
 11
-56.848165
 21
71.03666
  0
LINE
  8
型材断面
  6
CONTINUOUS
 10
18.321832
 20
71.869993
 11
18.321832
 21
71.03666
  0
LINE
  8
型材断面
  6
CONTINUOUS
 10
19.155168
 20
71.869993
 11
19.155168
 21
71.03666
  0
LINE
  8
型材断面
  6
CONTINUOUS
 10
-19.178165
 20
71.869993
 11
-19.178165
 21
71.03666
  0
LINE
  8
型材断面
  6
CONTINUOUS
 10
-18.34483
 20
71.869993
 11
-18.34483
 21
71.03666
  0
LINE
  8
型材断面
  6
CONTINUOUS
 10
36.570165
 20
71.03666
 11
19.155168
 21
71.03666
  0
LINE
  8
型材断面
  6
CONTINUOUS
 10
18.321832
 20
71.03666
 11
-18.34483
 21
71.03666
  0
LINE
  8
型材断面
  6
CONTINUOUS
 10
-56.01483
 20
71.03666
 11
-19.178165
 21
71.03666
  0
LINE
  8
型材断面
  6
CONTINUOUS
 10
-74.0165
 20
30.203322
 11
-76.5165
 21
30.203322
  0
LINE
  8
型材断面
  6
CONTINUOUS
 10
-74.0165
 20
70.203327
 11
-76.5165
 21
70.203327
  0
LINE
  8
型材断面
  6
CONTINUOUS
 10
-76.5165
 20
30.203322
 11
-76.5165
 21
70.203327
  0
LINE
  8
型材断面
  6
CONTINUOUS
 10
-74.0165
 20
30.203322
 11
-74.0165
 21
70.203327
  0
LINE
  8
型材断面
  6
CONTINUOUS
 10
-75.0165
 20
30.203322
 11
-75.0165
 21
70.203327
  0
LINE
  8
型材断面
  6
CONTINUOUS
 10
-75.5165
 20
30.203322
 11
-75.5165
 21
70.203327
  0
LINE
  8
型材断面
  6
DASHDOT
 10
-75.2665
 20
28.536658
 11
-75.2665
 21
71.869993
  0
LINE
  8
型材断面
  6
CONTINUOUS
 10
-36.346497
 20
30.203322
 11
-38.846497
 21
30.203322
  0
LINE
  8
型材断面
  6
CONTINUOUS
 10
-36.346497
 20
70.203327
 11
-38.846497
 21
70.203327
  0
LINE
  8
型材断面
  6
CONTINUOUS
 10
-38.846497
 20
30.203322
 11
-38.846497
 21
70.203327
  0
LINE
  8
型材断面
  6
CONTINUOUS
 10
-36.346497
 20
30.203322
 11
-36.346497
 21
70.203327
  0
LINE
  8
型材断面
  6
CONTINUOUS
 10
-37.346497
 20
30.203322
 11
-37.346497
 21
70.203327
  0
LINE
  8
型材断面
  6
CONTINUOUS
 10
-37.846497
 20
30.203322
 11
-37.846497
 21
70.203327
  0
LINE
  8
型材断面
  6
CONTINUOUS
 10
-1.176495
 20
30.203322
 11
1.323505
 21
30.203322
  0
LINE
  8
型材断面
  6
CONTINUOUS
 10
-1.176495
 20
70.203327
 11
1.323505
 21
70.203327
  0
LINE
  8
型材断面
  6
CONTINUOUS
 10
1.323505
 20
30.203322
 11
1.323505
 21
70.203327
  0
LINE
  8
型材断面
  6
CONTINUOUS
 10
-1.176495
 20
30.203322
 11
-1.176495
 21
70.203327
  0
LINE
  8
型材断面
  6
CONTINUOUS
 10
-0.176495
 20
30.203322
 11
-0.176495
 21
70.203327
  0
LINE
  8
型材断面
  6
CONTINUOUS
 10
0.323505
 20
30.203322
 11
0.323505
 21
70.203327
  0
LINE
  8
型材断面
  6
DASHDOT
 10
0.073505
 20
28.536658
 11
0.073505
 21
71.869993
  0
POLYLINE
  8
型材断面
  6
CONTINUOUS
 66
     1
 70
     1
  0
VERTEX
  8
型材断面
 10
-28.10562
 20
81.645915
  0
VERTEX
  8
型材断面
 10
-46.87755
 20
81.645915
  0
VERTEX
  8
型材断面
 10
-46.87755
 20
86.382757
  0
VERTEX
  8
型材断面
 10
-28.10562
 20
86.382757
  0
SEQEND
  0
POLYLINE
  8
型材断面
  6
CONTINUOUS
 66
     1
 70
     1
  0
VERTEX
  8
型材断面
 10
-28.10562
 20
18.760735
  0
VERTEX
  8
型材断面
 10
-46.87755
 20
18.760735
  0
VERTEX
  8
型材断面
 10
-46.87755
 20
14.023892
  0
VERTEX
  8
型材断面
 10
-28.10562
 20
14.023892
  0
SEQEND
  0
LINE
  8
型材断面
  6
CONTINUOUS
 10
-115.226627
 20
50.203325
 11
-117.817135
 21
51.698955
  0
LINE
  8
型材断面
  6
CONTINUOUS
 10
-115.226627
 20
50.203325
 11
-117.817135
 21
48.707695
  0
LINE
  8
型材断面
  6
CONTINUOUS
 10
-117.817135
 20
48.707695
 11
-117.817135
 21
51.698955
  0
LINE
  8
型材断面
  6
CONTINUOUS
 10
-95.92983
 20
74.50012
 11
-97.42546
 21
77.090627
  0
LINE
  8
型材断面
  6
CONTINUOUS
 10
-95.92983
 20
74.50012
 11
-94.4342
 21
77.090627
  0
LINE
  8
型材断面
  6
CONTINUOUS
 10
-94.4342
 20
77.090627
 11
-97.42546
 21
77.090627
  0
LINE
  8
型材断面
  6
CONTINUOUS
 10
-153.448705
 20
109.847463
 11
-152.85265
 21
107.256955
  0
LINE
  8
型材断面
  6
CONTINUOUS
 10
-153.448705
 20
109.847463
 11
-154.044762
 21
107.256955
  0
LINE
  8
型材断面
  6
CONTINUOUS
 10
-154.044762
 20
107.256955
 11
-152.85265
 21
107.256955
  0
LINE
  8
型材断面
  6
CONTINUOUS
 10
-159.471292
 20
103.978062
 11
-113.229515
 21
103.978062
  0
LINE
  8
型材断面
  6
CONTINUOUS
 10
-153.448705
 20
116.377338
 11
-154.944335
 21
113.78683
  0
LINE
  8
型材断面
  6
CONTINUOUS
 10
-153.448705
 20
116.377338
 11
-151.953075
 21
113.78683
  0
LINE
  8
型材断面
  6
CONTINUOUS
 10
-151.953075
 20
113.78683
 11
-154.944335
 21
113.78683
  0
LINE
  8
型材断面
  6
CONTINUOUS
 10
-159.471292
 20
112.848235
 11
-113.229515
 21
112.848235
  0
LINE
  8
型材断面
  6
CONTINUOUS
 10
-159.471292
 20
98.19003
 11
-113.229515
 21
98.19003
  0
LINE
  8
型材断面
  6
CONTINUOUS
 10
-95.92983
 20
25.90653
 11
-97.42546
 21
23.316022
  0
LINE
  8
型材断面
  6
CONTINUOUS
 10
-95.92983
 20
25.90653
 11
-94.4342
 21
23.316022
  0
LINE
  8
型材断面
  6
CONTINUOUS
 10
-94.4342
 20
23.316022
 11
-97.42546
 21
23.316022
  0
LINE
  8
型材断面
  6
CONTINUOUS
 10
40.033633
 20
50.203325
 11
42.62414
 21
51.698955
  0
LINE
  8
型材断面
  6
CONTINUOUS
 10
40.033633
 20
50.203325
 11
42.62414
 21
48.707695
  0
LINE
  8
型材断面
  6
CONTINUOUS
 10
42.62414
 20
48.707695
 11
42.62414
 21
51.698955
  0
LINE
  8
型材断面
  6
CONTINUOUS
 10
20.736835
 20
74.50012
 11
22.232465
 21
77.090627
  0
LINE
  8
型材断面
  6
CONTINUOUS
 10
20.736835
 20
74.50012
 11
19.241205
 21
77.090627
  0
LINE
  8
型材断面
  6
CONTINUOUS
 10
19.241205
 20
77.090627
 11
22.232465
 21
77.090627
  0
LINE
  8
型材断面
  6
CONTINUOUS
 10
20.736835
 20
25.90653
 11
22.232465
 21
23.316022
  0
LINE
  8
型材断面
  6
CONTINUOUS
 10
20.736835
 20
25.90653
 11
19.241205
 21
23.316022
  0
LINE
  8
型材断面
  6
CONTINUOUS
 10
19.241205
 20
23.316022
 11
22.232465
 21
23.316022
  0
LINE
  8
型材断面
  6
CONTINUOUS
 10
-37.596497
 20
74.50012
 11
-36.100868
 21
77.090627
  0
LINE
  8
型材断面
  6
CONTINUOUS
 10
-37.596497
 20
74.50012
 11
-39.092127
 21
77.090627
  0
LINE
  8
型材断面
  6
CONTINUOUS
 10
-39.092127
 20
77.090627
 11
-36.100868
 21
77.090627
  0
LINE
  8
型材断面
  6
CONTINUOUS
 10
-37.596497
 20
25.90653
 11
-36.100868
 21
23.316022
  0
LINE
  8
型材断面
  6
CONTINUOUS
 10
-37.596497
 20
25.90653
 11
-39.092127
 21
23.316022
  0
LINE
  8
型材断面
  6
CONTINUOUS
 10
-39.092127
 20
23.316022
 11
-36.100868
 21
23.316022
  0
LINE
  8
型材断面
  6
CONTINUOUS
 10
40.03363
 20
67.96999
 11
42.624137
 21
67.373933
  0
LINE
  8
型材断面
  6
CONTINUOUS
 10
40.03363
 20
67.96999
 11
42.624137
 21
68.566048
  0
LINE
  8
型材断面
  6
CONTINUOUS
 10
42.624137
 20
68.566048
 11
42.624137
 21
67.373933
  0
LINE
  8
型材断面
  6
CONTINUOUS
 10
40.03363
 20
32.43666
 11
42.624137
 21
33.032718
  0
LINE
  8
型材断面
  6
CONTINUOUS
 10
40.03363
 20
32.43666
 11
42.624137
 21
31.840603
  0
LINE
  8
型材断面
  6
CONTINUOUS
 10
42.624137
 20
31.840603
 11
42.624137
 21
33.032718
  0
LINE
  8
型材断面
  6
CONTINUOUS
 10
-115.226625
 20
67.96999
 11
-117.817133
 21
67.373933
  0
LINE
  8
型材断面
  6
CONTINUOUS
 10
-115.226625
 20
67.96999
 11
-117.817133
 21
68.566048
  0
LINE
  8
型材断面
  6
CONTINUOUS
 10
-117.817133
 20
68.566048
 11
-117.817133
 21
67.373933
  0
LINE
  8
型材断面
  6
CONTINUOUS
 10
-115.226625
 20
32.43666
 11
-117.817133
 21
33.032718
  0
LINE
  8
型材断面
  6
CONTINUOUS
 10
-115.226625
 20
32.43666
 11
-117.817133
 21
31.840603
  0
LINE
  8
型材断面
  6
CONTINUOUS
 10
-117.817133
 20
31.840603
 11
-117.817133
 21
33.032718
  0
LINE
  8
型材断面
  6
CONTINUOUS
 10
-159.471292
 20
92.401997
 11
-113.229515
 21
92.401997
  0
LINE
  8
型材断面
  6
CONTINUOUS
 10
39.070165
 20
-53.270785
 11
39.020165
 21
-53.270785
  0
LINE
  8
型材断面
  6
CONTINUOUS
 10
37.403498
 20
-52.770785
 11
37.403498
 21
-52.037453
  0
LINE
  8
型材断面
  6
CONTINUOUS
 10
37.453192
 20
-53.753953
 11
38.89986
 21
-53.753953
  0
LINE
  8
型材断面
  6
CONTINUOUS
 10
38.89986
 20
-54.203953
 11
38.89986
 21
-53.753953
  0
LINE
  8
型材断面
  6
CONTINUOUS
 62
    47
 10
39.633193
 20
-56.876645
 11
39.683193
 21
-56.876645
  0
LINE
  8
型材断面
  6
CONTINUOUS
 62
    47
 10
39.683193
 20
-56.876645
 11
39.683193
 21
-56.54331
  0
LINE
  8
型材断面
  6
CONTINUOUS
 62
    47
 10
39.683193
 20
-56.54331
 11
38.89986
 21
-56.44331
  0
LINE
  8
型材断面
  6
CONTINUOUS
 62
    47
 10
38.89986
 20
-56.037285
 11
38.89986
 21
-56.44331
  0
LINE
  8
型材断面
  6
CONTINUOUS
 62
    47
 10
39.36986
 20
-56.037285
 11
39.36986
 21
-54.203953
  0
LINE
  8
型材断面
  6
CONTINUOUS
 10
39.070165
 20
-53.270785
 11
39.070165
 21
-52.770785
  0
LINE
  8
型材断面
  6
CONTINUOUS
 10
37.453192
 20
-53.753953
 11
37.453192
 21
-53.270785
  0
INSERT
  2
*GRP_0025
  8
型材断面
  6
DOT
 10
0.0
 20
0.0
  0
INSERT
  2
*GRP_0026
  8
型材断面
  6
DOT
 10
0.0
 20
0.0
  0
LINE
  8
型材断面
  6
CONTINUOUS
 10
39.683193
 20
-56.876645
 11
-37.596497
 21
-56.876645
  0
LINE
  8
型材断面
  6
CONTINUOUS
 10
39.683193
 20
-56.54331
 11
-37.596497
 21
-56.54331
  0
LINE
  8
型材断面
  6
CONTINUOUS
 10
38.89986
 20
-56.44331
 11
-37.596497
 21
-56.44331
  0
LINE
  8
型材断面
  6
CONTINUOUS
 10
39.36986
 20
-56.037285
 11
-37.596497
 21
-56.037285
  0
LINE
  8
型材断面
  6
CONTINUOUS
 10
39.070165
 20
-53.270785
 11
-37.596497
 21
-53.270785
  0
LINE
  8
型材断面
  6
CONTINUOUS
 10
37.403498
 20
-52.037453
 11
-37.596497
 21
-52.037453
  0
LINE
  8
型材断面
  6
CONTINUOUS
 10
39.070165
 20
-52.770785
 11
-37.596497
 21
-52.770785
  0
LINE
  8
型材断面
  6
CONTINUOUS
 10
38.89986
 20
-53.753953
 11
-37.596497
 21
-53.753953
  0
LINE
  8
型材断面
  6
CONTINUOUS
 10
39.36986
 20
-54.203953
 11
-37.596497
 21
-54.203953
  0
LINE
  8
型材断面
  6
CONTINUOUS
 10
-114.26316
 20
-53.270785
 11
-114.21316
 21
-53.270785
  0
LINE
  8
型材断面
  6
CONTINUOUS
 10
-112.596493
 20
-52.770785
 11
-112.596493
 21
-52.037453
  0
LINE
  8
型材断面
  6
CONTINUOUS
 10
-112.646188
 20
-53.753953
 11
-114.092855
 21
-53.753953
  0
LINE
  8
型材断面
  6
CONTINUOUS
 10
-114.092855
 20
-54.203953
 11
-114.092855
 21
-53.753953
  0
LINE
  8
型材断面
  6
CONTINUOUS
 62
    47
 10
-114.826188
 20
-56.876645
 11
-114.876188
 21
-56.876645
  0
LINE
  8
型材断面
  6
CONTINUOUS
 62
    47
 10
-114.876188
 20
-56.876645
 11
-114.876188
 21
-56.54331
  0
LINE
  8
型材断面
  6
CONTINUOUS
 62
    47
 10
-114.876188
 20
-56.54331
 11
-114.092855
 21
-56.44331
  0
LINE
  8
型材断面
  6
CONTINUOUS
 62
    47
 10
-114.092855
 20
-56.037285
 11
-114.092855
 21
-56.44331
  0
LINE
  8
型材断面
  6
CONTINUOUS
 62
    47
 10
-114.562855
 20
-56.037285
 11
-114.562855
 21
-54.203953
  0
LINE
  8
型材断面
  6
CONTINUOUS
 10
-114.26316
 20
-53.270785
 11
-114.26316
 21
-52.770785
  0
LINE
  8
型材断面
  6
CONTINUOUS
 10
-112.646188
 20
-53.753953
 11
-112.646188
 21
-53.270785
  0
INSERT
  2
*GRP_0027
  8
型材断面
  6
DOT
 10
0.0
 20
0.0
  0
INSERT
  2
*GRP_0028
  8
型材断面
  6
DOT
 10
0.0
 20
0.0
  0
LINE
  8
型材断面
  6
CONTINUOUS
 10
-114.876188
 20
-56.876645
 11
-37.596497
 21
-56.876645
  0
LINE
  8
型材断面
  6
CONTINUOUS
 10
-114.876188
 20
-56.54331
 11
-37.596497
 21
-56.54331
  0
LINE
  8
型材断面
  6
CONTINUOUS
 10
-114.092855
 20
-56.44331
 11
-37.596497
 21
-56.44331
  0
LINE
  8
型材断面
  6
CONTINUOUS
 10
-114.562855
 20
-56.037285
 11
-37.596497
 21
-56.037285
  0
LINE
  8
型材断面
  6
CONTINUOUS
 10
-114.26316
 20
-53.270785
 11
-37.596497
 21
-53.270785
  0
LINE
  8
型材断面
  6
CONTINUOUS
 10
-112.596493
 20
-52.037453
 11
-37.596497
 21
-52.037453
  0
LINE
  8
型材断面
  6
CONTINUOUS
 10
-114.26316
 20
-52.770785
 11
-37.596497
 21
-52.770785
  0
LINE
  8
型材断面
  6
CONTINUOUS
 10
-114.092855
 20
-53.753953
 11
-37.596497
 21
-53.753953
  0
LINE
  8
型材断面
  6
CONTINUOUS
 10
-114.562855
 20
-54.203953
 11
-37.596497
 21
-54.203953
  0
LINE
  8
型材断面
  6
CONTINUOUS
 10
118.213235
 20
-13.342338
 11
136.705495
 21
-13.342338
  0
INSERT
  2
*GRP_0035
  8
型材断面
  6
CONTINUOUS
 10
0.0
 20
0.0
  0
INSERT
  2
*GRP_0036
  8
型材断面
  6
CONTINUOUS
 10
0.0
 20
0.0
  0
INSERT
  2
*GRP_0037
  8
型材断面
  6
CONTINUOUS
 10
0.0
 20
0.0
  0
INSERT
  2
*GRP_0038
  8
型材断面
  6
CONTINUOUS
 10
0.0
 20
0.0
  0
POLYLINE
  8
ガラス
  6
CONTINUOUS
 66
     1
 70
     1
  0
VERTEX
  8
ガラス
 10
156.550015
 20
-38.249742
  0
VERTEX
  8
ガラス
 10
120.226683
 20
-38.249742
  0
VERTEX
  8
ガラス
 10
120.226683
 20
-80.916407
  0
VERTEX
  8
ガラス
 10
156.550015
 20
-80.916407
  0
SEQEND
  0
TEXT
  7
TextStyle03
  8
文字
  6
CONTINUOUS
 10
-23.65
 20
-100.575
  1
※トップライト枠高さ寸法
 40
3.0
 72
     5
 11
16.475
 21
-100.575
  0
TEXT
  7
TextStyle03
  8
文字
  6
CONTINUOUS
 10
-23.65
 20
-103.95
  1
　シングルガラス：214
 40
3.0
 72
     5
 11
11.6
 21
-103.95
  0
TEXT
  7
TextStyle03
  8
文字
  6
CONTINUOUS
 10
-23.65
 20
-107.325
  1
　ペアガラス：224
 40
3.0
 72
     5
 11
4.85
 21
-107.325
  0
TEXT
  7
TextStyle03
  8
文字
  6
CONTINUOUS
 10
78.1
 20
125.25
  1
シリーズ：ＳＴＤＬ
 40
5.0
 72
     5
 11
128.1
 21
125.25
  0
TEXT
  7
TextStyle03
  8
文字
  6
CONTINUOUS
 10
78.1
 20
119.625
  1
　　　　　（上下可動）1300×4500タイプ
 40
5.0
 72
     5
 11
184.35
 21
119.625
  0
TEXT
  7
TextStyle03
  8
文字
  6
CONTINUOUS
 10
78.1
 20
114.0
  1
図面名　：外観姿図
 40
5.0
 72
     5
 11
128.1
 21
114.0
  0
TEXT
  7
TextStyle03
  8
文字
  6
CONTINUOUS
 10
78.1
 20
108.375
  1
　　　　　　
 40
5.0
 72
     5
 11
111.225
 21
108.375
  0
TEXT
  7
TextStyle03
  8
文字
  6
CONTINUOUS
 10
-45.8
 20
82.325
  1
可動装置側
 40
3.0
 72
     5
 11
-29.3
 21
82.325
  0
TEXT
  7
TextStyle03
  8
文字
  6
CONTINUOUS
 10
-45.8
 20
15.05
  1
可動装置側
 40
3.0
 72
     5
 11
-29.3
 21
15.05
  0
TEXT
  7
TextStyle03
  8
文字
  6
CONTINUOUS
 10
-150.075
 20
39.1
  1
アンカーピッチ
 40
3.0
 50
90.0
 72
     5
 11
-150.075
 21
62.35
  0
TEXT
  7
TextStyle03
  8
文字
  6
CONTINUOUS
 10
-150.65
 20
108.45
  1
はケーシング位置を示す
 40
3.0
 72
     5
 11
-113.9
 21
108.45
  0
TEXT
  7
TextStyle03
  8
文字
  6
CONTINUOUS
 10
-150.65
 20
105.075
  1
４ヶ所中1ヶ所に設定
 40
3.0
 72
     5
 11
-118.9625
 21
105.075
  0
TEXT
  7
TextStyle03
  8
文字
  6
CONTINUOUS
 10
-150.65
 20
113.975
  1
は排水穴位置を示す
 40
3.0
 72
     5
 11
-120.65
 21
113.975
  0
TEXT
  7
TextStyle03
  8
文字
  6
CONTINUOUS
 10
-97.65
 20
108.925
  1
アンカーピッチ
 40
3.0
 72
     5
 11
-74.4
 21
108.925
  0
TEXT
  7
TextStyle03
  8
文字
  6
CONTINUOUS
 10
-154.375
 20
99.1
  1
アンカー数量　１６ヶ所
 40
3.0
 72
     5
 11
-117.625
 21
99.1
  0
TEXT
  7
TextStyle03
  8
文字
  6
CONTINUOUS
 10
-159.375
 20
93.325
  1
アームユニット数　※４～６ヶ所
 40
3.0
 72
     5
 11
-109.125
 21
93.325
  0
TEXT
  7
TextStyle03
  8
文字
  6
CONTINUOUS
 10
-159.375
 20
88.375
  1
※重量に依るのでご相談ください
 40
3.0
 72
     5
 11
-109.125
 21
88.375
  0
TEXT
  7
TextStyle03
  8
文字
  6
CONTINUOUS
 10
142.8
 20
-78.025
  1
×４枚
 40
3.0
 72
     5
 11
152.55
 21
-78.025
  0
TEXT
  7
TextStyle03
  8
文字
  6
CONTINUOUS
 10
119.175
 20
-12.6
  1
ガラス寸法
 40
3.0
 72
     5
 11
135.675
 21
-12.6
  0
INSERT
  2
*DIM_0004
  8
寸法
  6
CONTINUOUS
 10
0.0
 20
0.0
  0
INSERT
  2
*DIM_0005
  8
寸法
  6
CONTINUOUS
 10
0.0
 20
0.0
  0
INSERT
  2
*DIM_0008
  8
寸法
  6
CONTINUOUS
 10
0.0
 20
0.0
  0
INSERT
  2
*DIM_0009
  8
寸法
  6
CONTINUOUS
 10
0.0
 20
0.0
  0
INSERT
  2
*DIM_0012
  8
寸法
  6
CONTINUOUS
 10
0.0
 20
0.0
  0
INSERT
  2
*DIM_0015
  8
寸法
  6
CONTINUOUS
 10
0.0
 20
0.0
  0
INSERT
  2
*DIM_0016
  8
寸法
  6
CONTINUOUS
 10
0.0
 20
0.0
  0
INSERT
  2
*DIM_0017
  8
寸法
  6
CONTINUOUS
 10
0.0
 20
0.0
  0
INSERT
  2
*DIM_0018
  8
寸法
  6
CONTINUOUS
 10
0.0
 20
0.0
  0
INSERT
  2
*DIM_0019
  8
寸法
  6
CONTINUOUS
 10
0.0
 20
0.0
  0
INSERT
  2
*DIM_0020
  8
寸法
  6
CONTINUOUS
 10
0.0
 20
0.0
  0
INSERT
  2
*DIM_0021
  8
寸法
  6
CONTINUOUS
 10
0.0
 20
0.0
  0
INSERT
  2
*DIM_0022
  8
寸法
  6
CONTINUOUS
 10
0.0
 20
0.0
  0
INSERT
  2
*DIM_0023
  8
寸法
  6
CONTINUOUS
 10
0.0
 20
0.0
  0
INSERT
  2
*DIM_0024
  8
寸法
  6
CONTINUOUS
 10
0.0
 20
0.0
  0
INSERT
  2
*DIM_0029
  8
寸法
  6
CONTINUOUS
 10
0.0
 20
0.0
  0
INSERT
  2
*DIM_0030
  8
寸法
  6
CONTINUOUS
 10
0.0
 20
0.0
  0
INSERT
  2
*DIM_0031
  8
寸法
  6
CONTINUOUS
 10
0.0
 20
0.0
  0
INSERT
  2
*DIM_0032
  8
寸法
  6
CONTINUOUS
 10
0.0
 20
0.0
  0
INSERT
  2
*DIM_0033
  8
寸法
  6
CONTINUOUS
 10
0.0
 20
0.0
  0
INSERT
  2
*DIM_0034
  8
寸法
  6
CONTINUOUS
 10
0.0
 20
0.0
  0
LINE
  8
曲げ物
  6
CONTINUOUS
 10
22.129233
 20
52.082655
 11
18.43392
 21
48.387342
  0
LINE
  8
曲げ物
  6
CONTINUOUS
 10
21.425763
 20
50.546545
 11
19.970032
 21
49.090815
  0
LINE
  8
曲げ物
  6
CONTINUOUS
 10
20.593123
 20
51.379185
 11
19.137392
 21
49.923455
  0
LINE
  8
曲げ物
  6
CONTINUOUS
 10
-15.875735
 20
52.082655
 11
-19.571047
 21
48.387342
  0
LINE
  8
曲げ物
  6
CONTINUOUS
 10
-16.579205
 20
50.546545
 11
-18.034935
 21
49.090815
  0
LINE
  8
曲げ物
  6
CONTINUOUS
 10
-17.411845
 20
51.379185
 11
-18.867575
 21
49.923455
  0
LINE
  8
曲げ物
  6
CONTINUOUS
 10
-54.245187
 20
52.082655
 11
-57.9405
 21
48.387342
  0
LINE
  8
曲げ物
  6
CONTINUOUS
 10
-54.948657
 20
50.546545
 11
-56.404388
 21
49.090815
  0
LINE
  8
曲げ物
  6
CONTINUOUS
 10
-55.781297
 20
51.379185
 11
-57.237028
 21
49.923455
  0
LINE
  8
曲げ物
  6
CONTINUOUS
 10
-91.762478
 20
52.082655
 11
-95.45779
 21
48.387342
  0
LINE
  8
曲げ物
  6
CONTINUOUS
 10
-92.465948
 20
50.546545
 11
-93.921677
 21
49.090815
  0
LINE
  8
曲げ物
  6
CONTINUOUS
 10
-93.298588
 20
51.379185
 11
-94.754317
 21
49.923455
  0
ENDSEC
  0
EOF
