  0
SECTION
  2
HEADER
  9
$EXTMIN
 10
-210.0
 20
-148.5
  9
$EXTMAX
 10
210.0
 20
148.5
  9
$PDMODE
 70
    32
  9
$PDSIZE
 40
1.5
  9
$LTSCALE
 40
10.0
  0
ENDSEC
  0
SECTION
  2
TABLES
  0
TABLE
  2
LTYPE
 70
    15
  0
LTYPE
  2
CONTINUOUS
 70
    64
  3
実線
 72
    65
 73
     0
 40
0.0
  0
LTYPE
  2
DASHED
 70
    64
  3
破線A
 72
    65
 73
     2
 40
0.6
 49
0.4
 49
-0.2
  0
LTYPE
  2
DASHEDX2
 70
    64
  3
破線B
 72
    65
 73
     2
 40
1.3
 49
0.9
 49
-0.4
  0
LTYPE
  2
DASHDOT
 70
    64
  3
１点鎖線A
 72
    65
 73
     4
 40
0.5375
 49
0.375
 49
-0.05
 49
0.0625
 49
-0.05
  0
LTYPE
  2
DASHDOTX2
 70
    64
  3
１点鎖線B
 72
    65
 73
     4
 40
1.075
 49
0.75
 49
-0.1
 49
0.125
 49
-0.1
  0
LTYPE
  2
DIVIDE2
 70
    64
  3
２点鎖線A
 72
    65
 73
     6
 40
0.5125
 49
0.3
 49
-0.0375
 49
0.05
 49
-0.0375
 49
0.05
 49
-0.0375
  0
LTYPE
  2
DIVIDE
 70
    64
  3
２点鎖線B
 72
    65
 73
     6
 40
1.05
 49
0.55
 49
-0.1
 49
0.1
 49
-0.1
 49
0.1
 49
-0.1
  0
LTYPE
  2
DOT
 70
    64
  3
点線A
 72
    65
 73
     2
 40
0.1125
 49
0.0625
 49
-0.05
  0
LTYPE
  2
DOTX2
 70
    64
  3
点線B
 72
    65
 73
     2
 40
0.275
 49
0.15
 49
-0.125
  0
LTYPE
  2
CONTINUOUS
 70
    64
  3
実線
 72
    65
 73
     0
 40
0.0
  0
LTYPE
  2
CONTINUOUS
 70
    64
  3
実線
 72
    65
 73
     0
 40
0.0
  0
LTYPE
  2
CONTINUOUS
 70
    64
  3
実線
 72
    65
 73
     0
 40
0.0
  0
LTYPE
  2
CONTINUOUS
 70
    64
  3
実線
 72
    65
 73
     0
 40
0.0
  0
LTYPE
  2
CONTINUOUS
 70
    64
  3
実線
 72
    65
 73
     0
 40
0.0
  0
LTYPE
  2
CONTINUOUS
 70
    64
  3
実線
 72
    65
 73
     0
 40
0.0
  0
ENDTAB
  0
TABLE
  2
LAYER
 70
    34
  0
LAYER
  2
通り芯
 70
     0
 62
    15
  6
CONTINUOUS
  0
LAYER
  2
補助線
 70
     0
 62
    16
  6
DOT
  0
LAYER
  2
躯体
 70
     0
 62
    31
  6
CONTINUOUS
  0
LAYER
  2
型材
 70
     0
 62
    32
  6
CONTINUOUS
  0
LAYER
  2
型材断面
 70
     0
 62
    47
  6
CONTINUOUS
  0
LAYER
  2
ガラス
 70
     0
 62
    48
  6
CONTINUOUS
  0
LAYER
  2
ゴム等
 70
     0
 62
    63
  6
CONTINUOUS
  0
LAYER
  2
ボルト／ビス
 70
     0
 62
    64
  6
CONTINUOUS
  0
LAYER
  2
文字
 70
     0
 62
    79
  6
CONTINUOUS
  0
LAYER
  2
寸法
 70
     0
 62
    80
  6
CONTINUOUS
  0
LAYER
  2
ﾊｯﾁﾝｸﾞ
 70
     0
 62
    95
  6
CONTINUOUS
  0
LAYER
  2
別途部材
 70
     0
 62
    96
  6
CONTINUOUS
  0
LAYER
  2
曲げ物
 70
     0
 62
   111
  6
CONTINUOUS
  0
LAYER
  2
鉄骨等
 70
     0
 62
   112
  6
CONTINUOUS
  0
LAYER
  2
St
 70
     0
 62
   127
  6
CONTINUOUS
  0
LAYER
  2
その他部品等
 70
     0
 62
   128
  6
CONTINUOUS
  0
LAYER
  2
ｶﾞｽｹｯﾄ
 70
     0
 62
   143
  6
CONTINUOUS
  0
LAYER
  2
ｽｹｯﾁ
 70
     0
 62
    14
  6
CONTINUOUS
  0
LAYER
  2
0
 70
     0
 62
    17
  6
CONTINUOUS
  0
LAYER
  2
1
 70
     0
 62
    30
  6
CONTINUOUS
  0
LAYER
  2
4
 70
     0
 62
    33
  6
CONTINUOUS
  0
LAYER
  2
ﾚｲﾔ3
 70
     0
 62
    46
  6
CONTINUOUS
  0
LAYER
  2
外形線
 70
     0
 62
    49
  6
CONTINUOUS
  0
LAYER
  2
部品
 70
     0
 62
    14
  6
CONTINUOUS
  0
LAYER
  2
サッシ芯
 70
     0
 62
    17
  6
DASHDOTX2
  0
LAYER
  2
寸法線
 70
     0
 62
    62
  6
CONTINUOUS
  0
LAYER
  2
姿図外形線
 70
     0
 62
    65
  6
CONTINUOUS
  0
LAYER
  2
姿補助線
 70
     0
 62
    30
  6
CONTINUOUS
  0
LAYER
  2
透視線
 70
     0
 62
    78
  6
DOT
  0
LAYER
  2
用紙
 70
     0
 62
    81
  6
CONTINUOUS
  0
LAYER
  2
実線図枠
 70
     0
 62
    94
  6
CONTINUOUS
  0
LAYER
  2
補助図枠
 70
     0
 62
    97
  6
CONTINUOUS
  0
LAYER
  2
建具記号
 70
     0
 62
   110
  6
CONTINUOUS
  0
LAYER
  2
補助文字
 70
     0
 62
   113
  6
CONTINUOUS
  0
ENDTAB
  0
TABLE
  2
STYLE
 70
    10
  0
STYLE
  2
STANDARD
 70
     0
 40
1.0
 41
1.0
 42
1.0
 50
0.0
 71
     0
  3
TXT
  4
BIGFONT
  0
STYLE
  2
TATE
 70
     4
 40
1.0
 41
1.0
 42
1.0
 50
0.0
 71
     0
  3
TXT
  4
BIGFONT
  0
STYLE
  2
TextStyle03
 70
     0
 40
1.0
 41
1.0
 42
1.0
 50
0.0
 71
     0
  3
MONOTXT
  4
BIGFONT
  0
STYLE
  2
TextStyle04
 70
     0
 40
1.0
 41
1.0
 42
1.0
 50
0.0
 71
     0
  3
MONOTXT
  4
BIGFONT
  0
STYLE
  2
TextStyle05
 70
     0
 40
1.0
 41
1.0
 42
1.0
 50
0.0
 71
     0
  3
MONOTXT
  4
BIGFONT
  0
STYLE
  2
TextStyle06
 70
     0
 40
1.0
 41
1.0
 42
1.0
 50
0.0
 71
     0
  3
MONOTXT
  4
BIGFONT
  0
STYLE
  2
TextStyle07
 70
     0
 40
1.0
 41
1.0
 42
1.0
 50
0.0
 71
     0
  3
MONOTXT
  4
BIGFONT
  0
STYLE
  2
TextStyle08
 70
     0
 40
1.0
 41
1.0
 42
1.0
 50
0.0
 71
     0
  3
MONOTXT
  4
BIGFONT
  0
STYLE
  2
TextStyle09
 70
     0
 40
1.0
 41
1.0
 42
1.0
 50
0.0
 71
     0
  3
MONOTXT
  4
BIGFONT
  0
STYLE
  2
TextStyle10
 70
     0
 40
1.0
 41
1.0
 42
1.0
 50
0.0
 71
     0
  3
MONOTXT
  4
BIGFONT
  0
ENDTAB
  0
ENDSEC
  0
SECTION
  2
BLOCKS
  0
BLOCK
  2
*GRP_0001
 70
    65
 10
0.0
 20
0.0
  0
LINE
  8
型材断面
  6
CONTINUOUS
 10
195.0
 20
133.5
 11
195.0
 21
-133.5
  0
LINE
  8
型材断面
  6
CONTINUOUS
 10
195.0
 20
-133.5
 11
-185.0
 21
-133.5
  0
LINE
  8
型材断面
  6
CONTINUOUS
 10
-185.0
 20
-133.5
 11
-185.0
 21
133.5
  0
LINE
  8
型材断面
  6
CONTINUOUS
 10
195.0
 20
133.5
 11
-185.0
 21
133.5
  0
LINE
  8
型材断面
  6
CONTINUOUS
 10
145.0
 20
-133.5
 11
145.0
 21
-118.5
  0
LINE
  8
型材断面
  6
CONTINUOUS
 10
195.0
 20
-118.5
 11
145.0
 21
-118.5
  0
ENDBLK
  0
BLOCK
  2
*GRP_0002
 70
    65
 10
0.0
 20
0.0
  0
INSERT
  2
M8横
  8
ゴム等
  6
CONTINUOUS
 10
163.336003
 20
27.710297
 50
90.0
 41
0.033333
 42
0.033333
  0
LINE
  8
ボルト／ビス
  6
CONTINUOUS
 10
163.126005
 20
27.843633
 11
163.109338
 21
27.826965
  0
LINE
  8
ボルト／ビス
  6
CONTINUOUS
 10
163.109338
 20
27.593633
 11
163.126005
 21
27.576965
  0
LINE
  8
ボルト／ビス
  6
CONTINUOUS
 10
163.126005
 20
27.576965
 11
163.126005
 21
27.843633
  0
LINE
  8
ボルト／ビス
  6
CONTINUOUS
 10
163.109338
 20
27.593633
 11
163.109338
 21
27.826965
  0
LINE
  8
ボルト／ビス
  6
CONTINUOUS
 10
163.109338
 20
27.826965
 11
163.15267
 21
27.826965
  0
LINE
  8
ボルト／ビス
  6
CONTINUOUS
 10
163.126005
 20
27.843633
 11
163.15267
 21
27.843633
  0
LINE
  8
ボルト／ビス
  6
CONTINUOUS
 10
163.126005
 20
27.576965
 11
163.15267
 21
27.576965
  0
LINE
  8
ボルト／ビス
  6
CONTINUOUS
 10
163.109338
 20
27.593633
 11
163.15267
 21
27.593633
  0
LINE
  8
ボルト／ビス
  6
CONTINUOUS
 10
163.336003
 20
27.343633
 11
163.336003
 21
28.076965
  0
LINE
  8
ボルト／ビス
  6
CONTINUOUS
 10
163.376002
 20
28.126965
 11
163.459335
 21
28.126965
  0
LINE
  8
ボルト／ビス
  6
CONTINUOUS
 10
163.459335
 20
28.126965
 11
163.459335
 21
27.293633
  0
LINE
  8
ボルト／ビス
  6
CONTINUOUS
 10
163.459335
 20
27.293633
 11
163.376002
 21
27.293633
  0
LINE
  8
ボルト／ビス
  6
CONTINUOUS
 10
163.376002
 20
28.126965
 11
163.376002
 21
27.293633
  0
LINE
  8
ボルト／ビス
  6
CONTINUOUS
 10
163.336003
 20
27.343633
 11
163.376002
 21
27.343633
  0
LINE
  8
ボルト／ビス
  6
CONTINUOUS
 10
163.336003
 20
28.076965
 11
163.376002
 21
28.076965
  0
LINE
  8
ボルト／ビス
  6
CONTINUOUS
 10
163.386002
 20
27.710297
 11
163.336003
 21
27.710297
  0
ENDBLK
  0
BLOCK
  2
*GRP_0003
 70
    65
 10
0.0
 20
0.0
  0
LINE
  8
ボルト／ビス
  6
CONTINUOUS
 10
162.47617
 20
27.50363
 11
162.409503
 21
27.50363
  0
LINE
  8
ボルト／ビス
  6
CONTINUOUS
 10
162.409503
 20
27.50363
 11
162.409503
 21
28.236962
  0
LINE
  8
ボルト／ビス
  6
CONTINUOUS
 10
162.409503
 20
28.236962
 11
162.47617
 21
28.236962
  0
LINE
  8
ボルト／ビス
  6
CONTINUOUS
 10
162.47617
 20
27.50363
 11
162.47617
 21
28.236962
  0
LINE
  8
ボルト／ビス
  6
CONTINUOUS
 10
162.37617
 20
27.570298
 11
162.409503
 21
27.570298
  0
LINE
  8
ボルト／ビス
  6
CONTINUOUS
 10
162.37617
 20
27.570298
 11
162.37617
 21
28.170298
  0
LINE
  8
ボルト／ビス
  6
CONTINUOUS
 10
162.37617
 20
28.170298
 11
162.409503
 21
28.170298
  0
LINE
  8
ボルト／ビス
  6
CONTINUOUS
 62
    64
 10
162.17617
 20
27.709922
 11
162.187845
 21
27.677847
  0
ARC
  8
ボルト／ビス
  6
CONTINUOUS
 62
    64
 10
162.281149
 20
27.725964
 40
0.104978
 50
152.721967
 51
180.0
  0
ARC
  8
ボルト／ビス
  6
CONTINUOUS
 62
    64
 10
162.578573
 20
27.870302
 40
0.402402
 50
166.165002
 51
193.834985
  0
LINE
  8
ボルト／ビス
  6
CONTINUOUS
 62
    64
 10
162.17617
 20
28.030673
 11
162.187845
 21
28.062747
  0
ARC
  8
ボルト／ビス
  6
CONTINUOUS
 62
    64
 10
162.281149
 20
28.014639
 40
0.104978
 50
180.0
 51
207.278033
  0
LINE
  8
ボルト／ビス
  6
CONTINUOUS
 62
    64
 10
162.17617
 20
27.709922
 11
162.17617
 21
28.030673
  0
LINE
  8
ボルト／ビス
  6
CONTINUOUS
 62
    64
 10
162.187845
 20
28.062747
 11
162.309503
 21
28.062747
  0
LINE
  8
ボルト／ビス
  6
CONTINUOUS
 62
    64
 10
162.187845
 20
27.966523
 11
162.309503
 21
27.966523
  0
LINE
  8
ボルト／ビス
  6
CONTINUOUS
 62
    64
 10
162.187845
 20
27.677847
 11
162.309503
 21
27.677847
  0
LINE
  8
ボルト／ビス
  6
CONTINUOUS
 62
    64
 10
162.187845
 20
27.774072
 11
162.309503
 21
27.774072
  0
LINE
  8
ボルト／ビス
  6
CONTINUOUS
 10
162.309503
 20
27.677847
 11
162.309503
 21
28.062747
  0
LINE
  8
ボルト／ビス
  6
CONTINUOUS
 10
162.309503
 20
27.670298
 11
162.37617
 21
27.670298
  0
LINE
  8
ボルト／ビス
  6
CONTINUOUS
 10
162.309503
 20
27.670298
 11
162.309503
 21
28.070298
  0
LINE
  8
ボルト／ビス
  6
CONTINUOUS
 10
162.309503
 20
28.070298
 11
162.37617
 21
28.070298
  0
ENDBLK
  0
BLOCK
  2
*DIM_0004
 70
    65
 10
0.0
 20
0.0
  0
LINE
  8
寸法
  6
CONTINUOUS
 10
161.248695
 20
26.256963
 11
142.14273
 21
26.256963
  0
LINE
  8
寸法
  6
CONTINUOUS
 10
142.14273
 20
28.536658
 11
142.14273
 21
26.256963
  0
POINT
  8
寸法
 10
142.14273
 20
28.536658
  0
POINT
  8
寸法
 10
142.14273
 20
26.256963
  0
TEXT
  7
TextStyle03
  8
寸法
  6
CONTINUOUS
 10
141.75
 20
17.34375
  1
68.4
 40
3.0
 50
90.0
 72
     5
 11
141.75
 21
23.90625
  0
ENDBLK
  0
BLOCK
  2
*DIM_0005
 70
    65
 10
0.0
 20
0.0
  0
LINE
  8
寸法
  6
CONTINUOUS
 10
169.209335
 20
21.570298
 11
169.209335
 21
13.661277
  0
LINE
  8
寸法
  6
CONTINUOUS
 10
161.742835
 20
23.536658
 11
161.742835
 21
13.661277
  0
LINE
  8
寸法
  6
CONTINUOUS
 10
169.209335
 20
13.661277
 11
161.742835
 21
13.661277
  0
POINT
  8
寸法
 10
169.209335
 20
13.661277
  0
POINT
  8
寸法
 10
161.742835
 20
13.661277
  0
TEXT
  7
TextStyle03
  8
寸法
  6
CONTINUOUS
 10
163.0375
 20
14.025
  1
224
 40
3.0
 72
     5
 11
167.9125
 21
14.025
  0
ENDBLK
  0
BLOCK
  2
*GRP_0006
 70
    65
 10
0.0
 20
0.0
  0
INSERT
  2
M8横
  8
ゴム等
  6
CONTINUOUS
 10
163.336003
 20
72.696352
 50
270.0
 41
0.033333
 42
-0.033333
  0
LINE
  8
ボルト／ビス
  6
CONTINUOUS
 10
163.126005
 20
72.56302
 11
163.109338
 21
72.579688
  0
LINE
  8
ボルト／ビス
  6
CONTINUOUS
 10
163.109338
 20
72.81302
 11
163.126005
 21
72.829688
  0
LINE
  8
ボルト／ビス
  6
CONTINUOUS
 10
163.126005
 20
72.829688
 11
163.126005
 21
72.56302
  0
LINE
  8
ボルト／ビス
  6
CONTINUOUS
 10
163.109338
 20
72.81302
 11
163.109338
 21
72.579688
  0
LINE
  8
ボルト／ビス
  6
CONTINUOUS
 10
163.109338
 20
72.579688
 11
163.15267
 21
72.579688
  0
LINE
  8
ボルト／ビス
  6
CONTINUOUS
 10
163.126005
 20
72.56302
 11
163.15267
 21
72.56302
  0
LINE
  8
ボルト／ビス
  6
CONTINUOUS
 10
163.126005
 20
72.829688
 11
163.15267
 21
72.829688
  0
LINE
  8
ボルト／ビス
  6
CONTINUOUS
 10
163.109338
 20
72.81302
 11
163.15267
 21
72.81302
  0
LINE
  8
ボルト／ビス
  6
CONTINUOUS
 10
163.336003
 20
73.06302
 11
163.336003
 21
72.329688
  0
LINE
  8
ボルト／ビス
  6
CONTINUOUS
 10
163.376002
 20
72.279687
 11
163.459335
 21
72.279687
  0
LINE
  8
ボルト／ビス
  6
CONTINUOUS
 10
163.459335
 20
72.279687
 11
163.459335
 21
73.11302
  0
LINE
  8
ボルト／ビス
  6
CONTINUOUS
 10
163.459335
 20
73.11302
 11
163.376002
 21
73.11302
  0
LINE
  8
ボルト／ビス
  6
CONTINUOUS
 10
163.376002
 20
72.279687
 11
163.376002
 21
73.11302
  0
LINE
  8
ボルト／ビス
  6
CONTINUOUS
 10
163.336003
 20
73.06302
 11
163.376002
 21
73.06302
  0
LINE
  8
ボルト／ビス
  6
CONTINUOUS
 10
163.336003
 20
72.329688
 11
163.376002
 21
72.329688
  0
LINE
  8
ボルト／ビス
  6
CONTINUOUS
 10
163.386002
 20
72.696352
 11
163.336003
 21
72.696352
  0
ENDBLK
  0
BLOCK
  2
*GRP_0007
 70
    65
 10
0.0
 20
0.0
  0
LINE
  8
ボルト／ビス
  6
CONTINUOUS
 10
162.47617
 20
72.903023
 11
162.409503
 21
72.903023
  0
LINE
  8
ボルト／ビス
  6
CONTINUOUS
 10
162.409503
 20
72.903023
 11
162.409503
 21
72.169687
  0
LINE
  8
ボルト／ビス
  6
CONTINUOUS
 10
162.409503
 20
72.169687
 11
162.47617
 21
72.169687
  0
LINE
  8
ボルト／ビス
  6
CONTINUOUS
 10
162.47617
 20
72.903023
 11
162.47617
 21
72.169687
  0
LINE
  8
ボルト／ビス
  6
CONTINUOUS
 10
162.37617
 20
72.836355
 11
162.409503
 21
72.836355
  0
LINE
  8
ボルト／ビス
  6
CONTINUOUS
 10
162.37617
 20
72.836355
 11
162.37617
 21
72.236355
  0
LINE
  8
ボルト／ビス
  6
CONTINUOUS
 10
162.37617
 20
72.236355
 11
162.409503
 21
72.236355
  0
LINE
  8
ボルト／ビス
  6
CONTINUOUS
 62
    64
 10
162.17617
 20
72.69673
 11
162.187845
 21
72.728805
  0
ARC
  8
ボルト／ビス
  6
CONTINUOUS
 62
    64
 10
162.281149
 20
72.680698
 40
0.104978
 50
180.0
 51
207.278033
  0
ARC
  8
ボルト／ビス
  6
CONTINUOUS
 62
    64
 10
162.578573
 20
72.536361
 40
0.402402
 50
166.165015
 51
193.834998
  0
LINE
  8
ボルト／ビス
  6
CONTINUOUS
 62
    64
 10
162.17617
 20
72.37598
 11
162.187845
 21
72.343905
  0
ARC
  8
ボルト／ビス
  6
CONTINUOUS
 62
    64
 10
162.281149
 20
72.392023
 40
0.104978
 50
152.721967
 51
180.0
  0
LINE
  8
ボルト／ビス
  6
CONTINUOUS
 62
    64
 10
162.17617
 20
72.69673
 11
162.17617
 21
72.37598
  0
LINE
  8
ボルト／ビス
  6
CONTINUOUS
 62
    64
 10
162.187845
 20
72.343905
 11
162.309503
 21
72.343905
  0
LINE
  8
ボルト／ビス
  6
CONTINUOUS
 62
    64
 10
162.187845
 20
72.44013
 11
162.309503
 21
72.44013
  0
LINE
  8
ボルト／ビス
  6
CONTINUOUS
 62
    64
 10
162.187845
 20
72.728805
 11
162.309503
 21
72.728805
  0
LINE
  8
ボルト／ビス
  6
CONTINUOUS
 62
    64
 10
162.187845
 20
72.63258
 11
162.309503
 21
72.63258
  0
LINE
  8
ボルト／ビス
  6
CONTINUOUS
 10
162.309503
 20
72.728805
 11
162.309503
 21
72.343905
  0
LINE
  8
ボルト／ビス
  6
CONTINUOUS
 10
162.309503
 20
72.736355
 11
162.37617
 21
72.736355
  0
LINE
  8
ボルト／ビス
  6
CONTINUOUS
 10
162.309503
 20
72.736355
 11
162.309503
 21
72.336355
  0
LINE
  8
ボルト／ビス
  6
CONTINUOUS
 10
162.309503
 20
72.336355
 11
162.37617
 21
72.336355
  0
ENDBLK
  0
BLOCK
  2
*DIM_0008
 70
    65
 10
0.0
 20
0.0
  0
LINE
  8
寸法
  6
CONTINUOUS
 10
161.248695
 20
74.149688
 11
142.14273
 21
74.149688
  0
LINE
  8
寸法
  6
CONTINUOUS
 10
142.14273
 20
71.869993
 11
142.14273
 21
74.149688
  0
POINT
  8
寸法
 10
142.14273
 20
71.869993
  0
POINT
  8
寸法
 10
142.14273
 20
74.149688
  0
TEXT
  7
TextStyle03
  8
寸法
  6
CONTINUOUS
 10
141.75
 20
76.46875
  1
68.4
 40
3.0
 50
90.0
 72
     5
 11
141.75
 21
83.03125
  0
ENDBLK
  0
BLOCK
  2
*DIM_0009
 70
    65
 10
0.0
 20
0.0
  0
LINE
  8
寸法
  6
CONTINUOUS
 10
142.14273
 20
71.869993
 11
142.14273
 21
28.536658
  0
POINT
  8
寸法
 10
142.14273
 20
71.869993
  0
POINT
  8
寸法
 10
142.14273
 20
28.536658
  0
TEXT
  7
TextStyle03
  8
寸法
  6
CONTINUOUS
 10
141.75
 20
38.48125
  1
呼称寸法　1300
 40
3.0
 50
90.0
 72
     5
 11
141.75
 21
61.91875
  0
ENDBLK
  0
BLOCK
  2
*GRP_0010
 70
    65
 10
0.0
 20
0.0
  0
INSERT
  2
M8横
  8
ゴム等
  6
CONTINUOUS
 10
4.896528
 20
-70.297288
 50
180.0
 41
0.033333
 42
-0.033333
  0
LINE
  8
ボルト／ビス
  6
CONTINUOUS
 10
4.763195
 20
-70.087288
 11
4.77986
 21
-70.070622
  0
LINE
  8
ボルト／ビス
  6
CONTINUOUS
 10
5.013195
 20
-70.070622
 11
5.02986
 21
-70.087288
  0
LINE
  8
ボルト／ビス
  6
CONTINUOUS
 10
5.02986
 20
-70.087288
 11
4.763195
 21
-70.087288
  0
LINE
  8
ボルト／ビス
  6
CONTINUOUS
 10
5.013195
 20
-70.070622
 11
4.77986
 21
-70.070622
  0
LINE
  8
ボルト／ビス
  6
CONTINUOUS
 10
4.77986
 20
-70.070622
 11
4.77986
 21
-70.113952
  0
LINE
  8
ボルト／ビス
  6
CONTINUOUS
 10
4.763195
 20
-70.087288
 11
4.763195
 21
-70.113952
  0
LINE
  8
ボルト／ビス
  6
CONTINUOUS
 10
5.02986
 20
-70.087288
 11
5.02986
 21
-70.113952
  0
LINE
  8
ボルト／ビス
  6
CONTINUOUS
 10
5.013195
 20
-70.070622
 11
5.013195
 21
-70.113952
  0
LINE
  8
ボルト／ビス
  6
CONTINUOUS
 10
5.263195
 20
-70.297288
 11
4.52986
 21
-70.297288
  0
LINE
  8
ボルト／ビス
  6
CONTINUOUS
 10
4.47986
 20
-70.337288
 11
4.47986
 21
-70.42062
  0
LINE
  8
ボルト／ビス
  6
CONTINUOUS
 10
4.47986
 20
-70.42062
 11
5.313195
 21
-70.42062
  0
LINE
  8
ボルト／ビス
  6
CONTINUOUS
 10
5.313195
 20
-70.42062
 11
5.313195
 21
-70.337288
  0
LINE
  8
ボルト／ビス
  6
CONTINUOUS
 10
4.47986
 20
-70.337288
 11
5.313195
 21
-70.337288
  0
LINE
  8
ボルト／ビス
  6
CONTINUOUS
 10
5.263195
 20
-70.297288
 11
5.263195
 21
-70.337288
  0
LINE
  8
ボルト／ビス
  6
CONTINUOUS
 10
4.52986
 20
-70.297288
 11
4.52986
 21
-70.337288
  0
LINE
  8
ボルト／ビス
  6
CONTINUOUS
 10
4.896528
 20
-70.347288
 11
4.896528
 21
-70.297288
  0
ENDBLK
  0
BLOCK
  2
*GRP_0011
 70
    65
 10
0.0
 20
0.0
  0
LINE
  8
ボルト／ビス
  6
CONTINUOUS
 10
5.103195
 20
-69.437453
 11
5.103195
 21
-69.370788
  0
LINE
  8
ボルト／ビス
  6
CONTINUOUS
 10
5.103195
 20
-69.370788
 11
4.369863
 21
-69.370788
  0
LINE
  8
ボルト／ビス
  6
CONTINUOUS
 10
4.369863
 20
-69.370788
 11
4.369863
 21
-69.437453
  0
LINE
  8
ボルト／ビス
  6
CONTINUOUS
 10
5.103195
 20
-69.437453
 11
4.369863
 21
-69.437453
  0
LINE
  8
ボルト／ビス
  6
CONTINUOUS
 10
5.03653
 20
-69.337453
 11
5.03653
 21
-69.370788
  0
LINE
  8
ボルト／ビス
  6
CONTINUOUS
 10
5.03653
 20
-69.337453
 11
4.43653
 21
-69.337453
  0
LINE
  8
ボルト／ビス
  6
CONTINUOUS
 10
4.43653
 20
-69.337453
 11
4.43653
 21
-69.370788
  0
LINE
  8
ボルト／ビス
  6
CONTINUOUS
 62
    64
 10
4.896905
 20
-69.137453
 11
4.92898
 21
-69.149128
  0
ARC
  8
ボルト／ビス
  6
CONTINUOUS
 62
    64
 10
4.880866
 20
-69.242431
 40
0.104978
 50
90.0
 51
117.278033
  0
ARC
  8
ボルト／ビス
  6
CONTINUOUS
 62
    64
 10
4.736529
 20
-69.539855
 40
0.402402
 50
76.165015
 51
103.834998
  0
LINE
  8
ボルト／ビス
  6
CONTINUOUS
 62
    64
 10
4.576155
 20
-69.137453
 11
4.54408
 21
-69.149128
  0
ARC
  8
ボルト／ビス
  6
CONTINUOUS
 62
    64
 10
4.592191
 20
-69.242431
 40
0.104978
 50
62.721967
 51
90.0
  0
LINE
  8
ボルト／ビス
  6
CONTINUOUS
 62
    64
 10
4.896905
 20
-69.137453
 11
4.576155
 21
-69.137453
  0
LINE
  8
ボルト／ビス
  6
CONTINUOUS
 62
    64
 10
4.54408
 20
-69.149128
 11
4.54408
 21
-69.270788
  0
LINE
  8
ボルト／ビス
  6
CONTINUOUS
 62
    64
 10
4.640305
 20
-69.149128
 11
4.640305
 21
-69.270788
  0
LINE
  8
ボルト／ビス
  6
CONTINUOUS
 62
    64
 10
4.92898
 20
-69.149128
 11
4.92898
 21
-69.270788
  0
LINE
  8
ボルト／ビス
  6
CONTINUOUS
 62
    64
 10
4.832755
 20
-69.149128
 11
4.832755
 21
-69.270788
  0
LINE
  8
ボルト／ビス
  6
CONTINUOUS
 10
4.92898
 20
-69.270788
 11
4.54408
 21
-69.270788
  0
LINE
  8
ボルト／ビス
  6
CONTINUOUS
 10
4.93653
 20
-69.270788
 11
4.93653
 21
-69.337453
  0
LINE
  8
ボルト／ビス
  6
CONTINUOUS
 10
4.93653
 20
-69.270788
 11
4.53653
 21
-69.270788
  0
LINE
  8
ボルト／ビス
  6
CONTINUOUS
 10
4.53653
 20
-69.270788
 11
4.53653
 21
-69.337453
  0
ENDBLK
  0
BLOCK
  2
*GRP_0012
 70
    65
 10
0.0
 20
0.0
  0
INSERT
  2
M8横
  8
ゴム等
  6
CONTINUOUS
 10
-80.089523
 20
-70.297288
 41
0.033333
 42
0.033333
  0
LINE
  8
ボルト／ビス
  6
CONTINUOUS
 10
-79.95619
 20
-70.087288
 11
-79.972855
 21
-70.070622
  0
LINE
  8
ボルト／ビス
  6
CONTINUOUS
 10
-80.20619
 20
-70.070622
 11
-80.222855
 21
-70.087288
  0
LINE
  8
ボルト／ビス
  6
CONTINUOUS
 10
-80.222855
 20
-70.087288
 11
-79.95619
 21
-70.087288
  0
LINE
  8
ボルト／ビス
  6
CONTINUOUS
 10
-80.20619
 20
-70.070622
 11
-79.972855
 21
-70.070622
  0
LINE
  8
ボルト／ビス
  6
CONTINUOUS
 10
-79.972855
 20
-70.070622
 11
-79.972855
 21
-70.113952
  0
LINE
  8
ボルト／ビス
  6
CONTINUOUS
 10
-79.95619
 20
-70.087288
 11
-79.95619
 21
-70.113952
  0
LINE
  8
ボルト／ビス
  6
CONTINUOUS
 10
-80.222855
 20
-70.087288
 11
-80.222855
 21
-70.113952
  0
LINE
  8
ボルト／ビス
  6
CONTINUOUS
 10
-80.20619
 20
-70.070622
 11
-80.20619
 21
-70.113952
  0
LINE
  8
ボルト／ビス
  6
CONTINUOUS
 10
-80.45619
 20
-70.297288
 11
-79.722855
 21
-70.297288
  0
LINE
  8
ボルト／ビス
  6
CONTINUOUS
 10
-79.672855
 20
-70.337288
 11
-79.672855
 21
-70.42062
  0
LINE
  8
ボルト／ビス
  6
CONTINUOUS
 10
-79.672855
 20
-70.42062
 11
-80.50619
 21
-70.42062
  0
LINE
  8
ボルト／ビス
  6
CONTINUOUS
 10
-80.50619
 20
-70.42062
 11
-80.50619
 21
-70.337288
  0
LINE
  8
ボルト／ビス
  6
CONTINUOUS
 10
-79.672855
 20
-70.337288
 11
-80.50619
 21
-70.337288
  0
LINE
  8
ボルト／ビス
  6
CONTINUOUS
 10
-80.45619
 20
-70.297288
 11
-80.45619
 21
-70.337288
  0
LINE
  8
ボルト／ビス
  6
CONTINUOUS
 10
-79.722855
 20
-70.297288
 11
-79.722855
 21
-70.337288
  0
LINE
  8
ボルト／ビス
  6
CONTINUOUS
 10
-80.089523
 20
-70.347288
 11
-80.089523
 21
-70.297288
  0
ENDBLK
  0
BLOCK
  2
*GRP_0013
 70
    65
 10
0.0
 20
0.0
  0
LINE
  8
ボルト／ビス
  6
CONTINUOUS
 10
-80.29619
 20
-69.437453
 11
-80.29619
 21
-69.370788
  0
LINE
  8
ボルト／ビス
  6
CONTINUOUS
 10
-80.29619
 20
-69.370788
 11
-79.562857
 21
-69.370788
  0
LINE
  8
ボルト／ビス
  6
CONTINUOUS
 10
-79.562857
 20
-69.370788
 11
-79.562857
 21
-69.437453
  0
LINE
  8
ボルト／ビス
  6
CONTINUOUS
 10
-80.29619
 20
-69.437453
 11
-79.562857
 21
-69.437453
  0
LINE
  8
ボルト／ビス
  6
CONTINUOUS
 10
-80.229525
 20
-69.337453
 11
-80.229525
 21
-69.370788
  0
LINE
  8
ボルト／ビス
  6
CONTINUOUS
 10
-80.229525
 20
-69.337453
 11
-79.629525
 21
-69.337453
  0
LINE
  8
ボルト／ビス
  6
CONTINUOUS
 10
-79.629525
 20
-69.337453
 11
-79.629525
 21
-69.370788
  0
LINE
  8
ボルト／ビス
  6
CONTINUOUS
 62
    64
 10
-80.0899
 20
-69.137453
 11
-80.121975
 21
-69.149128
  0
ARC
  8
ボルト／ビス
  6
CONTINUOUS
 62
    64
 10
-80.073863
 20
-69.242431
 40
0.104978
 50
62.721967
 51
90.0
  0
ARC
  8
ボルト／ビス
  6
CONTINUOUS
 62
    64
 10
-79.929525
 20
-69.539855
 40
0.402402
 50
76.165002
 51
103.834985
  0
LINE
  8
ボルト／ビス
  6
CONTINUOUS
 62
    64
 10
-79.76915
 20
-69.137453
 11
-79.737075
 21
-69.149128
  0
ARC
  8
ボルト／ビス
  6
CONTINUOUS
 62
    64
 10
-79.785188
 20
-69.242431
 40
0.104978
 50
90.0
 51
117.278033
  0
LINE
  8
ボルト／ビス
  6
CONTINUOUS
 62
    64
 10
-80.0899
 20
-69.137453
 11
-79.76915
 21
-69.137453
  0
LINE
  8
ボルト／ビス
  6
CONTINUOUS
 62
    64
 10
-79.737075
 20
-69.149128
 11
-79.737075
 21
-69.270788
  0
LINE
  8
ボルト／ビス
  6
CONTINUOUS
 62
    64
 10
-79.8333
 20
-69.149128
 11
-79.8333
 21
-69.270788
  0
LINE
  8
ボルト／ビス
  6
CONTINUOUS
 62
    64
 10
-80.121975
 20
-69.149128
 11
-80.121975
 21
-69.270788
  0
LINE
  8
ボルト／ビス
  6
CONTINUOUS
 62
    64
 10
-80.02575
 20
-69.149128
 11
-80.02575
 21
-69.270788
  0
LINE
  8
ボルト／ビス
  6
CONTINUOUS
 10
-80.121975
 20
-69.270788
 11
-79.737075
 21
-69.270788
  0
LINE
  8
ボルト／ビス
  6
CONTINUOUS
 10
-80.129525
 20
-69.270788
 11
-80.129525
 21
-69.337453
  0
LINE
  8
ボルト／ビス
  6
CONTINUOUS
 10
-80.129525
 20
-69.270788
 11
-79.729525
 21
-69.270788
  0
LINE
  8
ボルト／ビス
  6
CONTINUOUS
 10
-79.729525
 20
-69.270788
 11
-79.729525
 21
-69.337453
  0
ENDBLK
  0
BLOCK
  2
*DIM_0014
 70
    65
 10
0.0
 20
0.0
  0
LINE
  8
寸法
  6
BYBLOCK
 62
     0
 10
-62.596495
 20
24.90653
 11
-62.596495
 21
19.9034
  0
LINE
  8
寸法
  6
BYBLOCK
 62
     0
 10
-12.5965
 20
24.90653
 11
-12.5965
 21
19.9034
  0
LINE
  8
寸法
  6
BYBLOCK
 62
     0
 10
-62.596495
 20
19.9034
 11
-12.5965
 21
19.9034
  0
POINT
  8
寸法
 62
     0
 10
-62.596495
 20
19.9034
  0
POINT
  8
寸法
 62
     0
 10
-12.5965
 20
19.9034
  0
TEXT
  7
TextStyle03
  8
寸法
  6
CONTINUOUS
 62
     0
 10
-40.88125
 20
20.25
  1
1500
 40
3.0
 72
     5
 11
-34.31875
 21
20.25
  0
ENDBLK
  0
BLOCK
  2
*DIM_0015
 70
    65
 10
0.0
 20
0.0
  0
LINE
  8
寸法
  6
BYBLOCK
 62
     0
 10
7.700297
 20
67.96999
 11
14.47759
 21
67.96999
  0
LINE
  8
寸法
  6
BYBLOCK
 62
     0
 10
14.47759
 20
71.86999
 11
14.47759
 21
67.96999
  0
POINT
  8
寸法
 62
     0
 10
14.47759
 20
71.86999
  0
POINT
  8
寸法
 62
     0
 10
14.47759
 20
67.96999
  0
TEXT
  7
TextStyle03
  8
寸法
  6
CONTINUOUS
 62
     0
 10
14.175
 20
72.5375
  1
117
 40
3.0
 50
90.0
 72
     5
 11
14.175
 21
77.4125
  0
ENDBLK
  0
BLOCK
  2
*DIM_0016
 70
    65
 10
0.0
 20
0.0
  0
LINE
  8
寸法
  6
BYBLOCK
 62
     0
 10
7.700297
 20
32.43666
 11
14.47759
 21
32.43666
  0
LINE
  8
寸法
  6
BYBLOCK
 62
     0
 10
14.47759
 20
28.53666
 11
14.47759
 21
32.43666
  0
POINT
  8
寸法
 62
     0
 10
14.47759
 20
28.53666
  0
POINT
  8
寸法
 62
     0
 10
14.47759
 20
32.43666
  0
TEXT
  7
TextStyle03
  8
寸法
  6
CONTINUOUS
 62
     0
 10
14.6
 20
22.5875
  1
117
 40
3.0
 50
90.0
 72
     5
 11
14.6
 21
27.4625
  0
ENDBLK
  0
BLOCK
  2
*DIM_0017
 70
    65
 10
0.0
 20
0.0
  0
LINE
  8
寸法
  6
BYBLOCK
 62
     0
 10
-82.263162
 20
38.536658
 11
-111.208328
 21
38.536658
  0
LINE
  8
寸法
  6
BYBLOCK
 62
     0
 10
-82.263162
 20
61.869993
 11
-111.208328
 21
61.869993
  0
LINE
  8
寸法
  6
BYBLOCK
 62
     0
 10
-111.208328
 20
38.536658
 11
-111.208328
 21
61.869993
  0
POINT
  8
寸法
 62
     0
 10
-111.208328
 20
38.536658
  0
POINT
  8
寸法
 62
     0
 10
-111.208328
 20
61.869993
  0
TEXT
  7
TextStyle03
  8
寸法
  6
CONTINUOUS
 62
     0
 10
-111.575
 20
47.7375
  1
700
 40
3.0
 50
90.0
 72
     5
 11
-111.575
 21
52.6125
  0
ENDBLK
  0
BLOCK
  2
*DIM_0018
 70
    65
 10
0.0
 20
0.0
  0
LINE
  8
寸法
  6
BYBLOCK
 62
     0
 10
-72.596497
 20
74.86999
 11
-72.596497
 21
104.61761
  0
LINE
  8
寸法
  6
BYBLOCK
 62
     0
 10
-49.263165
 20
74.86999
 11
-49.263165
 21
104.61761
  0
LINE
  8
寸法
  6
BYBLOCK
 62
     0
 10
-72.596497
 20
104.61761
 11
-49.263165
 21
104.61761
  0
POINT
  8
寸法
 62
     0
 10
-72.596497
 20
104.61761
  0
POINT
  8
寸法
 62
     0
 10
-49.263165
 20
104.61761
  0
TEXT
  7
TextStyle03
  8
寸法
  6
CONTINUOUS
 62
     0
 10
-63.3625
 20
104.975
  1
700
 40
3.0
 72
     5
 11
-58.4875
 21
104.975
  0
ENDBLK
  0
BLOCK
  2
*DIM_0019
 70
    65
 10
0.0
 20
0.0
  0
LINE
  8
寸法
  6
BYBLOCK
 62
     0
 10
-25.92983
 20
74.86999
 11
-25.92983
 21
104.61761
  0
LINE
  8
寸法
  6
BYBLOCK
 62
     0
 10
-49.263165
 20
104.61761
 11
-25.92983
 21
104.61761
  0
POINT
  8
寸法
 62
     0
 10
-25.92983
 20
104.61761
  0
TEXT
  7
TextStyle03
  8
寸法
  6
CONTINUOUS
 62
     0
 10
-40.0375
 20
104.975
  1
700
 40
3.0
 72
     5
 11
-35.1625
 21
104.975
  0
ENDBLK
  0
BLOCK
  2
*DIM_0020
 70
    65
 10
0.0
 20
0.0
  0
LINE
  8
寸法
  6
BYBLOCK
 62
     0
 10
-2.596497
 20
74.86999
 11
-2.596497
 21
104.61761
  0
LINE
  8
寸法
  6
BYBLOCK
 62
     0
 10
-25.92983
 20
104.61761
 11
-2.596497
 21
104.61761
  0
POINT
  8
寸法
 62
     0
 10
-2.596497
 20
104.61761
  0
TEXT
  7
TextStyle03
  8
寸法
  6
CONTINUOUS
 62
     0
 10
-16.6875
 20
104.975
  1
700
 40
3.0
 72
     5
 11
-11.8125
 21
104.975
  0
ENDBLK
  0
BLOCK
  2
*DIM_0021
 70
    65
 10
0.0
 20
0.0
  0
LINE
  8
寸法
  6
CONTINUOUS
 10
9.070168
 20
-68.70412
 11
27.68864
 21
-68.70412
  0
LINE
  8
寸法
  6
CONTINUOUS
 10
11.03653
 20
-76.17062
 11
27.68864
 21
-76.17062
  0
LINE
  8
寸法
  6
CONTINUOUS
 10
27.68864
 20
-68.70412
 11
27.68864
 21
-76.17062
  0
POINT
  8
寸法
 10
27.68864
 20
-68.70412
  0
POINT
  8
寸法
 10
27.68864
 20
-76.17062
  0
TEXT
  7
TextStyle03
  8
寸法
  6
CONTINUOUS
 10
27.3
 20
-74.8875
  1
224
 40
3.0
 50
90.0
 72
     5
 11
27.3
 21
-70.0125
  0
ENDBLK
  0
BLOCK
  2
*GRP_0022
 70
    65
 10
0.0
 20
0.0
  0
LINE
  8
型材断面
  6
DOT
 10
5.736835
 20
-56.60412
 11
5.686835
 21
-56.60412
  0
LINE
  8
型材断面
  6
DOT
 10
4.070168
 20
-56.10412
 11
4.070168
 21
-55.370788
  0
LINE
  8
型材断面
  6
DOT
 10
4.119863
 20
-57.087288
 11
5.56653
 21
-57.087288
  0
LINE
  8
型材断面
  6
DOT
 10
5.56653
 20
-57.537288
 11
5.56653
 21
-57.087288
  0
LINE
  8
型材断面
  6
DOT
 62
    47
 10
6.299863
 20
-60.20998
 11
6.349863
 21
-60.20998
  0
LINE
  8
型材断面
  6
DOT
 62
    47
 10
6.349863
 20
-60.20998
 11
6.349863
 21
-59.876645
  0
LINE
  8
型材断面
  6
DOT
 62
    47
 10
6.349863
 20
-59.876645
 11
5.56653
 21
-59.776645
  0
LINE
  8
型材断面
  6
DOT
 62
    47
 10
5.56653
 20
-59.37062
 11
5.56653
 21
-59.776645
  0
LINE
  8
型材断面
  6
DOT
 62
    47
 10
6.03653
 20
-59.37062
 11
6.03653
 21
-57.537288
  0
LINE
  8
型材断面
  6
DOT
 10
5.736835
 20
-56.60412
 11
5.736835
 21
-56.10412
  0
LINE
  8
型材断面
  6
DOT
 10
4.119863
 20
-57.087288
 11
4.119863
 21
-56.60412
  0
INSERT
  2
*GRP_0023
  8
型材断面
  6
DOT
 10
0.0
 20
0.0
  0
INSERT
  2
*GRP_0024
  8
型材断面
  6
DOT
 10
0.0
 20
0.0
  0
LINE
  8
型材断面
  6
DOT
 10
6.349863
 20
-60.20998
 11
-37.596497
 21
-60.20998
  0
LINE
  8
型材断面
  6
DOT
 10
6.349863
 20
-59.876645
 11
-37.596497
 21
-59.876645
  0
LINE
  8
型材断面
  6
DOT
 10
5.56653
 20
-59.776645
 11
-37.596497
 21
-59.776645
  0
LINE
  8
型材断面
  6
DOT
 10
6.03653
 20
-59.37062
 11
-37.596497
 21
-59.37062
  0
LINE
  8
型材断面
  6
DOT
 10
5.736835
 20
-56.60412
 11
-37.596497
 21
-56.60412
  0
LINE
  8
型材断面
  6
DOT
 10
4.070168
 20
-55.370788
 11
-37.596497
 21
-55.370788
  0
LINE
  8
型材断面
  6
DOT
 10
5.736835
 20
-56.10412
 11
-37.596497
 21
-56.10412
  0
LINE
  8
型材断面
  6
DOT
 10
5.56653
 20
-57.087288
 11
-37.596497
 21
-57.087288
  0
LINE
  8
型材断面
  6
DOT
 10
6.03653
 20
-57.537288
 11
-37.596497
 21
-57.537288
  0
LINE
  8
型材断面
  6
DOT
 10
-80.92983
 20
-56.60412
 11
-80.87983
 21
-56.60412
  0
LINE
  8
型材断面
  6
DOT
 10
-79.263162
 20
-56.10412
 11
-79.263162
 21
-55.370788
  0
LINE
  8
型材断面
  6
DOT
 10
-79.312857
 20
-57.087288
 11
-80.759525
 21
-57.087288
  0
LINE
  8
型材断面
  6
DOT
 10
-80.759525
 20
-57.537288
 11
-80.759525
 21
-57.087288
  0
LINE
  8
型材断面
  6
DOT
 62
    47
 10
-81.492857
 20
-60.20998
 11
-81.542857
 21
-60.20998
  0
LINE
  8
型材断面
  6
DOT
 62
    47
 10
-81.542857
 20
-60.20998
 11
-81.542857
 21
-59.876645
  0
LINE
  8
型材断面
  6
DOT
 62
    47
 10
-81.542857
 20
-59.876645
 11
-80.759525
 21
-59.776645
  0
LINE
  8
型材断面
  6
DOT
 62
    47
 10
-80.759525
 20
-59.37062
 11
-80.759525
 21
-59.776645
  0
LINE
  8
型材断面
  6
DOT
 62
    47
 10
-81.229525
 20
-59.37062
 11
-81.229525
 21
-57.537288
  0
LINE
  8
型材断面
  6
DOT
 10
-80.92983
 20
-56.60412
 11
-80.92983
 21
-56.10412
  0
LINE
  8
型材断面
  6
DOT
 10
-79.312857
 20
-57.087288
 11
-79.312857
 21
-56.60412
  0
INSERT
  2
*GRP_0025
  8
型材断面
  6
DOT
 10
0.0
 20
0.0
  0
INSERT
  2
*GRP_0026
  8
型材断面
  6
DOT
 10
0.0
 20
0.0
  0
LINE
  8
型材断面
  6
DOT
 10
-81.542857
 20
-60.20998
 11
-37.596497
 21
-60.20998
  0
LINE
  8
型材断面
  6
DOT
 10
-81.542857
 20
-59.876645
 11
-37.596497
 21
-59.876645
  0
LINE
  8
型材断面
  6
DOT
 10
-80.759525
 20
-59.776645
 11
-37.596497
 21
-59.776645
  0
LINE
  8
型材断面
  6
DOT
 10
-81.229525
 20
-59.37062
 11
-37.596497
 21
-59.37062
  0
LINE
  8
型材断面
  6
DOT
 10
-80.92983
 20
-56.60412
 11
-37.596497
 21
-56.60412
  0
LINE
  8
型材断面
  6
DOT
 10
-79.263162
 20
-55.370788
 11
-37.596497
 21
-55.370788
  0
LINE
  8
型材断面
  6
DOT
 10
-80.92983
 20
-56.10412
 11
-37.596497
 21
-56.10412
  0
LINE
  8
型材断面
  6
DOT
 10
-80.759525
 20
-57.087288
 11
-37.596497
 21
-57.087288
  0
LINE
  8
型材断面
  6
DOT
 10
-81.229525
 20
-57.537288
 11
-37.596497
 21
-57.537288
  0
ENDBLK
  0
BLOCK
  2
*GRP_0023
 70
    65
 10
0.0
 20
0.0
  0
INSERT
  2
M8横
  8
ゴム等
  6
DOT
 10
4.896528
 20
-56.963955
 50
180.0
 41
0.033333
 42
-0.033333
  0
LINE
  8
ボルト／ビス
  6
DOT
 10
4.763195
 20
-56.753955
 11
4.77986
 21
-56.73729
  0
LINE
  8
ボルト／ビス
  6
DOT
 10
5.013195
 20
-56.73729
 11
5.02986
 21
-56.753955
  0
LINE
  8
ボルト／ビス
  6
DOT
 10
5.02986
 20
-56.753955
 11
4.763195
 21
-56.753955
  0
LINE
  8
ボルト／ビス
  6
DOT
 10
5.013195
 20
-56.73729
 11
4.77986
 21
-56.73729
  0
LINE
  8
ボルト／ビス
  6
DOT
 10
4.77986
 20
-56.73729
 11
4.77986
 21
-56.78062
  0
LINE
  8
ボルト／ビス
  6
DOT
 10
4.763195
 20
-56.753955
 11
4.763195
 21
-56.78062
  0
LINE
  8
ボルト／ビス
  6
DOT
 10
5.02986
 20
-56.753955
 11
5.02986
 21
-56.78062
  0
LINE
  8
ボルト／ビス
  6
DOT
 10
5.013195
 20
-56.73729
 11
5.013195
 21
-56.78062
  0
LINE
  8
ボルト／ビス
  6
DOT
 10
5.263195
 20
-56.963955
 11
4.52986
 21
-56.963955
  0
LINE
  8
ボルト／ビス
  6
DOT
 10
4.47986
 20
-57.003955
 11
4.47986
 21
-57.087288
  0
LINE
  8
ボルト／ビス
  6
DOT
 10
4.47986
 20
-57.087288
 11
5.313195
 21
-57.087288
  0
LINE
  8
ボルト／ビス
  6
DOT
 10
5.313195
 20
-57.087288
 11
5.313195
 21
-57.003955
  0
LINE
  8
ボルト／ビス
  6
DOT
 10
4.47986
 20
-57.003955
 11
5.313195
 21
-57.003955
  0
LINE
  8
ボルト／ビス
  6
DOT
 10
5.263195
 20
-56.963955
 11
5.263195
 21
-57.003955
  0
LINE
  8
ボルト／ビス
  6
DOT
 10
4.52986
 20
-56.963955
 11
4.52986
 21
-57.003955
  0
LINE
  8
ボルト／ビス
  6
DOT
 10
4.896528
 20
-57.013955
 11
4.896528
 21
-56.963955
  0
ENDBLK
  0
BLOCK
  2
*GRP_0024
 70
    65
 10
0.0
 20
0.0
  0
LINE
  8
ボルト／ビス
  6
DOT
 10
5.103195
 20
-56.10412
 11
5.103195
 21
-56.037455
  0
LINE
  8
ボルト／ビス
  6
DOT
 10
5.103195
 20
-56.037455
 11
4.369863
 21
-56.037455
  0
LINE
  8
ボルト／ビス
  6
DOT
 10
4.369863
 20
-56.037455
 11
4.369863
 21
-56.10412
  0
LINE
  8
ボルト／ビス
  6
DOT
 10
5.103195
 20
-56.10412
 11
4.369863
 21
-56.10412
  0
LINE
  8
ボルト／ビス
  6
DOT
 10
5.03653
 20
-56.00412
 11
5.03653
 21
-56.037455
  0
LINE
  8
ボルト／ビス
  6
DOT
 10
5.03653
 20
-56.00412
 11
4.43653
 21
-56.00412
  0
LINE
  8
ボルト／ビス
  6
DOT
 10
4.43653
 20
-56.00412
 11
4.43653
 21
-56.037455
  0
LINE
  8
ボルト／ビス
  6
DOT
 62
    64
 10
4.896905
 20
-55.80412
 11
4.92898
 21
-55.815795
  0
ARC
  8
ボルト／ビス
  6
DOT
 62
    64
 10
4.880866
 20
-55.909098
 40
0.104978
 50
90.0
 51
117.278033
  0
ARC
  8
ボルト／ビス
  6
DOT
 62
    64
 10
4.736529
 20
-56.206521
 40
0.402402
 50
76.165015
 51
103.834998
  0
LINE
  8
ボルト／ビス
  6
DOT
 62
    64
 10
4.576155
 20
-55.80412
 11
4.54408
 21
-55.815795
  0
ARC
  8
ボルト／ビス
  6
DOT
 62
    64
 10
4.592191
 20
-55.909098
 40
0.104978
 50
62.721967
 51
90.0
  0
LINE
  8
ボルト／ビス
  6
DOT
 62
    64
 10
4.896905
 20
-55.80412
 11
4.576155
 21
-55.80412
  0
LINE
  8
ボルト／ビス
  6
DOT
 62
    64
 10
4.54408
 20
-55.815795
 11
4.54408
 21
-55.937455
  0
LINE
  8
ボルト／ビス
  6
DOT
 62
    64
 10
4.640305
 20
-55.815795
 11
4.640305
 21
-55.937455
  0
LINE
  8
ボルト／ビス
  6
DOT
 62
    64
 10
4.92898
 20
-55.815795
 11
4.92898
 21
-55.937455
  0
LINE
  8
ボルト／ビス
  6
DOT
 62
    64
 10
4.832755
 20
-55.815795
 11
4.832755
 21
-55.937455
  0
LINE
  8
ボルト／ビス
  6
DOT
 10
4.92898
 20
-55.937455
 11
4.54408
 21
-55.937455
  0
LINE
  8
ボルト／ビス
  6
DOT
 10
4.93653
 20
-55.937455
 11
4.93653
 21
-56.00412
  0
LINE
  8
ボルト／ビス
  6
DOT
 10
4.93653
 20
-55.937455
 11
4.53653
 21
-55.937455
  0
LINE
  8
ボルト／ビス
  6
DOT
 10
4.53653
 20
-55.937455
 11
4.53653
 21
-56.00412
  0
ENDBLK
  0
BLOCK
  2
*GRP_0025
 70
    65
 10
0.0
 20
0.0
  0
INSERT
  2
M8横
  8
ゴム等
  6
DOT
 10
-80.089523
 20
-56.963955
 41
0.033333
 42
0.033333
  0
LINE
  8
ボルト／ビス
  6
DOT
 10
-79.95619
 20
-56.753955
 11
-79.972855
 21
-56.73729
  0
LINE
  8
ボルト／ビス
  6
DOT
 10
-80.20619
 20
-56.73729
 11
-80.222855
 21
-56.753955
  0
LINE
  8
ボルト／ビス
  6
DOT
 10
-80.222855
 20
-56.753955
 11
-79.95619
 21
-56.753955
  0
LINE
  8
ボルト／ビス
  6
DOT
 10
-80.20619
 20
-56.73729
 11
-79.972855
 21
-56.73729
  0
LINE
  8
ボルト／ビス
  6
DOT
 10
-79.972855
 20
-56.73729
 11
-79.972855
 21
-56.78062
  0
LINE
  8
ボルト／ビス
  6
DOT
 10
-79.95619
 20
-56.753955
 11
-79.95619
 21
-56.78062
  0
LINE
  8
ボルト／ビス
  6
DOT
 10
-80.222855
 20
-56.753955
 11
-80.222855
 21
-56.78062
  0
LINE
  8
ボルト／ビス
  6
DOT
 10
-80.20619
 20
-56.73729
 11
-80.20619
 21
-56.78062
  0
LINE
  8
ボルト／ビス
  6
DOT
 10
-80.45619
 20
-56.963955
 11
-79.722855
 21
-56.963955
  0
LINE
  8
ボルト／ビス
  6
DOT
 10
-79.672855
 20
-57.003955
 11
-79.672855
 21
-57.087288
  0
LINE
  8
ボルト／ビス
  6
DOT
 10
-79.672855
 20
-57.087288
 11
-80.50619
 21
-57.087288
  0
LINE
  8
ボルト／ビス
  6
DOT
 10
-80.50619
 20
-57.087288
 11
-80.50619
 21
-57.003955
  0
LINE
  8
ボルト／ビス
  6
DOT
 10
-79.672855
 20
-57.003955
 11
-80.50619
 21
-57.003955
  0
LINE
  8
ボルト／ビス
  6
DOT
 10
-80.45619
 20
-56.963955
 11
-80.45619
 21
-57.003955
  0
LINE
  8
ボルト／ビス
  6
DOT
 10
-79.722855
 20
-56.963955
 11
-79.722855
 21
-57.003955
  0
LINE
  8
ボルト／ビス
  6
DOT
 10
-80.089523
 20
-57.013955
 11
-80.089523
 21
-56.963955
  0
ENDBLK
  0
BLOCK
  2
*GRP_0026
 70
    65
 10
0.0
 20
0.0
  0
LINE
  8
ボルト／ビス
  6
DOT
 10
-80.29619
 20
-56.10412
 11
-80.29619
 21
-56.037455
  0
LINE
  8
ボルト／ビス
  6
DOT
 10
-80.29619
 20
-56.037455
 11
-79.562857
 21
-56.037455
  0
LINE
  8
ボルト／ビス
  6
DOT
 10
-79.562857
 20
-56.037455
 11
-79.562857
 21
-56.10412
  0
LINE
  8
ボルト／ビス
  6
DOT
 10
-80.29619
 20
-56.10412
 11
-79.562857
 21
-56.10412
  0
LINE
  8
ボルト／ビス
  6
DOT
 10
-80.229525
 20
-56.00412
 11
-80.229525
 21
-56.037455
  0
LINE
  8
ボルト／ビス
  6
DOT
 10
-80.229525
 20
-56.00412
 11
-79.629525
 21
-56.00412
  0
LINE
  8
ボルト／ビス
  6
DOT
 10
-79.629525
 20
-56.00412
 11
-79.629525
 21
-56.037455
  0
LINE
  8
ボルト／ビス
  6
DOT
 62
    64
 10
-80.0899
 20
-55.80412
 11
-80.121975
 21
-55.815795
  0
ARC
  8
ボルト／ビス
  6
DOT
 62
    64
 10
-80.073863
 20
-55.909098
 40
0.104978
 50
62.721967
 51
90.0
  0
ARC
  8
ボルト／ビス
  6
DOT
 62
    64
 10
-79.929525
 20
-56.206521
 40
0.402402
 50
76.165002
 51
103.834985
  0
LINE
  8
ボルト／ビス
  6
DOT
 62
    64
 10
-79.76915
 20
-55.80412
 11
-79.737075
 21
-55.815795
  0
ARC
  8
ボルト／ビス
  6
DOT
 62
    64
 10
-79.785188
 20
-55.909098
 40
0.104978
 50
90.0
 51
117.278033
  0
LINE
  8
ボルト／ビス
  6
DOT
 62
    64
 10
-80.0899
 20
-55.80412
 11
-79.76915
 21
-55.80412
  0
LINE
  8
ボルト／ビス
  6
DOT
 62
    64
 10
-79.737075
 20
-55.815795
 11
-79.737075
 21
-55.937455
  0
LINE
  8
ボルト／ビス
  6
DOT
 62
    64
 10
-79.8333
 20
-55.815795
 11
-79.8333
 21
-55.937455
  0
LINE
  8
ボルト／ビス
  6
DOT
 62
    64
 10
-80.121975
 20
-55.815795
 11
-80.121975
 21
-55.937455
  0
LINE
  8
ボルト／ビス
  6
DOT
 62
    64
 10
-80.02575
 20
-55.815795
 11
-80.02575
 21
-55.937455
  0
LINE
  8
ボルト／ビス
  6
DOT
 10
-80.121975
 20
-55.937455
 11
-79.737075
 21
-55.937455
  0
LINE
  8
ボルト／ビス
  6
DOT
 10
-80.129525
 20
-55.937455
 11
-80.129525
 21
-56.00412
  0
LINE
  8
ボルト／ビス
  6
DOT
 10
-80.129525
 20
-55.937455
 11
-79.729525
 21
-55.937455
  0
LINE
  8
ボルト／ビス
  6
DOT
 10
-79.729525
 20
-55.937455
 11
-79.729525
 21
-56.00412
  0
ENDBLK
  0
BLOCK
  2
*DIM_0027
 70
    65
 10
0.0
 20
0.0
  0
LINE
  8
寸法
  6
CONTINUOUS
 10
9.070168
 20
-68.70412
 11
27.68864
 21
-68.70412
  0
LINE
  8
寸法
  6
CONTINUOUS
 10
9.070168
 20
-55.370788
 11
27.68864
 21
-55.370788
  0
LINE
  8
寸法
  6
CONTINUOUS
 10
27.68864
 20
-68.70412
 11
27.68864
 21
-55.370788
  0
POINT
  8
寸法
 10
27.68864
 20
-68.70412
  0
POINT
  8
寸法
 10
27.68864
 20
-55.370788
  0
TEXT
  7
TextStyle03
  8
寸法
  6
CONTINUOUS
 10
30.675
 20
-71.14375
  1
上昇362以上
 40
3.0
 50
90.0
 72
     5
 11
30.675
 21
-52.95625
  0
ENDBLK
  0
BLOCK
  2
*DIM_0028
 70
    65
 10
0.0
 20
0.0
  0
LINE
  8
寸法
  6
CONTINUOUS
 10
6.349863
 20
-68.209977
 11
6.349863
 21
-32.437345
  0
LINE
  8
寸法
  6
CONTINUOUS
 10
4.070168
 20
-32.437345
 11
6.349863
 21
-32.437345
  0
POINT
  8
寸法
 10
4.070168
 20
-32.437345
  0
POINT
  8
寸法
 10
6.349863
 20
-32.437345
  0
TEXT
  7
TextStyle03
  8
寸法
  6
CONTINUOUS
 10
8.66875
 20
-32.075
  1
68.4
 40
3.0
 72
     5
 11
15.23125
 21
-32.075
  0
ENDBLK
  0
BLOCK
  2
*DIM_0029
 70
    65
 10
0.0
 20
0.0
  0
LINE
  8
寸法
  6
CONTINUOUS
 10
-81.542857
 20
-68.209977
 11
-81.542857
 21
-32.437345
  0
LINE
  8
寸法
  6
CONTINUOUS
 10
-79.263162
 20
-32.437345
 11
-81.542857
 21
-32.437345
  0
POINT
  8
寸法
 10
-79.263162
 20
-32.437345
  0
POINT
  8
寸法
 10
-81.542857
 20
-32.437345
  0
TEXT
  7
TextStyle03
  8
寸法
  6
CONTINUOUS
 10
-90.45625
 20
-32.075
  1
68.4
 40
3.0
 72
     5
 11
-83.89375
 21
-32.075
  0
ENDBLK
  0
BLOCK
  2
*DIM_0030
 70
    65
 10
0.0
 20
0.0
  0
LINE
  8
寸法
  6
CONTINUOUS
 10
4.070168
 20
-32.437345
 11
-79.263162
 21
-32.437345
  0
POINT
  8
寸法
 10
4.070168
 20
-32.437345
  0
POINT
  8
寸法
 10
-79.263162
 20
-32.437345
  0
TEXT
  7
TextStyle03
  8
寸法
  6
CONTINUOUS
 10
-49.31875
 20
-32.075
  1
呼称寸法　2500
 40
3.0
 72
     5
 11
-25.88125
 21
-32.075
  0
ENDBLK
  0
BLOCK
  2
*GRP_0031
 70
    65
 10
0.0
 20
0.0
  0
LINE
  8
補助線
  6
BYBLOCK
 62
    64
 10
-75.872245
 20
-74.287565
 11
-75.98804
 21
-74.407435
  0
LINE
  8
補助線
  6
BYBLOCK
 62
    64
 10
-75.99008
 20
-74.2896
 11
-75.870208
 21
-74.405397
  0
LINE
  8
補助線
  6
BYBLOCK
 62
    64
 10
-68.16017
 20
-66.304208
 11
-68.27597
 21
-66.424078
  0
LINE
  8
補助線
  6
BYBLOCK
 62
    64
 10
-68.278005
 20
-66.306243
 11
-68.158135
 21
-66.42204
  0
LINE
  8
補助線
  6
BYBLOCK
 62
    64
 10
-60.563897
 20
-58.44072
 11
-60.4481
 21
-58.32085
  0
LINE
  8
補助線
  6
BYBLOCK
 62
    64
 10
-60.565935
 20
-58.322885
 11
-60.446062
 21
-58.438682
  0
LINE
  8
型材断面
  6
CONTINUOUS
 10
-76.761085
 20
-74.008258
 11
-76.748865
 21
-74.715258
  0
LINE
  8
型材断面
  6
CONTINUOUS
 10
-76.748865
 20
-74.715258
 11
-76.269383
 21
-75.178445
  0
LINE
  8
型材断面
  6
CONTINUOUS
 10
-76.269383
 20
-75.178445
 11
-75.562382
 21
-75.166225
  0
LINE
  8
型材断面
  6
CONTINUOUS
 10
-60.873758
 20
-57.56206
 11
-60.166755
 21
-57.549842
  0
LINE
  8
型材断面
  6
CONTINUOUS
 10
-60.166755
 20
-57.549842
 11
-59.687273
 21
-58.013028
  0
LINE
  8
型材断面
  6
CONTINUOUS
 10
-59.687273
 20
-58.013028
 11
-59.675053
 21
-58.72003
  0
LINE
  8
型材断面
  6
CONTINUOUS
 10
-76.761085
 20
-74.008258
 11
-60.873758
 21
-57.56206
  0
LINE
  8
型材断面
  6
CONTINUOUS
 10
-75.562382
 20
-75.166225
 11
-59.675053
 21
-58.72003
  0
CIRCLE
  8
ボルト／ビス
  6
CONTINUOUS
 10
-75.930142
 20
-74.3475
 40
0.250185
  0
CIRCLE
  8
ボルト／ビス
  6
CONTINUOUS
 10
-75.930142
 20
-74.3475
 40
0.301025
  0
LINE
  8
ボルト／ビス
  6
CONTINUOUS
 62
    64
 10
-76.170648
 20
-74.41642
 11
-76.11008
 21
-74.173678
  0
LINE
  8
ボルト／ビス
  6
CONTINUOUS
 62
    64
 10
-75.869575
 20
-74.104755
 11
-76.11008
 21
-74.173678
  0
LINE
  8
ボルト／ビス
  6
CONTINUOUS
 62
    64
 10
-75.99071
 20
-74.590245
 11
-75.750205
 21
-74.521323
  0
LINE
  8
ボルト／ビス
  6
CONTINUOUS
 62
    64
 10
-75.689635
 20
-74.27858
 11
-75.750205
 21
-74.521323
  0
LINE
  8
ボルト／ビス
  6
CONTINUOUS
 62
    64
 10
-76.170648
 20
-74.41642
 11
-75.99071
 21
-74.590245
  0
LINE
  8
ボルト／ビス
  6
CONTINUOUS
 62
    64
 10
-75.869575
 20
-74.104755
 11
-75.689635
 21
-74.27858
  0
CIRCLE
  8
ボルト／ビス
  6
CONTINUOUS
 62
    64
 10
-75.930142
 20
-74.3475
 40
0.216668
  0
CIRCLE
  8
ボルト／ビス
  6
CONTINUOUS
 10
-68.21807
 20
-66.364142
 40
0.250185
  0
CIRCLE
  8
ボルト／ビス
  6
CONTINUOUS
 10
-68.21807
 20
-66.364142
 40
0.301025
  0
LINE
  8
ボルト／ビス
  6
CONTINUOUS
 62
    64
 10
-68.458575
 20
-66.43306
 11
-68.39801
 21
-66.190318
  0
LINE
  8
ボルト／ビス
  6
CONTINUOUS
 62
    64
 10
-68.157503
 20
-66.121397
 11
-68.39801
 21
-66.190318
  0
LINE
  8
ボルト／ビス
  6
CONTINUOUS
 62
    64
 10
-68.278637
 20
-66.606887
 11
-68.038133
 21
-66.537965
  0
LINE
  8
ボルト／ビス
  6
CONTINUOUS
 62
    64
 10
-67.977563
 20
-66.295222
 11
-68.038133
 21
-66.537965
  0
LINE
  8
ボルト／ビス
  6
CONTINUOUS
 62
    64
 10
-68.458575
 20
-66.43306
 11
-68.278637
 21
-66.606887
  0
LINE
  8
ボルト／ビス
  6
CONTINUOUS
 62
    64
 10
-68.157503
 20
-66.121397
 11
-67.977563
 21
-66.295222
  0
CIRCLE
  8
ボルト／ビス
  6
CONTINUOUS
 62
    64
 10
-68.21807
 20
-66.364142
 40
0.216668
  0
CIRCLE
  8
ボルト／ビス
  6
CONTINUOUS
 10
-60.505998
 20
-58.380785
 40
0.250185
  0
CIRCLE
  8
ボルト／ビス
  6
CONTINUOUS
 10
-60.505998
 20
-58.380785
 40
0.301025
  0
LINE
  8
ボルト／ビス
  6
CONTINUOUS
 62
    64
 10
-60.44543
 20
-58.13804
 11
-60.685935
 21
-58.206963
  0
LINE
  8
ボルト／ビス
  6
CONTINUOUS
 62
    64
 10
-60.746505
 20
-58.449705
 11
-60.685935
 21
-58.206963
  0
LINE
  8
ボルト／ビス
  6
CONTINUOUS
 62
    64
 10
-60.265492
 20
-58.311863
 11
-60.32606
 21
-58.554608
  0
LINE
  8
ボルト／ビス
  6
CONTINUOUS
 62
    64
 10
-60.566565
 20
-58.623528
 11
-60.32606
 21
-58.554608
  0
LINE
  8
ボルト／ビス
  6
CONTINUOUS
 62
    64
 10
-60.44543
 20
-58.13804
 11
-60.265492
 21
-58.311863
  0
LINE
  8
ボルト／ビス
  6
CONTINUOUS
 62
    64
 10
-60.746505
 20
-58.449705
 11
-60.566565
 21
-58.623528
  0
CIRCLE
  8
ボルト／ビス
  6
CONTINUOUS
 62
    64
 10
-60.505998
 20
-58.380785
 40
0.216668
  0
ENDBLK
  0
BLOCK
  2
*GRP_0032
 70
    65
 10
0.0
 20
0.0
  0
LINE
  8
補助線
  6
BYBLOCK
 62
    64
 10
-60.563895
 20
-74.287565
 11
-60.4481
 21
-74.407435
  0
LINE
  8
補助線
  6
BYBLOCK
 62
    64
 10
-60.44606
 20
-74.2896
 11
-60.565932
 21
-74.405397
  0
LINE
  8
補助線
  6
BYBLOCK
 62
    64
 10
-68.27597
 20
-66.304208
 11
-68.16017
 21
-66.424078
  0
LINE
  8
補助線
  6
BYBLOCK
 62
    64
 10
-68.158135
 20
-66.306243
 11
-68.278005
 21
-66.42204
  0
LINE
  8
補助線
  6
BYBLOCK
 62
    64
 10
-75.872242
 20
-58.44072
 11
-75.98804
 21
-58.32085
  0
LINE
  8
補助線
  6
BYBLOCK
 62
    64
 10
-75.870205
 20
-58.322885
 11
-75.990078
 21
-58.438682
  0
LINE
  8
型材断面
  6
CONTINUOUS
 10
-59.675055
 20
-74.008258
 11
-59.687275
 21
-74.715258
  0
LINE
  8
型材断面
  6
CONTINUOUS
 10
-59.687275
 20
-74.715258
 11
-60.166758
 21
-75.178445
  0
LINE
  8
型材断面
  6
CONTINUOUS
 10
-60.166758
 20
-75.178445
 11
-60.873758
 21
-75.166225
  0
LINE
  8
型材断面
  6
CONTINUOUS
 10
-75.562382
 20
-57.56206
 11
-76.269385
 21
-57.549842
  0
LINE
  8
型材断面
  6
CONTINUOUS
 10
-76.269385
 20
-57.549842
 11
-76.748867
 21
-58.013028
  0
LINE
  8
型材断面
  6
CONTINUOUS
 10
-76.748867
 20
-58.013028
 11
-76.761088
 21
-58.72003
  0
LINE
  8
型材断面
  6
CONTINUOUS
 10
-59.675055
 20
-74.008258
 11
-75.562382
 21
-57.56206
  0
LINE
  8
型材断面
  6
CONTINUOUS
 10
-60.873758
 20
-75.166225
 11
-76.761088
 21
-58.72003
  0
CIRCLE
  8
ボルト／ビス
  6
CONTINUOUS
 10
-60.505998
 20
-74.3475
 40
0.250185
  0
CIRCLE
  8
ボルト／ビス
  6
CONTINUOUS
 10
-60.505998
 20
-74.3475
 40
0.301025
  0
LINE
  8
ボルト／ビス
  6
CONTINUOUS
 62
    64
 10
-60.265492
 20
-74.41642
 11
-60.32606
 21
-74.173678
  0
LINE
  8
ボルト／ビス
  6
CONTINUOUS
 62
    64
 10
-60.566565
 20
-74.104755
 11
-60.32606
 21
-74.173678
  0
LINE
  8
ボルト／ビス
  6
CONTINUOUS
 62
    64
 10
-60.44543
 20
-74.590245
 11
-60.685935
 21
-74.521323
  0
LINE
  8
ボルト／ビス
  6
CONTINUOUS
 62
    64
 10
-60.746505
 20
-74.27858
 11
-60.685935
 21
-74.521323
  0
LINE
  8
ボルト／ビス
  6
CONTINUOUS
 62
    64
 10
-60.265492
 20
-74.41642
 11
-60.44543
 21
-74.590245
  0
LINE
  8
ボルト／ビス
  6
CONTINUOUS
 62
    64
 10
-60.566565
 20
-74.104755
 11
-60.746505
 21
-74.27858
  0
CIRCLE
  8
ボルト／ビス
  6
CONTINUOUS
 62
    64
 10
-60.505998
 20
-74.3475
 40
0.216668
  0
CIRCLE
  8
ボルト／ビス
  6
CONTINUOUS
 10
-68.21807
 20
-66.364142
 40
0.250185
  0
CIRCLE
  8
ボルト／ビス
  6
CONTINUOUS
 10
-68.21807
 20
-66.364142
 40
0.301025
  0
LINE
  8
ボルト／ビス
  6
CONTINUOUS
 62
    64
 10
-67.977565
 20
-66.43306
 11
-68.03813
 21
-66.190318
  0
LINE
  8
ボルト／ビス
  6
CONTINUOUS
 62
    64
 10
-68.278637
 20
-66.121397
 11
-68.03813
 21
-66.190318
  0
LINE
  8
ボルト／ビス
  6
CONTINUOUS
 62
    64
 10
-68.157503
 20
-66.606887
 11
-68.398008
 21
-66.537965
  0
LINE
  8
ボルト／ビス
  6
CONTINUOUS
 62
    64
 10
-68.458577
 20
-66.295222
 11
-68.398008
 21
-66.537965
  0
LINE
  8
ボルト／ビス
  6
CONTINUOUS
 62
    64
 10
-67.977565
 20
-66.43306
 11
-68.157503
 21
-66.606887
  0
LINE
  8
ボルト／ビス
  6
CONTINUOUS
 62
    64
 10
-68.278637
 20
-66.121397
 11
-68.458577
 21
-66.295222
  0
CIRCLE
  8
ボルト／ビス
  6
CONTINUOUS
 62
    64
 10
-68.21807
 20
-66.364142
 40
0.216668
  0
CIRCLE
  8
ボルト／ビス
  6
CONTINUOUS
 10
-75.930142
 20
-58.380785
 40
0.250185
  0
CIRCLE
  8
ボルト／ビス
  6
CONTINUOUS
 10
-75.930142
 20
-58.380785
 40
0.301025
  0
LINE
  8
ボルト／ビス
  6
CONTINUOUS
 62
    64
 10
-75.99071
 20
-58.13804
 11
-75.750205
 21
-58.206963
  0
LINE
  8
ボルト／ビス
  6
CONTINUOUS
 62
    64
 10
-75.689635
 20
-58.449705
 11
-75.750205
 21
-58.206963
  0
LINE
  8
ボルト／ビス
  6
CONTINUOUS
 62
    64
 10
-76.170648
 20
-58.311863
 11
-76.11008
 21
-58.554608
  0
LINE
  8
ボルト／ビス
  6
CONTINUOUS
 62
    64
 10
-75.869575
 20
-58.623528
 11
-76.11008
 21
-58.554608
  0
LINE
  8
ボルト／ビス
  6
CONTINUOUS
 62
    64
 10
-75.99071
 20
-58.13804
 11
-76.170648
 21
-58.311863
  0
LINE
  8
ボルト／ビス
  6
CONTINUOUS
 62
    64
 10
-75.689635
 20
-58.449705
 11
-75.869575
 21
-58.623528
  0
CIRCLE
  8
ボルト／ビス
  6
CONTINUOUS
 62
    64
 10
-75.930142
 20
-58.380785
 40
0.216668
  0
ENDBLK
  0
BLOCK
  2
*GRP_0033
 70
    65
 10
0.0
 20
0.0
  0
LINE
  8
補助線
  6
BYBLOCK
 62
    64
 10
0.67863
 20
-74.287565
 11
0.794425
 21
-74.407435
  0
LINE
  8
補助線
  6
BYBLOCK
 62
    64
 10
0.796465
 20
-74.2896
 11
0.676592
 21
-74.405397
  0
LINE
  8
補助線
  6
BYBLOCK
 62
    64
 10
-7.033445
 20
-66.304208
 11
-6.917645
 21
-66.424078
  0
LINE
  8
補助線
  6
BYBLOCK
 62
    64
 10
-6.91561
 20
-66.306243
 11
-7.03548
 21
-66.42204
  0
LINE
  8
補助線
  6
BYBLOCK
 62
    64
 10
-14.629717
 20
-58.44072
 11
-14.745515
 21
-58.32085
  0
LINE
  8
補助線
  6
BYBLOCK
 62
    64
 10
-14.62768
 20
-58.322885
 11
-14.747552
 21
-58.438682
  0
LINE
  8
型材断面
  6
CONTINUOUS
 10
1.56747
 20
-74.008258
 11
1.55525
 21
-74.715258
  0
LINE
  8
型材断面
  6
CONTINUOUS
 10
1.55525
 20
-74.715258
 11
1.075768
 21
-75.178445
  0
LINE
  8
型材断面
  6
CONTINUOUS
 10
1.075768
 20
-75.178445
 11
0.368767
 21
-75.166225
  0
LINE
  8
型材断面
  6
CONTINUOUS
 10
-14.319858
 20
-57.56206
 11
-15.02686
 21
-57.549842
  0
LINE
  8
型材断面
  6
CONTINUOUS
 10
-15.02686
 20
-57.549842
 11
-15.506343
 21
-58.013028
  0
LINE
  8
型材断面
  6
CONTINUOUS
 10
-15.506343
 20
-58.013028
 11
-15.518563
 21
-58.72003
  0
LINE
  8
型材断面
  6
CONTINUOUS
 10
1.56747
 20
-74.008258
 11
-14.319858
 21
-57.56206
  0
LINE
  8
型材断面
  6
CONTINUOUS
 10
0.368767
 20
-75.166225
 11
-15.518563
 21
-58.72003
  0
CIRCLE
  8
ボルト／ビス
  6
CONTINUOUS
 10
0.736528
 20
-74.3475
 40
0.250185
  0
CIRCLE
  8
ボルト／ビス
  6
CONTINUOUS
 10
0.736528
 20
-74.3475
 40
0.301025
  0
LINE
  8
ボルト／ビス
  6
CONTINUOUS
 62
    64
 10
0.977032
 20
-74.41642
 11
0.916465
 21
-74.173678
  0
LINE
  8
ボルト／ビス
  6
CONTINUOUS
 62
    64
 10
0.67596
 20
-74.104755
 11
0.916465
 21
-74.173678
  0
LINE
  8
ボルト／ビス
  6
CONTINUOUS
 62
    64
 10
0.797095
 20
-74.590245
 11
0.55659
 21
-74.521323
  0
LINE
  8
ボルト／ビス
  6
CONTINUOUS
 62
    64
 10
0.49602
 20
-74.27858
 11
0.55659
 21
-74.521323
  0
LINE
  8
ボルト／ビス
  6
CONTINUOUS
 62
    64
 10
0.977032
 20
-74.41642
 11
0.797095
 21
-74.590245
  0
LINE
  8
ボルト／ビス
  6
CONTINUOUS
 62
    64
 10
0.67596
 20
-74.104755
 11
0.49602
 21
-74.27858
  0
CIRCLE
  8
ボルト／ビス
  6
CONTINUOUS
 62
    64
 10
0.736528
 20
-74.3475
 40
0.216668
  0
CIRCLE
  8
ボルト／ビス
  6
CONTINUOUS
 10
-6.975545
 20
-66.364142
 40
0.250185
  0
CIRCLE
  8
ボルト／ビス
  6
CONTINUOUS
 10
-6.975545
 20
-66.364142
 40
0.301025
  0
LINE
  8
ボルト／ビス
  6
CONTINUOUS
 62
    64
 10
-6.73504
 20
-66.43306
 11
-6.795605
 21
-66.190318
  0
LINE
  8
ボルト／ビス
  6
CONTINUOUS
 62
    64
 10
-7.036113
 20
-66.121397
 11
-6.795605
 21
-66.190318
  0
LINE
  8
ボルト／ビス
  6
CONTINUOUS
 62
    64
 10
-6.914977
 20
-66.606887
 11
-7.155483
 21
-66.537965
  0
LINE
  8
ボルト／ビス
  6
CONTINUOUS
 62
    64
 10
-7.216053
 20
-66.295222
 11
-7.155483
 21
-66.537965
  0
LINE
  8
ボルト／ビス
  6
CONTINUOUS
 62
    64
 10
-6.73504
 20
-66.43306
 11
-6.914977
 21
-66.606887
  0
LINE
  8
ボルト／ビス
  6
CONTINUOUS
 62
    64
 10
-7.036113
 20
-66.121397
 11
-7.216053
 21
-66.295222
  0
CIRCLE
  8
ボルト／ビス
  6
CONTINUOUS
 62
    64
 10
-6.975545
 20
-66.364142
 40
0.216668
  0
CIRCLE
  8
ボルト／ビス
  6
CONTINUOUS
 10
-14.687618
 20
-58.380785
 40
0.250185
  0
CIRCLE
  8
ボルト／ビス
  6
CONTINUOUS
 10
-14.687618
 20
-58.380785
 40
0.301025
  0
LINE
  8
ボルト／ビス
  6
CONTINUOUS
 62
    64
 10
-14.748185
 20
-58.13804
 11
-14.50768
 21
-58.206963
  0
LINE
  8
ボルト／ビス
  6
CONTINUOUS
 62
    64
 10
-14.44711
 20
-58.449705
 11
-14.50768
 21
-58.206963
  0
LINE
  8
ボルト／ビス
  6
CONTINUOUS
 62
    64
 10
-14.928122
 20
-58.311863
 11
-14.867555
 21
-58.554608
  0
LINE
  8
ボルト／ビス
  6
CONTINUOUS
 62
    64
 10
-14.62705
 20
-58.623528
 11
-14.867555
 21
-58.554608
  0
LINE
  8
ボルト／ビス
  6
CONTINUOUS
 62
    64
 10
-14.748185
 20
-58.13804
 11
-14.928122
 21
-58.311863
  0
LINE
  8
ボルト／ビス
  6
CONTINUOUS
 62
    64
 10
-14.44711
 20
-58.449705
 11
-14.62705
 21
-58.623528
  0
CIRCLE
  8
ボルト／ビス
  6
CONTINUOUS
 62
    64
 10
-14.687618
 20
-58.380785
 40
0.216668
  0
ENDBLK
  0
BLOCK
  2
*GRP_0034
 70
    65
 10
0.0
 20
0.0
  0
LINE
  8
補助線
  6
BYBLOCK
 62
    64
 10
-14.62972
 20
-74.287565
 11
-14.745515
 21
-74.407435
  0
LINE
  8
補助線
  6
BYBLOCK
 62
    64
 10
-14.747555
 20
-74.2896
 11
-14.627682
 21
-74.405397
  0
LINE
  8
補助線
  6
BYBLOCK
 62
    64
 10
-6.917645
 20
-66.304208
 11
-7.033445
 21
-66.424078
  0
LINE
  8
補助線
  6
BYBLOCK
 62
    64
 10
-7.03548
 20
-66.306243
 11
-6.91561
 21
-66.42204
  0
LINE
  8
補助線
  6
BYBLOCK
 62
    64
 10
0.678628
 20
-58.44072
 11
0.794425
 21
-58.32085
  0
LINE
  8
補助線
  6
BYBLOCK
 62
    64
 10
0.67659
 20
-58.322885
 11
0.796463
 21
-58.438682
  0
LINE
  8
型材断面
  6
CONTINUOUS
 10
-15.51856
 20
-74.008258
 11
-15.50634
 21
-74.715258
  0
LINE
  8
型材断面
  6
CONTINUOUS
 10
-15.50634
 20
-74.715258
 11
-15.026858
 21
-75.178445
  0
LINE
  8
型材断面
  6
CONTINUOUS
 10
-15.026858
 20
-75.178445
 11
-14.319858
 21
-75.166225
  0
LINE
  8
型材断面
  6
CONTINUOUS
 10
0.368767
 20
-57.56206
 11
1.07577
 21
-57.549842
  0
LINE
  8
型材断面
  6
CONTINUOUS
 10
1.07577
 20
-57.549842
 11
1.555252
 21
-58.013028
  0
LINE
  8
型材断面
  6
CONTINUOUS
 10
1.555252
 20
-58.013028
 11
1.567473
 21
-58.72003
  0
LINE
  8
型材断面
  6
CONTINUOUS
 10
-15.51856
 20
-74.008258
 11
0.368767
 21
-57.56206
  0
LINE
  8
型材断面
  6
CONTINUOUS
 10
-14.319858
 20
-75.166225
 11
1.567473
 21
-58.72003
  0
CIRCLE
  8
ボルト／ビス
  6
CONTINUOUS
 10
-14.687618
 20
-74.3475
 40
0.250185
  0
CIRCLE
  8
ボルト／ビス
  6
CONTINUOUS
 10
-14.687618
 20
-74.3475
 40
0.301025
  0
LINE
  8
ボルト／ビス
  6
CONTINUOUS
 62
    64
 10
-14.928122
 20
-74.41642
 11
-14.867555
 21
-74.173678
  0
LINE
  8
ボルト／ビス
  6
CONTINUOUS
 62
    64
 10
-14.62705
 20
-74.104755
 11
-14.867555
 21
-74.173678
  0
LINE
  8
ボルト／ビス
  6
CONTINUOUS
 62
    64
 10
-14.748185
 20
-74.590245
 11
-14.50768
 21
-74.521323
  0
LINE
  8
ボルト／ビス
  6
CONTINUOUS
 62
    64
 10
-14.44711
 20
-74.27858
 11
-14.50768
 21
-74.521323
  0
LINE
  8
ボルト／ビス
  6
CONTINUOUS
 62
    64
 10
-14.928122
 20
-74.41642
 11
-14.748185
 21
-74.590245
  0
LINE
  8
ボルト／ビス
  6
CONTINUOUS
 62
    64
 10
-14.62705
 20
-74.104755
 11
-14.44711
 21
-74.27858
  0
CIRCLE
  8
ボルト／ビス
  6
CONTINUOUS
 62
    64
 10
-14.687618
 20
-74.3475
 40
0.216668
  0
CIRCLE
  8
ボルト／ビス
  6
CONTINUOUS
 10
-6.975545
 20
-66.364142
 40
0.250185
  0
CIRCLE
  8
ボルト／ビス
  6
CONTINUOUS
 10
-6.975545
 20
-66.364142
 40
0.301025
  0
LINE
  8
ボルト／ビス
  6
CONTINUOUS
 62
    64
 10
-7.21605
 20
-66.43306
 11
-7.155485
 21
-66.190318
  0
LINE
  8
ボルト／ビス
  6
CONTINUOUS
 62
    64
 10
-6.914977
 20
-66.121397
 11
-7.155485
 21
-66.190318
  0
LINE
  8
ボルト／ビス
  6
CONTINUOUS
 62
    64
 10
-7.036113
 20
-66.606887
 11
-6.795608
 21
-66.537965
  0
LINE
  8
ボルト／ビス
  6
CONTINUOUS
 62
    64
 10
-6.735037
 20
-66.295222
 11
-6.795608
 21
-66.537965
  0
LINE
  8
ボルト／ビス
  6
CONTINUOUS
 62
    64
 10
-7.21605
 20
-66.43306
 11
-7.036113
 21
-66.606887
  0
LINE
  8
ボルト／ビス
  6
CONTINUOUS
 62
    64
 10
-6.914977
 20
-66.121397
 11
-6.735037
 21
-66.295222
  0
CIRCLE
  8
ボルト／ビス
  6
CONTINUOUS
 62
    64
 10
-6.975545
 20
-66.364142
 40
0.216668
  0
CIRCLE
  8
ボルト／ビス
  6
CONTINUOUS
 10
0.736528
 20
-58.380785
 40
0.250185
  0
CIRCLE
  8
ボルト／ビス
  6
CONTINUOUS
 10
0.736528
 20
-58.380785
 40
0.301025
  0
LINE
  8
ボルト／ビス
  6
CONTINUOUS
 62
    64
 10
0.797095
 20
-58.13804
 11
0.55659
 21
-58.206963
  0
LINE
  8
ボルト／ビス
  6
CONTINUOUS
 62
    64
 10
0.49602
 20
-58.449705
 11
0.55659
 21
-58.206963
  0
LINE
  8
ボルト／ビス
  6
CONTINUOUS
 62
    64
 10
0.977032
 20
-58.311863
 11
0.916465
 21
-58.554608
  0
LINE
  8
ボルト／ビス
  6
CONTINUOUS
 62
    64
 10
0.67596
 20
-58.623528
 11
0.916465
 21
-58.554608
  0
LINE
  8
ボルト／ビス
  6
CONTINUOUS
 62
    64
 10
0.797095
 20
-58.13804
 11
0.977032
 21
-58.311863
  0
LINE
  8
ボルト／ビス
  6
CONTINUOUS
 62
    64
 10
0.49602
 20
-58.449705
 11
0.67596
 21
-58.623528
  0
CIRCLE
  8
ボルト／ビス
  6
CONTINUOUS
 62
    64
 10
0.736528
 20
-58.380785
 40
0.216668
  0
ENDBLK
  0
BLOCK
  2
*DIM_0035
 70
    65
 10
0.0
 20
0.0
  0
LINE
  8
寸法
  6
CONTINUOUS
 10
110.80031
 20
-34.628997
 11
110.80031
 21
-22.377245
  0
LINE
  8
寸法
  6
CONTINUOUS
 10
151.46031
 20
-34.628997
 11
151.46031
 21
-22.377245
  0
LINE
  8
寸法
  6
CONTINUOUS
 10
110.80031
 20
-22.377245
 11
151.46031
 21
-22.377245
  0
POINT
  8
寸法
 10
110.80031
 20
-22.377245
  0
POINT
  8
寸法
 10
151.46031
 20
-22.377245
  0
TEXT
  7
TextStyle03
  8
寸法
  6
CONTINUOUS
 10
126.15625
 20
-22.025
  1
1219.8
 40
3.0
 72
     5
 11
136.09375
 21
-22.025
  0
ENDBLK
  0
BLOCK
  2
*DIM_0036
 70
    65
 10
0.0
 20
0.0
  0
LINE
  8
寸法
  6
CONTINUOUS
 10
156.46031
 20
-39.628997
 11
169.168268
 21
-39.628997
  0
LINE
  8
寸法
  6
CONTINUOUS
 10
156.46031
 20
-82.295665
 11
169.168268
 21
-82.295665
  0
LINE
  8
寸法
  6
CONTINUOUS
 10
169.168268
 20
-39.628997
 11
169.168268
 21
-82.295665
  0
POINT
  8
寸法
 10
169.168268
 20
-39.628997
  0
POINT
  8
寸法
 10
169.168268
 20
-82.295665
  0
TEXT
  7
TextStyle03
  8
寸法
  6
CONTINUOUS
 10
168.775
 20
-64.25625
  1
1280
 40
3.0
 50
90.0
 72
     5
 11
168.775
 21
-57.69375
  0
ENDBLK
  0
BLOCK
  2
M8横
 70
    64
 10
-88.370132
 20
140.837665
  0
LINE
  8
ボルト／ビス
 10
-95.870132
 20
140.837665
 11
-80.870132
 21
140.837665
  0
LINE
  8
ボルト／ビス
 10
-80.870132
 20
145.837665
 11
-81.370132
 21
146.337665
  0
POLYLINE
  8
ボルト／ビス
 66
     1
  0
VERTEX
  8
ボルト／ビス
 10
-84.120132
 20
146.337665
  0
VERTEX
  8
ボルト／ビス
 10
-84.620132
 20
145.837665
  0
VERTEX
  8
ボルト／ビス
 10
-85.120132
 20
146.337665
  0
SEQEND
  0
POLYLINE
  8
ボルト／ビス
 66
     1
  0
VERTEX
  8
ボルト／ビス
 10
-91.620132
 20
146.337665
  0
VERTEX
  8
ボルト／ビス
 10
-92.120132
 20
145.837665
  0
VERTEX
  8
ボルト／ビス
 10
-92.620132
 20
146.337665
  0
SEQEND
  0
LINE
  8
ボルト／ビス
 10
-95.370132
 20
146.337665
 11
-95.870132
 21
145.837665
  0
LINE
  8
ボルト／ビス
 10
-95.870132
 20
140.837665
 11
-95.870132
 21
145.837665
  0
LINE
  8
ボルト／ビス
 10
-80.870132
 20
140.837665
 11
-80.870132
 21
145.837665
  0
LINE
  8
ボルト／ビス
 10
-95.370132
 20
146.337665
 11
-81.370132
 21
146.337665
  0
LINE
  8
ボルト／ビス
 10
-84.620132
 20
140.837665
 11
-84.620132
 21
145.837665
  0
LINE
  8
ボルト／ビス
 10
-92.120132
 20
140.837665
 11
-92.120132
 21
145.837665
  0
ENDBLK
  0
ENDSEC
  0
SECTION
  2
ENTITIES
  0
POLYLINE
  8
通り芯
  6
CONTINUOUS
 66
     1
 70
     1
  0
VERTEX
  8
通り芯
 10
-210.0
 20
-148.5
  0
VERTEX
  8
通り芯
 10
210.0
 20
-148.5
  0
VERTEX
  8
通り芯
 10
210.0
 20
148.5
  0
VERTEX
  8
通り芯
 10
-210.0
 20
148.5
  0
SEQEND
  0
INSERT
  2
*GRP_0001
  8
型材断面
  6
CONTINUOUS
 10
0.0
 20
0.0
  0
POLYLINE
  8
型材断面
  6
CONTINUOUS
 66
     1
 70
     1
  0
VERTEX
  8
型材断面
 10
20.695927
 20
-94.850355
  0
VERTEX
  8
型材断面
 10
-27.982748
 20
-94.850355
  0
VERTEX
  8
型材断面
 10
-27.982748
 20
-111.19502
  0
VERTEX
  8
型材断面
 10
20.695927
 20
-111.19502
  0
SEQEND
  0
LINE
  8
型材断面
  6
CONTINUOUS
 10
162.97617
 20
26.869993
 11
162.97617
 21
26.919993
  0
LINE
  8
型材断面
  6
CONTINUOUS
 10
162.47617
 20
28.536658
 11
161.742835
 21
28.536658
  0
LINE
  8
型材断面
  6
CONTINUOUS
 62
    47
 10
169.709335
 20
27.136962
 11
169.709335
 21
27.186962
  0
LINE
  8
型材断面
  6
CONTINUOUS
 62
    47
 10
169.709335
 20
27.136962
 11
169.209335
 21
27.136962
  0
LINE
  8
型材断面
  6
CONTINUOUS
 10
163.459335
 20
28.486962
 11
163.459335
 21
27.040298
  0
LINE
  8
型材断面
  6
CONTINUOUS
 10
163.909335
 20
27.040298
 11
163.459335
 21
27.040298
  0
LINE
  8
型材断面
  6
CONTINUOUS
 62
    47
 10
166.582028
 20
26.306963
 11
166.582028
 21
26.256963
  0
LINE
  8
型材断面
  6
CONTINUOUS
 62
    47
 10
166.582028
 20
26.256963
 11
166.248695
 21
26.256963
  0
LINE
  8
型材断面
  6
CONTINUOUS
 62
    47
 10
166.248695
 20
26.256963
 11
166.148695
 21
27.040298
  0
LINE
  8
型材断面
  6
CONTINUOUS
 62
    47
 10
165.74267
 20
27.040298
 11
166.148695
 21
27.040298
  0
LINE
  8
型材断面
  6
CONTINUOUS
 62
    47
 10
165.74267
 20
26.570298
 11
163.909335
 21
26.570298
  0
LINE
  8
型材断面
  6
CONTINUOUS
 10
162.97617
 20
26.869993
 11
162.47617
 21
26.869993
  0
LINE
  8
型材断面
  6
CONTINUOUS
 10
163.459335
 20
28.486962
 11
162.97617
 21
28.486962
  0
LINE
  8
型材断面
  6
CONTINUOUS
 62
    47
 10
169.209335
 20
26.570298
 11
166.582028
 21
26.570298
  0
INSERT
  2
*GRP_0002
  8
型材断面
  6
DOT
 10
0.0
 20
0.0
  0
INSERT
  2
*GRP_0003
  8
型材断面
  6
DOT
 10
0.0
 20
0.0
  0
LINE
  8
型材断面
  6
CONTINUOUS
 10
169.209335
 20
26.570298
 11
169.209335
 21
50.203325
  0
LINE
  8
型材断面
  6
CONTINUOUS
 10
169.709335
 20
27.136962
 11
169.709335
 21
50.203325
  0
LINE
  8
型材断面
  6
CONTINUOUS
 10
166.582028
 20
26.256963
 11
166.582028
 21
50.203325
  0
LINE
  8
型材断面
  6
CONTINUOUS
 10
166.248695
 20
26.256963
 11
166.248695
 21
50.203325
  0
LINE
  8
型材断面
  6
CONTINUOUS
 10
166.148695
 20
27.040298
 11
166.148695
 21
50.203325
  0
LINE
  8
型材断面
  6
CONTINUOUS
 10
165.74267
 20
26.570298
 11
165.74267
 21
50.203325
  0
LINE
  8
型材断面
  6
CONTINUOUS
 10
162.97617
 20
26.869993
 11
162.97617
 21
50.203325
  0
LINE
  8
型材断面
  6
CONTINUOUS
 10
161.742835
 20
28.536658
 11
161.742835
 21
50.203325
  0
LINE
  8
型材断面
  6
CONTINUOUS
 10
162.47617
 20
26.869993
 11
162.47617
 21
50.203325
  0
LINE
  8
型材断面
  6
CONTINUOUS
 10
163.459335
 20
27.040298
 11
163.459335
 21
50.203325
  0
LINE
  8
型材断面
  6
CONTINUOUS
 10
163.909335
 20
26.570298
 11
163.909335
 21
50.203325
  0
LINE
  8
型材断面
  6
CONTINUOUS
 10
-36.346497
 20
30.203322
 11
-38.846497
 21
30.203322
  0
LINE
  8
型材断面
  6
CONTINUOUS
 10
162.97617
 20
73.53666
 11
162.97617
 21
73.48666
  0
LINE
  8
型材断面
  6
CONTINUOUS
 10
162.47617
 20
71.869993
 11
161.742835
 21
71.869993
  0
LINE
  8
型材断面
  6
CONTINUOUS
 62
    47
 10
169.709335
 20
73.269687
 11
169.709335
 21
73.219687
  0
LINE
  8
型材断面
  6
CONTINUOUS
 62
    47
 10
169.709335
 20
73.269687
 11
169.209335
 21
73.269687
  0
LINE
  8
型材断面
  6
CONTINUOUS
 10
163.459335
 20
71.919687
 11
163.459335
 21
73.366355
  0
LINE
  8
型材断面
  6
CONTINUOUS
 10
163.909335
 20
73.366355
 11
163.459335
 21
73.366355
  0
LINE
  8
型材断面
  6
CONTINUOUS
 62
    47
 10
166.582028
 20
74.099688
 11
166.582028
 21
74.149688
  0
LINE
  8
型材断面
  6
CONTINUOUS
 62
    47
 10
166.582028
 20
74.149688
 11
166.248695
 21
74.149688
  0
LINE
  8
型材断面
  6
CONTINUOUS
 62
    47
 10
166.248695
 20
74.149688
 11
166.148695
 21
73.366355
  0
LINE
  8
型材断面
  6
CONTINUOUS
 62
    47
 10
165.74267
 20
73.366355
 11
166.148695
 21
73.366355
  0
LINE
  8
型材断面
  6
CONTINUOUS
 62
    47
 10
165.74267
 20
73.836355
 11
163.909335
 21
73.836355
  0
LINE
  8
型材断面
  6
CONTINUOUS
 10
162.97617
 20
73.53666
 11
162.47617
 21
73.53666
  0
LINE
  8
型材断面
  6
CONTINUOUS
 10
163.459335
 20
71.919687
 11
162.97617
 21
71.919687
  0
LINE
  8
型材断面
  6
CONTINUOUS
 62
    47
 10
169.209335
 20
73.836355
 11
166.582028
 21
73.836355
  0
INSERT
  2
*GRP_0006
  8
型材断面
  6
DOT
 10
0.0
 20
0.0
  0
INSERT
  2
*GRP_0007
  8
型材断面
  6
DOT
 10
0.0
 20
0.0
  0
LINE
  8
型材断面
  6
CONTINUOUS
 10
169.209335
 20
73.836355
 11
169.209335
 21
50.203325
  0
LINE
  8
型材断面
  6
CONTINUOUS
 10
169.709335
 20
73.269687
 11
169.709335
 21
50.203325
  0
LINE
  8
型材断面
  6
CONTINUOUS
 10
166.582028
 20
74.149688
 11
166.582028
 21
50.203325
  0
LINE
  8
型材断面
  6
CONTINUOUS
 10
166.248695
 20
74.149688
 11
166.248695
 21
50.203325
  0
LINE
  8
型材断面
  6
CONTINUOUS
 10
166.148695
 20
73.366355
 11
166.148695
 21
50.203325
  0
LINE
  8
型材断面
  6
CONTINUOUS
 10
165.74267
 20
73.836355
 11
165.74267
 21
50.203325
  0
LINE
  8
型材断面
  6
CONTINUOUS
 10
162.97617
 20
73.53666
 11
162.97617
 21
50.203325
  0
LINE
  8
型材断面
  6
CONTINUOUS
 10
161.742835
 20
71.869993
 11
161.742835
 21
50.203325
  0
LINE
  8
型材断面
  6
CONTINUOUS
 10
162.47617
 20
73.53666
 11
162.47617
 21
50.203325
  0
LINE
  8
型材断面
  6
CONTINUOUS
 10
163.459335
 20
73.366355
 11
163.459335
 21
50.203325
  0
LINE
  8
型材断面
  6
CONTINUOUS
 10
163.909335
 20
73.836355
 11
163.909335
 21
50.203325
  0
LINE
  8
型材断面
  6
DASHDOT
 10
-37.596497
 20
-79.253555
 11
-37.596497
 21
71.869993
  0
LINE
  8
型材断面
  6
CONTINUOUS
 10
-36.346497
 20
70.203327
 11
-38.846497
 21
70.203327
  0
LINE
  8
型材断面
  6
CONTINUOUS
 10
-36.346497
 20
30.203322
 11
-36.346497
 21
70.203327
  0
LINE
  8
型材断面
  6
CONTINUOUS
 10
-37.346497
 20
30.203322
 11
-37.346497
 21
70.203327
  0
LINE
  8
型材断面
  6
CONTINUOUS
 10
-37.846497
 20
30.203322
 11
-37.846497
 21
70.203327
  0
LINE
  8
型材断面
  6
CONTINUOUS
 10
-38.846497
 20
30.203322
 11
-38.846497
 21
70.203327
  0
LINE
  8
型材断面
  6
CONTINUOUS
 10
5.736835
 20
-69.937453
 11
5.686835
 21
-69.937453
  0
LINE
  8
型材断面
  6
CONTINUOUS
 10
4.070168
 20
-69.437453
 11
4.070168
 21
-68.70412
  0
LINE
  8
型材断面
  6
CONTINUOUS
 62
    47
 10
5.469863
 20
-76.67062
 11
5.419863
 21
-76.67062
  0
LINE
  8
型材断面
  6
CONTINUOUS
 62
    47
 10
5.469863
 20
-76.67062
 11
5.469863
 21
-76.17062
  0
LINE
  8
型材断面
  6
CONTINUOUS
 10
4.119863
 20
-70.42062
 11
5.56653
 21
-70.42062
  0
LINE
  8
型材断面
  6
CONTINUOUS
 10
5.56653
 20
-70.87062
 11
5.56653
 21
-70.42062
  0
LINE
  8
型材断面
  6
CONTINUOUS
 62
    47
 10
6.299863
 20
-73.543312
 11
6.349863
 21
-73.543312
  0
LINE
  8
型材断面
  6
CONTINUOUS
 62
    47
 10
6.349863
 20
-73.543312
 11
6.349863
 21
-73.209977
  0
LINE
  8
型材断面
  6
CONTINUOUS
 62
    47
 10
6.349863
 20
-73.209977
 11
5.56653
 21
-73.109977
  0
LINE
  8
型材断面
  6
CONTINUOUS
 62
    47
 10
5.56653
 20
-72.703953
 11
5.56653
 21
-73.109977
  0
LINE
  8
型材断面
  6
CONTINUOUS
 62
    47
 10
6.03653
 20
-72.703953
 11
6.03653
 21
-70.87062
  0
LINE
  8
型材断面
  6
CONTINUOUS
 10
5.736835
 20
-69.937453
 11
5.736835
 21
-69.437453
  0
LINE
  8
型材断面
  6
CONTINUOUS
 10
4.119863
 20
-70.42062
 11
4.119863
 21
-69.937453
  0
LINE
  8
型材断面
  6
CONTINUOUS
 62
    47
 10
6.03653
 20
-76.17062
 11
6.03653
 21
-73.543312
  0
INSERT
  2
*GRP_0010
  8
型材断面
  6
DOT
 10
0.0
 20
0.0
  0
INSERT
  2
*GRP_0011
  8
型材断面
  6
DOT
 10
0.0
 20
0.0
  0
LINE
  8
型材断面
  6
CONTINUOUS
 10
6.03653
 20
-76.17062
 11
-37.596497
 21
-76.17062
  0
LINE
  8
型材断面
  6
CONTINUOUS
 10
5.469863
 20
-76.67062
 11
-37.596497
 21
-76.67062
  0
LINE
  8
型材断面
  6
CONTINUOUS
 10
6.349863
 20
-73.543312
 11
-37.596497
 21
-73.543312
  0
LINE
  8
型材断面
  6
CONTINUOUS
 10
6.349863
 20
-73.209977
 11
-37.596497
 21
-73.209977
  0
LINE
  8
型材断面
  6
CONTINUOUS
 10
5.56653
 20
-73.109977
 11
-37.596497
 21
-73.109977
  0
LINE
  8
型材断面
  6
CONTINUOUS
 10
6.03653
 20
-72.703953
 11
-37.596497
 21
-72.703953
  0
LINE
  8
型材断面
  6
CONTINUOUS
 10
5.736835
 20
-69.937453
 11
-37.596497
 21
-69.937453
  0
LINE
  8
型材断面
  6
CONTINUOUS
 10
4.070168
 20
-68.70412
 11
-37.596497
 21
-68.70412
  0
LINE
  8
型材断面
  6
CONTINUOUS
 10
5.736835
 20
-69.437453
 11
-37.596497
 21
-69.437453
  0
LINE
  8
型材断面
  6
CONTINUOUS
 10
5.56653
 20
-70.42062
 11
-37.596497
 21
-70.42062
  0
LINE
  8
型材断面
  6
CONTINUOUS
 10
6.03653
 20
-70.87062
 11
-37.596497
 21
-70.87062
  0
LINE
  8
型材断面
  6
CONTINUOUS
 10
3.236835
 20
50.619993
 11
4.070168
 21
50.619993
  0
LINE
  8
型材断面
  6
CONTINUOUS
 10
3.236835
 20
49.786658
 11
4.070168
 21
49.786658
  0
LINE
  8
型材断面
  6
CONTINUOUS
 10
3.236835
 20
29.36999
 11
6.349863
 21
26.256963
  0
LINE
  8
型材断面
  6
CONTINUOUS
 10
3.236835
 20
29.36999
 11
3.236835
 21
49.786658
  0
LINE
  8
型材断面
  6
DASHDOT
 10
172.29227
 20
28.536658
 11
4.070168
 21
28.536658
  0
LINE
  8
型材断面
  6
DASHDOT
 10
4.070168
 20
-79.253555
 11
4.070168
 21
28.536658
  0
LINE
  8
型材断面
  6
CONTINUOUS
 10
3.236835
 20
71.03666
 11
6.349863
 21
74.149688
  0
LINE
  8
型材断面
  6
CONTINUOUS
 10
3.236835
 20
50.619993
 11
3.236835
 21
71.03666
  0
LINE
  8
型材断面
  6
DASHDOT
 10
172.29227
 20
71.869993
 11
4.070168
 21
71.869993
  0
LINE
  8
型材断面
  6
CONTINUOUS
 10
4.070168
 20
28.536658
 11
4.070168
 21
71.869993
  0
LINE
  8
型材断面
  6
CONTINUOUS
 10
6.03653
 20
26.570295
 11
6.03653
 21
73.836355
  0
LINE
  8
型材断面
  6
CONTINUOUS
 10
6.349863
 20
26.256963
 11
6.349863
 21
74.149688
  0
LINE
  8
型材断面
  6
CONTINUOUS
 10
5.736835
 20
26.86999
 11
5.736835
 21
73.53666
  0
LINE
  8
型材断面
  6
CONTINUOUS
 10
-80.92983
 20
-69.937453
 11
-80.87983
 21
-69.937453
  0
LINE
  8
型材断面
  6
CONTINUOUS
 10
-79.263162
 20
-69.437453
 11
-79.263162
 21
-68.70412
  0
LINE
  8
型材断面
  6
CONTINUOUS
 62
    47
 10
-80.662857
 20
-76.67062
 11
-80.612857
 21
-76.67062
  0
LINE
  8
型材断面
  6
CONTINUOUS
 62
    47
 10
-80.662857
 20
-76.67062
 11
-80.662857
 21
-76.17062
  0
LINE
  8
型材断面
  6
CONTINUOUS
 10
-79.312857
 20
-70.42062
 11
-80.759525
 21
-70.42062
  0
LINE
  8
型材断面
  6
CONTINUOUS
 10
-80.759525
 20
-70.87062
 11
-80.759525
 21
-70.42062
  0
LINE
  8
型材断面
  6
CONTINUOUS
 62
    47
 10
-81.492857
 20
-73.543312
 11
-81.542857
 21
-73.543312
  0
LINE
  8
型材断面
  6
CONTINUOUS
 62
    47
 10
-81.542857
 20
-73.543312
 11
-81.542857
 21
-73.209977
  0
LINE
  8
型材断面
  6
CONTINUOUS
 62
    47
 10
-81.542857
 20
-73.209977
 11
-80.759525
 21
-73.109977
  0
LINE
  8
型材断面
  6
CONTINUOUS
 62
    47
 10
-80.759525
 20
-72.703953
 11
-80.759525
 21
-73.109977
  0
LINE
  8
型材断面
  6
CONTINUOUS
 62
    47
 10
-81.229525
 20
-72.703953
 11
-81.229525
 21
-70.87062
  0
LINE
  8
型材断面
  6
CONTINUOUS
 10
-80.92983
 20
-69.937453
 11
-80.92983
 21
-69.437453
  0
LINE
  8
型材断面
  6
CONTINUOUS
 10
-79.312857
 20
-70.42062
 11
-79.312857
 21
-69.937453
  0
LINE
  8
型材断面
  6
CONTINUOUS
 62
    47
 10
-81.229525
 20
-76.17062
 11
-81.229525
 21
-73.543312
  0
INSERT
  2
*GRP_0012
  8
型材断面
  6
DOT
 10
0.0
 20
0.0
  0
INSERT
  2
*GRP_0013
  8
型材断面
  6
DOT
 10
0.0
 20
0.0
  0
LINE
  8
型材断面
  6
CONTINUOUS
 10
-81.229525
 20
-76.17062
 11
-37.596497
 21
-76.17062
  0
LINE
  8
型材断面
  6
CONTINUOUS
 10
-80.662857
 20
-76.67062
 11
-37.596497
 21
-76.67062
  0
LINE
  8
型材断面
  6
CONTINUOUS
 10
-81.542857
 20
-73.543312
 11
-37.596497
 21
-73.543312
  0
LINE
  8
型材断面
  6
CONTINUOUS
 10
-81.542857
 20
-73.209977
 11
-37.596497
 21
-73.209977
  0
LINE
  8
型材断面
  6
CONTINUOUS
 10
-80.759525
 20
-73.109977
 11
-37.596497
 21
-73.109977
  0
LINE
  8
型材断面
  6
CONTINUOUS
 10
-81.229525
 20
-72.703953
 11
-37.596497
 21
-72.703953
  0
LINE
  8
型材断面
  6
CONTINUOUS
 10
-80.92983
 20
-69.937453
 11
-37.596497
 21
-69.937453
  0
LINE
  8
型材断面
  6
CONTINUOUS
 10
-79.263162
 20
-68.70412
 11
-37.596497
 21
-68.70412
  0
LINE
  8
型材断面
  6
CONTINUOUS
 10
-80.92983
 20
-69.437453
 11
-37.596497
 21
-69.437453
  0
LINE
  8
型材断面
  6
CONTINUOUS
 10
-80.759525
 20
-70.42062
 11
-37.596497
 21
-70.42062
  0
LINE
  8
型材断面
  6
CONTINUOUS
 10
-81.229525
 20
-70.87062
 11
-37.596497
 21
-70.87062
  0
LINE
  8
型材断面
  6
CONTINUOUS
 10
-78.42983
 20
49.786658
 11
-79.263162
 21
49.786658
  0
LINE
  8
型材断面
  6
CONTINUOUS
 10
-78.42983
 20
50.619993
 11
-79.263162
 21
50.619993
  0
LINE
  8
型材断面
  6
DASHDOT
 10
172.29227
 20
50.203325
 11
-79.263162
 21
50.203325
  0
LINE
  8
型材断面
  6
CONTINUOUS
 10
-78.42983
 20
29.36999
 11
-81.542857
 21
26.256963
  0
LINE
  8
型材断面
  6
CONTINUOUS
 10
-78.42983
 20
29.36999
 11
-78.42983
 21
49.786658
  0
LINE
  8
型材断面
  6
DASHDOT
 10
-79.263162
 20
-79.253555
 11
-79.263162
 21
28.536658
  0
LINE
  8
型材断面
  6
CONTINUOUS
 10
-78.42983
 20
71.03666
 11
-81.542857
 21
74.149688
  0
LINE
  8
型材断面
  6
CONTINUOUS
 10
-78.42983
 20
50.619993
 11
-78.42983
 21
71.03666
  0
LINE
  8
型材断面
  6
CONTINUOUS
 10
-79.263162
 20
28.536658
 11
-79.263162
 21
71.869993
  0
LINE
  8
型材断面
  6
CONTINUOUS
 10
-81.229525
 20
26.570295
 11
-81.229525
 21
73.836355
  0
LINE
  8
型材断面
  6
CONTINUOUS
 10
-81.542857
 20
26.256963
 11
-81.542857
 21
74.149688
  0
LINE
  8
型材断面
  6
CONTINUOUS
 10
-80.92983
 20
26.86999
 11
-80.92983
 21
73.53666
  0
LINE
  8
型材断面
  6
CONTINUOUS
 10
4.070168
 20
28.536658
 11
-79.263162
 21
28.536658
  0
LINE
  8
型材断面
  6
CONTINUOUS
 10
6.03653
 20
26.570295
 11
-81.229525
 21
26.570295
  0
LINE
  8
型材断面
  6
CONTINUOUS
 10
6.349863
 20
26.256963
 11
-81.542857
 21
26.256963
  0
LINE
  8
型材断面
  6
CONTINUOUS
 10
5.736835
 20
26.86999
 11
-80.92983
 21
26.86999
  0
LINE
  8
型材断面
  6
CONTINUOUS
 10
4.070168
 20
71.869993
 11
-79.263162
 21
71.869993
  0
LINE
  8
型材断面
  6
CONTINUOUS
 10
6.03653
 20
73.836355
 11
-81.229525
 21
73.836355
  0
LINE
  8
型材断面
  6
CONTINUOUS
 10
6.349863
 20
74.149688
 11
-81.542857
 21
74.149688
  0
LINE
  8
型材断面
  6
CONTINUOUS
 10
5.736835
 20
73.53666
 11
-80.92983
 21
73.53666
  0
LINE
  8
型材断面
  6
CONTINUOUS
 10
-58.013163
 20
28.536658
 11
-58.013163
 21
29.36999
  0
LINE
  8
型材断面
  6
CONTINUOUS
 10
-58.846497
 20
28.536658
 11
-58.846497
 21
29.36999
  0
LINE
  8
型材断面
  6
CONTINUOUS
 10
-78.42983
 20
29.36999
 11
-58.846497
 21
29.36999
  0
LINE
  8
型材断面
  6
CONTINUOUS
 10
-17.179832
 20
28.536658
 11
-17.179832
 21
29.36999
  0
LINE
  8
型材断面
  6
CONTINUOUS
 10
-16.346497
 20
28.536658
 11
-16.346497
 21
29.36999
  0
LINE
  8
型材断面
  6
CONTINUOUS
 10
3.236835
 20
29.36999
 11
-16.346497
 21
29.36999
  0
LINE
  8
型材断面
  6
CONTINUOUS
 10
-58.013163
 20
29.36999
 11
-17.179832
 21
29.36999
  0
LINE
  8
型材断面
  6
CONTINUOUS
 10
-58.013163
 20
71.869993
 11
-58.013163
 21
71.03666
  0
LINE
  8
型材断面
  6
CONTINUOUS
 10
-58.846497
 20
71.869993
 11
-58.846497
 21
71.03666
  0
LINE
  8
型材断面
  6
CONTINUOUS
 10
-78.42983
 20
71.03666
 11
-58.846497
 21
71.03666
  0
LINE
  8
型材断面
  6
CONTINUOUS
 10
-17.179832
 20
71.869993
 11
-17.179832
 21
71.03666
  0
LINE
  8
型材断面
  6
CONTINUOUS
 10
-16.346497
 20
71.869993
 11
-16.346497
 21
71.03666
  0
LINE
  8
型材断面
  6
CONTINUOUS
 10
3.236835
 20
71.03666
 11
-16.346497
 21
71.03666
  0
LINE
  8
型材断面
  6
CONTINUOUS
 10
-58.013163
 20
71.03666
 11
-17.179832
 21
71.03666
  0
POLYLINE
  8
型材断面
  6
CONTINUOUS
 66
     1
 70
     1
  0
VERTEX
  8
型材断面
 10
-28.033355
 20
81.645915
  0
VERTEX
  8
型材断面
 10
-46.805285
 20
81.645915
  0
VERTEX
  8
型材断面
 10
-46.805285
 20
86.382757
  0
VERTEX
  8
型材断面
 10
-28.033355
 20
86.382757
  0
SEQEND
  0
POLYLINE
  8
型材断面
  6
CONTINUOUS
 66
     1
 70
     1
  0
VERTEX
  8
型材断面
 10
-28.033355
 20
18.760735
  0
VERTEX
  8
型材断面
 10
-46.805285
 20
18.760735
  0
VERTEX
  8
型材断面
 10
-46.805285
 20
14.023892
  0
VERTEX
  8
型材断面
 10
-28.033355
 20
14.023892
  0
SEQEND
  0
LINE
  8
型材断面
  6
CONTINUOUS
 10
-81.893293
 20
50.203325
 11
-84.4838
 21
51.698955
  0
LINE
  8
型材断面
  6
CONTINUOUS
 10
-81.893293
 20
50.203325
 11
-84.4838
 21
48.707695
  0
LINE
  8
型材断面
  6
CONTINUOUS
 10
-84.4838
 20
48.707695
 11
-84.4838
 21
51.698955
  0
LINE
  8
型材断面
  6
CONTINUOUS
 10
-62.596495
 20
74.50012
 11
-64.092125
 21
77.090627
  0
LINE
  8
型材断面
  6
CONTINUOUS
 10
-62.596495
 20
74.50012
 11
-61.100865
 21
77.090627
  0
LINE
  8
型材断面
  6
CONTINUOUS
 10
-61.100865
 20
77.090627
 11
-64.092125
 21
77.090627
  0
LINE
  8
型材断面
  6
CONTINUOUS
 10
-120.11537
 20
109.847463
 11
-119.519315
 21
107.256955
  0
LINE
  8
型材断面
  6
CONTINUOUS
 10
-120.11537
 20
109.847463
 11
-120.711427
 21
107.256955
  0
LINE
  8
型材断面
  6
CONTINUOUS
 10
-120.711427
 20
107.256955
 11
-119.519315
 21
107.256955
  0
LINE
  8
型材断面
  6
CONTINUOUS
 10
-126.137958
 20
103.978062
 11
-79.89618
 21
103.978062
  0
LINE
  8
型材断面
  6
CONTINUOUS
 10
-120.11537
 20
116.377338
 11
-121.611
 21
113.78683
  0
LINE
  8
型材断面
  6
CONTINUOUS
 10
-120.11537
 20
116.377338
 11
-118.61974
 21
113.78683
  0
LINE
  8
型材断面
  6
CONTINUOUS
 10
-118.61974
 20
113.78683
 11
-121.611
 21
113.78683
  0
LINE
  8
型材断面
  6
CONTINUOUS
 10
-126.137958
 20
112.848235
 11
-79.89618
 21
112.848235
  0
LINE
  8
型材断面
  6
CONTINUOUS
 10
-126.137958
 20
98.19003
 11
-79.89618
 21
98.19003
  0
LINE
  8
型材断面
  6
CONTINUOUS
 10
-62.596495
 20
25.90653
 11
-64.092125
 21
23.316022
  0
LINE
  8
型材断面
  6
CONTINUOUS
 10
-62.596495
 20
25.90653
 11
-61.100865
 21
23.316022
  0
LINE
  8
型材断面
  6
CONTINUOUS
 10
-61.100865
 20
23.316022
 11
-64.092125
 21
23.316022
  0
LINE
  8
型材断面
  6
CONTINUOUS
 10
6.700297
 20
50.203325
 11
9.290805
 21
51.698955
  0
LINE
  8
型材断面
  6
CONTINUOUS
 10
6.700297
 20
50.203325
 11
9.290805
 21
48.707695
  0
LINE
  8
型材断面
  6
CONTINUOUS
 10
9.290805
 20
48.707695
 11
9.290805
 21
51.698955
  0
LINE
  8
型材断面
  6
CONTINUOUS
 10
-12.5965
 20
74.50012
 11
-11.10087
 21
77.090627
  0
LINE
  8
型材断面
  6
CONTINUOUS
 10
-12.5965
 20
74.50012
 11
-14.09213
 21
77.090627
  0
LINE
  8
型材断面
  6
CONTINUOUS
 10
-14.09213
 20
77.090627
 11
-11.10087
 21
77.090627
  0
LINE
  8
型材断面
  6
CONTINUOUS
 10
-12.5965
 20
25.90653
 11
-11.10087
 21
23.316022
  0
LINE
  8
型材断面
  6
CONTINUOUS
 10
-12.5965
 20
25.90653
 11
-14.09213
 21
23.316022
  0
LINE
  8
型材断面
  6
CONTINUOUS
 10
-14.09213
 20
23.316022
 11
-11.10087
 21
23.316022
  0
LINE
  8
型材断面
  6
CONTINUOUS
 10
6.700297
 20
67.96999
 11
9.290805
 21
67.373933
  0
LINE
  8
型材断面
  6
CONTINUOUS
 10
6.700297
 20
67.96999
 11
9.290805
 21
68.566048
  0
LINE
  8
型材断面
  6
CONTINUOUS
 10
9.290805
 20
68.566048
 11
9.290805
 21
67.373933
  0
LINE
  8
型材断面
  6
CONTINUOUS
 10
6.700297
 20
32.43666
 11
9.290805
 21
33.032718
  0
LINE
  8
型材断面
  6
CONTINUOUS
 10
6.700297
 20
32.43666
 11
9.290805
 21
31.840603
  0
LINE
  8
型材断面
  6
CONTINUOUS
 10
9.290805
 20
31.840603
 11
9.290805
 21
33.032718
  0
LINE
  8
型材断面
  6
CONTINUOUS
 10
-81.893293
 20
67.96999
 11
-84.4838
 21
67.373933
  0
LINE
  8
型材断面
  6
CONTINUOUS
 10
-81.893293
 20
67.96999
 11
-84.4838
 21
68.566048
  0
LINE
  8
型材断面
  6
CONTINUOUS
 10
-84.4838
 20
68.566048
 11
-84.4838
 21
67.373933
  0
LINE
  8
型材断面
  6
CONTINUOUS
 10
-81.893293
 20
32.43666
 11
-84.4838
 21
33.032718
  0
LINE
  8
型材断面
  6
CONTINUOUS
 10
-81.893293
 20
32.43666
 11
-84.4838
 21
31.840603
  0
LINE
  8
型材断面
  6
CONTINUOUS
 10
-84.4838
 20
31.840603
 11
-84.4838
 21
33.032718
  0
LINE
  8
型材断面
  6
CONTINUOUS
 10
-126.137958
 20
92.401997
 11
-79.89618
 21
92.401997
  0
INSERT
  2
*GRP_0022
  8
型材断面
  6
DOT
 10
0.0
 20
0.0
  0
INSERT
  2
*GRP_0031
  8
型材断面
  6
CONTINUOUS
 10
0.0
 20
0.0
  0
INSERT
  2
*GRP_0032
  8
型材断面
  6
CONTINUOUS
 10
0.0
 20
0.0
  0
INSERT
  2
*GRP_0033
  8
型材断面
  6
CONTINUOUS
 10
0.0
 20
0.0
  0
INSERT
  2
*GRP_0034
  8
型材断面
  6
CONTINUOUS
 10
0.0
 20
0.0
  0
LINE
  8
型材断面
  6
CONTINUOUS
 10
130.250542
 20
-16.50921
 11
108.18243
 21
-16.50921
  0
POLYLINE
  8
ガラス
  6
CONTINUOUS
 66
     1
 70
     1
  0
VERTEX
  8
ガラス
 10
151.46031
 20
-39.628997
  0
VERTEX
  8
ガラス
 10
110.80031
 20
-39.628997
  0
VERTEX
  8
ガラス
 10
110.80031
 20
-82.295665
  0
VERTEX
  8
ガラス
 10
151.46031
 20
-82.295665
  0
SEQEND
  0
TEXT
  7
TextStyle03
  8
文字
  6
CONTINUOUS
 10
-23.65
 20
-100.575
  1
※トップライト枠高さ寸法
 40
3.0
 72
     5
 11
16.475
 21
-100.575
  0
TEXT
  7
TextStyle03
  8
文字
  6
CONTINUOUS
 10
-23.65
 20
-103.95
  1
　シングルガラス：214
 40
3.0
 72
     5
 11
11.6
 21
-103.95
  0
TEXT
  7
TextStyle03
  8
文字
  6
CONTINUOUS
 10
-23.65
 20
-107.325
  1
　ペアガラス：224
 40
3.0
 72
     5
 11
4.85
 21
-107.325
  0
TEXT
  7
TextStyle03
  8
文字
  6
CONTINUOUS
 10
78.1
 20
125.25
  1
シリーズ：ＳＴＤＬ
 40
5.0
 72
     5
 11
128.1
 21
125.25
  0
TEXT
  7
TextStyle03
  8
文字
  6
CONTINUOUS
 10
78.1
 20
119.625
  1
　　　　　（上下可動）1300×2500タイプ
 40
5.0
 72
     5
 11
184.35
 21
119.625
  0
TEXT
  7
TextStyle03
  8
文字
  6
CONTINUOUS
 10
78.1
 20
114.0
  1
図面名　：外観姿図
 40
5.0
 72
     5
 11
128.1
 21
114.0
  0
TEXT
  7
TextStyle03
  8
文字
  6
CONTINUOUS
 10
78.1
 20
108.375
  1
　　　　　　
 40
5.0
 72
     5
 11
111.225
 21
108.375
  0
TEXT
  7
TextStyle03
  8
文字
  6
CONTINUOUS
 10
-45.75
 20
82.325
  1
可動装置側
 40
3.0
 72
     5
 11
-29.25
 21
82.325
  0
TEXT
  7
TextStyle03
  8
文字
  6
CONTINUOUS
 10
-45.75
 20
15.05
  1
可動装置側
 40
3.0
 72
     5
 11
-29.25
 21
15.05
  0
TEXT
  7
TextStyle03
  8
文字
  6
CONTINUOUS
 10
-116.775
 20
39.1
  1
アンカーピッチ
 40
3.0
 50
90.0
 72
     5
 11
-116.775
 21
62.35
  0
TEXT
  7
TextStyle03
  8
文字
  6
CONTINUOUS
 10
-117.35
 20
108.45
  1
はケーシング位置を示す
 40
3.0
 72
     5
 11
-80.6
 21
108.45
  0
TEXT
  7
TextStyle03
  8
文字
  6
CONTINUOUS
 10
-117.35
 20
105.075
  1
４ヶ所中1ヶ所に設定
 40
3.0
 72
     5
 11
-85.6625
 21
105.075
  0
TEXT
  7
TextStyle03
  8
文字
  6
CONTINUOUS
 10
-117.35
 20
113.975
  1
は排水穴位置を示す
 40
3.0
 72
     5
 11
-87.35
 21
113.975
  0
TEXT
  7
TextStyle03
  8
文字
  6
CONTINUOUS
 10
-121.075
 20
99.1
  1
アンカー数量　１２ヶ所
 40
3.0
 72
     5
 11
-84.325
 21
99.1
  0
TEXT
  7
TextStyle03
  8
文字
  6
CONTINUOUS
 10
-72.625
 20
109.875
  1
アンカーピッチ
 40
3.0
 72
     5
 11
-49.375
 21
109.875
  0
TEXT
  7
TextStyle03
  8
文字
  6
CONTINUOUS
 10
-121.075
 20
93.325
  1
アームユニット数　４ヶ所
 40
3.0
 72
     5
 11
-80.95
 21
93.325
  0
TEXT
  7
TextStyle03
  8
文字
  6
CONTINUOUS
 10
137.55
 20
-78.475
  1
×２枚
 40
3.0
 72
     5
 11
147.3
 21
-78.475
  0
TEXT
  7
TextStyle03
  8
文字
  6
CONTINUOUS
 10
110.0
 20
-15.6
  1
ガラス寸法
 40
3.0
 72
     5
 11
126.5
 21
-15.6
  0
INSERT
  2
*DIM_0004
  8
寸法
  6
CONTINUOUS
 10
0.0
 20
0.0
  0
INSERT
  2
*DIM_0005
  8
寸法
  6
CONTINUOUS
 10
0.0
 20
0.0
  0
INSERT
  2
*DIM_0008
  8
寸法
  6
CONTINUOUS
 10
0.0
 20
0.0
  0
INSERT
  2
*DIM_0009
  8
寸法
  6
CONTINUOUS
 10
0.0
 20
0.0
  0
INSERT
  2
*DIM_0014
  8
寸法
  6
CONTINUOUS
 10
0.0
 20
0.0
  0
INSERT
  2
*DIM_0015
  8
寸法
  6
CONTINUOUS
 10
0.0
 20
0.0
  0
INSERT
  2
*DIM_0016
  8
寸法
  6
CONTINUOUS
 10
0.0
 20
0.0
  0
INSERT
  2
*DIM_0017
  8
寸法
  6
CONTINUOUS
 10
0.0
 20
0.0
  0
INSERT
  2
*DIM_0018
  8
寸法
  6
CONTINUOUS
 10
0.0
 20
0.0
  0
INSERT
  2
*DIM_0019
  8
寸法
  6
CONTINUOUS
 10
0.0
 20
0.0
  0
INSERT
  2
*DIM_0020
  8
寸法
  6
CONTINUOUS
 10
0.0
 20
0.0
  0
INSERT
  2
*DIM_0021
  8
寸法
  6
CONTINUOUS
 10
0.0
 20
0.0
  0
INSERT
  2
*DIM_0027
  8
寸法
  6
CONTINUOUS
 10
0.0
 20
0.0
  0
INSERT
  2
*DIM_0028
  8
寸法
  6
CONTINUOUS
 10
0.0
 20
0.0
  0
INSERT
  2
*DIM_0029
  8
寸法
  6
CONTINUOUS
 10
0.0
 20
0.0
  0
INSERT
  2
*DIM_0030
  8
寸法
  6
CONTINUOUS
 10
0.0
 20
0.0
  0
INSERT
  2
*DIM_0035
  8
寸法
  6
CONTINUOUS
 10
0.0
 20
0.0
  0
INSERT
  2
*DIM_0036
  8
寸法
  6
CONTINUOUS
 10
0.0
 20
0.0
  0
LINE
  8
曲げ物
  6
CONTINUOUS
 10
-14.447055
 20
52.128875
 11
-18.142367
 21
48.433562
  0
LINE
  8
曲げ物
  6
CONTINUOUS
 10
-15.150525
 20
50.592765
 11
-16.606255
 21
49.137035
  0
LINE
  8
曲げ物
  6
CONTINUOUS
 10
-15.983165
 20
51.425405
 11
-17.438895
 21
49.969675
  0
LINE
  8
曲げ物
  6
CONTINUOUS
 10
-56.538915
 20
52.128875
 11
-60.234227
 21
48.433562
  0
LINE
  8
曲げ物
  6
CONTINUOUS
 10
-57.242385
 20
50.592765
 11
-58.698115
 21
49.137035
  0
LINE
  8
曲げ物
  6
CONTINUOUS
 10
-58.075025
 20
51.425405
 11
-59.530755
 21
49.969675
  0
ENDSEC
  0
EOF
