  0
SECTION
  2
HEADER
  9
$EXTMIN
 10
-210.0
 20
-148.5
  9
$EXTMAX
 10
210.0
 20
148.5
  9
$PDMODE
 70
    32
  9
$PDSIZE
 40
1.5
  9
$LTSCALE
 40
10.0
  0
ENDSEC
  0
SECTION
  2
TABLES
  0
TABLE
  2
LTYPE
 70
    15
  0
LTYPE
  2
CONTINUOUS
 70
    64
  3
実線
 72
    65
 73
     0
 40
0.0
  0
LTYPE
  2
DASHED
 70
    64
  3
破線A
 72
    65
 73
     2
 40
0.6
 49
0.4
 49
-0.2
  0
LTYPE
  2
DASHEDX2
 70
    64
  3
破線B
 72
    65
 73
     2
 40
1.3
 49
0.9
 49
-0.4
  0
LTYPE
  2
DASHDOT
 70
    64
  3
１点鎖線A
 72
    65
 73
     4
 40
0.5375
 49
0.375
 49
-0.05
 49
0.0625
 49
-0.05
  0
LTYPE
  2
DASHDOTX2
 70
    64
  3
１点鎖線B
 72
    65
 73
     4
 40
1.075
 49
0.75
 49
-0.1
 49
0.125
 49
-0.1
  0
LTYPE
  2
DIVIDE2
 70
    64
  3
２点鎖線A
 72
    65
 73
     6
 40
0.5125
 49
0.3
 49
-0.0375
 49
0.05
 49
-0.0375
 49
0.05
 49
-0.0375
  0
LTYPE
  2
DIVIDE
 70
    64
  3
２点鎖線B
 72
    65
 73
     6
 40
1.05
 49
0.55
 49
-0.1
 49
0.1
 49
-0.1
 49
0.1
 49
-0.1
  0
LTYPE
  2
DOT
 70
    64
  3
点線A
 72
    65
 73
     2
 40
0.1125
 49
0.0625
 49
-0.05
  0
LTYPE
  2
DOTX2
 70
    64
  3
点線B
 72
    65
 73
     2
 40
0.275
 49
0.15
 49
-0.125
  0
LTYPE
  2
CONTINUOUS
 70
    64
  3
実線
 72
    65
 73
     0
 40
0.0
  0
LTYPE
  2
CONTINUOUS
 70
    64
  3
実線
 72
    65
 73
     0
 40
0.0
  0
LTYPE
  2
CONTINUOUS
 70
    64
  3
実線
 72
    65
 73
     0
 40
0.0
  0
LTYPE
  2
CONTINUOUS
 70
    64
  3
実線
 72
    65
 73
     0
 40
0.0
  0
LTYPE
  2
CONTINUOUS
 70
    64
  3
実線
 72
    65
 73
     0
 40
0.0
  0
LTYPE
  2
CONTINUOUS
 70
    64
  3
実線
 72
    65
 73
     0
 40
0.0
  0
ENDTAB
  0
TABLE
  2
LAYER
 70
    36
  0
LAYER
  2
通り芯
 70
     0
 62
    15
  6
CONTINUOUS
  0
LAYER
  2
補助線
 70
     0
 62
    16
  6
DOT
  0
LAYER
  2
躯体
 70
     0
 62
    31
  6
CONTINUOUS
  0
LAYER
  2
型材
 70
     0
 62
    32
  6
CONTINUOUS
  0
LAYER
  2
型材断面
 70
     0
 62
    47
  6
CONTINUOUS
  0
LAYER
  2
ガラス
 70
     0
 62
    48
  6
CONTINUOUS
  0
LAYER
  2
ゴム等
 70
     0
 62
    63
  6
CONTINUOUS
  0
LAYER
  2
ボルト／ビス
 70
     0
 62
    64
  6
CONTINUOUS
  0
LAYER
  2
文字
 70
     0
 62
    79
  6
CONTINUOUS
  0
LAYER
  2
寸法
 70
     0
 62
    80
  6
CONTINUOUS
  0
LAYER
  2
ﾊｯﾁﾝｸﾞ
 70
     0
 62
    95
  6
CONTINUOUS
  0
LAYER
  2
別途部材
 70
     0
 62
    96
  6
CONTINUOUS
  0
LAYER
  2
曲げ物
 70
     0
 62
   111
  6
CONTINUOUS
  0
LAYER
  2
鉄骨等
 70
     0
 62
   112
  6
CONTINUOUS
  0
LAYER
  2
St
 70
     0
 62
   127
  6
CONTINUOUS
  0
LAYER
  2
その他部品等
 70
     0
 62
   128
  6
CONTINUOUS
  0
LAYER
  2
ｶﾞｽｹｯﾄ
 70
     0
 62
   143
  6
CONTINUOUS
  0
LAYER
  2
ｽｹｯﾁ
 70
     0
 62
    14
  6
CONTINUOUS
  0
LAYER
  2
0
 70
     0
 62
    17
  6
CONTINUOUS
  0
LAYER
  2
1
 70
     0
 62
    30
  6
CONTINUOUS
  0
LAYER
  2
4
 70
     0
 62
    33
  6
CONTINUOUS
  0
LAYER
  2
ﾚｲﾔ3
 70
     0
 62
    46
  6
CONTINUOUS
  0
LAYER
  2
外形線
 70
     0
 62
    49
  6
CONTINUOUS
  0
LAYER
  2
部品
 70
     0
 62
    14
  6
CONTINUOUS
  0
LAYER
  2
サッシ芯
 70
     0
 62
    17
  6
DASHDOTX2
  0
LAYER
  2
寸法線
 70
     0
 62
    62
  6
CONTINUOUS
  0
LAYER
  2
姿図外形線
 70
     0
 62
    65
  6
CONTINUOUS
  0
LAYER
  2
姿補助線
 70
     0
 62
    30
  6
CONTINUOUS
  0
LAYER
  2
透視線
 70
     0
 62
    78
  6
DOT
  0
LAYER
  2
用紙
 70
     0
 62
    81
  6
CONTINUOUS
  0
LAYER
  2
実線図枠
 70
     0
 62
    94
  6
CONTINUOUS
  0
LAYER
  2
補助図枠
 70
     0
 62
    97
  6
CONTINUOUS
  0
LAYER
  2
建具記号
 70
     0
 62
   110
  6
CONTINUOUS
  0
LAYER
  2
補助文字
 70
     0
 62
   113
  6
CONTINUOUS
  0
LAYER
  2
LAYER010
 70
     0
 62
    11
  6
CONTINUOUS
  0
LAYER
  2
SUNPO
 70
     0
 62
     6
  6
CONTINUOUS
  0
ENDTAB
  0
TABLE
  2
STYLE
 70
    10
  0
STYLE
  2
STANDARD
 70
     0
 40
1.0
 41
1.0
 42
1.0
 50
0.0
 71
     0
  3
TXT
  4
BIGFONT
  0
STYLE
  2
TATE
 70
     4
 40
1.0
 41
1.0
 42
1.0
 50
0.0
 71
     0
  3
TXT
  4
BIGFONT
  0
STYLE
  2
TextStyle03
 70
     0
 40
1.0
 41
1.0
 42
1.0
 50
0.0
 71
     0
  3
MONOTXT
  4
BIGFONT
  0
STYLE
  2
TextStyle04
 70
     0
 40
1.0
 41
1.0
 42
1.0
 50
0.0
 71
     0
  3
MONOTXT
  4
BIGFONT
  0
STYLE
  2
TextStyle05
 70
     0
 40
1.0
 41
1.0
 42
1.0
 50
0.0
 71
     0
  3
MONOTXT
  4
BIGFONT
  0
STYLE
  2
TextStyle06
 70
     0
 40
1.0
 41
1.0
 42
1.0
 50
0.0
 71
     0
  3
MONOTXT
  4
BIGFONT
  0
STYLE
  2
TextStyle07
 70
     0
 40
1.0
 41
1.0
 42
1.0
 50
0.0
 71
     0
  3
MONOTXT
  4
BIGFONT
  0
STYLE
  2
TextStyle08
 70
     0
 40
1.0
 41
1.0
 42
1.0
 50
0.0
 71
     0
  3
MONOTXT
  4
BIGFONT
  0
STYLE
  2
TextStyle09
 70
     0
 40
1.0
 41
1.0
 42
1.0
 50
0.0
 71
     0
  3
MONOTXT
  4
BIGFONT
  0
STYLE
  2
TextStyle10
 70
     0
 40
1.0
 41
1.0
 42
1.0
 50
0.0
 71
     0
  3
MONOTXT
  4
BIGFONT
  0
ENDTAB
  0
ENDSEC
  0
SECTION
  2
BLOCKS
  0
BLOCK
  2
*HAT_0001
 70
    65
 10
0.0
 20
0.0
  0
LINE
  8
ゴム等
 10
29.125
 20
-37.05
 11
29.125
 21
-37.05
  0
LINE
  8
ゴム等
 10
29.125
 20
-38.55
 11
27.85
 21
-37.05
  0
LINE
  8
ゴム等
 10
29.125
 20
-39.825
 11
26.35
 21
-37.05
  0
LINE
  8
ゴム等
 10
29.125
 20
-41.325
 11
24.85
 21
-37.05
  0
LINE
  8
ゴム等
 10
29.125
 20
-42.825
 11
23.65
 21
-37.05
  0
LINE
  8
ゴム等
 10
29.125
 20
-44.025
 11
23.125
 21
-38.025
  0
LINE
  8
ゴム等
 10
29.125
 20
-45.525
 11
23.125
 21
-39.525
  0
LINE
  8
ゴム等
 10
29.125
 20
-47.025
 11
24.1
 21
-42.075
  0
LINE
  8
ゴム等
 10
23.35
 20
-41.025
 11
23.125
 21
-41.025
  0
LINE
  8
ゴム等
 10
29.125
 20
-48.3
 11
24.1
 21
-43.275
  0
LINE
  8
ゴム等
 10
29.125
 20
-49.8
 11
24.1
 21
-44.775
  0
LINE
  8
ゴム等
 10
28.15
 20
-50.025
 11
23.35
 21
-45.3
  0
LINE
  8
ゴム等
 10
26.65
 20
-50.025
 11
23.35
 21
-46.8
  0
LINE
  8
ゴム等
 10
25.375
 20
-50.025
 11
23.65
 21
-48.3
  0
LINE
  8
ゴム等
 10
24.85
 20
-51.075
 11
23.875
 21
-50.325
  0
LINE
  8
ゴム等
 10
24.85
 20
-52.575
 11
24.1
 21
-51.525
  0
LINE
  8
ゴム等
 10
24.4
 20
-53.55
 11
24.1
 21
-53.025
  0
ENDBLK
  0
BLOCK
  2
*HAT_0002
 70
    65
 10
0.0
 20
0.0
  0
LINE
  8
ﾊｯﾁﾝｸﾞ
 10
-98.4
 20
11.875
 11
-98.175
 21
12.1
  0
LINE
  8
ﾊｯﾁﾝｸﾞ
 10
-101.225
 20
11.875
 11
-98.175
 21
14.925
  0
LINE
  8
ﾊｯﾁﾝｸﾞ
 10
-104.05
 20
11.875
 11
-98.175
 21
17.75
  0
LINE
  8
ﾊｯﾁﾝｸﾞ
 10
-106.875
 20
11.875
 11
-98.175
 21
20.6
  0
LINE
  8
ﾊｯﾁﾝｸﾞ
 10
-107.35
 20
14.225
 11
-99.7
 21
21.875
  0
LINE
  8
ﾊｯﾁﾝｸﾞ
 10
-107.35
 20
17.05
 11
-102.525
 21
21.875
  0
LINE
  8
ﾊｯﾁﾝｸﾞ
 10
-107.35
 20
19.875
 11
-105.375
 21
21.875
  0
LINE
  8
ﾊｯﾁﾝｸﾞ
 10
-107.375
 20
14.025
 11
-105.225
 21
11.875
  0
LINE
  8
ﾊｯﾁﾝｸﾞ
 10
-107.375
 20
16.85
 11
-102.375
 21
11.875
  0
LINE
  8
ﾊｯﾁﾝｸﾞ
 10
-107.375
 20
19.675
 11
-99.55
 21
11.875
  0
LINE
  8
ﾊｯﾁﾝｸﾞ
 10
-106.725
 20
21.875
 11
-98.175
 21
13.325
  0
LINE
  8
ﾊｯﾁﾝｸﾞ
 10
-103.9
 20
21.875
 11
-98.175
 21
16.15
  0
LINE
  8
ﾊｯﾁﾝｸﾞ
 10
-101.075
 20
21.875
 11
-98.175
 21
18.975
  0
LINE
  8
ﾊｯﾁﾝｸﾞ
 10
-98.25
 20
21.875
 11
-98.175
 21
21.8
  0
ENDBLK
  0
BLOCK
  2
*HAT_0003
 70
    65
 10
0.0
 20
0.0
  0
LINE
  8
St
 10
-82.325
 20
-9.9
 11
-84.2
 21
-8.1
  0
LINE
  8
St
 10
-82.325
 20
-11.325
 11
-85.025
 21
-8.625
  0
LINE
  8
St
 10
-82.325
 20
-12.75
 11
-85.325
 21
-9.75
  0
LINE
  8
St
 10
-82.325
 20
-14.175
 11
-85.325
 21
-11.175
  0
LINE
  8
St
 10
-82.325
 20
-15.6
 11
-85.325
 21
-12.6
  0
LINE
  8
St
 10
-82.325
 20
-16.95
 11
-85.325
 21
-13.95
  0
LINE
  8
St
 10
-82.325
 20
-18.375
 11
-85.325
 21
-15.375
  0
LINE
  8
St
 10
-82.325
 20
-19.8
 11
-85.325
 21
-16.8
  0
LINE
  8
St
 10
-82.325
 20
-21.225
 11
-85.325
 21
-18.225
  0
LINE
  8
St
 10
-82.325
 20
-22.65
 11
-85.325
 21
-19.65
  0
LINE
  8
St
 10
-82.325
 20
-24.075
 11
-85.325
 21
-21.075
  0
LINE
  8
St
 10
-82.325
 20
-25.425
 11
-85.325
 21
-22.425
  0
LINE
  8
St
 10
-82.325
 20
-26.85
 11
-85.325
 21
-23.85
  0
LINE
  8
St
 10
-82.325
 20
-28.275
 11
-85.325
 21
-25.275
  0
LINE
  8
St
 10
-82.325
 20
-29.7
 11
-85.325
 21
-26.7
  0
LINE
  8
St
 10
-82.325
 20
-31.125
 11
-85.325
 21
-28.125
  0
LINE
  8
St
 10
-82.325
 20
-32.55
 11
-85.325
 21
-29.55
  0
LINE
  8
St
 10
-82.325
 20
-33.9
 11
-85.325
 21
-30.9
  0
LINE
  8
St
 10
-82.325
 20
-35.325
 11
-85.325
 21
-32.325
  0
LINE
  8
St
 10
-82.325
 20
-36.75
 11
-85.325
 21
-33.75
  0
LINE
  8
St
 10
-82.85
 20
-37.65
 11
-85.325
 21
-35.175
  0
LINE
  8
St
 10
-83.9
 20
-38.025
 11
-85.325
 21
-36.6
  0
ENDBLK
  0
BLOCK
  2
*GRP_0001
 70
    65
 10
0.0
 20
0.0
  0
LINE
  8
型材断面
  6
CONTINUOUS
 10
195.0
 20
133.5
 11
195.0
 21
-133.5
  0
LINE
  8
型材断面
  6
CONTINUOUS
 10
195.0
 20
-133.5
 11
-185.0
 21
-133.5
  0
LINE
  8
型材断面
  6
CONTINUOUS
 10
-185.0
 20
-133.5
 11
-185.0
 21
133.5
  0
LINE
  8
型材断面
  6
CONTINUOUS
 10
195.0
 20
133.5
 11
-185.0
 21
133.5
  0
LINE
  8
型材断面
  6
CONTINUOUS
 10
145.0
 20
-133.5
 11
145.0
 21
-118.5
  0
LINE
  8
型材断面
  6
CONTINUOUS
 10
195.0
 20
-118.5
 11
145.0
 21
-118.5
  0
ENDBLK
  0
BLOCK
  2
*GRP_0002
 70
    65
 10
0.0
 20
0.0
  0
LINE
  8
型材断面
  6
CONTINUOUS
 62
    47
 10
115.145693
 20
-35.106557
 11
116.645693
 21
-35.106557
  0
LINE
  8
型材断面
  6
CONTINUOUS
 62
    47
 10
116.645693
 20
-43.606555
 11
116.645693
 21
-35.106557
  0
LINE
  8
型材断面
  6
CONTINUOUS
 62
    47
 10
130.145693
 20
-45.106555
 11
130.145693
 21
-43.606555
  0
LINE
  8
型材断面
  6
CONTINUOUS
 62
    47
 10
116.645693
 20
-43.606555
 11
130.145693
 21
-43.606555
  0
ARC
  8
型材断面
  6
CONTINUOUS
 62
    47
 10
116.645704
 20
-43.606535
 40
1.5
 50
180.0
 51
270.0
  0
LINE
  8
型材断面
  6
CONTINUOUS
 62
    47
 10
115.145693
 20
-35.106557
 11
115.145693
 21
-45.106555
  0
LINE
  8
型材断面
  6
CONTINUOUS
 62
    47
 10
130.145693
 20
-45.106555
 11
115.145693
 21
-45.106555
  0
ENDBLK
  0
BLOCK
  2
*GRP_0003
 70
    65
 10
0.0
 20
0.0
  0
LINE
  8
型材断面
  6
CONTINUOUS
 10
113.645693
 20
-60.606557
 11
113.645693
 21
-62.106557
  0
LINE
  8
型材断面
  6
CONTINUOUS
 10
107.645693
 20
-60.606557
 11
107.645693
 21
-62.106557
  0
LINE
  8
型材断面
  6
CONTINUOUS
 10
107.645693
 20
-61.731557
 11
113.645693
 21
-61.731557
  0
LINE
  8
型材断面
  6
CONTINUOUS
 10
107.645693
 20
-61.356557
 11
113.645693
 21
-61.356557
  0
LINE
  8
型材断面
  6
CONTINUOUS
 10
107.645693
 20
-60.981557
 11
113.645693
 21
-60.981557
  0
ARC
  8
型材断面
  6
CONTINUOUS
 62
    47
 10
113.645698
 20
-60.606549
 40
1.5
 50
270.0
 51
360.0
  0
ARC
  8
型材断面
  6
CONTINUOUS
 62
    47
 10
113.645698
 20
52.893421
 40
1.5
 50
0.0
 51
90.0
  0
LINE
  8
型材断面
  6
CONTINUOUS
 62
    47
 10
113.645693
 20
-60.606557
 11
113.645693
 21
52.893418
  0
LINE
  8
型材断面
  6
CONTINUOUS
 62
    47
 10
115.145693
 20
-62.106557
 11
115.145693
 21
54.393418
  0
ARC
  8
型材断面
  6
CONTINUOUS
 62
    47
 10
29.145713
 20
-37.106544
 40
1.5
 50
0.0
 51
90.0
  0
ARC
  8
型材断面
  6
CONTINUOUS
 62
    47
 10
30.645713
 20
-60.606549
 40
1.5
 50
180.0
 51
270.0
  0
LINE
  8
型材断面
  6
CONTINUOUS
 62
    47
 10
30.645713
 20
-35.606552
 11
30.645713
 21
-60.606557
  0
LINE
  8
型材断面
  6
CONTINUOUS
 62
    47
 10
113.645693
 20
-60.606557
 11
30.645713
 21
-60.606557
  0
LINE
  8
型材断面
  6
CONTINUOUS
 62
    47
 10
29.145713
 20
-37.106552
 11
29.145713
 21
-62.106557
  0
LINE
  8
型材断面
  6
CONTINUOUS
 62
    47
 10
115.145693
 20
-62.106557
 11
29.145713
 21
-62.106557
  0
ARC
  8
型材断面
  6
CONTINUOUS
 62
    47
 10
17.145698
 20
-35.606544
 40
1.5
 50
180.0
 51
270.0
  0
LINE
  8
型材断面
  6
CONTINUOUS
 62
    47
 10
30.645713
 20
-35.606552
 11
17.145697
 21
-35.606552
  0
LINE
  8
型材断面
  6
CONTINUOUS
 62
    47
 10
29.145713
 20
-37.106552
 11
15.645697
 21
-37.106552
  0
LINE
  8
型材断面
  6
CONTINUOUS
 62
    47
 10
17.145697
 20
-35.606552
 11
17.145697
 21
-23.106603
  0
LINE
  8
型材断面
  6
CONTINUOUS
 10
25.645695
 20
-23.106603
 11
17.145697
 21
-23.106603
  0
ARC
  8
型材断面
  6
CONTINUOUS
 10
17.145693
 20
-23.106596
 40
1.5
 50
90.0
 51
180.0
  0
LINE
  8
型材断面
  6
CONTINUOUS
 62
    47
 10
15.645697
 20
-37.106552
 11
15.645697
 21
-21.606603
  0
LINE
  8
型材断面
  6
CONTINUOUS
 62
    47
 10
15.645697
 20
-21.606603
 11
25.645695
 21
-21.606603
  0
LINE
  8
型材断面
  6
CONTINUOUS
 10
25.645695
 20
-23.106603
 11
25.645695
 21
-21.606603
  0
LINE
  8
型材断面
  6
CONTINUOUS
 62
    47
 10
115.145693
 20
54.393418
 11
95.145697
 21
54.393418
  0
LINE
  8
型材断面
  6
CONTINUOUS
 10
95.145697
 20
54.393418
 11
95.145697
 21
52.893418
  0
LINE
  8
型材断面
  6
CONTINUOUS
 62
    47
 10
113.645693
 20
52.893418
 11
95.145697
 21
52.893418
  0
LINE
  8
St
  6
DOT
 62
    47
 10
18.645697
 20
-21.606603
 11
19.479023
 21
-23.106603
  0
LINE
  8
St
  6
DOT
 62
    47
 10
24.645697
 20
-21.606603
 11
23.812357
 21
-23.106603
  0
LINE
  8
St
  6
DOT
 62
    47
 10
18.854025
 20
-21.981603
 11
24.437363
 21
-21.981603
  0
LINE
  8
St
  6
DOT
 62
    47
 10
19.06236
 20
-22.356603
 11
24.229027
 21
-22.356603
  0
LINE
  8
St
  6
DOT
 62
    47
 10
19.270695
 20
-22.731603
 11
24.020693
 21
-22.731603
  0
ENDBLK
  0
BLOCK
  2
*GRP_0004
 70
    65
 10
0.0
 20
0.0
  0
LINE
  8
型材断面
  6
CONTINUOUS
 10
-80.849287
 20
-43.106575
 11
-80.849287
 21
-4.606578
  0
LINE
  8
型材断面
  6
CONTINUOUS
 10
-82.349287
 20
-43.106575
 11
-80.849287
 21
-43.106575
  0
ARC
  8
型材断面
  6
CONTINUOUS
 10
-80.849289
 20
-4.606577
 40
1.5
 50
90.0
 51
180.0
  0
LINE
  8
型材断面
  6
CONTINUOUS
 10
-82.349287
 20
-43.106575
 11
-82.349287
 21
-3.106578
  0
ARC
  8
型材断面
  6
CONTINUOUS
 10
-55.854313
 20
-46.506555
 40
1.5
 50
180.0
 51
270.0
  0
ARC
  8
型材断面
  6
CONTINUOUS
 10
-42.354298
 20
-60.606555
 40
1.5
 50
180.0
 51
270.0
  0
LINE
  8
型材断面
  6
CONTINUOUS
 10
-43.854292
 20
-46.506557
 11
-55.854307
 21
-46.506557
  0
LINE
  8
型材断面
  6
CONTINUOUS
 10
-42.354292
 20
-48.006557
 11
-42.354292
 21
-60.606557
  0
ARC
  8
型材断面
  6
CONTINUOUS
 10
-43.854298
 20
-48.006555
 40
1.5
 50
0.0
 51
90.0
  0
LINE
  8
型材断面
  6
CONTINUOUS
 10
-80.849287
 20
-4.606578
 11
-57.354307
 21
-4.606578
  0
ARC
  8
型材断面
  6
CONTINUOUS
 10
-57.354313
 20
-4.606578
 40
1.5
 50
0.0
 51
90.0
  0
LINE
  8
型材断面
  6
CONTINUOUS
 10
-55.854307
 20
-46.506557
 11
-55.854307
 21
-3.106578
  0
LINE
  8
型材断面
  6
CONTINUOUS
 10
-82.349287
 20
-3.106578
 11
-55.854307
 21
-3.106578
  0
LINE
  8
型材断面
  6
CONTINUOUS
 10
-57.354307
 20
-4.606578
 11
-57.354307
 21
-48.006557
  0
LINE
  8
型材断面
  6
CONTINUOUS
 10
-43.854292
 20
-48.006557
 11
-57.354307
 21
-48.006557
  0
LINE
  8
型材断面
  6
CONTINUOUS
 10
-43.854292
 20
-48.006557
 11
-43.854292
 21
-62.106557
  0
ARC
  8
型材断面
  6
CONTINUOUS
 62
    47
 10
9.645694
 20
-60.60655
 40
1.5
 50
270.0
 51
360.0
  0
ARC
  8
型材断面
  6
CONTINUOUS
 62
    47
 10
11.145694
 20
-48.00658
 40
1.5
 50
90.0
 51
180.0
  0
LINE
  8
型材断面
  6
CONTINUOUS
 62
    47
 10
27.647137
 20
-70.006578
 11
36.326453
 21
-70.006578
  0
LINE
  8
型材断面
  6
CONTINUOUS
 62
    47
 10
36.326453
 20
-70.006578
 11
36.326453
 21
-71.506578
  0
ARC
  8
型材断面
  6
CONTINUOUS
 62
    47
 10
27.647128
 20
-70.006577
 40
1.5
 50
187.275006
 51
270.0
  0
LINE
  8
型材断面
  6
CONTINUOUS
 62
    47
 10
36.326453
 20
-71.506578
 11
26.326447
 21
-71.506578
  0
LINE
  8
型材断面
  6
CONTINUOUS
 62
    47
 10
26.326447
 20
-71.506578
 11
23.326447
 21
-48.006588
  0
LINE
  8
型材断面
  6
CONTINUOUS
 62
    47
 10
11.145697
 20
-48.006588
 11
23.326447
 21
-48.006588
  0
ARC
  8
型材断面
  6
CONTINUOUS
 62
    47
 10
23.326443
 20
-48.006582
 40
1.5
 50
7.275006
 51
90.0
  0
LINE
  8
型材断面
  6
CONTINUOUS
 62
    47
 10
27.647137
 20
-70.006578
 11
24.647137
 21
-46.506588
  0
LINE
  8
型材断面
  6
CONTINUOUS
 62
    47
 10
9.645697
 20
-46.506588
 11
24.647137
 21
-46.506588
  0
LINE
  8
型材断面
  6
CONTINUOUS
 62
    47
 10
11.145697
 20
-48.006588
 11
11.145697
 21
-62.106557
  0
LINE
  8
型材断面
  6
CONTINUOUS
 62
    47
 10
9.645697
 20
-60.606557
 11
9.645697
 21
-46.506588
  0
LINE
  8
型材断面
  6
CONTINUOUS
 62
    47
 10
11.145697
 20
-62.106557
 11
-43.854292
 21
-62.106557
  0
LINE
  8
型材断面
  6
CONTINUOUS
 62
    47
 10
9.645697
 20
-60.606557
 11
-42.354292
 21
-60.606557
  0
ENDBLK
  0
BLOCK
  2
*GRP_0005
 70
    65
 10
0.0
 20
0.0
  0
POLYLINE
  8
ガラス
  6
CONTINUOUS
 66
     1
 70
     4
  0
VERTEX
  8
ガラス
 10
115.725
 20
-66.75
 70
     8
  0
VERTEX
  8
ガラス
 10
115.625
 20
-66.725
 70
     8
  0
VERTEX
  8
ガラス
 10
115.55
 20
-66.7
 70
     8
  0
VERTEX
  8
ガラス
 10
115.475
 20
-66.65
 70
     8
  0
VERTEX
  8
ガラス
 10
115.375
 20
-66.625
 70
     8
  0
VERTEX
  8
ガラス
 10
115.3
 20
-66.575
 70
     8
  0
VERTEX
  8
ガラス
 10
115.2
 20
-66.55
 70
     8
  0
VERTEX
  8
ガラス
 10
115.125
 20
-66.5
 70
     8
  0
VERTEX
  8
ガラス
 10
115.05
 20
-66.475
 70
     8
  0
VERTEX
  8
ガラス
 10
114.95
 20
-66.425
 70
     8
  0
VERTEX
  8
ガラス
 10
114.875
 20
-66.4
 70
     8
  0
VERTEX
  8
ガラス
 10
114.8
 20
-66.35
 70
     8
  0
VERTEX
  8
ガラス
 10
114.725
 20
-66.3
 70
     8
  0
VERTEX
  8
ガラス
 10
114.65
 20
-66.25
 70
     8
  0
VERTEX
  8
ガラス
 10
114.575
 20
-66.225
 70
     8
  0
VERTEX
  8
ガラス
 10
114.5
 20
-66.175
 70
     8
  0
VERTEX
  8
ガラス
 10
114.45
 20
-66.125
 70
     8
  0
VERTEX
  8
ガラス
 10
114.375
 20
-66.075
 70
     8
  0
VERTEX
  8
ガラス
 10
114.325
 20
-66.0
 70
     8
  0
VERTEX
  8
ガラス
 10
114.25
 20
-65.95
 70
     8
  0
VERTEX
  8
ガラス
 10
114.2
 20
-65.9
 70
     8
  0
VERTEX
  8
ガラス
 10
114.15
 20
-65.825
 70
     8
  0
VERTEX
  8
ガラス
 10
114.1
 20
-65.75
 70
     8
  0
VERTEX
  8
ガラス
 10
114.05
 20
-65.7
 70
     8
  0
VERTEX
  8
ガラス
 10
114.0
 20
-65.625
 70
     8
  0
VERTEX
  8
ガラス
 10
113.95
 20
-65.55
 70
     8
  0
VERTEX
  8
ガラス
 10
113.925
 20
-65.475
 70
     8
  0
VERTEX
  8
ガラス
 10
113.875
 20
-65.4
 70
     8
  0
VERTEX
  8
ガラス
 10
113.85
 20
-65.325
 70
     8
  0
VERTEX
  8
ガラス
 10
113.825
 20
-65.225
 70
     8
  0
VERTEX
  8
ガラス
 10
113.8
 20
-65.15
 70
     8
  0
VERTEX
  8
ガラス
 10
113.75
 20
-65.075
 70
     8
  0
VERTEX
  8
ガラス
 10
113.725
 20
-64.975
 70
     8
  0
VERTEX
  8
ガラス
 10
113.7
 20
-64.9
 70
     8
  0
VERTEX
  8
ガラス
 10
113.675
 20
-64.8
 70
     8
  0
VERTEX
  8
ガラス
 10
113.65
 20
-64.725
 70
     8
  0
VERTEX
  8
ガラス
 10
113.65
 20
-64.625
 70
     8
  0
VERTEX
  8
ガラス
 10
113.625
 20
-64.55
 70
     8
  0
VERTEX
  8
ガラス
 10
113.6
 20
-64.45
 70
     8
  0
VERTEX
  8
ガラス
 10
113.575
 20
-64.35
 70
     8
  0
VERTEX
  8
ガラス
 10
113.55
 20
-64.275
 70
     8
  0
SEQEND
  0
POLYLINE
  8
ガラス
  6
CONTINUOUS
 66
     1
 70
     4
  0
VERTEX
  8
ガラス
 10
113.55
 20
-64.275
 70
     8
  0
VERTEX
  8
ガラス
 10
113.625
 20
-64.3
 70
     8
  0
VERTEX
  8
ガラス
 10
113.675
 20
-64.325
 70
     8
  0
VERTEX
  8
ガラス
 10
113.725
 20
-64.35
 70
     8
  0
VERTEX
  8
ガラス
 10
113.775
 20
-64.35
 70
     8
  0
VERTEX
  8
ガラス
 10
113.85
 20
-64.375
 70
     8
  0
VERTEX
  8
ガラス
 10
113.9
 20
-64.4
 70
     8
  0
VERTEX
  8
ガラス
 10
113.95
 20
-64.425
 70
     8
  0
VERTEX
  8
ガラス
 10
114.025
 20
-64.45
 70
     8
  0
VERTEX
  8
ガラス
 10
114.075
 20
-64.475
 70
     8
  0
VERTEX
  8
ガラス
 10
114.125
 20
-64.5
 70
     8
  0
VERTEX
  8
ガラス
 10
114.175
 20
-64.525
 70
     8
  0
VERTEX
  8
ガラス
 10
114.25
 20
-64.525
 70
     8
  0
VERTEX
  8
ガラス
 10
114.3
 20
-64.55
 70
     8
  0
VERTEX
  8
ガラス
 10
114.35
 20
-64.575
 70
     8
  0
VERTEX
  8
ガラス
 10
114.425
 20
-64.6
 70
     8
  0
VERTEX
  8
ガラス
 10
114.475
 20
-64.625
 70
     8
  0
VERTEX
  8
ガラス
 10
114.525
 20
-64.625
 70
     8
  0
VERTEX
  8
ガラス
 10
114.6
 20
-64.65
 70
     8
  0
VERTEX
  8
ガラス
 10
114.65
 20
-64.675
 70
     8
  0
VERTEX
  8
ガラス
 10
114.7
 20
-64.675
 70
     8
  0
VERTEX
  8
ガラス
 10
114.775
 20
-64.7
 70
     8
  0
VERTEX
  8
ガラス
 10
114.825
 20
-64.7
 70
     8
  0
VERTEX
  8
ガラス
 10
114.9
 20
-64.725
 70
     8
  0
VERTEX
  8
ガラス
 10
114.95
 20
-64.725
 70
     8
  0
VERTEX
  8
ガラス
 10
115.0
 20
-64.75
 70
     8
  0
VERTEX
  8
ガラス
 10
115.075
 20
-64.75
 70
     8
  0
VERTEX
  8
ガラス
 10
115.125
 20
-64.775
 70
     8
  0
VERTEX
  8
ガラス
 10
115.2
 20
-64.775
 70
     8
  0
VERTEX
  8
ガラス
 10
115.25
 20
-64.775
 70
     8
  0
VERTEX
  8
ガラス
 10
115.3
 20
-64.8
 70
     8
  0
VERTEX
  8
ガラス
 10
115.375
 20
-64.8
 70
     8
  0
VERTEX
  8
ガラス
 10
115.425
 20
-64.8
 70
     8
  0
VERTEX
  8
ガラス
 10
115.5
 20
-64.825
 70
     8
  0
VERTEX
  8
ガラス
 10
115.55
 20
-64.825
 70
     8
  0
VERTEX
  8
ガラス
 10
115.625
 20
-64.825
 70
     8
  0
VERTEX
  8
ガラス
 10
115.675
 20
-64.85
 70
     8
  0
VERTEX
  8
ガラス
 10
115.75
 20
-64.85
 70
     8
  0
VERTEX
  8
ガラス
 10
115.8
 20
-64.85
 70
     8
  0
VERTEX
  8
ガラス
 10
115.85
 20
-64.85
 70
     8
  0
VERTEX
  8
ガラス
 10
115.925
 20
-64.85
 70
     8
  0
SEQEND
  0
ARC
  8
ガラス
  6
CONTINUOUS
 10
115.835693
 20
-65.799687
 40
0.955135
 50
263.993979
 51
443.993979
  0
ENDBLK
  0
BLOCK
  2
*GRP_0006
 70
    65
 10
0.0
 20
0.0
  0
POLYLINE
  8
ガラス
  6
CONTINUOUS
 66
     1
 70
     4
  0
VERTEX
  8
ガラス
 10
127.15
 20
-69.65
 70
     8
  0
VERTEX
  8
ガラス
 10
127.05
 20
-69.625
 70
     8
  0
VERTEX
  8
ガラス
 10
126.975
 20
-69.6
 70
     8
  0
VERTEX
  8
ガラス
 10
126.875
 20
-69.55
 70
     8
  0
VERTEX
  8
ガラス
 10
126.8
 20
-69.525
 70
     8
  0
VERTEX
  8
ガラス
 10
126.725
 20
-69.475
 70
     8
  0
VERTEX
  8
ガラス
 10
126.625
 20
-69.45
 70
     8
  0
VERTEX
  8
ガラス
 10
126.55
 20
-69.4
 70
     8
  0
VERTEX
  8
ガラス
 10
126.475
 20
-69.375
 70
     8
  0
VERTEX
  8
ガラス
 10
126.375
 20
-69.325
 70
     8
  0
VERTEX
  8
ガラス
 10
126.3
 20
-69.3
 70
     8
  0
VERTEX
  8
ガラス
 10
126.225
 20
-69.25
 70
     8
  0
VERTEX
  8
ガラス
 10
126.15
 20
-69.2
 70
     8
  0
VERTEX
  8
ガラス
 10
126.075
 20
-69.15
 70
     8
  0
VERTEX
  8
ガラス
 10
126.0
 20
-69.125
 70
     8
  0
VERTEX
  8
ガラス
 10
125.925
 20
-69.075
 70
     8
  0
VERTEX
  8
ガラス
 10
125.875
 20
-69.025
 70
     8
  0
VERTEX
  8
ガラス
 10
125.8
 20
-68.95
 70
     8
  0
VERTEX
  8
ガラス
 10
125.725
 20
-68.9
 70
     8
  0
VERTEX
  8
ガラス
 10
125.675
 20
-68.85
 70
     8
  0
VERTEX
  8
ガラス
 10
125.625
 20
-68.775
 70
     8
  0
VERTEX
  8
ガラス
 10
125.575
 20
-68.725
 70
     8
  0
VERTEX
  8
ガラス
 10
125.525
 20
-68.65
 70
     8
  0
VERTEX
  8
ガラス
 10
125.475
 20
-68.6
 70
     8
  0
VERTEX
  8
ガラス
 10
125.425
 20
-68.525
 70
     8
  0
VERTEX
  8
ガラス
 10
125.375
 20
-68.45
 70
     8
  0
VERTEX
  8
ガラス
 10
125.35
 20
-68.375
 70
     8
  0
VERTEX
  8
ガラス
 10
125.3
 20
-68.3
 70
     8
  0
VERTEX
  8
ガラス
 10
125.275
 20
-68.225
 70
     8
  0
VERTEX
  8
ガラス
 10
125.25
 20
-68.125
 70
     8
  0
VERTEX
  8
ガラス
 10
125.225
 20
-68.05
 70
     8
  0
VERTEX
  8
ガラス
 10
125.175
 20
-67.975
 70
     8
  0
VERTEX
  8
ガラス
 10
125.15
 20
-67.875
 70
     8
  0
VERTEX
  8
ガラス
 10
125.125
 20
-67.8
 70
     8
  0
VERTEX
  8
ガラス
 10
125.1
 20
-67.7
 70
     8
  0
VERTEX
  8
ガラス
 10
125.075
 20
-67.625
 70
     8
  0
VERTEX
  8
ガラス
 10
125.075
 20
-67.525
 70
     8
  0
VERTEX
  8
ガラス
 10
125.05
 20
-67.45
 70
     8
  0
VERTEX
  8
ガラス
 10
125.025
 20
-67.35
 70
     8
  0
VERTEX
  8
ガラス
 10
125.0
 20
-67.25
 70
     8
  0
VERTEX
  8
ガラス
 10
124.975
 20
-67.175
 70
     8
  0
SEQEND
  0
POLYLINE
  8
ガラス
  6
CONTINUOUS
 66
     1
 70
     4
  0
VERTEX
  8
ガラス
 10
124.975
 20
-67.175
 70
     8
  0
VERTEX
  8
ガラス
 10
125.025
 20
-67.2
 70
     8
  0
VERTEX
  8
ガラス
 10
125.1
 20
-67.225
 70
     8
  0
VERTEX
  8
ガラス
 10
125.15
 20
-67.225
 70
     8
  0
VERTEX
  8
ガラス
 10
125.2
 20
-67.25
 70
     8
  0
VERTEX
  8
ガラス
 10
125.275
 20
-67.275
 70
     8
  0
VERTEX
  8
ガラス
 10
125.325
 20
-67.3
 70
     8
  0
VERTEX
  8
ガラス
 10
125.375
 20
-67.325
 70
     8
  0
VERTEX
  8
ガラス
 10
125.425
 20
-67.35
 70
     8
  0
VERTEX
  8
ガラス
 10
125.5
 20
-67.375
 70
     8
  0
VERTEX
  8
ガラス
 10
125.55
 20
-67.4
 70
     8
  0
VERTEX
  8
ガラス
 10
125.6
 20
-67.425
 70
     8
  0
VERTEX
  8
ガラス
 10
125.675
 20
-67.425
 70
     8
  0
VERTEX
  8
ガラス
 10
125.725
 20
-67.45
 70
     8
  0
VERTEX
  8
ガラス
 10
125.775
 20
-67.475
 70
     8
  0
VERTEX
  8
ガラス
 10
125.85
 20
-67.5
 70
     8
  0
VERTEX
  8
ガラス
 10
125.9
 20
-67.5
 70
     8
  0
VERTEX
  8
ガラス
 10
125.95
 20
-67.525
 70
     8
  0
VERTEX
  8
ガラス
 10
126.025
 20
-67.55
 70
     8
  0
VERTEX
  8
ガラス
 10
126.075
 20
-67.55
 70
     8
  0
VERTEX
  8
ガラス
 10
126.125
 20
-67.575
 70
     8
  0
VERTEX
  8
ガラス
 10
126.2
 20
-67.6
 70
     8
  0
VERTEX
  8
ガラス
 10
126.25
 20
-67.6
 70
     8
  0
VERTEX
  8
ガラス
 10
126.325
 20
-67.625
 70
     8
  0
VERTEX
  8
ガラス
 10
126.375
 20
-67.625
 70
     8
  0
VERTEX
  8
ガラス
 10
126.425
 20
-67.65
 70
     8
  0
VERTEX
  8
ガラス
 10
126.5
 20
-67.65
 70
     8
  0
VERTEX
  8
ガラス
 10
126.55
 20
-67.675
 70
     8
  0
VERTEX
  8
ガラス
 10
126.625
 20
-67.675
 70
     8
  0
VERTEX
  8
ガラス
 10
126.675
 20
-67.675
 70
     8
  0
VERTEX
  8
ガラス
 10
126.725
 20
-67.7
 70
     8
  0
VERTEX
  8
ガラス
 10
126.8
 20
-67.7
 70
     8
  0
VERTEX
  8
ガラス
 10
126.85
 20
-67.7
 70
     8
  0
VERTEX
  8
ガラス
 10
126.925
 20
-67.725
 70
     8
  0
VERTEX
  8
ガラス
 10
126.975
 20
-67.725
 70
     8
  0
VERTEX
  8
ガラス
 10
127.05
 20
-67.725
 70
     8
  0
VERTEX
  8
ガラス
 10
127.1
 20
-67.725
 70
     8
  0
VERTEX
  8
ガラス
 10
127.15
 20
-67.75
 70
     8
  0
VERTEX
  8
ガラス
 10
127.225
 20
-67.75
 70
     8
  0
VERTEX
  8
ガラス
 10
127.275
 20
-67.75
 70
     8
  0
VERTEX
  8
ガラス
 10
127.35
 20
-67.75
 70
     8
  0
SEQEND
  0
ARC
  8
ガラス
  6
CONTINUOUS
 10
127.25857
 20
-68.697197
 40
0.955135
 50
263.993979
 51
443.993979
  0
ENDBLK
  0
BLOCK
  2
*GRP_0007
 70
    65
 10
0.0
 20
0.0
  0
POLYLINE
  8
ガラス
  6
CONTINUOUS
 66
     1
 70
     4
  0
VERTEX
  8
ガラス
 10
111.45
 20
-56.725
 70
     8
  0
VERTEX
  8
ガラス
 10
111.45
 20
-56.65
 70
     8
  0
VERTEX
  8
ガラス
 10
111.425
 20
-56.55
 70
     8
  0
VERTEX
  8
ガラス
 10
111.425
 20
-56.45
 70
     8
  0
VERTEX
  8
ガラス
 10
111.4
 20
-56.375
 70
     8
  0
VERTEX
  8
ガラス
 10
111.4
 20
-56.275
 70
     8
  0
VERTEX
  8
ガラス
 10
111.375
 20
-56.175
 70
     8
  0
VERTEX
  8
ガラス
 10
111.375
 20
-56.1
 70
     8
  0
VERTEX
  8
ガラス
 10
111.35
 20
-56.0
 70
     8
  0
VERTEX
  8
ガラス
 10
111.35
 20
-55.9
 70
     8
  0
VERTEX
  8
ガラス
 10
111.35
 20
-55.825
 70
     8
  0
VERTEX
  8
ガラス
 10
111.35
 20
-55.725
 70
     8
  0
VERTEX
  8
ガラス
 10
111.35
 20
-55.65
 70
     8
  0
VERTEX
  8
ガラス
 10
111.35
 20
-55.55
 70
     8
  0
VERTEX
  8
ガラス
 10
111.35
 20
-55.475
 70
     8
  0
VERTEX
  8
ガラス
 10
111.35
 20
-55.4
 70
     8
  0
VERTEX
  8
ガラス
 10
111.35
 20
-55.3
 70
     8
  0
VERTEX
  8
ガラス
 10
111.375
 20
-55.225
 70
     8
  0
VERTEX
  8
ガラス
 10
111.375
 20
-55.15
 70
     8
  0
VERTEX
  8
ガラス
 10
111.4
 20
-55.05
 70
     8
  0
VERTEX
  8
ガラス
 10
111.425
 20
-54.975
 70
     8
  0
VERTEX
  8
ガラス
 10
111.45
 20
-54.9
 70
     8
  0
VERTEX
  8
ガラス
 10
111.475
 20
-54.825
 70
     8
  0
VERTEX
  8
ガラス
 10
111.525
 20
-54.75
 70
     8
  0
VERTEX
  8
ガラス
 10
111.55
 20
-54.675
 70
     8
  0
VERTEX
  8
ガラス
 10
111.6
 20
-54.6
 70
     8
  0
VERTEX
  8
ガラス
 10
111.65
 20
-54.525
 70
     8
  0
VERTEX
  8
ガラス
 10
111.7
 20
-54.45
 70
     8
  0
VERTEX
  8
ガラス
 10
111.75
 20
-54.375
 70
     8
  0
VERTEX
  8
ガラス
 10
111.8
 20
-54.325
 70
     8
  0
VERTEX
  8
ガラス
 10
111.85
 20
-54.25
 70
     8
  0
VERTEX
  8
ガラス
 10
111.9
 20
-54.175
 70
     8
  0
VERTEX
  8
ガラス
 10
111.975
 20
-54.125
 70
     8
  0
VERTEX
  8
ガラス
 10
112.025
 20
-54.05
 70
     8
  0
VERTEX
  8
ガラス
 10
112.1
 20
-53.975
 70
     8
  0
VERTEX
  8
ガラス
 10
112.15
 20
-53.925
 70
     8
  0
VERTEX
  8
ガラス
 10
112.225
 20
-53.85
 70
     8
  0
VERTEX
  8
ガラス
 10
112.275
 20
-53.8
 70
     8
  0
VERTEX
  8
ガラス
 10
112.35
 20
-53.725
 70
     8
  0
VERTEX
  8
ガラス
 10
112.425
 20
-53.65
 70
     8
  0
VERTEX
  8
ガラス
 10
112.475
 20
-53.6
 70
     8
  0
SEQEND
  0
POLYLINE
  8
ガラス
  6
CONTINUOUS
 66
     1
 70
     4
  0
VERTEX
  8
ガラス
 10
112.475
 20
-53.6
 70
     8
  0
VERTEX
  8
ガラス
 10
112.5
 20
-53.65
 70
     8
  0
VERTEX
  8
ガラス
 10
112.5
 20
-53.725
 70
     8
  0
VERTEX
  8
ガラス
 10
112.525
 20
-53.775
 70
     8
  0
VERTEX
  8
ガラス
 10
112.525
 20
-53.85
 70
     8
  0
VERTEX
  8
ガラス
 10
112.525
 20
-53.9
 70
     8
  0
VERTEX
  8
ガラス
 10
112.55
 20
-53.95
 70
     8
  0
VERTEX
  8
ガラス
 10
112.55
 20
-54.025
 70
     8
  0
VERTEX
  8
ガラス
 10
112.575
 20
-54.075
 70
     8
  0
VERTEX
  8
ガラス
 10
112.575
 20
-54.15
 70
     8
  0
VERTEX
  8
ガラス
 10
112.6
 20
-54.2
 70
     8
  0
VERTEX
  8
ガラス
 10
112.6
 20
-54.275
 70
     8
  0
VERTEX
  8
ガラス
 10
112.6
 20
-54.325
 70
     8
  0
VERTEX
  8
ガラス
 10
112.625
 20
-54.375
 70
     8
  0
VERTEX
  8
ガラス
 10
112.625
 20
-54.45
 70
     8
  0
VERTEX
  8
ガラス
 10
112.65
 20
-54.5
 70
     8
  0
VERTEX
  8
ガラス
 10
112.675
 20
-54.55
 70
     8
  0
VERTEX
  8
ガラス
 10
112.675
 20
-54.625
 70
     8
  0
VERTEX
  8
ガラス
 10
112.7
 20
-54.675
 70
     8
  0
VERTEX
  8
ガラス
 10
112.7
 20
-54.75
 70
     8
  0
VERTEX
  8
ガラス
 10
112.725
 20
-54.8
 70
     8
  0
VERTEX
  8
ガラス
 10
112.75
 20
-54.85
 70
     8
  0
VERTEX
  8
ガラス
 10
112.775
 20
-54.925
 70
     8
  0
VERTEX
  8
ガラス
 10
112.775
 20
-54.975
 70
     8
  0
VERTEX
  8
ガラス
 10
112.8
 20
-55.025
 70
     8
  0
VERTEX
  8
ガラス
 10
112.825
 20
-55.075
 70
     8
  0
VERTEX
  8
ガラス
 10
112.85
 20
-55.15
 70
     8
  0
VERTEX
  8
ガラス
 10
112.875
 20
-55.2
 70
     8
  0
VERTEX
  8
ガラス
 10
112.9
 20
-55.25
 70
     8
  0
VERTEX
  8
ガラス
 10
112.925
 20
-55.325
 70
     8
  0
VERTEX
  8
ガラス
 10
112.95
 20
-55.375
 70
     8
  0
VERTEX
  8
ガラス
 10
112.975
 20
-55.425
 70
     8
  0
VERTEX
  8
ガラス
 10
112.975
 20
-55.475
 70
     8
  0
VERTEX
  8
ガラス
 10
113.0
 20
-55.55
 70
     8
  0
VERTEX
  8
ガラス
 10
113.05
 20
-55.6
 70
     8
  0
VERTEX
  8
ガラス
 10
113.075
 20
-55.65
 70
     8
  0
VERTEX
  8
ガラス
 10
113.1
 20
-55.7
 70
     8
  0
VERTEX
  8
ガラス
 10
113.125
 20
-55.775
 70
     8
  0
VERTEX
  8
ガラス
 10
113.15
 20
-55.825
 70
     8
  0
VERTEX
  8
ガラス
 10
113.175
 20
-55.875
 70
     8
  0
VERTEX
  8
ガラス
 10
113.2
 20
-55.925
 70
     8
  0
SEQEND
  0
ARC
  8
ガラス
  6
CONTINUOUS
 10
112.340128
 20
-56.320753
 40
0.955135
 50
204.896752
 51
384.896752
  0
ENDBLK
  0
BLOCK
  2
*GRP_0008
 70
    65
 10
0.0
 20
0.0
  0
POLYLINE
  8
ガラス
  6
CONTINUOUS
 66
     1
 70
     4
  0
VERTEX
  8
ガラス
 10
111.45
 20
-35.85
 70
     8
  0
VERTEX
  8
ガラス
 10
111.45
 20
-35.75
 70
     8
  0
VERTEX
  8
ガラス
 10
111.425
 20
-35.65
 70
     8
  0
VERTEX
  8
ガラス
 10
111.425
 20
-35.575
 70
     8
  0
VERTEX
  8
ガラス
 10
111.4
 20
-35.475
 70
     8
  0
VERTEX
  8
ガラス
 10
111.4
 20
-35.375
 70
     8
  0
VERTEX
  8
ガラス
 10
111.375
 20
-35.3
 70
     8
  0
VERTEX
  8
ガラス
 10
111.375
 20
-35.2
 70
     8
  0
VERTEX
  8
ガラス
 10
111.35
 20
-35.1
 70
     8
  0
VERTEX
  8
ガラス
 10
111.35
 20
-35.025
 70
     8
  0
VERTEX
  8
ガラス
 10
111.35
 20
-34.925
 70
     8
  0
VERTEX
  8
ガラス
 10
111.35
 20
-34.85
 70
     8
  0
VERTEX
  8
ガラス
 10
111.35
 20
-34.75
 70
     8
  0
VERTEX
  8
ガラス
 10
111.35
 20
-34.675
 70
     8
  0
VERTEX
  8
ガラス
 10
111.35
 20
-34.575
 70
     8
  0
VERTEX
  8
ガラス
 10
111.35
 20
-34.5
 70
     8
  0
VERTEX
  8
ガラス
 10
111.35
 20
-34.4
 70
     8
  0
VERTEX
  8
ガラス
 10
111.375
 20
-34.325
 70
     8
  0
VERTEX
  8
ガラス
 10
111.375
 20
-34.25
 70
     8
  0
VERTEX
  8
ガラス
 10
111.4
 20
-34.15
 70
     8
  0
VERTEX
  8
ガラス
 10
111.425
 20
-34.075
 70
     8
  0
VERTEX
  8
ガラス
 10
111.45
 20
-34.0
 70
     8
  0
VERTEX
  8
ガラス
 10
111.475
 20
-33.925
 70
     8
  0
VERTEX
  8
ガラス
 10
111.525
 20
-33.85
 70
     8
  0
VERTEX
  8
ガラス
 10
111.55
 20
-33.775
 70
     8
  0
VERTEX
  8
ガラス
 10
111.6
 20
-33.7
 70
     8
  0
VERTEX
  8
ガラス
 10
111.65
 20
-33.625
 70
     8
  0
VERTEX
  8
ガラス
 10
111.7
 20
-33.55
 70
     8
  0
VERTEX
  8
ガラス
 10
111.75
 20
-33.5
 70
     8
  0
VERTEX
  8
ガラス
 10
111.8
 20
-33.425
 70
     8
  0
VERTEX
  8
ガラス
 10
111.85
 20
-33.35
 70
     8
  0
VERTEX
  8
ガラス
 10
111.9
 20
-33.275
 70
     8
  0
VERTEX
  8
ガラス
 10
111.975
 20
-33.225
 70
     8
  0
VERTEX
  8
ガラス
 10
112.025
 20
-33.15
 70
     8
  0
VERTEX
  8
ガラス
 10
112.1
 20
-33.1
 70
     8
  0
VERTEX
  8
ガラス
 10
112.15
 20
-33.025
 70
     8
  0
VERTEX
  8
ガラス
 10
112.225
 20
-32.95
 70
     8
  0
VERTEX
  8
ガラス
 10
112.275
 20
-32.9
 70
     8
  0
VERTEX
  8
ガラス
 10
112.35
 20
-32.825
 70
     8
  0
VERTEX
  8
ガラス
 10
112.425
 20
-32.775
 70
     8
  0
VERTEX
  8
ガラス
 10
112.475
 20
-32.7
 70
     8
  0
SEQEND
  0
POLYLINE
  8
ガラス
  6
CONTINUOUS
 66
     1
 70
     4
  0
VERTEX
  8
ガラス
 10
112.475
 20
-32.7
 70
     8
  0
VERTEX
  8
ガラス
 10
112.5
 20
-32.75
 70
     8
  0
VERTEX
  8
ガラス
 10
112.5
 20
-32.825
 70
     8
  0
VERTEX
  8
ガラス
 10
112.525
 20
-32.875
 70
     8
  0
VERTEX
  8
ガラス
 10
112.525
 20
-32.95
 70
     8
  0
VERTEX
  8
ガラス
 10
112.525
 20
-33.0
 70
     8
  0
VERTEX
  8
ガラス
 10
112.55
 20
-33.075
 70
     8
  0
VERTEX
  8
ガラス
 10
112.55
 20
-33.125
 70
     8
  0
VERTEX
  8
ガラス
 10
112.575
 20
-33.175
 70
     8
  0
VERTEX
  8
ガラス
 10
112.575
 20
-33.25
 70
     8
  0
VERTEX
  8
ガラス
 10
112.6
 20
-33.3
 70
     8
  0
VERTEX
  8
ガラス
 10
112.6
 20
-33.375
 70
     8
  0
VERTEX
  8
ガラス
 10
112.6
 20
-33.425
 70
     8
  0
VERTEX
  8
ガラス
 10
112.625
 20
-33.5
 70
     8
  0
VERTEX
  8
ガラス
 10
112.625
 20
-33.55
 70
     8
  0
VERTEX
  8
ガラス
 10
112.65
 20
-33.6
 70
     8
  0
VERTEX
  8
ガラス
 10
112.675
 20
-33.675
 70
     8
  0
VERTEX
  8
ガラス
 10
112.675
 20
-33.725
 70
     8
  0
VERTEX
  8
ガラス
 10
112.7
 20
-33.775
 70
     8
  0
VERTEX
  8
ガラス
 10
112.7
 20
-33.85
 70
     8
  0
VERTEX
  8
ガラス
 10
112.725
 20
-33.9
 70
     8
  0
VERTEX
  8
ガラス
 10
112.75
 20
-33.95
 70
     8
  0
VERTEX
  8
ガラス
 10
112.775
 20
-34.025
 70
     8
  0
VERTEX
  8
ガラス
 10
112.775
 20
-34.075
 70
     8
  0
VERTEX
  8
ガラス
 10
112.8
 20
-34.125
 70
     8
  0
VERTEX
  8
ガラス
 10
112.825
 20
-34.2
 70
     8
  0
VERTEX
  8
ガラス
 10
112.85
 20
-34.25
 70
     8
  0
VERTEX
  8
ガラス
 10
112.875
 20
-34.3
 70
     8
  0
VERTEX
  8
ガラス
 10
112.9
 20
-34.375
 70
     8
  0
VERTEX
  8
ガラス
 10
112.925
 20
-34.425
 70
     8
  0
VERTEX
  8
ガラス
 10
112.95
 20
-34.475
 70
     8
  0
VERTEX
  8
ガラス
 10
112.975
 20
-34.525
 70
     8
  0
VERTEX
  8
ガラス
 10
112.975
 20
-34.6
 70
     8
  0
VERTEX
  8
ガラス
 10
113.0
 20
-34.65
 70
     8
  0
VERTEX
  8
ガラス
 10
113.05
 20
-34.7
 70
     8
  0
VERTEX
  8
ガラス
 10
113.075
 20
-34.75
 70
     8
  0
VERTEX
  8
ガラス
 10
113.1
 20
-34.825
 70
     8
  0
VERTEX
  8
ガラス
 10
113.125
 20
-34.875
 70
     8
  0
VERTEX
  8
ガラス
 10
113.15
 20
-34.925
 70
     8
  0
VERTEX
  8
ガラス
 10
113.175
 20
-34.975
 70
     8
  0
VERTEX
  8
ガラス
 10
113.2
 20
-35.025
 70
     8
  0
SEQEND
  0
ARC
  8
ガラス
  6
CONTINUOUS
 10
112.340128
 20
-35.425245
 40
0.955135
 50
204.896752
 51
384.896752
  0
ENDBLK
  0
BLOCK
  2
*GRP_0009
 70
    65
 10
0.0
 20
0.0
  0
POLYLINE
  8
ガラス
  6
CONTINUOUS
 66
     1
 70
     4
  0
VERTEX
  8
ガラス
 10
111.45
 20
-15.775
 70
     8
  0
VERTEX
  8
ガラス
 10
111.45
 20
-15.7
 70
     8
  0
VERTEX
  8
ガラス
 10
111.425
 20
-15.6
 70
     8
  0
VERTEX
  8
ガラス
 10
111.425
 20
-15.5
 70
     8
  0
VERTEX
  8
ガラス
 10
111.4
 20
-15.4
 70
     8
  0
VERTEX
  8
ガラス
 10
111.4
 20
-15.325
 70
     8
  0
VERTEX
  8
ガラス
 10
111.375
 20
-15.225
 70
     8
  0
VERTEX
  8
ガラス
 10
111.375
 20
-15.125
 70
     8
  0
VERTEX
  8
ガラス
 10
111.35
 20
-15.05
 70
     8
  0
VERTEX
  8
ガラス
 10
111.35
 20
-14.95
 70
     8
  0
VERTEX
  8
ガラス
 10
111.35
 20
-14.875
 70
     8
  0
VERTEX
  8
ガラス
 10
111.35
 20
-14.775
 70
     8
  0
VERTEX
  8
ガラス
 10
111.35
 20
-14.7
 70
     8
  0
VERTEX
  8
ガラス
 10
111.35
 20
-14.6
 70
     8
  0
VERTEX
  8
ガラス
 10
111.35
 20
-14.525
 70
     8
  0
VERTEX
  8
ガラス
 10
111.35
 20
-14.425
 70
     8
  0
VERTEX
  8
ガラス
 10
111.35
 20
-14.35
 70
     8
  0
VERTEX
  8
ガラス
 10
111.375
 20
-14.275
 70
     8
  0
VERTEX
  8
ガラス
 10
111.375
 20
-14.175
 70
     8
  0
VERTEX
  8
ガラス
 10
111.4
 20
-14.1
 70
     8
  0
VERTEX
  8
ガラス
 10
111.425
 20
-14.025
 70
     8
  0
VERTEX
  8
ガラス
 10
111.45
 20
-13.95
 70
     8
  0
VERTEX
  8
ガラス
 10
111.475
 20
-13.875
 70
     8
  0
VERTEX
  8
ガラス
 10
111.525
 20
-13.8
 70
     8
  0
VERTEX
  8
ガラス
 10
111.55
 20
-13.725
 70
     8
  0
VERTEX
  8
ガラス
 10
111.6
 20
-13.65
 70
     8
  0
VERTEX
  8
ガラス
 10
111.65
 20
-13.575
 70
     8
  0
VERTEX
  8
ガラス
 10
111.7
 20
-13.5
 70
     8
  0
VERTEX
  8
ガラス
 10
111.75
 20
-13.425
 70
     8
  0
VERTEX
  8
ガラス
 10
111.8
 20
-13.375
 70
     8
  0
VERTEX
  8
ガラス
 10
111.85
 20
-13.3
 70
     8
  0
VERTEX
  8
ガラス
 10
111.9
 20
-13.225
 70
     8
  0
VERTEX
  8
ガラス
 10
111.975
 20
-13.15
 70
     8
  0
VERTEX
  8
ガラス
 10
112.025
 20
-13.1
 70
     8
  0
VERTEX
  8
ガラス
 10
112.1
 20
-13.025
 70
     8
  0
VERTEX
  8
ガラス
 10
112.15
 20
-12.975
 70
     8
  0
VERTEX
  8
ガラス
 10
112.225
 20
-12.9
 70
     8
  0
VERTEX
  8
ガラス
 10
112.275
 20
-12.825
 70
     8
  0
VERTEX
  8
ガラス
 10
112.35
 20
-12.775
 70
     8
  0
VERTEX
  8
ガラス
 10
112.425
 20
-12.7
 70
     8
  0
VERTEX
  8
ガラス
 10
112.475
 20
-12.65
 70
     8
  0
SEQEND
  0
POLYLINE
  8
ガラス
  6
CONTINUOUS
 66
     1
 70
     4
  0
VERTEX
  8
ガラス
 10
112.475
 20
-12.65
 70
     8
  0
VERTEX
  8
ガラス
 10
112.5
 20
-12.7
 70
     8
  0
VERTEX
  8
ガラス
 10
112.5
 20
-12.75
 70
     8
  0
VERTEX
  8
ガラス
 10
112.525
 20
-12.825
 70
     8
  0
VERTEX
  8
ガラス
 10
112.525
 20
-12.875
 70
     8
  0
VERTEX
  8
ガラス
 10
112.525
 20
-12.95
 70
     8
  0
VERTEX
  8
ガラス
 10
112.55
 20
-13.0
 70
     8
  0
VERTEX
  8
ガラス
 10
112.55
 20
-13.075
 70
     8
  0
VERTEX
  8
ガラス
 10
112.575
 20
-13.125
 70
     8
  0
VERTEX
  8
ガラス
 10
112.575
 20
-13.175
 70
     8
  0
VERTEX
  8
ガラス
 10
112.6
 20
-13.25
 70
     8
  0
VERTEX
  8
ガラス
 10
112.6
 20
-13.3
 70
     8
  0
VERTEX
  8
ガラス
 10
112.6
 20
-13.375
 70
     8
  0
VERTEX
  8
ガラス
 10
112.625
 20
-13.425
 70
     8
  0
VERTEX
  8
ガラス
 10
112.625
 20
-13.5
 70
     8
  0
VERTEX
  8
ガラス
 10
112.65
 20
-13.55
 70
     8
  0
VERTEX
  8
ガラス
 10
112.675
 20
-13.6
 70
     8
  0
VERTEX
  8
ガラス
 10
112.675
 20
-13.675
 70
     8
  0
VERTEX
  8
ガラス
 10
112.7
 20
-13.725
 70
     8
  0
VERTEX
  8
ガラス
 10
112.7
 20
-13.775
 70
     8
  0
VERTEX
  8
ガラス
 10
112.725
 20
-13.85
 70
     8
  0
VERTEX
  8
ガラス
 10
112.75
 20
-13.9
 70
     8
  0
VERTEX
  8
ガラス
 10
112.775
 20
-13.95
 70
     8
  0
VERTEX
  8
ガラス
 10
112.775
 20
-14.025
 70
     8
  0
VERTEX
  8
ガラス
 10
112.8
 20
-14.075
 70
     8
  0
VERTEX
  8
ガラス
 10
112.825
 20
-14.125
 70
     8
  0
VERTEX
  8
ガラス
 10
112.85
 20
-14.2
 70
     8
  0
VERTEX
  8
ガラス
 10
112.875
 20
-14.25
 70
     8
  0
VERTEX
  8
ガラス
 10
112.9
 20
-14.3
 70
     8
  0
VERTEX
  8
ガラス
 10
112.925
 20
-14.35
 70
     8
  0
VERTEX
  8
ガラス
 10
112.95
 20
-14.425
 70
     8
  0
VERTEX
  8
ガラス
 10
112.975
 20
-14.475
 70
     8
  0
VERTEX
  8
ガラス
 10
112.975
 20
-14.525
 70
     8
  0
VERTEX
  8
ガラス
 10
113.0
 20
-14.575
 70
     8
  0
VERTEX
  8
ガラス
 10
113.05
 20
-14.65
 70
     8
  0
VERTEX
  8
ガラス
 10
113.075
 20
-14.7
 70
     8
  0
VERTEX
  8
ガラス
 10
113.1
 20
-14.75
 70
     8
  0
VERTEX
  8
ガラス
 10
113.125
 20
-14.8
 70
     8
  0
VERTEX
  8
ガラス
 10
113.15
 20
-14.875
 70
     8
  0
VERTEX
  8
ガラス
 10
113.175
 20
-14.925
 70
     8
  0
VERTEX
  8
ガラス
 10
113.2
 20
-14.975
 70
     8
  0
SEQEND
  0
ARC
  8
ガラス
  6
CONTINUOUS
 10
112.340128
 20
-15.365557
 40
0.955135
 50
204.896752
 51
384.896752
  0
ENDBLK
  0
BLOCK
  2
*GRP_0010
 70
    65
 10
0.0
 20
0.0
  0
POLYLINE
  8
ガラス
  6
CONTINUOUS
 66
     1
 70
     4
  0
VERTEX
  8
ガラス
 10
111.45
 20
6.625
 70
     8
  0
VERTEX
  8
ガラス
 10
111.45
 20
6.7
 70
     8
  0
VERTEX
  8
ガラス
 10
111.425
 20
6.8
 70
     8
  0
VERTEX
  8
ガラス
 10
111.425
 20
6.9
 70
     8
  0
VERTEX
  8
ガラス
 10
111.4
 20
7.0
 70
     8
  0
VERTEX
  8
ガラス
 10
111.4
 20
7.075
 70
     8
  0
VERTEX
  8
ガラス
 10
111.375
 20
7.175
 70
     8
  0
VERTEX
  8
ガラス
 10
111.375
 20
7.275
 70
     8
  0
VERTEX
  8
ガラス
 10
111.35
 20
7.35
 70
     8
  0
VERTEX
  8
ガラス
 10
111.35
 20
7.45
 70
     8
  0
VERTEX
  8
ガラス
 10
111.35
 20
7.525
 70
     8
  0
VERTEX
  8
ガラス
 10
111.35
 20
7.625
 70
     8
  0
VERTEX
  8
ガラス
 10
111.35
 20
7.7
 70
     8
  0
VERTEX
  8
ガラス
 10
111.35
 20
7.8
 70
     8
  0
VERTEX
  8
ガラス
 10
111.35
 20
7.875
 70
     8
  0
VERTEX
  8
ガラス
 10
111.35
 20
7.975
 70
     8
  0
VERTEX
  8
ガラス
 10
111.35
 20
8.05
 70
     8
  0
VERTEX
  8
ガラス
 10
111.375
 20
8.125
 70
     8
  0
VERTEX
  8
ガラス
 10
111.375
 20
8.225
 70
     8
  0
VERTEX
  8
ガラス
 10
111.4
 20
8.3
 70
     8
  0
VERTEX
  8
ガラス
 10
111.425
 20
8.375
 70
     8
  0
VERTEX
  8
ガラス
 10
111.45
 20
8.45
 70
     8
  0
VERTEX
  8
ガラス
 10
111.475
 20
8.525
 70
     8
  0
VERTEX
  8
ガラス
 10
111.525
 20
8.6
 70
     8
  0
VERTEX
  8
ガラス
 10
111.55
 20
8.675
 70
     8
  0
VERTEX
  8
ガラス
 10
111.6
 20
8.75
 70
     8
  0
VERTEX
  8
ガラス
 10
111.65
 20
8.825
 70
     8
  0
VERTEX
  8
ガラス
 10
111.7
 20
8.9
 70
     8
  0
VERTEX
  8
ガラス
 10
111.75
 20
8.975
 70
     8
  0
VERTEX
  8
ガラス
 10
111.8
 20
9.025
 70
     8
  0
VERTEX
  8
ガラス
 10
111.85
 20
9.1
 70
     8
  0
VERTEX
  8
ガラス
 10
111.9
 20
9.175
 70
     8
  0
VERTEX
  8
ガラス
 10
111.975
 20
9.25
 70
     8
  0
VERTEX
  8
ガラス
 10
112.025
 20
9.3
 70
     8
  0
VERTEX
  8
ガラス
 10
112.1
 20
9.375
 70
     8
  0
VERTEX
  8
ガラス
 10
112.15
 20
9.425
 70
     8
  0
VERTEX
  8
ガラス
 10
112.225
 20
9.5
 70
     8
  0
VERTEX
  8
ガラス
 10
112.275
 20
9.575
 70
     8
  0
VERTEX
  8
ガラス
 10
112.35
 20
9.625
 70
     8
  0
VERTEX
  8
ガラス
 10
112.425
 20
9.7
 70
     8
  0
VERTEX
  8
ガラス
 10
112.475
 20
9.75
 70
     8
  0
SEQEND
  0
POLYLINE
  8
ガラス
  6
CONTINUOUS
 66
     1
 70
     4
  0
VERTEX
  8
ガラス
 10
112.475
 20
9.75
 70
     8
  0
VERTEX
  8
ガラス
 10
112.5
 20
9.7
 70
     8
  0
VERTEX
  8
ガラス
 10
112.5
 20
9.65
 70
     8
  0
VERTEX
  8
ガラス
 10
112.525
 20
9.575
 70
     8
  0
VERTEX
  8
ガラス
 10
112.525
 20
9.525
 70
     8
  0
VERTEX
  8
ガラス
 10
112.525
 20
9.45
 70
     8
  0
VERTEX
  8
ガラス
 10
112.55
 20
9.4
 70
     8
  0
VERTEX
  8
ガラス
 10
112.55
 20
9.325
 70
     8
  0
VERTEX
  8
ガラス
 10
112.575
 20
9.275
 70
     8
  0
VERTEX
  8
ガラス
 10
112.575
 20
9.225
 70
     8
  0
VERTEX
  8
ガラス
 10
112.6
 20
9.15
 70
     8
  0
VERTEX
  8
ガラス
 10
112.6
 20
9.1
 70
     8
  0
VERTEX
  8
ガラス
 10
112.6
 20
9.025
 70
     8
  0
VERTEX
  8
ガラス
 10
112.625
 20
8.975
 70
     8
  0
VERTEX
  8
ガラス
 10
112.625
 20
8.9
 70
     8
  0
VERTEX
  8
ガラス
 10
112.65
 20
8.85
 70
     8
  0
VERTEX
  8
ガラス
 10
112.675
 20
8.8
 70
     8
  0
VERTEX
  8
ガラス
 10
112.675
 20
8.725
 70
     8
  0
VERTEX
  8
ガラス
 10
112.7
 20
8.675
 70
     8
  0
VERTEX
  8
ガラス
 10
112.7
 20
8.625
 70
     8
  0
VERTEX
  8
ガラス
 10
112.725
 20
8.55
 70
     8
  0
VERTEX
  8
ガラス
 10
112.75
 20
8.5
 70
     8
  0
VERTEX
  8
ガラス
 10
112.775
 20
8.45
 70
     8
  0
VERTEX
  8
ガラス
 10
112.775
 20
8.375
 70
     8
  0
VERTEX
  8
ガラス
 10
112.8
 20
8.325
 70
     8
  0
VERTEX
  8
ガラス
 10
112.825
 20
8.275
 70
     8
  0
VERTEX
  8
ガラス
 10
112.85
 20
8.2
 70
     8
  0
VERTEX
  8
ガラス
 10
112.875
 20
8.15
 70
     8
  0
VERTEX
  8
ガラス
 10
112.9
 20
8.1
 70
     8
  0
VERTEX
  8
ガラス
 10
112.925
 20
8.05
 70
     8
  0
VERTEX
  8
ガラス
 10
112.95
 20
7.975
 70
     8
  0
VERTEX
  8
ガラス
 10
112.975
 20
7.925
 70
     8
  0
VERTEX
  8
ガラス
 10
112.975
 20
7.875
 70
     8
  0
VERTEX
  8
ガラス
 10
113.0
 20
7.825
 70
     8
  0
VERTEX
  8
ガラス
 10
113.05
 20
7.75
 70
     8
  0
VERTEX
  8
ガラス
 10
113.075
 20
7.7
 70
     8
  0
VERTEX
  8
ガラス
 10
113.1
 20
7.65
 70
     8
  0
VERTEX
  8
ガラス
 10
113.125
 20
7.6
 70
     8
  0
VERTEX
  8
ガラス
 10
113.15
 20
7.525
 70
     8
  0
VERTEX
  8
ガラス
 10
113.175
 20
7.475
 70
     8
  0
VERTEX
  8
ガラス
 10
113.2
 20
7.425
 70
     8
  0
SEQEND
  0
ARC
  8
ガラス
  6
CONTINUOUS
 10
112.340128
 20
7.034428
 40
0.955135
 50
204.896752
 51
384.896752
  0
ENDBLK
  0
BLOCK
  2
*GRP_0011
 70
    65
 10
0.0
 20
0.0
  0
POLYLINE
  8
ガラス
  6
CONTINUOUS
 66
     1
 70
     4
  0
VERTEX
  8
ガラス
 10
111.45
 20
25.35
 70
     8
  0
VERTEX
  8
ガラス
 10
111.45
 20
25.425
 70
     8
  0
VERTEX
  8
ガラス
 10
111.425
 20
25.525
 70
     8
  0
VERTEX
  8
ガラス
 10
111.425
 20
25.625
 70
     8
  0
VERTEX
  8
ガラス
 10
111.4
 20
25.7
 70
     8
  0
VERTEX
  8
ガラス
 10
111.4
 20
25.8
 70
     8
  0
VERTEX
  8
ガラス
 10
111.375
 20
25.9
 70
     8
  0
VERTEX
  8
ガラス
 10
111.375
 20
25.975
 70
     8
  0
VERTEX
  8
ガラス
 10
111.35
 20
26.075
 70
     8
  0
VERTEX
  8
ガラス
 10
111.35
 20
26.175
 70
     8
  0
VERTEX
  8
ガラス
 10
111.35
 20
26.25
 70
     8
  0
VERTEX
  8
ガラス
 10
111.35
 20
26.35
 70
     8
  0
VERTEX
  8
ガラス
 10
111.35
 20
26.425
 70
     8
  0
VERTEX
  8
ガラス
 10
111.35
 20
26.525
 70
     8
  0
VERTEX
  8
ガラス
 10
111.35
 20
26.6
 70
     8
  0
VERTEX
  8
ガラス
 10
111.35
 20
26.7
 70
     8
  0
VERTEX
  8
ガラス
 10
111.35
 20
26.775
 70
     8
  0
VERTEX
  8
ガラス
 10
111.375
 20
26.85
 70
     8
  0
VERTEX
  8
ガラス
 10
111.375
 20
26.95
 70
     8
  0
VERTEX
  8
ガラス
 10
111.4
 20
27.025
 70
     8
  0
VERTEX
  8
ガラス
 10
111.425
 20
27.1
 70
     8
  0
VERTEX
  8
ガラス
 10
111.45
 20
27.175
 70
     8
  0
VERTEX
  8
ガラス
 10
111.475
 20
27.25
 70
     8
  0
VERTEX
  8
ガラス
 10
111.525
 20
27.325
 70
     8
  0
VERTEX
  8
ガラス
 10
111.55
 20
27.4
 70
     8
  0
VERTEX
  8
ガラス
 10
111.6
 20
27.475
 70
     8
  0
VERTEX
  8
ガラス
 10
111.65
 20
27.55
 70
     8
  0
VERTEX
  8
ガラス
 10
111.7
 20
27.625
 70
     8
  0
VERTEX
  8
ガラス
 10
111.75
 20
27.7
 70
     8
  0
VERTEX
  8
ガラス
 10
111.8
 20
27.75
 70
     8
  0
VERTEX
  8
ガラス
 10
111.85
 20
27.825
 70
     8
  0
VERTEX
  8
ガラス
 10
111.9
 20
27.9
 70
     8
  0
VERTEX
  8
ガラス
 10
111.975
 20
27.95
 70
     8
  0
VERTEX
  8
ガラス
 10
112.025
 20
28.025
 70
     8
  0
VERTEX
  8
ガラス
 10
112.1
 20
28.1
 70
     8
  0
VERTEX
  8
ガラス
 10
112.15
 20
28.15
 70
     8
  0
VERTEX
  8
ガラス
 10
112.225
 20
28.225
 70
     8
  0
VERTEX
  8
ガラス
 10
112.275
 20
28.3
 70
     8
  0
VERTEX
  8
ガラス
 10
112.35
 20
28.35
 70
     8
  0
VERTEX
  8
ガラス
 10
112.425
 20
28.425
 70
     8
  0
VERTEX
  8
ガラス
 10
112.475
 20
28.475
 70
     8
  0
SEQEND
  0
POLYLINE
  8
ガラス
  6
CONTINUOUS
 66
     1
 70
     4
  0
VERTEX
  8
ガラス
 10
112.475
 20
28.475
 70
     8
  0
VERTEX
  8
ガラス
 10
112.5
 20
28.425
 70
     8
  0
VERTEX
  8
ガラス
 10
112.5
 20
28.35
 70
     8
  0
VERTEX
  8
ガラス
 10
112.525
 20
28.3
 70
     8
  0
VERTEX
  8
ガラス
 10
112.525
 20
28.25
 70
     8
  0
VERTEX
  8
ガラス
 10
112.525
 20
28.175
 70
     8
  0
VERTEX
  8
ガラス
 10
112.55
 20
28.125
 70
     8
  0
VERTEX
  8
ガラス
 10
112.55
 20
28.05
 70
     8
  0
VERTEX
  8
ガラス
 10
112.575
 20
28.0
 70
     8
  0
VERTEX
  8
ガラス
 10
112.575
 20
27.925
 70
     8
  0
VERTEX
  8
ガラス
 10
112.6
 20
27.875
 70
     8
  0
VERTEX
  8
ガラス
 10
112.6
 20
27.825
 70
     8
  0
VERTEX
  8
ガラス
 10
112.6
 20
27.75
 70
     8
  0
VERTEX
  8
ガラス
 10
112.625
 20
27.7
 70
     8
  0
VERTEX
  8
ガラス
 10
112.625
 20
27.625
 70
     8
  0
VERTEX
  8
ガラス
 10
112.65
 20
27.575
 70
     8
  0
VERTEX
  8
ガラス
 10
112.675
 20
27.525
 70
     8
  0
VERTEX
  8
ガラス
 10
112.675
 20
27.45
 70
     8
  0
VERTEX
  8
ガラス
 10
112.7
 20
27.4
 70
     8
  0
VERTEX
  8
ガラス
 10
112.7
 20
27.35
 70
     8
  0
VERTEX
  8
ガラス
 10
112.725
 20
27.275
 70
     8
  0
VERTEX
  8
ガラス
 10
112.75
 20
27.225
 70
     8
  0
VERTEX
  8
ガラス
 10
112.775
 20
27.175
 70
     8
  0
VERTEX
  8
ガラス
 10
112.775
 20
27.1
 70
     8
  0
VERTEX
  8
ガラス
 10
112.8
 20
27.05
 70
     8
  0
VERTEX
  8
ガラス
 10
112.825
 20
27.0
 70
     8
  0
VERTEX
  8
ガラス
 10
112.85
 20
26.925
 70
     8
  0
VERTEX
  8
ガラス
 10
112.875
 20
26.875
 70
     8
  0
VERTEX
  8
ガラス
 10
112.9
 20
26.825
 70
     8
  0
VERTEX
  8
ガラス
 10
112.925
 20
26.75
 70
     8
  0
VERTEX
  8
ガラス
 10
112.95
 20
26.7
 70
     8
  0
VERTEX
  8
ガラス
 10
112.975
 20
26.65
 70
     8
  0
VERTEX
  8
ガラス
 10
112.975
 20
26.6
 70
     8
  0
VERTEX
  8
ガラス
 10
113.0
 20
26.525
 70
     8
  0
VERTEX
  8
ガラス
 10
113.05
 20
26.475
 70
     8
  0
VERTEX
  8
ガラス
 10
113.075
 20
26.425
 70
     8
  0
VERTEX
  8
ガラス
 10
113.1
 20
26.375
 70
     8
  0
VERTEX
  8
ガラス
 10
113.125
 20
26.325
 70
     8
  0
VERTEX
  8
ガラス
 10
113.15
 20
26.25
 70
     8
  0
VERTEX
  8
ガラス
 10
113.175
 20
26.2
 70
     8
  0
VERTEX
  8
ガラス
 10
113.2
 20
26.15
 70
     8
  0
SEQEND
  0
ARC
  8
ガラス
  6
CONTINUOUS
 10
112.340128
 20
25.756803
 40
0.955135
 50
204.896752
 51
384.896752
  0
ENDBLK
  0
BLOCK
  2
*GRP_0012
 70
    65
 10
0.0
 20
0.0
  0
LINE
  8
ゴム等
  6
CONTINUOUS
 10
24.145717
 20
-45.106555
 11
24.145717
 21
-41.106557
  0
LINE
  8
ゴム等
  6
CONTINUOUS
 10
24.145717
 20
-41.106557
 11
23.145713
 21
-41.106557
  0
LINE
  8
ゴム等
  6
CONTINUOUS
 10
24.145717
 20
-45.106555
 11
23.145713
 21
-45.106555
  0
LINE
  8
ゴム等
  6
CONTINUOUS
 10
23.145713
 20
-41.106557
 11
23.145713
 21
-37.106552
  0
LINE
  8
ゴム等
  6
CONTINUOUS
 10
23.145713
 20
-37.106552
 11
29.145713
 21
-37.106552
  0
LINE
  8
ゴム等
  6
CONTINUOUS
 10
29.145713
 20
-37.106552
 11
29.145713
 21
-50.106557
  0
LINE
  8
ゴム等
  6
CONTINUOUS
 10
29.145713
 20
-50.106557
 11
25.486268
 21
-50.106557
  0
LINE
  8
ゴム等
  6
CONTINUOUS
 10
23.145713
 20
-45.106555
 11
23.524987
 21
-49.08853
  0
LINE
  8
ゴム等
  6
CONTINUOUS
 10
23.524987
 20
-49.08853
 11
23.799937
 21
-49.062332
  0
ARC
  8
ゴム等
  6
CONTINUOUS
 10
24.395577
 20
-53.190158
 40
0.4
 50
181.441077
 51
364.310481
  0
LINE
  8
ゴム等
  6
CONTINUOUS
 10
23.995687
 20
-53.200233
 11
23.876512
 21
-49.866258
  0
LINE
  8
ゴム等
  6
CONTINUOUS
 10
23.799937
 20
-49.062332
 11
23.876512
 21
-49.866258
  0
ARC
  8
ゴム等
  6
CONTINUOUS
 10
25.486267
 20
-52.106533
 40
2.0
 50
90.0
 51
107.753828
  0
LINE
  8
ゴム等
  6
CONTINUOUS
 10
24.794437
 20
-53.160107
 11
24.876412
 21
-50.201807
  0
INSERT
  2
*HAT_0001
  8
ゴム等
 10
0.0
 20
0.0
  0
ENDBLK
  0
BLOCK
  2
*GRP_0013
 70
    65
 10
0.0
 20
0.0
  0
LINE
  8
ゴム等
  6
CONTINUOUS
 10
-78.85431
 20
22.693415
 11
-78.85431
 21
21.19343
  0
LINE
  8
ゴム等
  6
CONTINUOUS
 10
-73.354313
 20
21.193423
 11
-78.85431
 21
21.19343
  0
LINE
  8
ゴム等
  6
CONTINUOUS
 10
-72.354307
 20
12.693425
 11
-72.354315
 21
20.193418
  0
LINE
  8
ゴム等
  6
CONTINUOUS
 10
-73.354313
 20
21.193423
 11
-72.354315
 21
20.193418
  0
LINE
  8
ゴム等
  6
CONTINUOUS
 10
-78.85431
 20
22.693415
 11
-80.35431
 21
22.69343
  0
LINE
  8
ゴム等
  6
CONTINUOUS
 10
-80.35431
 20
22.69343
 11
-80.35431
 21
12.693425
  0
LINE
  8
ゴム等
  6
CONTINUOUS
 10
-72.354307
 20
12.693425
 11
-80.35431
 21
12.693425
  0
LINE
  8
ゴム等
  6
CONTINUOUS
 10
-80.35431
 20
21.713172
 11
-79.37406
 21
22.693423
  0
LINE
  8
ゴム等
  6
CONTINUOUS
 10
-80.35431
 20
20.298965
 11
-78.854302
 21
21.798965
  0
LINE
  8
ゴム等
  6
CONTINUOUS
 10
-80.35431
 20
18.88475
 11
-78.04563
 21
21.19343
  0
LINE
  8
ゴム等
  6
CONTINUOUS
 10
-80.354302
 20
17.470543
 11
-76.631423
 21
21.19343
  0
LINE
  8
ゴム等
  6
CONTINUOUS
 10
-80.35431
 20
16.056335
 11
-75.217208
 21
21.193423
  0
LINE
  8
ゴム等
  6
CONTINUOUS
 10
-80.35431
 20
14.642113
 11
-73.802992
 21
21.193423
  0
LINE
  8
ゴム等
  6
CONTINUOUS
 10
-80.35431
 20
13.227905
 11
-72.871545
 21
20.710663
  0
LINE
  8
ゴム等
  6
CONTINUOUS
 10
-79.474575
 20
12.693425
 11
-72.354315
 21
19.813685
  0
LINE
  8
ゴム等
  6
CONTINUOUS
 10
-78.06036
 20
12.693425
 11
-72.354315
 21
18.399462
  0
LINE
  8
ゴム等
  6
CONTINUOUS
 10
-76.646145
 20
12.693418
 11
-72.354315
 21
16.985247
  0
LINE
  8
ゴム等
  6
CONTINUOUS
 10
-75.231923
 20
12.693425
 11
-72.354307
 21
15.571033
  0
LINE
  8
ゴム等
  6
CONTINUOUS
 10
-73.817715
 20
12.693418
 11
-72.3543
 21
14.156825
  0
ENDBLK
  0
BLOCK
  2
*GRP_0014
 70
    65
 10
0.0
 20
0.0
  0
LINE
  8
ボルト／ビス
  6
CONTINUOUS
 10
109.645695
 20
-46.106552
 11
109.145693
 21
-46.606555
  0
LINE
  8
ボルト／ビス
  6
CONTINUOUS
 10
109.645695
 20
-50.106557
 11
109.145693
 21
-49.606555
  0
LINE
  8
ボルト／ビス
  6
CONTINUOUS
 10
109.145693
 20
-46.606555
 11
109.145693
 21
-49.606555
  0
LINE
  8
ボルト／ビス
  6
CONTINUOUS
 10
109.645695
 20
-46.106552
 11
109.645695
 21
-50.106557
  0
LINE
  8
ボルト／ビス
  6
CONTINUOUS
 10
109.645695
 20
-46.106552
 11
113.345693
 21
-46.106552
  0
LINE
  8
ボルト／ビス
  6
CONTINUOUS
 10
109.145693
 20
-46.606555
 11
113.345693
 21
-46.606555
  0
LINE
  8
ボルト／ビス
  6
CONTINUOUS
 10
109.145693
 20
-49.606555
 11
113.345693
 21
-49.606555
  0
LINE
  8
ボルト／ビス
  6
CONTINUOUS
 10
109.645695
 20
-50.106557
 11
113.345693
 21
-50.106557
  0
LINE
  8
ボルト／ビス
  6
CONTINUOUS
 10
113.345693
 20
-46.106552
 11
113.345693
 21
-50.106557
  0
LINE
  8
ボルト／ビス
  6
CONTINUOUS
 10
115.145693
 20
-45.106555
 11
113.345693
 21
-46.106552
  0
LINE
  8
ボルト／ビス
  6
CONTINUOUS
 10
115.145693
 20
-45.106555
 11
115.145693
 21
-51.106555
  0
LINE
  8
ボルト／ビス
  6
CONTINUOUS
 10
115.145693
 20
-51.106555
 11
113.345693
 21
-50.106557
  0
LINE
  8
ボルト／ビス
  6
CONTINUOUS
 10
107.565217
 20
-48.106555
 11
116.629222
 21
-48.106555
  0
ENDBLK
  0
BLOCK
  2
*GRP_0015
 70
    65
 10
0.0
 20
0.0
  0
LINE
  8
ボルト／ビス
  6
CONTINUOUS
 10
19.645695
 20
-27.1066
 11
20.145697
 21
-27.606603
  0
LINE
  8
ボルト／ビス
  6
CONTINUOUS
 10
23.645693
 20
-27.1066
 11
23.145697
 21
-27.606603
  0
LINE
  8
ボルト／ビス
  6
CONTINUOUS
 10
20.145697
 20
-27.606603
 11
23.145697
 21
-27.606603
  0
LINE
  8
ボルト／ビス
  6
CONTINUOUS
 10
19.645695
 20
-27.1066
 11
23.645693
 21
-27.1066
  0
LINE
  8
ボルト／ビス
  6
CONTINUOUS
 10
19.645695
 20
-27.1066
 11
19.645695
 21
-23.406603
  0
LINE
  8
ボルト／ビス
  6
CONTINUOUS
 10
20.145697
 20
-27.606603
 11
20.145697
 21
-23.406603
  0
LINE
  8
ボルト／ビス
  6
CONTINUOUS
 10
23.145697
 20
-27.606603
 11
23.145697
 21
-23.406603
  0
LINE
  8
ボルト／ビス
  6
CONTINUOUS
 10
23.645693
 20
-27.1066
 11
23.645693
 21
-23.406603
  0
LINE
  8
ボルト／ビス
  6
CONTINUOUS
 10
19.645695
 20
-23.406603
 11
23.645693
 21
-23.406603
  0
LINE
  8
ボルト／ビス
  6
CONTINUOUS
 10
18.645697
 20
-21.606603
 11
19.645695
 21
-23.406603
  0
LINE
  8
ボルト／ビス
  6
CONTINUOUS
 10
18.645697
 20
-21.606603
 11
24.645697
 21
-21.606603
  0
LINE
  8
ボルト／ビス
  6
CONTINUOUS
 10
24.645697
 20
-21.606603
 11
23.645693
 21
-23.406603
  0
LINE
  8
ボルト／ビス
  6
CONTINUOUS
 10
21.645697
 20
-29.187078
 11
21.645697
 21
-20.123073
  0
ENDBLK
  0
BLOCK
  2
*GRP_0016
 70
    65
 10
0.0
 20
0.0
  0
LINE
  8
ボルト／ビス
  6
CONTINUOUS
 10
15.145695
 20
-42.506582
 11
15.645697
 21
-42.006588
  0
LINE
  8
ボルト／ビス
  6
CONTINUOUS
 10
19.145693
 20
-42.506582
 11
18.645697
 21
-42.006588
  0
LINE
  8
ボルト／ビス
  6
CONTINUOUS
 10
15.645697
 20
-42.006588
 11
18.645697
 21
-42.006588
  0
LINE
  8
ボルト／ビス
  6
CONTINUOUS
 10
15.145695
 20
-42.506582
 11
19.145693
 21
-42.506582
  0
LINE
  8
ボルト／ビス
  6
CONTINUOUS
 10
15.145695
 20
-42.506582
 11
15.145695
 21
-46.206588
  0
LINE
  8
ボルト／ビス
  6
CONTINUOUS
 10
15.645697
 20
-42.006588
 11
15.645697
 21
-46.206588
  0
LINE
  8
ボルト／ビス
  6
CONTINUOUS
 10
18.645697
 20
-42.006588
 11
18.645697
 21
-46.206588
  0
LINE
  8
ボルト／ビス
  6
CONTINUOUS
 10
19.145693
 20
-42.506582
 11
19.145693
 21
-46.206588
  0
LINE
  8
ボルト／ビス
  6
CONTINUOUS
 10
15.145695
 20
-46.206588
 11
19.145693
 21
-46.206588
  0
LINE
  8
ボルト／ビス
  6
CONTINUOUS
 10
14.145697
 20
-48.006588
 11
15.145695
 21
-46.206588
  0
LINE
  8
ボルト／ビス
  6
CONTINUOUS
 10
14.145697
 20
-48.006588
 11
20.145697
 21
-48.006588
  0
LINE
  8
ボルト／ビス
  6
CONTINUOUS
 10
20.145697
 20
-48.006588
 11
19.145693
 21
-46.206588
  0
LINE
  8
ボルト／ビス
  6
CONTINUOUS
 10
17.145697
 20
-40.426113
 11
17.145697
 21
-49.490117
  0
ENDBLK
  0
BLOCK
  2
*GRP_0017
 70
    65
 10
0.0
 20
0.0
  0
ARC
  8
ボルト／ビス
  6
CONTINUOUS
 10
-73.349287
 20
-26.60658
 40
1.0
 50
270.0
 51
360.0
  0
LINE
  8
ボルト／ビス
  6
CONTINUOUS
 10
-72.34929
 20
-19.606578
 11
-72.34929
 21
-26.606575
  0
ARC
  8
ボルト／ビス
  6
CONTINUOUS
 10
-73.349287
 20
-19.60658
 40
1.0
 50
0.0
 51
90.0
  0
LINE
  8
ボルト／ビス
  6
CONTINUOUS
 10
-82.84929
 20
-18.106578
 11
-82.349287
 21
-18.106578
  0
LINE
  8
ボルト／ビス
  6
CONTINUOUS
 10
-82.84929
 20
-28.106575
 11
-82.349287
 21
-28.106575
  0
LINE
  8
ボルト／ビス
  6
CONTINUOUS
 10
-82.84929
 20
-18.106578
 11
-82.84929
 21
-28.106575
  0
LINE
  8
ボルト／ビス
  6
CONTINUOUS
 10
-82.349287
 20
-18.106578
 11
-82.349287
 21
-28.106575
  0
LINE
  8
ボルト／ビス
  6
CONTINUOUS
 10
-73.349287
 20
-18.60658
 11
-79.349287
 21
-18.60658
  0
LINE
  8
ボルト／ビス
  6
CONTINUOUS
 10
-80.849287
 20
-18.60658
 11
-82.349287
 21
-18.60658
  0
LINE
  8
ボルト／ビス
  6
CONTINUOUS
 10
-82.349287
 20
-27.60658
 11
-80.849287
 21
-27.60658
  0
LINE
  8
ボルト／ビス
  6
CONTINUOUS
 10
-79.349287
 20
-27.60658
 11
-73.349287
 21
-27.60658
  0
LINE
  8
ボルト／ビス
  6
CONTINUOUS
 10
-80.849287
 20
-17.356578
 11
-80.849287
 21
-23.10658
  0
ARC
  8
ボルト／ビス
  6
CONTINUOUS
 10
-80.099287
 20
-17.35658
 40
0.75
 50
90.0
 51
180.0
  0
LINE
  8
ボルト／ビス
  6
CONTINUOUS
 10
-80.099287
 20
-16.606578
 11
-80.099287
 21
-16.606578
  0
LINE
  8
ボルト／ビス
  6
CONTINUOUS
 10
-79.349287
 20
-17.356578
 11
-79.349287
 21
-23.10658
  0
ARC
  8
ボルト／ビス
  6
CONTINUOUS
 10
-80.099287
 20
-17.35658
 40
0.75
 50
0.0
 51
90.0
  0
LINE
  8
ボルト／ビス
  6
CONTINUOUS
 10
-80.849287
 20
-28.856575
 11
-80.849287
 21
-23.10658
  0
ARC
  8
ボルト／ビス
  6
CONTINUOUS
 10
-80.099287
 20
-28.85658
 40
0.75
 50
180.0
 51
270.0
  0
LINE
  8
ボルト／ビス
  6
CONTINUOUS
 10
-80.099287
 20
-29.606575
 11
-80.099287
 21
-29.606575
  0
LINE
  8
ボルト／ビス
  6
CONTINUOUS
 10
-79.349287
 20
-28.856575
 11
-79.349287
 21
-23.10658
  0
ARC
  8
ボルト／ビス
  6
CONTINUOUS
 10
-80.099287
 20
-28.85658
 40
0.75
 50
270.0
 51
360.0
  0
ENDBLK
  0
BLOCK
  2
*GRP_0018
 70
    65
 10
0.0
 20
0.0
  0
LINE
  8
ボルト／ビス
  6
CONTINUOUS
 10
-17.854313
 20
-13.606592
 11
-16.354313
 21
-15.906595
  0
LINE
  8
ボルト／ビス
  6
CONTINUOUS
 10
-9.85431
 20
-13.606592
 11
-11.35431
 21
-15.906595
  0
LINE
  8
ボルト／ビス
  6
CONTINUOUS
 10
-17.854313
 20
-13.606592
 11
-9.85431
 21
-13.606592
  0
LINE
  8
ボルト／ビス
  6
CONTINUOUS
 10
-16.354313
 20
-15.906595
 11
-11.35431
 21
-15.906595
  0
LINE
  8
ボルト／ビス
  6
CONTINUOUS
 10
-13.854307
 20
-11.22139
 11
-13.854307
 21
-28.606592
  0
LINE
  8
ボルト／ビス
  6
CONTINUOUS
 10
-16.354313
 20
-28.10659
 11
-15.85431
 21
-28.606592
  0
LINE
  8
ボルト／ビス
  6
CONTINUOUS
 10
-11.35431
 20
-28.10659
 11
-11.854313
 21
-28.606592
  0
LINE
  8
ボルト／ビス
  6
CONTINUOUS
 10
-11.854313
 20
-28.606592
 11
-15.85431
 21
-28.606592
  0
LINE
  8
ボルト／ビス
  6
CONTINUOUS
 10
-11.35431
 20
-28.10659
 11
-16.354313
 21
-28.10659
  0
LINE
  8
ボルト／ビス
  6
CONTINUOUS
 10
-15.85431
 20
-15.906595
 11
-15.85431
 21
-28.606592
  0
LINE
  8
ボルト／ビス
  6
CONTINUOUS
 10
-11.854313
 20
-15.906595
 11
-11.854313
 21
-28.606592
  0
LINE
  8
ボルト／ビス
  6
CONTINUOUS
 10
-11.35431
 20
-15.906595
 11
-11.35431
 21
-28.10659
  0
LINE
  8
ボルト／ビス
  6
CONTINUOUS
 10
-16.354313
 20
-15.906595
 11
-16.354313
 21
-28.10659
  0
ENDBLK
  0
BLOCK
  2
*GRP_0019
 70
    65
 10
0.0
 20
0.0
  0
LINE
  8
ボルト／ビス
  6
CONTINUOUS
 10
-37.854307
 20
-13.606592
 11
-36.354307
 21
-15.906595
  0
LINE
  8
ボルト／ビス
  6
CONTINUOUS
 10
-29.854313
 20
-13.606592
 11
-31.354313
 21
-15.906595
  0
LINE
  8
ボルト／ビス
  6
CONTINUOUS
 10
-37.854307
 20
-13.606592
 11
-29.854313
 21
-13.606592
  0
LINE
  8
ボルト／ビス
  6
CONTINUOUS
 10
-36.354307
 20
-15.906595
 11
-31.354313
 21
-15.906595
  0
LINE
  8
ボルト／ビス
  6
CONTINUOUS
 10
-33.85431
 20
-11.22139
 11
-33.85431
 21
-28.606592
  0
LINE
  8
ボルト／ビス
  6
CONTINUOUS
 10
-36.354307
 20
-28.10659
 11
-35.854313
 21
-28.606592
  0
LINE
  8
ボルト／ビス
  6
CONTINUOUS
 10
-31.354313
 20
-28.10659
 11
-31.854307
 21
-28.606592
  0
LINE
  8
ボルト／ビス
  6
CONTINUOUS
 10
-31.854307
 20
-28.606592
 11
-35.854313
 21
-28.606592
  0
LINE
  8
ボルト／ビス
  6
CONTINUOUS
 10
-31.354313
 20
-28.10659
 11
-36.354307
 21
-28.10659
  0
LINE
  8
ボルト／ビス
  6
CONTINUOUS
 10
-35.854313
 20
-15.906595
 11
-35.854313
 21
-28.606592
  0
LINE
  8
ボルト／ビス
  6
CONTINUOUS
 10
-31.854307
 20
-15.906595
 11
-31.854307
 21
-28.606592
  0
LINE
  8
ボルト／ビス
  6
CONTINUOUS
 10
-31.354313
 20
-15.906595
 11
-31.354313
 21
-28.10659
  0
LINE
  8
ボルト／ビス
  6
CONTINUOUS
 10
-36.354307
 20
-15.906595
 11
-36.354307
 21
-28.10659
  0
ENDBLK
  0
BLOCK
  2
*GRP_0020
 70
    65
 10
0.0
 20
0.0
  0
LINE
  8
ボルト／ビス
  6
CONTINUOUS
 10
87.645705
 20
-13.6066
 11
89.145705
 21
-15.906595
  0
LINE
  8
ボルト／ビス
  6
CONTINUOUS
 10
95.6457
 20
-13.6066
 11
94.1457
 21
-15.906595
  0
LINE
  8
ボルト／ビス
  6
CONTINUOUS
 10
87.645705
 20
-13.6066
 11
95.6457
 21
-13.6066
  0
LINE
  8
ボルト／ビス
  6
CONTINUOUS
 10
89.145705
 20
-15.906595
 11
94.1457
 21
-15.906595
  0
LINE
  8
ボルト／ビス
  6
CONTINUOUS
 10
91.645702
 20
-11.22139
 11
91.645702
 21
-28.6066
  0
LINE
  8
ボルト／ビス
  6
CONTINUOUS
 10
89.145705
 20
-28.106598
 11
89.6457
 21
-28.6066
  0
LINE
  8
ボルト／ビス
  6
CONTINUOUS
 10
94.1457
 20
-28.106598
 11
93.645705
 21
-28.6066
  0
LINE
  8
ボルト／ビス
  6
CONTINUOUS
 10
93.645705
 20
-28.6066
 11
89.6457
 21
-28.6066
  0
LINE
  8
ボルト／ビス
  6
CONTINUOUS
 10
94.1457
 20
-28.106598
 11
89.145705
 21
-28.106598
  0
LINE
  8
ボルト／ビス
  6
CONTINUOUS
 10
89.6457
 20
-15.906595
 11
89.6457
 21
-28.6066
  0
LINE
  8
ボルト／ビス
  6
CONTINUOUS
 10
93.645705
 20
-15.906595
 11
93.645705
 21
-28.6066
  0
LINE
  8
ボルト／ビス
  6
CONTINUOUS
 10
94.1457
 20
-15.906595
 11
94.1457
 21
-28.106598
  0
LINE
  8
ボルト／ビス
  6
CONTINUOUS
 10
89.145705
 20
-15.906595
 11
89.145705
 21
-28.106598
  0
ENDBLK
  0
BLOCK
  2
*GRP_0021
 70
    65
 10
0.0
 20
0.0
  0
LINE
  8
ボルト／ビス
  6
CONTINUOUS
 10
67.645702
 20
-13.6066
 11
69.145702
 21
-15.906595
  0
LINE
  8
ボルト／ビス
  6
CONTINUOUS
 10
75.645705
 20
-13.6066
 11
74.145705
 21
-15.906595
  0
LINE
  8
ボルト／ビス
  6
CONTINUOUS
 10
67.645702
 20
-13.6066
 11
75.645705
 21
-13.6066
  0
LINE
  8
ボルト／ビス
  6
CONTINUOUS
 10
69.145702
 20
-15.906595
 11
74.145705
 21
-15.906595
  0
LINE
  8
ボルト／ビス
  6
CONTINUOUS
 10
71.6457
 20
-11.22139
 11
71.6457
 21
-28.6066
  0
LINE
  8
ボルト／ビス
  6
CONTINUOUS
 10
69.145702
 20
-28.106598
 11
69.645705
 21
-28.6066
  0
LINE
  8
ボルト／ビス
  6
CONTINUOUS
 10
74.145705
 20
-28.106598
 11
73.645702
 21
-28.6066
  0
LINE
  8
ボルト／ビス
  6
CONTINUOUS
 10
73.645702
 20
-28.6066
 11
69.645705
 21
-28.6066
  0
LINE
  8
ボルト／ビス
  6
CONTINUOUS
 10
74.145705
 20
-28.106598
 11
69.145702
 21
-28.106598
  0
LINE
  8
ボルト／ビス
  6
CONTINUOUS
 10
69.645705
 20
-15.906595
 11
69.645705
 21
-28.6066
  0
LINE
  8
ボルト／ビス
  6
CONTINUOUS
 10
73.645702
 20
-15.906595
 11
73.645702
 21
-28.6066
  0
LINE
  8
ボルト／ビス
  6
CONTINUOUS
 10
74.145705
 20
-15.906595
 11
74.145705
 21
-28.106598
  0
LINE
  8
ボルト／ビス
  6
CONTINUOUS
 10
69.145702
 20
-15.906595
 11
69.145702
 21
-28.106598
  0
ENDBLK
  0
BLOCK
  2
*GRP_0022
 70
    65
 10
0.0
 20
0.0
  0
LINE
  8
ボルト／ビス
  6
CONTINUOUS
 10
77.145713
 20
-13.606592
 11
78.645713
 21
-15.906588
  0
LINE
  8
ボルト／ビス
  6
CONTINUOUS
 10
85.145708
 20
-13.606592
 11
83.645708
 21
-15.906588
  0
LINE
  8
ボルト／ビス
  6
CONTINUOUS
 10
77.145713
 20
-13.606592
 11
85.145708
 21
-13.606592
  0
LINE
  8
ボルト／ビス
  6
CONTINUOUS
 10
78.645713
 20
-15.906588
 11
83.645708
 21
-15.906588
  0
LINE
  8
ボルト／ビス
  6
CONTINUOUS
 10
81.14571
 20
-11.221382
 11
81.14571
 21
-28.606592
  0
LINE
  8
ボルト／ビス
  6
CONTINUOUS
 10
78.645713
 20
-28.10659
 11
79.145708
 21
-28.606592
  0
LINE
  8
ボルト／ビス
  6
CONTINUOUS
 10
83.645708
 20
-28.10659
 11
83.145713
 21
-28.606592
  0
LINE
  8
ボルト／ビス
  6
CONTINUOUS
 10
83.145713
 20
-28.606592
 11
79.145708
 21
-28.606592
  0
LINE
  8
ボルト／ビス
  6
CONTINUOUS
 10
83.645708
 20
-28.10659
 11
78.645713
 21
-28.10659
  0
LINE
  8
ボルト／ビス
  6
CONTINUOUS
 10
79.145708
 20
-15.906588
 11
79.145708
 21
-28.606592
  0
LINE
  8
ボルト／ビス
  6
CONTINUOUS
 10
83.145713
 20
-15.906588
 11
83.145713
 21
-28.606592
  0
LINE
  8
ボルト／ビス
  6
CONTINUOUS
 10
83.645708
 20
-15.906588
 11
83.645708
 21
-28.10659
  0
LINE
  8
ボルト／ビス
  6
CONTINUOUS
 10
78.645713
 20
-15.906588
 11
78.645713
 21
-28.10659
  0
ENDBLK
  0
BLOCK
  2
*GRP_0023
 70
    65
 10
0.0
 20
0.0
  0
LINE
  8
ボルト／ビス
  6
CONTINUOUS
 10
-78.3543
 20
-2.806578
 11
-74.354302
 21
-2.806578
  0
LINE
  8
ボルト／ビス
  6
CONTINUOUS
 10
-79.354305
 20
-4.606578
 11
-78.3543
 21
-2.806578
  0
LINE
  8
ボルト／ビス
  6
CONTINUOUS
 10
-79.354305
 20
-4.606578
 11
-73.354305
 21
-4.606578
  0
LINE
  8
ボルト／ビス
  6
CONTINUOUS
 10
-73.354305
 20
-4.606578
 11
-74.354302
 21
-2.806578
  0
LINE
  8
ボルト／ビス
  6
CONTINUOUS
 10
-76.354305
 20
-6.090107
 11
-76.354305
 21
6.512173
  0
LINE
  8
ボルト／ビス
  6
CONTINUOUS
 10
-78.3543
 20
4.893433
 11
-77.854305
 21
5.39342
  0
LINE
  8
ボルト／ビス
  6
CONTINUOUS
 10
-74.354302
 20
4.893433
 11
-74.854305
 21
5.39342
  0
LINE
  8
ボルト／ビス
  6
CONTINUOUS
 10
-77.854305
 20
5.39342
 11
-74.854305
 21
5.39342
  0
LINE
  8
ボルト／ビス
  6
CONTINUOUS
 10
-78.3543
 20
4.893433
 11
-74.354302
 21
4.893433
  0
LINE
  8
ボルト／ビス
  6
CONTINUOUS
 10
-74.854305
 20
-2.806578
 11
-74.854305
 21
5.39342
  0
LINE
  8
ボルト／ビス
  6
CONTINUOUS
 10
-77.854305
 20
-2.806578
 11
-77.854305
 21
5.39342
  0
LINE
  8
ボルト／ビス
  6
CONTINUOUS
 10
-78.3543
 20
-2.806578
 11
-78.3543
 21
4.893433
  0
LINE
  8
ボルト／ビス
  6
CONTINUOUS
 10
-74.354302
 20
-2.806578
 11
-74.354302
 21
4.893433
  0
ENDBLK
  0
BLOCK
  2
*GRP_0024
 70
    65
 10
0.0
 20
0.0
  0
LINE
  8
ボルト／ビス
  6
CONTINUOUS
 10
-86.849287
 20
-34.106582
 11
-88.84929
 21
-34.106582
  0
LINE
  8
ボルト／ビス
  6
CONTINUOUS
 10
-88.84929
 20
-34.106582
 11
-88.84929
 21
-12.106578
  0
LINE
  8
ボルト／ビス
  6
CONTINUOUS
 10
-88.84929
 20
-12.106578
 11
-86.849287
 21
-12.106578
  0
LINE
  8
ボルト／ビス
  6
CONTINUOUS
 10
-86.849287
 20
-34.106582
 11
-86.849287
 21
-12.106578
  0
LINE
  8
ボルト／ビス
  6
CONTINUOUS
 10
-89.849287
 20
-32.10658
 11
-88.84929
 21
-32.10658
  0
LINE
  8
ボルト／ビス
  6
CONTINUOUS
 10
-89.849287
 20
-32.10658
 11
-89.849287
 21
-14.10658
  0
LINE
  8
ボルト／ビス
  6
CONTINUOUS
 10
-89.849287
 20
-14.10658
 11
-88.84929
 21
-14.10658
  0
LINE
  8
ボルト／ビス
  6
CONTINUOUS
 62
    64
 10
-95.849287
 20
-27.91783
 11
-95.49906
 21
-28.88008
  0
ARC
  8
ボルト／ビス
  6
CONTINUOUS
 62
    64
 10
-92.69994
 20
-27.436706
 40
3.149352
 50
152.721967
 51
180.0
  0
ARC
  8
ボルト／ビス
  6
CONTINUOUS
 62
    64
 10
-83.777225
 20
-23.106578
 40
12.072067
 50
166.165002
 51
193.834985
  0
LINE
  8
ボルト／ビス
  6
CONTINUOUS
 62
    64
 10
-95.849287
 20
-18.29533
 11
-95.49906
 21
-17.33308
  0
ARC
  8
ボルト／ビス
  6
CONTINUOUS
 62
    64
 10
-92.69994
 20
-18.776451
 40
3.149352
 50
180.0
 51
207.278033
  0
LINE
  8
ボルト／ビス
  6
CONTINUOUS
 62
    64
 10
-95.849287
 20
-27.91783
 11
-95.849287
 21
-18.29533
  0
LINE
  8
ボルト／ビス
  6
CONTINUOUS
 62
    64
 10
-95.49906
 20
-17.33308
 11
-91.84929
 21
-17.33308
  0
LINE
  8
ボルト／ビス
  6
CONTINUOUS
 62
    64
 10
-95.49906
 20
-20.21983
 11
-91.84929
 21
-20.21983
  0
LINE
  8
ボルト／ビス
  6
CONTINUOUS
 62
    64
 10
-95.49906
 20
-28.88008
 11
-91.84929
 21
-28.88008
  0
LINE
  8
ボルト／ビス
  6
CONTINUOUS
 62
    64
 10
-95.49906
 20
-25.99333
 11
-91.84929
 21
-25.99333
  0
LINE
  8
ボルト／ビス
  6
CONTINUOUS
 10
-91.84929
 20
-28.88008
 11
-91.84929
 21
-17.33308
  0
LINE
  8
ボルト／ビス
  6
CONTINUOUS
 10
-91.84929
 20
-29.10658
 11
-89.849287
 21
-29.10658
  0
LINE
  8
ボルト／ビス
  6
CONTINUOUS
 10
-91.84929
 20
-29.10658
 11
-91.84929
 21
-17.10658
  0
LINE
  8
ボルト／ビス
  6
CONTINUOUS
 10
-91.84929
 20
-17.10658
 11
-89.849287
 21
-17.10658
  0
LINE
  8
ボルト／ビス
  6
CONTINUOUS
 62
    64
 10
-86.849287
 20
-20.806578
 11
-66.849292
 21
-20.806578
  0
LINE
  8
ボルト／ビス
  6
CONTINUOUS
 62
    64
 10
-86.849287
 20
-25.406582
 11
-66.849292
 21
-25.406582
  0
LINE
  8
ボルト／ビス
  6
CONTINUOUS
 62
    64
 10
-66.849292
 20
-25.406582
 11
-66.849292
 21
-20.806578
  0
LINE
  8
ボルト／ビス
  6
CONTINUOUS
 62
    64
 10
-67.84929
 20
-20.10658
 11
-66.849292
 21
-20.806578
  0
LINE
  8
ボルト／ビス
  6
CONTINUOUS
 62
    64
 10
-67.84929
 20
-26.10658
 11
-66.849292
 21
-25.406582
  0
LINE
  8
ボルト／ビス
  6
CONTINUOUS
 62
    64
 10
-67.84929
 20
-26.10658
 11
-67.84929
 21
-20.10658
  0
LINE
  8
ボルト／ビス
  6
CONTINUOUS
 62
    64
 10
-66.849292
 20
-25.406582
 11
-66.849292
 21
-20.806578
  0
LINE
  8
ボルト／ビス
  6
CONTINUOUS
 62
    64
 10
-86.849287
 20
-26.10658
 11
-67.84929
 21
-26.10658
  0
LINE
  8
ボルト／ビス
  6
CONTINUOUS
 62
    64
 10
-86.849287
 20
-20.10658
 11
-67.84929
 21
-20.10658
  0
ENDBLK
  0
BLOCK
  2
*DIM_0025
 70
    65
 10
0.0
 20
0.0
  0
LINE
  8
寸法
  6
CONTINUOUS
 10
-113.849285
 20
-3.097427
 11
-163.965355
 21
-3.097427
  0
LINE
  8
寸法
  6
CONTINUOUS
 10
-89.700085
 20
-53.10658
 11
-163.965355
 21
-53.10658
  0
LINE
  8
寸法
  6
CONTINUOUS
 10
-163.965355
 20
-3.097427
 11
-163.965355
 21
-53.10658
  0
POINT
  8
寸法
 10
-163.965355
 20
-3.097427
  0
POINT
  8
寸法
 10
-163.965355
 20
-53.10658
  0
TEXT
  7
TextStyle03
  8
寸法
  6
CONTINUOUS
 10
-164.35
 20
-29.66875
  1
50
 40
3.0
 50
90.0
 72
     5
 11
-164.35
 21
-26.48125
  0
ENDBLK
  0
BLOCK
  2
*DIM_0026
 70
    65
 10
0.0
 20
0.0
  0
LINE
  8
寸法
  6
CONTINUOUS
 10
-113.849285
 20
-3.097427
 11
-151.736943
 21
-3.097427
  0
LINE
  8
寸法
  6
CONTINUOUS
 10
-151.736943
 20
-23.09743
 11
-151.736943
 21
-3.097427
  0
POINT
  8
寸法
 10
-151.736943
 20
-3.097427
  0
TEXT
  7
TextStyle03
  8
寸法
  6
CONTINUOUS
 10
-152.125
 20
-14.66875
  1
20
 40
3.0
 50
90.0
 72
     5
 11
-152.125
 21
-11.48125
  0
ENDBLK
  0
BLOCK
  2
*DIM_0027
 70
    65
 10
0.0
 20
0.0
  0
LINE
  8
寸法
  6
CONTINUOUS
 10
-89.301945
 20
-53.10658
 11
-151.736943
 21
-53.10658
  0
LINE
  8
寸法
  6
CONTINUOUS
 10
-98.004373
 20
-23.09743
 11
-151.736943
 21
-23.09743
  0
LINE
  8
寸法
  6
CONTINUOUS
 10
-151.736943
 20
-53.10658
 11
-151.736943
 21
-23.09743
  0
POINT
  8
寸法
 10
-151.736943
 20
-53.10658
  0
POINT
  8
寸法
 10
-151.736943
 20
-23.09743
  0
TEXT
  7
TextStyle03
  8
寸法
  6
CONTINUOUS
 10
-152.125
 20
-39.66875
  1
30
 40
3.0
 50
90.0
 72
     5
 11
-152.125
 21
-36.48125
  0
ENDBLK
  0
BLOCK
  2
*DIM_0028
 70
    65
 10
0.0
 20
0.0
  0
LINE
  8
寸法
  6
CONTINUOUS
 10
-113.849285
 20
-3.097427
 11
-151.736943
 21
-3.097427
  0
LINE
  8
寸法
  6
CONTINUOUS
 10
90.145697
 20
54.402568
 11
-151.736943
 21
54.402568
  0
LINE
  8
寸法
  6
CONTINUOUS
 10
-151.736943
 20
-3.097427
 11
-151.736943
 21
54.402568
  0
POINT
  8
寸法
 10
-151.736943
 20
-3.097427
  0
POINT
  8
寸法
 10
-151.736943
 20
54.402568
  0
TEXT
  7
TextStyle03
  8
寸法
  6
CONTINUOUS
 10
-152.125
 20
22.39375
  1
57.5
 40
3.0
 50
90.0
 72
     5
 11
-152.125
 21
28.95625
  0
ENDBLK
  0
BLOCK
  2
*DIM_0029
 70
    65
 10
0.0
 20
0.0
  0
LINE
  8
寸法
  6
CONTINUOUS
 10
130.145693
 20
-50.097405
 11
130.145693
 21
-121.064488
  0
LINE
  8
寸法
  6
CONTINUOUS
 10
115.145693
 20
-67.097408
 11
115.145693
 21
-121.064488
  0
LINE
  8
寸法
  6
CONTINUOUS
 10
130.145693
 20
-121.064488
 11
115.145693
 21
-121.064488
  0
POINT
  8
寸法
 10
130.145693
 20
-121.064488
  0
POINT
  8
寸法
 10
115.145693
 20
-121.064488
  0
TEXT
  7
TextStyle03
  8
寸法
  6
CONTINUOUS
 10
121.03125
 20
-120.675
  1
15
 40
3.0
 72
     5
 11
124.21875
 21
-120.675
  0
ENDBLK
  0
BLOCK
  2
*DIM_0030
 70
    65
 10
0.0
 20
0.0
  0
LINE
  8
寸法
  6
CONTINUOUS
 10
-108.849285
 20
-8.097427
 11
-108.849285
 21
-121.064488
  0
LINE
  8
寸法
  6
CONTINUOUS
 10
115.145693
 20
-121.064488
 11
-108.849285
 21
-121.064488
  0
POINT
  8
寸法
 10
-108.849285
 20
-121.064488
  0
TEXT
  7
TextStyle03
  8
寸法
  6
CONTINUOUS
 10
0.6875
 20
-120.675
  1
224
 40
3.0
 72
     5
 11
5.5625
 21
-120.675
  0
ENDBLK
  0
BLOCK
  2
*DIM_0031
 70
    65
 10
0.0
 20
0.0
  0
LINE
  8
寸法
  6
CONTINUOUS
 10
26.326462
 20
-76.497427
 11
26.326462
 21
-109.285638
  0
LINE
  8
寸法
  6
CONTINUOUS
 10
36.326468
 20
-109.285638
 11
26.326462
 21
-109.285638
  0
POINT
  8
寸法
 10
26.326462
 20
-109.285638
  0
TEXT
  7
TextStyle03
  8
寸法
  6
CONTINUOUS
 10
29.70625
 20
-108.9
  1
10
 40
3.0
 72
     5
 11
32.89375
 21
-108.9
  0
ENDBLK
  0
BLOCK
  2
*DIM_0032
 70
    65
 10
0.0
 20
0.0
  0
LINE
  8
寸法
  6
CONTINUOUS
 10
-57.354292
 20
-52.997408
 11
-57.354292
 21
-109.285638
  0
LINE
  8
寸法
  6
CONTINUOUS
 10
26.326462
 20
-109.285638
 11
-57.354292
 21
-109.285638
  0
POINT
  8
寸法
 10
-57.354292
 20
-109.285638
  0
TEXT
  7
TextStyle03
  8
寸法
  6
CONTINUOUS
 10
-18.80625
 20
-108.9
  1
83.7
 40
3.0
 72
     5
 11
-12.24375
 21
-108.9
  0
ENDBLK
  0
BLOCK
  2
*DIM_0033
 70
    65
 10
0.0
 20
0.0
  0
LINE
  8
寸法
  6
CONTINUOUS
 10
-86.849287
 20
-56.071058
 11
-86.849287
 21
-109.285638
  0
LINE
  8
寸法
  6
CONTINUOUS
 10
-57.354292
 20
-109.285638
 11
-86.849287
 21
-109.285638
  0
POINT
  8
寸法
 10
-86.849287
 20
-109.285638
  0
TEXT
  7
TextStyle03
  8
寸法
  6
CONTINUOUS
 10
-75.40625
 20
-108.9
  1
29.5
 40
3.0
 72
     5
 11
-68.84375
 21
-108.9
  0
ENDBLK
  0
BLOCK
  2
*DIM_0034
 70
    65
 10
0.0
 20
0.0
  0
LINE
  8
寸法
  6
CONTINUOUS
 10
-108.849285
 20
-8.097427
 11
-108.849285
 21
-109.285638
  0
LINE
  8
寸法
  6
CONTINUOUS
 10
-86.849287
 20
-109.285638
 11
-108.849285
 21
-109.285638
  0
POINT
  8
寸法
 10
-108.849285
 20
-109.285638
  0
TEXT
  7
TextStyle03
  8
寸法
  6
CONTINUOUS
 10
-99.46875
 20
-108.9
  1
22
 40
3.0
 72
     5
 11
-96.28125
 21
-108.9
  0
ENDBLK
  0
BLOCK
  2
*DIM_0035
 70
    65
 10
0.0
 20
0.0
  0
LINE
  8
寸法
  6
CONTINUOUS
 10
115.145693
 20
-67.097408
 11
115.145693
 21
-109.285638
  0
LINE
  8
寸法
  6
CONTINUOUS
 10
36.326468
 20
-76.497427
 11
36.326468
 21
-109.285638
  0
LINE
  8
寸法
  6
CONTINUOUS
 10
115.145693
 20
-109.285638
 11
36.326468
 21
-109.285638
  0
POINT
  8
寸法
 10
115.145693
 20
-109.285638
  0
POINT
  8
寸法
 10
36.326468
 20
-109.285638
  0
TEXT
  7
TextStyle03
  8
寸法
  6
CONTINUOUS
 10
72.44375
 20
-108.9
  1
78.8
 40
3.0
 72
     5
 11
79.00625
 21
-108.9
  0
ENDBLK
  0
BLOCK
  2
*DIM_0036
 70
    65
 10
0.0
 20
0.0
  0
LINE
  8
寸法
  6
CONTINUOUS
 10
130.145693
 20
-38.606555
 11
130.145693
 21
102.393793
  0
LINE
  8
寸法
  6
CONTINUOUS
 10
115.145693
 20
59.393418
 11
115.145693
 21
102.393793
  0
LINE
  8
寸法
  6
CONTINUOUS
 10
130.145693
 20
102.393793
 11
115.145693
 21
102.393793
  0
POINT
  8
寸法
 10
130.145693
 20
102.393793
  0
POINT
  8
寸法
 10
115.145693
 20
102.393793
  0
TEXT
  7
TextStyle03
  8
寸法
  6
CONTINUOUS
 10
121.05625
 20
102.75
  1
15
 40
3.0
 72
     5
 11
124.24375
 21
102.75
  0
ENDBLK
  0
BLOCK
  2
*DIM_0037
 70
    65
 10
0.0
 20
0.0
  0
LINE
  8
寸法
  6
CONTINUOUS
 10
95.145697
 20
59.393418
 11
95.145697
 21
102.393793
  0
LINE
  8
寸法
  6
CONTINUOUS
 10
115.145693
 20
102.393793
 11
95.145697
 21
102.393793
  0
POINT
  8
寸法
 10
95.145697
 20
102.393793
  0
TEXT
  7
TextStyle03
  8
寸法
  6
CONTINUOUS
 10
103.55625
 20
102.75
  1
20
 40
3.0
 72
     5
 11
106.74375
 21
102.75
  0
ENDBLK
  0
BLOCK
  2
*DIM_0038
 70
    65
 10
0.0
 20
0.0
  0
LINE
  8
寸法
  6
CONTINUOUS
 10
15.644273
 20
-15.106603
 11
15.644273
 21
102.393793
  0
LINE
  8
寸法
  6
CONTINUOUS
 10
95.145697
 20
102.393793
 11
15.644273
 21
102.393793
  0
POINT
  8
寸法
 10
15.644273
 20
102.393793
  0
TEXT
  7
TextStyle03
  8
寸法
  6
CONTINUOUS
 10
52.11875
 20
102.75
  1
79.5
 40
3.0
 72
     5
 11
58.68125
 21
102.75
  0
ENDBLK
  0
BLOCK
  2
*DIM_0039
 70
    65
 10
0.0
 20
0.0
  0
LINE
  8
寸法
  6
CONTINUOUS
 10
-70.854307
 20
27.684273
 11
-70.854307
 21
102.393793
  0
LINE
  8
寸法
  6
CONTINUOUS
 10
11.145713
 20
102.393793
 11
-70.854307
 21
102.393793
  0
POINT
  8
寸法
 10
-70.854307
 20
102.393793
  0
TEXT
  7
TextStyle03
  8
寸法
  6
CONTINUOUS
 10
-31.44375
 20
102.75
  1
82
 40
3.0
 72
     5
 11
-28.25625
 21
102.75
  0
ENDBLK
  0
BLOCK
  2
*DIM_0040
 70
    65
 10
0.0
 20
0.0
  0
LINE
  8
寸法
  6
CONTINUOUS
 10
-80.35431
 20
91.884273
 11
-80.35431
 21
102.393793
  0
LINE
  8
寸法
  6
CONTINUOUS
 10
-70.854307
 20
102.393793
 11
-80.35431
 21
102.393793
  0
POINT
  8
寸法
 10
-80.35431
 20
102.393793
  0
TEXT
  7
TextStyle03
  8
寸法
  6
CONTINUOUS
 10
-78.0375
 20
102.75
  1
9.5
 40
3.0
 72
     5
 11
-73.1625
 21
102.75
  0
ENDBLK
  0
BLOCK
  2
*DIM_0041
 70
    65
 10
0.0
 20
0.0
  0
LINE
  8
寸法
  6
CONTINUOUS
 10
-98.154315
 20
91.884273
 11
-98.154315
 21
102.393793
  0
LINE
  8
寸法
  6
CONTINUOUS
 10
-80.35431
 20
102.393793
 11
-98.154315
 21
102.393793
  0
POINT
  8
寸法
 10
-98.154315
 20
102.393793
  0
TEXT
  7
TextStyle03
  8
寸法
  6
CONTINUOUS
 10
-92.53125
 20
102.75
  1
17.8
 40
3.0
 72
     5
 11
-85.96875
 21
102.75
  0
ENDBLK
  0
BLOCK
  2
*DIM_0042
 70
    65
 10
0.0
 20
0.0
  0
LINE
  8
寸法
  6
CONTINUOUS
 10
-107.349285
 20
26.88427
 11
-107.349285
 21
102.393793
  0
LINE
  8
寸法
  6
CONTINUOUS
 10
-98.154315
 20
102.393793
 11
-107.349285
 21
102.393793
  0
POINT
  8
寸法
 10
-107.349285
 20
102.393793
  0
TEXT
  7
TextStyle03
  8
寸法
  6
CONTINUOUS
 10
-105.1875
 20
102.75
  1
9.2
 40
3.0
 72
     5
 11
-100.3125
 21
102.75
  0
ENDBLK
  0
BLOCK
  2
*DIM_0043
 70
    65
 10
0.0
 20
0.0
  0
LINE
  8
寸法
  6
CONTINUOUS
 10
-108.849285
 20
26.88427
 11
-108.849285
 21
102.393793
  0
LINE
  8
寸法
  6
CONTINUOUS
 10
-107.349285
 20
102.393793
 11
-108.849285
 21
102.393793
  0
POINT
  8
寸法
 10
-108.849285
 20
102.393793
  0
TEXT
  7
TextStyle03
  8
寸法
  6
CONTINUOUS
 10
-115.5875
 20
102.75
  1
1.5
 40
3.0
 72
     5
 11
-110.7125
 21
102.75
  0
ENDBLK
  0
BLOCK
  2
*GRP_0044
 70
    65
 10
0.0
 20
0.0
  0
LINE
  8
別途部材
  6
CONTINUOUS
 10
-49.35432
 20
-11.106595
 11
-5.354317
 21
-11.106595
  0
ARC
  8
別途部材
  6
CONTINUOUS
 10
-49.354321
 20
-5.106588
 40
6.0
 50
180.0
 51
270.0
  0
LINE
  8
別途部材
  6
CONTINUOUS
 10
-49.35432
 20
0.893405
 11
-5.354317
 21
0.893405
  0
ARC
  8
別途部材
  6
CONTINUOUS
 10
-49.354321
 20
-5.106588
 40
6.0
 50
90.0
 51
180.0
  0
CIRCLE
  8
別途部材
  6
CONTINUOUS
 10
-49.35432
 20
-5.106595
 40
3.0
  0
LINE
  8
別途部材
  6
CONTINUOUS
 10
-49.35432
 20
-8.106595
 11
-49.35432
 21
-2.106595
  0
LINE
  8
別途部材
  6
CONTINUOUS
 10
-52.35432
 20
-5.106595
 11
-46.35432
 21
-5.106595
  0
LINE
  8
別途部材
  6
CONTINUOUS
 10
-5.354317
 20
-11.106595
 11
-5.354317
 21
-9.106585
  0
LINE
  8
別途部材
  6
CONTINUOUS
 10
-5.354317
 20
-1.10659
 11
-5.354317
 21
0.893405
  0
LINE
  8
別途部材
  6
CONTINUOUS
 10
-5.354317
 20
-9.106585
 11
-43.35432
 21
-9.106585
  0
LINE
  8
別途部材
  6
CONTINUOUS
 10
-43.35432
 20
-9.106585
 11
-43.35432
 21
-1.10659
  0
LINE
  8
別途部材
  6
CONTINUOUS
 10
-5.354317
 20
-1.10659
 11
-43.35432
 21
-1.10659
  0
ARC
  8
別途部材
  6
CONTINUOUS
 10
-5.812654
 20
-5.106588
 40
2.541667
 50
100.38896
 51
259.61104
  0
LINE
  8
別途部材
  6
CONTINUOUS
 10
-5.354317
 20
-1.606585
 11
-5.354317
 21
-2.60659
  0
LINE
  8
別途部材
  6
CONTINUOUS
 10
-5.354317
 20
-8.60659
 11
-5.354317
 21
-7.606585
  0
CIRCLE
  8
別途部材
  6
CONTINUOUS
 10
-39.354323
 20
-5.106595
 40
0.999997
  0
LINE
  8
別途部材
  6
CONTINUOUS
 10
-39.354323
 20
-4.10659
 11
-39.354323
 21
-6.106585
  0
LINE
  8
別途部材
  6
CONTINUOUS
 10
-40.35432
 20
-5.106595
 11
-38.354317
 21
-5.106595
  0
ARC
  8
別途部材
  6
CONTINUOUS
 10
-40.895994
 20
-5.106588
 40
2.541667
 50
280.38896
 51
439.61104
  0
LINE
  8
別途部材
  6
CONTINUOUS
 10
-41.354317
 20
-1.606585
 11
-41.354317
 21
-2.60659
  0
LINE
  8
別途部材
  6
CONTINUOUS
 10
-41.354317
 20
-7.606585
 11
-41.354317
 21
-8.60659
  0
LINE
  8
別途部材
  6
CONTINUOUS
 10
-5.354317
 20
-2.60659
 11
-41.354317
 21
-2.60659
  0
LINE
  8
別途部材
  6
CONTINUOUS
 10
-5.354317
 20
-1.606585
 11
-41.354317
 21
-1.606585
  0
LINE
  8
別途部材
  6
CONTINUOUS
 10
-5.354317
 20
-7.606585
 11
-41.354317
 21
-7.606585
  0
LINE
  8
別途部材
  6
CONTINUOUS
 10
-5.354317
 20
-8.60659
 11
-41.354317
 21
-8.60659
  0
ENDBLK
  0
BLOCK
  2
*GRP_0045
 70
    65
 10
0.0
 20
0.0
  0
LINE
  8
別途部材
  6
CONTINUOUS
 10
-55.35432
 20
-5.106595
 11
-55.35432
 21
-5.106595
  0
LINE
  8
別途部材
  6
CONTINUOUS
 10
-42.354315
 20
-11.106595
 11
-42.354315
 21
-13.606592
  0
LINE
  8
別途部材
  6
CONTINUOUS
 10
-55.854315
 20
-5.106595
 11
-55.354313
 21
-5.106588
  0
LINE
  8
別途部材
  6
CONTINUOUS
 10
-43.35432
 20
-21.606595
 11
-43.35432
 21
-13.606592
  0
ARC
  8
別途部材
  6
CONTINUOUS
 10
-6.354323
 20
-20.606594
 40
1.0
 50
270.0
 51
360.0
  0
LINE
  8
別途部材
  6
CONTINUOUS
 10
-5.354317
 20
-14.60659
 11
-5.354317
 21
-20.60659
  0
ARC
  8
別途部材
  6
CONTINUOUS
 10
-6.354323
 20
-14.606594
 40
1.0
 50
0.0
 51
90.0
  0
LINE
  8
別途部材
  6
CONTINUOUS
 10
-6.354315
 20
-21.606595
 11
-54.854317
 21
-21.606595
  0
ARC
  8
別途部材
  6
CONTINUOUS
 10
-54.854323
 20
-20.606594
 40
1.0
 50
180.0
 51
270.0
  0
LINE
  8
別途部材
  6
CONTINUOUS
 10
-6.354315
 20
-13.606592
 11
-54.854317
 21
-13.606592
  0
ARC
  8
別途部材
  6
CONTINUOUS
 10
-54.854323
 20
-14.606594
 40
1.0
 50
90.0
 51
180.0
  0
LINE
  8
別途部材
  6
CONTINUOUS
 10
-55.854315
 20
-20.60659
 11
-55.854315
 21
-5.106595
  0
LINE
  8
別途部材
  6
CONTINUOUS
 10
-36.354315
 20
-15.906595
 11
-31.35432
 21
-15.906595
  0
LINE
  8
別途部材
  6
CONTINUOUS
 10
-16.35432
 20
-15.906595
 11
-11.35431
 21
-15.906595
  0
POLYLINE
  8
別途部材
  6
CONTINUOUS
 66
     1
  0
VERTEX
  8
別途部材
 10
-37.854315
 20
-13.606592
  0
VERTEX
  8
別途部材
 10
-36.354315
 20
-15.906595
  0
VERTEX
  8
別途部材
 10
-36.354315
 20
-21.606595
  0
SEQEND
  0
LINE
  8
別途部材
  6
CONTINUOUS
 10
-33.85431
 20
-13.606592
 11
-33.85431
 21
-21.606595
  0
POLYLINE
  8
別途部材
  6
CONTINUOUS
 66
     1
  0
VERTEX
  8
別途部材
 10
-29.85432
 20
-13.606592
  0
VERTEX
  8
別途部材
 10
-31.35432
 20
-15.906595
  0
VERTEX
  8
別途部材
 10
-31.35432
 20
-21.606595
  0
SEQEND
  0
POLYLINE
  8
別途部材
  6
CONTINUOUS
 66
     1
  0
VERTEX
  8
別途部材
 10
-17.85432
 20
-13.606592
  0
VERTEX
  8
別途部材
 10
-16.35432
 20
-15.906595
  0
VERTEX
  8
別途部材
 10
-16.35432
 20
-21.606595
  0
SEQEND
  0
LINE
  8
別途部材
  6
CONTINUOUS
 10
-13.854315
 20
-13.606592
 11
-13.854315
 21
-21.606595
  0
POLYLINE
  8
別途部材
  6
CONTINUOUS
 66
     1
  0
VERTEX
  8
別途部材
 10
-9.85431
 20
-13.606592
  0
VERTEX
  8
別途部材
 10
-11.35431
 20
-15.906595
  0
VERTEX
  8
別途部材
 10
-11.35431
 20
-21.606595
  0
SEQEND
  0
ENDBLK
  0
BLOCK
  2
*GRP_0046
 70
    65
 10
0.0
 20
0.0
  0
LINE
  8
別途部材
  6
CONTINUOUS
 10
107.145705
 20
-11.106603
 11
63.145702
 21
-11.106603
  0
ARC
  8
別途部材
  6
CONTINUOUS
 10
107.145702
 20
-5.106599
 40
6.0
 50
270.0
 51
360.0
  0
LINE
  8
別途部材
  6
CONTINUOUS
 10
107.145705
 20
0.893397
 11
63.145702
 21
0.893397
  0
ARC
  8
別途部材
  6
CONTINUOUS
 10
107.145702
 20
-5.106599
 40
6.0
 50
0.0
 51
90.0
  0
CIRCLE
  8
別途部材
  6
CONTINUOUS
 10
107.145705
 20
-5.106603
 40
3.0
  0
LINE
  8
別途部材
  6
CONTINUOUS
 10
107.145705
 20
-8.106603
 11
107.145705
 21
-2.106603
  0
LINE
  8
別途部材
  6
CONTINUOUS
 10
110.145705
 20
-5.106603
 11
104.145705
 21
-5.106603
  0
LINE
  8
別途部材
  6
CONTINUOUS
 10
63.145702
 20
-11.106603
 11
63.145702
 21
-9.106592
  0
LINE
  8
別途部材
  6
CONTINUOUS
 10
63.145702
 20
-1.106598
 11
63.145702
 21
0.893397
  0
LINE
  8
別途部材
  6
CONTINUOUS
 10
63.145702
 20
-9.106592
 11
101.145705
 21
-9.106592
  0
LINE
  8
別途部材
  6
CONTINUOUS
 10
101.145705
 20
-9.106592
 11
101.145705
 21
-1.106598
  0
LINE
  8
別途部材
  6
CONTINUOUS
 10
63.145702
 20
-1.106598
 11
101.145705
 21
-1.106598
  0
ARC
  8
別途部材
  6
CONTINUOUS
 10
63.604035
 20
-5.106599
 40
2.541667
 50
280.38896
 51
439.61104
  0
LINE
  8
別途部材
  6
CONTINUOUS
 10
63.145702
 20
-1.606592
 11
63.145702
 21
-2.606598
  0
LINE
  8
別途部材
  6
CONTINUOUS
 10
63.145702
 20
-8.606598
 11
63.145702
 21
-7.606592
  0
CIRCLE
  8
別途部材
  6
CONTINUOUS
 10
97.145708
 20
-5.106603
 40
0.999997
  0
LINE
  8
別途部材
  6
CONTINUOUS
 10
97.145708
 20
-4.106598
 11
97.145708
 21
-6.106592
  0
LINE
  8
別途部材
  6
CONTINUOUS
 10
98.145705
 20
-5.106603
 11
96.145702
 21
-5.106603
  0
ARC
  8
別途部材
  6
CONTINUOUS
 10
98.687375
 20
-5.106599
 40
2.541667
 50
100.38896
 51
259.61104
  0
LINE
  8
別途部材
  6
CONTINUOUS
 10
99.145702
 20
-1.606592
 11
99.145702
 21
-2.606598
  0
LINE
  8
別途部材
  6
CONTINUOUS
 10
99.145702
 20
-7.606592
 11
99.145702
 21
-8.606598
  0
LINE
  8
別途部材
  6
CONTINUOUS
 10
63.145702
 20
-2.606598
 11
99.145702
 21
-2.606598
  0
LINE
  8
別途部材
  6
CONTINUOUS
 10
63.145702
 20
-1.606592
 11
99.145702
 21
-1.606592
  0
LINE
  8
別途部材
  6
CONTINUOUS
 10
63.145702
 20
-7.606592
 11
99.145702
 21
-7.606592
  0
LINE
  8
別途部材
  6
CONTINUOUS
 10
63.145702
 20
-8.606598
 11
99.145702
 21
-8.606598
  0
ENDBLK
  0
BLOCK
  2
*GRP_0047
 70
    65
 10
0.0
 20
0.0
  0
LINE
  8
別途部材
  6
CONTINUOUS
 10
113.145705
 20
-5.106603
 11
113.145705
 21
-5.106603
  0
LINE
  8
別途部材
  6
CONTINUOUS
 10
100.1457
 20
-11.106603
 11
100.1457
 21
-13.6066
  0
LINE
  8
別途部材
  6
CONTINUOUS
 10
113.6457
 20
-5.106603
 11
113.145697
 21
-5.106595
  0
LINE
  8
別途部材
  6
CONTINUOUS
 10
101.145705
 20
-21.606603
 11
101.145705
 21
-13.6066
  0
ARC
  8
別途部材
  6
CONTINUOUS
 10
64.145704
 20
-20.606605
 40
1.0
 50
180.0
 51
270.0
  0
LINE
  8
別途部材
  6
CONTINUOUS
 10
63.145702
 20
-14.606598
 11
63.145702
 21
-20.606598
  0
ARC
  8
別途部材
  6
CONTINUOUS
 10
64.145704
 20
-14.606605
 40
1.0
 50
90.0
 51
180.0
  0
LINE
  8
別途部材
  6
CONTINUOUS
 10
64.1457
 20
-21.606603
 11
112.645702
 21
-21.606603
  0
ARC
  8
別途部材
  6
CONTINUOUS
 10
112.645704
 20
-20.606605
 40
1.0
 50
270.0
 51
360.0
  0
LINE
  8
別途部材
  6
CONTINUOUS
 10
64.1457
 20
-13.6066
 11
112.645702
 21
-13.6066
  0
ARC
  8
別途部材
  6
CONTINUOUS
 10
112.645704
 20
-14.606605
 40
1.0
 50
0.0
 51
90.0
  0
LINE
  8
別途部材
  6
CONTINUOUS
 10
113.6457
 20
-20.606598
 11
113.6457
 21
-5.106603
  0
LINE
  8
別途部材
  6
CONTINUOUS
 10
94.1457
 20
-15.906603
 11
89.145705
 21
-15.906603
  0
LINE
  8
別途部材
  6
CONTINUOUS
 10
74.145705
 20
-15.906603
 11
69.145695
 21
-15.906603
  0
POLYLINE
  8
別途部材
  6
CONTINUOUS
 66
     1
  0
VERTEX
  8
別途部材
 10
95.6457
 20
-13.6066
  0
VERTEX
  8
別途部材
 10
94.1457
 20
-15.906603
  0
VERTEX
  8
別途部材
 10
94.1457
 20
-21.606603
  0
SEQEND
  0
LINE
  8
別途部材
  6
CONTINUOUS
 10
91.645695
 20
-13.6066
 11
91.645695
 21
-21.606603
  0
POLYLINE
  8
別途部材
  6
CONTINUOUS
 66
     1
  0
VERTEX
  8
別途部材
 10
87.645705
 20
-13.6066
  0
VERTEX
  8
別途部材
 10
89.145705
 20
-15.906603
  0
VERTEX
  8
別途部材
 10
89.145705
 20
-21.606603
  0
SEQEND
  0
POLYLINE
  8
別途部材
  6
CONTINUOUS
 66
     1
  0
VERTEX
  8
別途部材
 10
75.645705
 20
-13.6066
  0
VERTEX
  8
別途部材
 10
74.145705
 20
-15.906603
  0
VERTEX
  8
別途部材
 10
74.145705
 20
-21.606603
  0
SEQEND
  0
LINE
  8
別途部材
  6
CONTINUOUS
 10
71.6457
 20
-13.6066
 11
71.6457
 21
-21.606603
  0
POLYLINE
  8
別途部材
  6
CONTINUOUS
 66
     1
  0
VERTEX
  8
別途部材
 10
67.645695
 20
-13.6066
  0
VERTEX
  8
別途部材
 10
69.145695
 20
-15.906603
  0
VERTEX
  8
別途部材
 10
69.145695
 20
-21.606603
  0
SEQEND
  0
ENDBLK
  0
BLOCK
  2
*GRP_0048
 70
    65
 10
0.0
 20
0.0
  0
LINE
  8
別途部材
  6
CONTINUOUS
 10
91.145708
 20
-15.106592
 11
91.145708
 21
28.893403
  0
ARC
  8
別途部材
  6
CONTINUOUS
 10
97.145709
 20
-15.106599
 40
6.0
 50
180.0
 51
270.0
  0
LINE
  8
別途部材
  6
CONTINUOUS
 10
103.145708
 20
-15.106592
 11
103.145708
 21
28.893403
  0
ARC
  8
別途部材
  6
CONTINUOUS
 10
97.145709
 20
-15.106599
 40
6.0
 50
-90.0
 51
0.0
  0
CIRCLE
  8
別途部材
  6
CONTINUOUS
 10
97.145708
 20
-15.106592
 40
3.0
  0
LINE
  8
別途部材
  6
CONTINUOUS
 10
94.145708
 20
-15.106592
 11
100.145708
 21
-15.106592
  0
LINE
  8
別途部材
  6
CONTINUOUS
 10
97.145708
 20
-18.106592
 11
97.145708
 21
-12.106592
  0
LINE
  8
別途部材
  6
CONTINUOUS
 10
91.145708
 20
28.893403
 11
93.14571
 21
28.893403
  0
LINE
  8
別途部材
  6
CONTINUOUS
 10
101.145713
 20
28.893403
 11
103.145708
 21
28.893403
  0
LINE
  8
別途部材
  6
CONTINUOUS
 10
93.14571
 20
28.893403
 11
93.14571
 21
-9.106592
  0
LINE
  8
別途部材
  6
CONTINUOUS
 10
93.14571
 20
-9.106592
 11
101.145713
 21
-9.106592
  0
LINE
  8
別途部材
  6
CONTINUOUS
 10
101.145713
 20
28.893403
 11
101.145713
 21
-9.106592
  0
ARC
  8
別途部材
  6
CONTINUOUS
 10
97.145709
 20
-7.648267
 40
2.541667
 50
270.0
 51
270.0
  0
ARC
  8
別途部材
  6
CONTINUOUS
 10
97.145709
 20
28.435068
 40
2.541667
 50
190.38896
 51
349.61104
  0
LINE
  8
別途部材
  6
CONTINUOUS
 10
100.64571
 20
28.893403
 11
99.645713
 21
28.893403
  0
LINE
  8
別途部材
  6
CONTINUOUS
 10
93.645713
 20
28.893403
 11
94.64571
 21
28.893403
  0
CIRCLE
  8
別途部材
  6
CONTINUOUS
 10
97.145708
 20
-5.106603
 40
0.999997
  0
LINE
  8
別途部材
  6
CONTINUOUS
 10
98.145713
 20
-5.106603
 11
96.14571
 21
-5.106603
  0
LINE
  8
別途部材
  6
CONTINUOUS
 10
97.145708
 20
-6.1066
 11
97.145708
 21
-4.106598
  0
ARC
  8
別途部材
  6
CONTINUOUS
 10
97.145709
 20
-6.648272
 40
2.541667
 50
10.38896
 51
169.61104
  0
LINE
  8
別途部材
  6
CONTINUOUS
 10
100.64571
 20
-7.106598
 11
99.645713
 21
-7.106598
  0
LINE
  8
別途部材
  6
CONTINUOUS
 10
94.64571
 20
-7.106598
 11
93.645713
 21
-7.106598
  0
LINE
  8
別途部材
  6
CONTINUOUS
 10
99.645713
 20
28.893403
 11
99.645713
 21
-7.106598
  0
LINE
  8
別途部材
  6
CONTINUOUS
 10
100.64571
 20
28.893403
 11
100.64571
 21
-7.106598
  0
LINE
  8
別途部材
  6
CONTINUOUS
 10
94.64571
 20
28.893403
 11
94.64571
 21
-7.106598
  0
LINE
  8
別途部材
  6
CONTINUOUS
 10
93.645713
 20
28.893403
 11
93.645713
 21
-7.106598
  0
ENDBLK
  0
BLOCK
  2
*GRP_0049
 70
    65
 10
0.0
 20
0.0
  0
LINE
  8
別途部材
  6
CONTINUOUS
 10
97.145708
 20
-21.106592
 11
97.145708
 21
-21.106592
  0
LINE
  8
別途部材
  6
CONTINUOUS
 10
78.645697
 20
-15.906595
 11
83.6457
 21
-15.906595
  0
LINE
  8
別途部材
  6
CONTINUOUS
 10
81.145702
 20
-13.606592
 11
81.145702
 21
-21.606595
  0
POLYLINE
  8
別途部材
  6
CONTINUOUS
 66
     1
  0
VERTEX
  8
別途部材
 10
85.1457
 20
-13.606592
  0
VERTEX
  8
別途部材
 10
83.6457
 20
-15.906595
  0
VERTEX
  8
別途部材
 10
83.6457
 20
-21.606595
  0
SEQEND
  0
POLYLINE
  8
別途部材
  6
CONTINUOUS
 66
     1
  0
VERTEX
  8
別途部材
 10
77.145697
 20
-13.606592
  0
VERTEX
  8
別途部材
 10
78.645697
 20
-15.906595
  0
VERTEX
  8
別途部材
 10
78.645697
 20
-21.606595
  0
SEQEND
  0
LINE
  8
別途部材
  6
CONTINUOUS
 10
97.145708
 20
-21.606595
 11
97.145708
 21
-21.106592
  0
ARC
  8
別途部材
  6
CONTINUOUS
 10
72.1457
 20
-14.6066
 40
1.0
 50
90.0
 51
180.0
  0
LINE
  8
別途部材
  6
CONTINUOUS
 10
71.145705
 20
-14.606598
 11
71.145705
 21
-20.606598
  0
ARC
  8
別途部材
  6
CONTINUOUS
 10
72.1457
 20
-20.6066
 40
1.0
 50
180.0
 51
270.0
  0
ARC
  8
別途部材
  6
CONTINUOUS
 10
88.1457
 20
-14.6066
 40
1.0
 50
0.0
 51
90.0
  0
LINE
  8
別途部材
  6
CONTINUOUS
 10
89.145705
 20
-20.606598
 11
89.145705
 21
-14.606598
  0
ARC
  8
別途部材
  6
CONTINUOUS
 10
88.1457
 20
-20.6066
 40
1.0
 50
270.0
 51
360.0
  0
LINE
  8
別途部材
  6
CONTINUOUS
 10
72.145702
 20
-21.606595
 11
97.145708
 21
-21.606595
  0
LINE
  8
別途部材
  6
CONTINUOUS
 10
72.145702
 20
-13.606592
 11
91.145708
 21
-13.606592
  0
ENDBLK
  0
BLOCK
  2
*GRP_0050
 70
    65
 10
0.0
 20
0.0
  0
ARC
  8
ゴム等
  6
CONTINUOUS
 62
   127
 10
-83.849293
 20
-9.606578
 40
1.5
 50
90.0
 51
180.0
  0
LINE
  8
ゴム等
  6
CONTINUOUS
 62
   127
 10
-83.849287
 20
-8.106573
 11
-83.849287
 21
-8.106573
  0
ARC
  8
ゴム等
  6
CONTINUOUS
 62
   127
 10
-83.849293
 20
-9.606578
 40
1.5
 50
0.0
 51
90.0
  0
LINE
  8
ゴム等
  6
CONTINUOUS
 62
   127
 10
-85.349287
 20
-36.606573
 11
-85.349287
 21
-9.606573
  0
ARC
  8
ゴム等
  6
CONTINUOUS
 62
   127
 10
-83.849293
 20
-36.606578
 40
1.5
 50
180.0
 51
270.0
  0
LINE
  8
ゴム等
  6
CONTINUOUS
 62
   127
 10
-83.849287
 20
-38.106573
 11
-83.849287
 21
-38.106573
  0
LINE
  8
ゴム等
  6
CONTINUOUS
 62
   127
 10
-82.349287
 20
-36.606573
 11
-82.349287
 21
-9.606573
  0
ARC
  8
ゴム等
  6
CONTINUOUS
 62
   127
 10
-83.849293
 20
-36.606578
 40
1.5
 50
270.0
 51
360.0
  0
ENDBLK
  0
BLOCK
  2
*GRP_0051
 70
    65
 10
0.0
 20
0.0
  0
LINE
  8
St
  6
CONTINUOUS
 10
115.145693
 20
15.31016
 11
118.345695
 21
12.110165
  0
LINE
  8
St
  6
CONTINUOUS
 10
115.145693
 20
14.603053
 11
118.345695
 21
11.403058
  0
LINE
  8
St
  6
CONTINUOUS
 10
115.145693
 20
-13.331312
 11
118.345695
 21
-16.531308
  0
LINE
  8
St
  6
CONTINUOUS
 10
115.145693
 20
-14.03842
 11
118.345695
 21
-17.238415
  0
LINE
  8
St
  6
CONTINUOUS
 10
165.1458
 20
-2.415917
 11
165.1458
 21
-5.61592
  0
ARC
  8
St
  6
CONTINUOUS
 62
   127
 10
118.345798
 20
-2.415913
 40
3.2
 50
180.0
 51
270.0
  0
LINE
  8
St
  6
CONTINUOUS
 62
   127
 10
118.345808
 20
-2.415917
 11
165.1458
 21
-2.415917
  0
LINE
  8
St
  6
CONTINUOUS
 62
   127
 10
118.345808
 20
-5.61592
 11
165.1458
 21
-5.61592
  0
LINE
  8
St
  6
CONTINUOUS
 10
155.145795
 20
-2.415917
 11
155.145795
 21
-5.61592
  0
LINE
  8
St
  6
CONTINUOUS
 10
145.14579
 20
-2.415917
 11
145.14579
 21
-5.61592
  0
LINE
  8
St
  6
CONTINUOUS
 10
145.14579
 20
-3.21592
 11
155.145795
 21
-3.21592
  0
LINE
  8
St
  6
CONTINUOUS
 10
145.14579
 20
-4.015923
 11
155.145795
 21
-4.015923
  0
LINE
  8
St
  6
CONTINUOUS
 10
145.14579
 20
-4.815917
 11
155.145795
 21
-4.815917
  0
LINE
  8
St
  6
CONTINUOUS
 10
150.145793
 20
-8.815923
 11
150.145793
 21
0.790895
  0
LINE
  8
St
  6
CONTINUOUS
 62
   127
 10
118.345695
 20
19.87559
 11
118.345695
 21
-35.10655
  0
LINE
  8
St
  6
CONTINUOUS
 62
   127
 10
115.145693
 20
19.893448
 11
115.145693
 21
-35.10655
  0
LINE
  8
St
  6
CONTINUOUS
 10
118.345695
 20
-35.10655
 11
115.145693
 21
-35.10655
  0
LINE
  8
St
  6
CONTINUOUS
 10
118.345695
 20
19.893448
 11
115.145693
 21
19.893448
  0
ENDBLK
  0
BLOCK
  2
*GRP_0052
 70
    65
 10
0.0
 20
0.0
  0
POLYLINE
  8
寸法
  6
BYBLOCK
 62
     0
 66
     1
  0
VERTEX
  8
寸法
 10
-86.895055
 20
-33.574233
  0
VERTEX
  8
寸法
 10
-85.395055
 20
-30.976158
  0
VERTEX
  8
寸法
 10
-87.99313
 20
-32.476158
  0
SEQEND
  0
POLYLINE
  8
寸法
  6
BYBLOCK
 62
     0
 66
     1
  0
VERTEX
  8
寸法
 10
-85.395055
 20
-30.976158
  0
VERTEX
  8
寸法
 10
-101.14837
 20
-46.729472
  0
VERTEX
  8
寸法
 10
-101.14837
 20
-55.84597
  0
SEQEND
  0
ENDBLK
  0
BLOCK
  2
*GRP_0053
 70
    65
 10
0.0
 20
0.0
  0
POLYLINE
  8
寸法
  6
BYBLOCK
 62
     0
 66
     1
  0
VERTEX
  8
寸法
 10
-23.59675
 20
-38.549943
  0
VERTEX
  8
寸法
 10
-9.402945
 20
-52.743747
  0
VERTEX
  8
寸法
 10
-9.402945
 20
-75.354193
  0
SEQEND
  0
ENDBLK
  0
BLOCK
  2
*GRP_0054
 70
    65
 10
0.0
 20
0.0
  0
POLYLINE
  8
寸法
  6
BYBLOCK
 62
     0
 66
     1
  0
VERTEX
  8
寸法
 10
46.560383
 20
-26.106603
  0
VERTEX
  8
寸法
 10
56.587637
 20
-36.133857
  0
VERTEX
  8
寸法
 10
56.587637
 20
-74.026745
  0
SEQEND
  0
ENDBLK
  0
BLOCK
  2
*GRP_0055
 70
    65
 10
0.0
 20
0.0
  0
POLYLINE
  8
寸法
  6
BYBLOCK
 62
     0
 66
     1
  0
VERTEX
  8
寸法
 10
-27.854307
 20
-1.606598
  0
VERTEX
  8
寸法
 10
-20.10862
 20
6.13909
  0
VERTEX
  8
寸法
 10
-20.10862
 20
10.0167
  0
SEQEND
  0
ENDBLK
  0
BLOCK
  2
*GRP_0056
 70
    65
 10
0.0
 20
0.0
  0
POLYLINE
  8
寸法
  6
BYBLOCK
 62
     0
 66
     1
  0
VERTEX
  8
寸法
 10
68.023712
 20
-1.606603
  0
VERTEX
  8
寸法
 10
57.576615
 20
8.840495
  0
VERTEX
  8
寸法
 10
57.576615
 20
11.29912
  0
SEQEND
  0
ENDBLK
  0
BLOCK
  2
*GRP_0057
 70
    65
 10
0.0
 20
0.0
  0
POLYLINE
  8
寸法
  6
BYBLOCK
 62
     0
 66
     1
  0
VERTEX
  8
寸法
 10
94.145697
 20
3.881252
  0
VERTEX
  8
寸法
 10
87.07606
 20
10.950893
  0
VERTEX
  8
寸法
 10
87.07606
 20
14.009495
  0
SEQEND
  0
ENDBLK
  0
BLOCK
  2
*GRP_0058
 70
    65
 10
0.0
 20
0.0
  0
POLYLINE
  8
寸法
  6
BYBLOCK
 62
     0
 66
     1
  0
VERTEX
  8
寸法
 10
24.078475
 20
-50.930108
  0
VERTEX
  8
寸法
 10
25.578475
 20
-48.33203
  0
VERTEX
  8
寸法
 10
22.9804
 20
-49.83203
  0
SEQEND
  0
POLYLINE
  8
寸法
  6
BYBLOCK
 62
     0
 66
     1
  0
VERTEX
  8
寸法
 10
25.578475
 20
-48.33203
  0
VERTEX
  8
寸法
 10
16.079138
 20
-57.83137
  0
VERTEX
  8
寸法
 10
16.079138
 20
-78.038455
  0
SEQEND
  0
ENDBLK
  0
BLOCK
  2
*DIM_0059
 70
    65
 10
0.0
 20
0.0
  0
LINE
  8
寸法
  6
CONTINUOUS
 10
15.645697
 20
-16.606603
 11
15.645697
 21
102.393793
  0
LINE
  8
寸法
  6
CONTINUOUS
 10
11.145697
 20
-16.606595
 11
11.145697
 21
102.393793
  0
LINE
  8
寸法
  6
CONTINUOUS
 10
15.645697
 20
102.393793
 11
11.145697
 21
102.393793
  0
POINT
  8
寸法
 10
15.645697
 20
102.393793
  0
POINT
  8
寸法
 10
11.145697
 20
102.393793
  0
TEXT
  7
TextStyle03
  8
寸法
  6
CONTINUOUS
 10
10.9375
 20
102.75
  1
4.5
 40
3.0
 72
     5
 11
15.8125
 21
102.75
  0
ENDBLK
  0
BLOCK
  2
*GRP_0060
 70
    65
 10
0.0
 20
0.0
  0
POLYLINE
  8
寸法
  6
BYBLOCK
 62
     0
 66
     1
  0
VERTEX
  8
寸法
 10
-72.705272
 20
19.374495
  0
VERTEX
  8
寸法
 10
-74.205272
 20
16.77642
  0
VERTEX
  8
寸法
 10
-71.607197
 20
18.27642
  0
SEQEND
  0
POLYLINE
  8
寸法
  6
BYBLOCK
 62
     0
 66
     1
  0
VERTEX
  8
寸法
 10
-74.205272
 20
16.77642
  0
VERTEX
  8
寸法
 10
-62.564728
 20
28.416965
  0
VERTEX
  8
寸法
 10
-62.564728
 20
30.256103
  0
SEQEND
  0
ENDBLK
  0
BLOCK
  2
*GRP_0061
 70
    65
 10
0.0
 20
0.0
  0
LINE
  8
ゴム等
  6
DOT
 10
-97.354305
 20
-1.6066
 11
-72.354307
 21
-1.606578
  0
LINE
  8
ゴム等
  6
DOT
 10
-97.354305
 20
-1.6066
 11
-97.354305
 21
6.893412
  0
LINE
  8
ゴム等
  6
DOT
 10
-72.354307
 20
-1.606578
 11
-72.354307
 21
6.893435
  0
LINE
  8
ゴム等
  6
DOT
 10
-97.354305
 20
6.893412
 11
-72.354307
 21
6.893435
  0
ENDBLK
  0
BLOCK
  2
*DIM_0062
 70
    65
 10
0.0
 20
0.0
  0
LINE
  8
寸法
  6
CONTINUOUS
 10
-89.321227
 20
-53.10658
 11
-163.965355
 21
-53.10658
  0
LINE
  8
寸法
  6
CONTINUOUS
 10
21.326447
 20
-71.506578
 11
-163.965355
 21
-71.506578
  0
LINE
  8
寸法
  6
CONTINUOUS
 10
-163.965355
 20
-53.10658
 11
-163.965355
 21
-71.506578
  0
POINT
  8
寸法
 10
-163.965355
 20
-53.10658
  0
POINT
  8
寸法
 10
-163.965355
 20
-71.506578
  0
TEXT
  7
TextStyle03
  8
寸法
  6
CONTINUOUS
 10
-164.35
 20
-65.60625
  1
18.4
 40
3.0
 50
90.0
 72
     5
 11
-164.35
 21
-59.04375
  0
ENDBLK
  0
ENDSEC
  0
SECTION
  2
ENTITIES
  0
POLYLINE
  8
通り芯
  6
CONTINUOUS
 66
     1
 70
     1
  0
VERTEX
  8
通り芯
 10
-210.0
 20
-148.5
  0
VERTEX
  8
通り芯
 10
210.0
 20
-148.5
  0
VERTEX
  8
通り芯
 10
210.0
 20
148.5
  0
VERTEX
  8
通り芯
 10
-210.0
 20
148.5
  0
SEQEND
  0
ARC
  8
通り芯
  6
CONTINUOUS
 62
    15
 10
110.645692
 20
-57.606553
 40
3.0
 50
270.0
 51
360.0
  0
LINE
  8
通り芯
  6
CONTINUOUS
 62
    15
 10
113.645693
 20
-60.606557
 11
92.645693
 21
-60.606557
  0
LINE
  8
通り芯
  6
CONTINUOUS
 62
    15
 10
92.645693
 20
-60.606557
 11
92.645693
 21
-57.606557
  0
LINE
  8
通り芯
  6
CONTINUOUS
 62
    15
 10
110.645693
 20
-57.606557
 11
92.645693
 21
-57.606557
  0
LINE
  8
通り芯
  6
CONTINUOUS
 62
    15
 10
110.645693
 20
-50.106557
 11
113.645693
 21
-50.106557
  0
LINE
  8
通り芯
  6
CONTINUOUS
 62
    15
 10
110.645693
 20
-46.106552
 11
113.645693
 21
-46.106552
  0
LINE
  8
通り芯
  6
CONTINUOUS
 62
    15
 10
111.395693
 20
-46.106552
 11
111.395693
 21
-50.106557
  0
LINE
  8
通り芯
  6
CONTINUOUS
 62
    15
 10
112.145693
 20
-46.106552
 11
112.145693
 21
-50.106557
  0
LINE
  8
通り芯
  6
CONTINUOUS
 62
    15
 10
112.895693
 20
-46.106552
 11
112.895693
 21
-50.106557
  0
ARC
  8
通り芯
  6
CONTINUOUS
 62
    15
 10
110.645692
 20
-26.106598
 40
3.0
 50
0.0
 51
90.0
  0
LINE
  8
通り芯
  6
CONTINUOUS
 62
    15
 10
74.145697
 20
-26.106603
 11
74.145697
 21
-23.106603
  0
LINE
  8
通り芯
  6
CONTINUOUS
 62
    15
 10
69.145695
 20
-26.106603
 11
69.145695
 21
-23.106603
  0
LINE
  8
通り芯
  6
CONTINUOUS
 62
    15
 10
69.145695
 20
-25.356603
 11
74.145697
 21
-25.356603
  0
LINE
  8
通り芯
  6
CONTINUOUS
 62
    15
 10
69.145695
 20
-24.606603
 11
74.145697
 21
-24.606603
  0
LINE
  8
通り芯
  6
CONTINUOUS
 62
    15
 10
69.145695
 20
-23.856603
 11
74.145697
 21
-23.856603
  0
LINE
  8
通り芯
  6
CONTINUOUS
 62
    15
 10
94.145693
 20
-26.106603
 11
94.145693
 21
-23.106603
  0
LINE
  8
通り芯
  6
CONTINUOUS
 62
    15
 10
89.145697
 20
-26.106603
 11
89.145697
 21
-23.106603
  0
LINE
  8
通り芯
  6
CONTINUOUS
 62
    15
 10
89.145697
 20
-25.356603
 11
94.145693
 21
-25.356603
  0
LINE
  8
通り芯
  6
CONTINUOUS
 62
    15
 10
89.145697
 20
-24.606603
 11
94.145693
 21
-24.606603
  0
LINE
  8
通り芯
  6
CONTINUOUS
 62
    15
 10
89.145697
 20
-23.856603
 11
94.145693
 21
-23.856603
  0
LINE
  8
通り芯
  6
CONTINUOUS
 62
    15
 10
110.645693
 20
-57.606557
 11
110.645693
 21
-26.106603
  0
LINE
  8
通り芯
  6
CONTINUOUS
 62
    15
 10
113.645693
 20
-60.606557
 11
113.645693
 21
-23.106603
  0
LINE
  8
通り芯
  6
CONTINUOUS
 62
    15
 10
110.645693
 20
-50.106557
 11
113.645693
 21
-50.106557
  0
LINE
  8
通り芯
  6
CONTINUOUS
 62
    15
 10
110.645693
 20
-46.106552
 11
113.645693
 21
-46.106552
  0
LINE
  8
通り芯
  6
CONTINUOUS
 62
    15
 10
111.395693
 20
-46.106552
 11
111.395693
 21
-50.106557
  0
LINE
  8
通り芯
  6
CONTINUOUS
 62
    15
 10
112.145693
 20
-46.106552
 11
112.145693
 21
-50.106557
  0
LINE
  8
通り芯
  6
CONTINUOUS
 62
    15
 10
112.895693
 20
-46.106552
 11
112.895693
 21
-50.106557
  0
LINE
  8
通り芯
  6
CONTINUOUS
 62
    15
 10
110.645693
 20
-26.106603
 11
18.145695
 21
-26.106603
  0
LINE
  8
通り芯
  6
CONTINUOUS
 62
    15
 10
18.145695
 20
-26.106603
 11
18.145695
 21
-23.106603
  0
LINE
  8
通り芯
  6
CONTINUOUS
 62
    15
 10
113.645693
 20
-23.106603
 11
18.145695
 21
-23.106603
  0
LINE
  8
通り芯
  6
CONTINUOUS
 62
    15
 10
23.395695
 20
-26.106603
 11
23.395695
 21
-23.106603
  0
LINE
  8
通り芯
  6
CONTINUOUS
 62
    15
 10
19.895693
 20
-26.106603
 11
19.895693
 21
-23.106603
  0
LINE
  8
通り芯
  6
CONTINUOUS
 62
    15
 10
19.895693
 20
-25.356603
 11
23.395695
 21
-25.356603
  0
LINE
  8
通り芯
  6
CONTINUOUS
 62
    15
 10
19.895693
 20
-24.606603
 11
23.395695
 21
-24.606603
  0
LINE
  8
通り芯
  6
CONTINUOUS
 62
    15
 10
19.895693
 20
-23.856603
 11
23.395695
 21
-23.856603
  0
LINE
  8
通り芯
  6
CONTINUOUS
 62
    15
 10
98.645693
 20
-26.106603
 11
98.645693
 21
-23.106603
  0
LINE
  8
通り芯
  6
CONTINUOUS
 62
    15
 10
102.645697
 20
-26.106603
 11
102.645697
 21
-23.106603
  0
LINE
  8
通り芯
  6
CONTINUOUS
 62
    15
 10
98.645693
 20
-25.356603
 11
102.645697
 21
-25.356603
  0
LINE
  8
通り芯
  6
CONTINUOUS
 62
    15
 10
98.645693
 20
-24.606603
 11
102.645697
 21
-24.606603
  0
LINE
  8
通り芯
  6
CONTINUOUS
 62
    15
 10
98.645693
 20
-23.856603
 11
102.645697
 21
-23.856603
  0
ARC
  8
通り芯
  6
CONTINUOUS
 62
    15
 10
-52.854311
 20
-43.506581
 40
3.0
 50
180.0
 51
270.0
  0
LINE
  8
通り芯
  6
CONTINUOUS
 62
    15
 10
-34.854307
 20
-46.506588
 11
-34.854307
 21
-43.506588
  0
LINE
  8
通り芯
  6
CONTINUOUS
 62
    15
 10
-55.854307
 20
-46.506588
 11
-34.854307
 21
-46.506588
  0
LINE
  8
通り芯
  6
CONTINUOUS
 62
    15
 10
-52.854307
 20
-26.106603
 11
-5.854313
 21
-26.106603
  0
ARC
  8
通り芯
  6
CONTINUOUS
 62
    15
 10
-52.854311
 20
-26.106596
 40
3.0
 50
90.0
 51
180.0
  0
LINE
  8
通り芯
  6
CONTINUOUS
 62
    15
 10
-31.354313
 20
-26.106603
 11
-31.354313
 21
-23.106603
  0
LINE
  8
通り芯
  6
CONTINUOUS
 62
    15
 10
-36.354307
 20
-26.106603
 11
-36.354307
 21
-23.106603
  0
LINE
  8
通り芯
  6
CONTINUOUS
 62
    15
 10
-36.354307
 20
-25.356603
 11
-31.354313
 21
-25.356603
  0
LINE
  8
通り芯
  6
CONTINUOUS
 62
    15
 10
-36.354307
 20
-24.606603
 11
-31.354313
 21
-24.606603
  0
LINE
  8
通り芯
  6
CONTINUOUS
 62
    15
 10
-36.354307
 20
-23.856603
 11
-31.354313
 21
-23.856603
  0
LINE
  8
通り芯
  6
CONTINUOUS
 62
    15
 10
-11.35431
 20
-26.106603
 11
-11.35431
 21
-23.106603
  0
LINE
  8
通り芯
  6
CONTINUOUS
 62
    15
 10
-16.354313
 20
-26.106603
 11
-16.354313
 21
-23.106603
  0
LINE
  8
通り芯
  6
CONTINUOUS
 62
    15
 10
-16.354313
 20
-25.356603
 11
-11.35431
 21
-25.356603
  0
LINE
  8
通り芯
  6
CONTINUOUS
 62
    15
 10
-16.354313
 20
-24.606603
 11
-11.35431
 21
-24.606603
  0
LINE
  8
通り芯
  6
CONTINUOUS
 62
    15
 10
-16.354313
 20
-23.856603
 11
-11.35431
 21
-23.856603
  0
LINE
  8
通り芯
  6
CONTINUOUS
 62
    15
 10
-52.854307
 20
-43.506588
 11
-52.854307
 21
-26.106603
  0
LINE
  8
通り芯
  6
CONTINUOUS
 62
    15
 10
-55.854307
 20
-46.506588
 11
-55.854307
 21
-23.106595
  0
LINE
  8
通り芯
  6
CONTINUOUS
 62
    15
 10
-52.854307
 20
-43.506588
 11
-5.854313
 21
-43.506588
  0
LINE
  8
通り芯
  6
CONTINUOUS
 62
    15
 10
-5.854313
 20
-23.106603
 11
-5.854313
 21
-43.506588
  0
LINE
  8
通り芯
  6
CONTINUOUS
 10
-55.854307
 20
-23.106595
 11
-5.854313
 21
-23.106603
  0
LINE
  8
通り芯
  6
DOT
 10
-77.154307
 20
-3.105918
 11
-57.154305
 21
-3.105918
  0
INSERT
  2
*GRP_0001
  8
型材断面
  6
CONTINUOUS
 10
0.0
 20
0.0
  0
INSERT
  2
*GRP_0002
  8
型材断面
  6
CONTINUOUS
 62
    47
 10
0.0
 20
0.0
  0
LINE
  8
型材断面
  6
CONTINUOUS
 62
    47
 10
115.145693
 20
-51.106555
 11
113.645693
 21
-50.273222
  0
LINE
  8
型材断面
  6
CONTINUOUS
 62
    47
 10
113.645693
 20
-45.939887
 11
115.145693
 21
-45.106555
  0
LINE
  8
型材断面
  6
CONTINUOUS
 62
    47
 10
114.020693
 20
-45.731552
 11
114.020693
 21
-50.481557
  0
LINE
  8
型材断面
  6
CONTINUOUS
 62
    47
 10
114.395693
 20
-45.523218
 11
114.395693
 21
-50.689893
  0
LINE
  8
型材断面
  6
CONTINUOUS
 62
    47
 10
114.770693
 20
-45.31489
 11
114.770693
 21
-50.89822
  0
LINE
  8
型材断面
  6
DASHDOT
 62
    47
 10
21.645697
 20
-20.106603
 11
21.645697
 21
-26.74873
  0
LINE
  8
型材断面
  6
CONTINUOUS
 62
    47
 10
25.645695
 20
-21.606603
 11
25.645695
 21
-23.106603
  0
LINE
  8
型材断面
  6
CONTINUOUS
 62
    47
 10
25.645695
 20
-21.606603
 11
25.645695
 21
-23.106603
  0
LINE
  8
型材断面
  6
CONTINUOUS
 62
    47
 10
74.645693
 20
-21.606603
 11
74.645693
 21
-23.106603
  0
LINE
  8
型材断面
  6
CONTINUOUS
 62
    47
 10
68.645693
 20
-21.606603
 11
68.645693
 21
-23.106603
  0
LINE
  8
型材断面
  6
CONTINUOUS
 62
    47
 10
68.645693
 20
-22.731603
 11
74.645693
 21
-22.731603
  0
LINE
  8
型材断面
  6
CONTINUOUS
 62
    47
 10
68.645693
 20
-22.356603
 11
74.645693
 21
-22.356603
  0
LINE
  8
型材断面
  6
CONTINUOUS
 62
    47
 10
68.645693
 20
-21.981603
 11
74.645693
 21
-21.981603
  0
LINE
  8
型材断面
  6
CONTINUOUS
 62
    47
 10
94.645695
 20
-21.606603
 11
94.645695
 21
-23.106603
  0
LINE
  8
型材断面
  6
CONTINUOUS
 62
    47
 10
88.645695
 20
-21.606603
 11
88.645695
 21
-23.106603
  0
LINE
  8
型材断面
  6
CONTINUOUS
 62
    47
 10
88.645695
 20
-22.731603
 11
94.645695
 21
-22.731603
  0
LINE
  8
型材断面
  6
CONTINUOUS
 62
    47
 10
88.645695
 20
-22.356603
 11
94.645695
 21
-22.356603
  0
LINE
  8
型材断面
  6
CONTINUOUS
 62
    47
 10
88.645695
 20
-21.981603
 11
94.645695
 21
-21.981603
  0
LINE
  8
型材断面
  6
CONTINUOUS
 62
    47
 10
25.645695
 20
-23.106603
 11
25.645695
 21
-21.606603
  0
LINE
  8
型材断面
  6
CONTINUOUS
 62
    47
 10
113.645693
 20
-21.606603
 11
25.645695
 21
-21.606603
  0
LINE
  8
型材断面
  6
CONTINUOUS
 62
    47
 10
98.145697
 20
-21.606603
 11
98.145697
 21
-23.106603
  0
LINE
  8
型材断面
  6
CONTINUOUS
 62
    47
 10
103.145693
 20
-21.606603
 11
103.145693
 21
-23.106603
  0
LINE
  8
型材断面
  6
CONTINUOUS
 62
    47
 10
98.145697
 20
-22.731603
 11
103.145693
 21
-22.731603
  0
LINE
  8
型材断面
  6
CONTINUOUS
 62
    47
 10
98.145697
 20
-22.356603
 11
103.145693
 21
-22.356603
  0
LINE
  8
型材断面
  6
CONTINUOUS
 62
    47
 10
98.145697
 20
-21.981603
 11
103.145693
 21
-21.981603
  0
INSERT
  2
*GRP_0003
  8
型材断面
  6
CONTINUOUS
 10
0.0
 20
0.0
  0
LINE
  8
型材断面
  6
DASHDOT
 10
-57.354307
 20
-3.106585
 11
123.247673
 21
-3.106585
  0
LINE
  8
型材断面
  6
CONTINUOUS
 62
    47
 10
14.145697
 20
-48.006588
 11
14.979023
 21
-46.506588
  0
LINE
  8
型材断面
  6
CONTINUOUS
 62
    47
 10
20.145697
 20
-48.006588
 11
19.312357
 21
-46.506588
  0
LINE
  8
型材断面
  6
CONTINUOUS
 62
    47
 10
14.354025
 20
-47.631588
 11
19.937363
 21
-47.631588
  0
LINE
  8
型材断面
  6
CONTINUOUS
 62
    47
 10
14.56236
 20
-47.256588
 11
19.729027
 21
-47.256588
  0
LINE
  8
型材断面
  6
CONTINUOUS
 62
    47
 10
14.770695
 20
-46.881588
 11
19.520693
 21
-46.881588
  0
ARC
  8
型材断面
  6
CONTINUOUS
 62
    47
 10
11.145699
 20
-45.006575
 40
1.5
 50
180.0
 51
270.0
  0
LINE
  8
型材断面
  6
CONTINUOUS
 62
    47
 10
11.145697
 20
-45.006588
 11
24.145695
 21
-45.006588
  0
LINE
  8
型材断面
  6
CONTINUOUS
 62
    47
 10
24.145695
 20
-46.506588
 11
24.145695
 21
-45.006588
  0
LINE
  8
型材断面
  6
CONTINUOUS
 62
    47
 10
18.895695
 20
-46.506588
 11
18.895695
 21
-45.006588
  0
LINE
  8
型材断面
  6
CONTINUOUS
 62
    47
 10
15.395693
 20
-46.506588
 11
15.395693
 21
-45.006588
  0
LINE
  8
型材断面
  6
CONTINUOUS
 62
    47
 10
15.395693
 20
-46.131588
 11
18.895695
 21
-46.131588
  0
LINE
  8
型材断面
  6
CONTINUOUS
 62
    47
 10
15.395693
 20
-45.756588
 11
18.895695
 21
-45.756588
  0
LINE
  8
型材断面
  6
CONTINUOUS
 62
    47
 10
15.395693
 20
-45.381588
 11
18.895695
 21
-45.381588
  0
LINE
  8
型材断面
  6
CONTINUOUS
 62
    47
 10
17.145697
 20
-42.388173
 11
17.145697
 21
-50.156973
  0
LINE
  8
型材断面
  6
CONTINUOUS
 62
    47
 10
9.645697
 20
-23.106595
 11
-55.854307
 21
-23.106595
  0
ARC
  8
型材断面
  6
CONTINUOUS
 62
    47
 10
9.645699
 20
-23.106587
 40
1.5
 50
0.0
 51
90.0
  0
LINE
  8
型材断面
  6
CONTINUOUS
 62
    47
 10
11.145697
 20
-21.606595
 11
-55.854307
 21
-21.606595
  0
LINE
  8
型材断面
  6
CONTINUOUS
 62
    47
 10
-36.85431
 20
-23.106595
 11
-36.85431
 21
-21.606595
  0
LINE
  8
型材断面
  6
CONTINUOUS
 62
    47
 10
-30.85431
 20
-23.106595
 11
-30.85431
 21
-21.606595
  0
LINE
  8
型材断面
  6
CONTINUOUS
 62
    47
 10
-36.85431
 20
-22.731595
 11
-30.85431
 21
-22.731595
  0
LINE
  8
型材断面
  6
CONTINUOUS
 62
    47
 10
-36.85431
 20
-22.356595
 11
-30.85431
 21
-22.356595
  0
LINE
  8
型材断面
  6
CONTINUOUS
 62
    47
 10
-36.85431
 20
-21.981595
 11
-30.85431
 21
-21.981595
  0
LINE
  8
型材断面
  6
CONTINUOUS
 62
    47
 10
-16.854307
 20
-23.106595
 11
-16.854307
 21
-21.606595
  0
LINE
  8
型材断面
  6
CONTINUOUS
 62
    47
 10
-10.854307
 20
-23.106595
 11
-10.854307
 21
-21.606595
  0
LINE
  8
型材断面
  6
CONTINUOUS
 62
    47
 10
-16.854307
 20
-22.731595
 11
-10.854307
 21
-22.731595
  0
LINE
  8
型材断面
  6
CONTINUOUS
 62
    47
 10
-16.854307
 20
-22.356595
 11
-10.854307
 21
-22.356595
  0
LINE
  8
型材断面
  6
CONTINUOUS
 62
    47
 10
-16.854307
 20
-21.981595
 11
-10.854307
 21
-21.981595
  0
LINE
  8
型材断面
  6
CONTINUOUS
 62
    47
 10
9.645697
 20
-46.506588
 11
9.645697
 21
-23.106595
  0
LINE
  8
型材断面
  6
CONTINUOUS
 62
    47
 10
11.145697
 20
-45.006588
 11
11.145697
 21
-21.606595
  0
LINE
  8
型材断面
  6
CONTINUOUS
 62
    47
 10
-55.854307
 20
-23.106595
 11
-55.854307
 21
-21.606595
  0
INSERT
  2
*GRP_0004
  8
型材断面
  6
CONTINUOUS
 10
0.0
 20
0.0
  0
LINE
  8
型材断面
  6
CONTINUOUS
 10
-55.854307
 20
-3.106578
 11
-80.154307
 21
-3.106578
  0
LINE
  8
型材断面
  6
CONTINUOUS
 10
-78.85431
 20
22.693415
 11
-78.85431
 21
21.193415
  0
LINE
  8
型材断面
  6
CONTINUOUS
 10
-72.354307
 20
21.193423
 11
-72.354307
 21
-1.606578
  0
ARC
  8
型材断面
  6
CONTINUOUS
 10
-72.354314
 20
-1.60658
 40
1.5
 50
270.0
 51
360.0
  0
LINE
  8
型材断面
  6
CONTINUOUS
 10
-78.85431
 20
21.193415
 11
-72.354307
 21
21.193423
  0
ARC
  8
型材断面
  6
CONTINUOUS
 10
-72.354314
 20
21.193417
 40
1.5
 50
0.0
 51
90.000015
  0
LINE
  8
型材断面
  6
CONTINUOUS
 10
-78.85431
 20
22.693415
 11
-70.854307
 21
22.693423
  0
LINE
  8
型材断面
  6
CONTINUOUS
 62
    47
 10
-70.854307
 20
22.693423
 11
-70.854307
 21
-3.106578
  0
LINE
  8
型材断面
  6
CONTINUOUS
 10
-83.849287
 20
-13.606578
 11
-82.349287
 21
-13.606578
  0
ARC
  8
型材断面
  6
CONTINUOUS
 10
-82.349291
 20
-3.106578
 40
1.5
 50
90.0
 51
180.0
  0
LINE
  8
型材断面
  6
CONTINUOUS
 10
-83.849287
 20
-13.606578
 11
-83.849287
 21
-1.606578
  0
LINE
  8
型材断面
  6
CONTINUOUS
 10
-72.354307
 20
-1.606578
 11
-83.849287
 21
-1.606578
  0
LINE
  8
型材断面
  6
CONTINUOUS
 10
-71.849287
 20
-53.10658
 11
-71.849287
 21
-51.60658
  0
LINE
  8
型材断面
  6
CONTINUOUS
 10
-85.349287
 20
-51.60658
 11
-71.849287
 21
-51.60658
  0
LINE
  8
型材断面
  6
CONTINUOUS
 10
-85.349287
 20
-53.10658
 11
-71.849287
 21
-53.10658
  0
ARC
  8
型材断面
  6
CONTINUOUS
 10
-85.34929
 20
-51.606582
 40
1.5
 50
180.0
 51
270.0
  0
LINE
  8
型材断面
  6
CONTINUOUS
 10
-86.849287
 20
-51.60658
 11
-86.849287
 21
-3.106578
  0
ARC
  8
型材断面
  6
CONTINUOUS
 10
-86.84929
 20
-3.10658
 40
1.5
 50
0.0
 51
90.0
  0
LINE
  8
型材断面
  6
CONTINUOUS
 10
-85.349287
 20
-51.60658
 11
-85.349287
 21
-1.606578
  0
LINE
  8
型材断面
  6
CONTINUOUS
 10
-108.849285
 20
21.89342
 11
-107.349285
 21
21.89342
  0
ARC
  8
型材断面
  6
CONTINUOUS
 10
-107.34929
 20
-1.60658
 40
1.5
 50
180.0
 51
270.0
  0
ARC
  8
型材断面
  6
CONTINUOUS
 10
-107.34929
 20
-1.60658
 40
1.5
 50
180.0
 51
270.0
  0
LINE
  8
型材断面
  6
CONTINUOUS
 10
-107.349285
 20
21.89342
 11
-107.349285
 21
-1.606578
  0
LINE
  8
型材断面
  6
CONTINUOUS
 10
-85.349287
 20
-1.606578
 11
-107.349285
 21
-1.606578
  0
LINE
  8
型材断面
  6
CONTINUOUS
 10
-108.849285
 20
21.89342
 11
-108.849285
 21
-3.097427
  0
LINE
  8
型材断面
  6
CONTINUOUS
 10
-86.849287
 20
-3.106578
 11
-108.849285
 21
-3.106578
  0
POLYLINE
  8
型材断面
  6
CONTINUOUS
 66
     1
  0
VERTEX
  8
型材断面
 10
-163.965355
 20
81.326755
  0
VERTEX
  8
型材断面
 10
-165.754512
 20
74.763702
  0
VERTEX
  8
型材断面
 10
-163.965355
 20
74.763702
  0
SEQEND
  0
POLYLINE
  8
型材断面
  6
CONTINUOUS
 66
     1
  0
VERTEX
  8
型材断面
 10
-163.965355
 20
78.657508
  0
VERTEX
  8
型材断面
 10
-165.754512
 20
72.094455
  0
VERTEX
  8
型材断面
 10
-163.965355
 20
72.094455
  0
SEQEND
  0
LINE
  8
型材断面
  6
CONTINUOUS
 10
-163.965355
 20
-3.097427
 11
-163.965355
 21
81.326755
  0
INSERT
  2
*GRP_0005
  8
ガラス
  6
CONTINUOUS
 10
0.0
 20
0.0
  0
INSERT
  2
*GRP_0006
  8
ガラス
  6
CONTINUOUS
 10
0.0
 20
0.0
  0
INSERT
  2
*GRP_0007
  8
ガラス
  6
CONTINUOUS
 10
0.0
 20
0.0
  0
INSERT
  2
*GRP_0008
  8
ガラス
  6
CONTINUOUS
 10
0.0
 20
0.0
  0
INSERT
  2
*GRP_0009
  8
ガラス
  6
CONTINUOUS
 10
0.0
 20
0.0
  0
INSERT
  2
*GRP_0010
  8
ガラス
  6
CONTINUOUS
 10
0.0
 20
0.0
  0
INSERT
  2
*GRP_0011
  8
ガラス
  6
CONTINUOUS
 10
0.0
 20
0.0
  0
LINE
  8
ガラス
  6
CONTINUOUS
 10
-98.154315
 20
6.893425
 11
-80.35431
 21
6.893425
  0
LINE
  8
ガラス
  6
CONTINUOUS
 10
-87.154313
 20
12.893425
 11
-93.154313
 21
12.893425
  0
LINE
  8
ガラス
  6
CONTINUOUS
 10
-87.154313
 20
12.893425
 11
-93.154313
 21
6.893425
  0
LINE
  8
ガラス
  6
CONTINUOUS
 10
-93.154313
 20
12.893425
 11
-87.154313
 21
6.893425
  0
LINE
  8
ガラス
  6
CONTINUOUS
 10
-80.854313
 20
86.893423
 11
-80.854313
 21
6.893425
  0
LINE
  8
ガラス
  6
CONTINUOUS
 10
-80.35431
 20
86.893423
 11
-80.35431
 21
6.893425
  0
LINE
  8
ガラス
  6
CONTINUOUS
 10
-86.65431
 20
86.893423
 11
-86.65431
 21
6.893425
  0
LINE
  8
ガラス
  6
CONTINUOUS
 10
-87.154313
 20
86.893423
 11
-87.154313
 21
6.893425
  0
LINE
  8
ガラス
  6
CONTINUOUS
 10
-93.154313
 20
86.893423
 11
-93.154313
 21
6.893425
  0
LINE
  8
ガラス
  6
CONTINUOUS
 10
-93.654315
 20
86.893423
 11
-93.654315
 21
6.893425
  0
LINE
  8
ガラス
  6
CONTINUOUS
 10
-97.654313
 20
86.893423
 11
-97.654313
 21
6.893425
  0
LINE
  8
ガラス
  6
CONTINUOUS
 10
-98.154315
 20
86.893423
 11
-98.154315
 21
6.893425
  0
INSERT
  2
*GRP_0012
  8
ゴム等
  6
CONTINUOUS
 10
0.0
 20
0.0
  0
LINE
  8
ゴム等
  6
CONTINUOUS
 10
71.645693
 20
-27.10132
 11
71.645693
 21
-17.740128
  0
LINE
  8
ゴム等
  6
CONTINUOUS
 10
91.645695
 20
-27.10132
 11
91.645695
 21
-17.740128
  0
LINE
  8
ゴム等
  6
CONTINUOUS
 10
114.395693
 20
-48.106555
 11
109.173113
 21
-48.106555
  0
LINE
  8
ゴム等
  6
CONTINUOUS
 10
100.645695
 20
-21.606603
 11
100.645695
 21
-27.2887
  0
INSERT
  2
*GRP_0013
  8
ゴム等
  6
CONTINUOUS
 10
0.0
 20
0.0
  0
INSERT
  2
*GRP_0061
  8
ゴム等
  6
DASHDOT
 10
0.0
 20
0.0
  0
INSERT
  2
*GRP_0014
  8
ボルト／ビス
  6
CONTINUOUS
 10
0.0
 20
0.0
  0
INSERT
  2
*GRP_0015
  8
ボルト／ビス
  6
CONTINUOUS
 10
0.0
 20
0.0
  0
INSERT
  2
*GRP_0016
  8
ボルト／ビス
  6
CONTINUOUS
 10
0.0
 20
0.0
  0
INSERT
  2
*GRP_0017
  8
ボルト／ビス
  6
CONTINUOUS
 10
0.0
 20
0.0
  0
INSERT
  2
*GRP_0018
  8
ボルト／ビス
  6
CONTINUOUS
 10
0.0
 20
0.0
  0
INSERT
  2
*GRP_0019
  8
ボルト／ビス
  6
CONTINUOUS
 10
0.0
 20
0.0
  0
INSERT
  2
*GRP_0020
  8
ボルト／ビス
  6
CONTINUOUS
 10
0.0
 20
0.0
  0
INSERT
  2
*GRP_0021
  8
ボルト／ビス
  6
CONTINUOUS
 10
0.0
 20
0.0
  0
INSERT
  2
*GRP_0022
  8
ボルト／ビス
  6
CONTINUOUS
 10
0.0
 20
0.0
  0
INSERT
  2
*GRP_0023
  8
ボルト／ビス
  6
CONTINUOUS
 10
0.0
 20
0.0
  0
INSERT
  2
*GRP_0024
  8
ボルト／ビス
  6
CONTINUOUS
 10
0.0
 20
0.0
  0
TEXT
  7
TextStyle03
  8
文字
  6
CONTINUOUS
 10
-164.2
 20
30.675
  1
呼称寸法
 40
4.0
 50
90.0
 72
     5
 11
-164.2
 21
48.175
  0
TEXT
  7
TextStyle03
  8
文字
  6
CONTINUOUS
 10
-8.4
 20
-102.3
  1
SUS-3.0t　2B
 40
4.0
 50
90.0
 72
     5
 11
-8.4
 21
-75.55
  0
TEXT
  7
TextStyle03
  8
文字
  6
CONTINUOUS
 10
-3.9
 20
-102.3
  1
（ﾘﾌﾞ付き）
 40
4.0
 50
90.0
 72
     5
 11
-3.9
 21
-78.05
  0
TEXT
  7
TextStyle03
  8
文字
  6
CONTINUOUS
 10
0.6
 20
-102.3
  1
ピース
 40
4.0
 50
90.0
 72
     5
 11
0.6
 21
-89.3
  0
TEXT
  7
TextStyle03
  8
文字
  6
CONTINUOUS
 10
-19.275
 20
11.65
  1
滑車
 40
4.0
 50
90.0
 72
     5
 11
-19.275
 21
20.15
  0
TEXT
  7
TextStyle03
  8
文字
  6
CONTINUOUS
 10
58.0
 20
12.5
  1
滑車
 40
4.0
 50
90.0
 72
     5
 11
58.0
 21
21.0
  0
TEXT
  7
TextStyle03
  8
文字
  6
CONTINUOUS
 10
87.525
 20
15.4
  1
転向滑車
 40
4.0
 50
90.0
 72
     5
 11
87.525
 21
32.9
  0
TEXT
  7
TextStyle03
  8
文字
  6
CONTINUOUS
 10
-99.475
 20
-73.775
  1
TKR-1701
 40
4.0
 50
90.0
 72
     5
 11
-99.475
 21
-56.025
  0
TEXT
  7
TextStyle03
  8
文字
  6
CONTINUOUS
 10
58.475
 20
-101.35
  1
SUS-3.0t　2B
 40
4.0
 50
90.0
 72
     5
 11
58.475
 21
-74.6
  0
TEXT
  7
TextStyle03
  8
文字
  6
CONTINUOUS
 10
62.975
 20
-101.35
  1
（ﾘﾌﾞ付き）
 40
4.0
 50
90.0
 72
     5
 11
62.975
 21
-77.1
  0
TEXT
  7
TextStyle03
  8
文字
  6
CONTINUOUS
 10
67.475
 20
-101.35
  1
ピース
 40
4.0
 50
90.0
 72
     5
 11
67.475
 21
-88.35
  0
TEXT
  7
TextStyle03
  8
文字
  6
CONTINUOUS
 10
17.8
 20
-95.75
  1
TKR-1108
 40
4.0
 50
90.0
 72
     5
 11
17.8
 21
-78.0
  0
TEXT
  7
TextStyle03
  8
文字
  6
CONTINUOUS
 10
-60.75
 20
30.925
  1
TKR-1204S
 40
4.0
 50
90.0
 72
     5
 11
-60.75
 21
50.925
  0
TEXT
  7
TextStyle03
  8
文字
  6
CONTINUOUS
 10
62.675
 20
123.1
  1
シリーズ：ＳＴＦＦ
 40
5.0
 72
     5
 11
112.675
 21
123.1
  0
TEXT
  7
TextStyle03
  8
文字
  6
CONTINUOUS
 10
62.675
 20
117.475
  1
　　　　　（固定）　
 40
5.0
 72
     5
 11
118.3
 21
117.475
  0
TEXT
  7
TextStyle03
  8
文字
  6
CONTINUOUS
 10
62.675
 20
111.85
  1
図面名　：下枠断面詳細図（滑車側）
 40
5.0
 72
     5
 11
157.675
 21
111.85
  0
INSERT
  2
*DIM_0025
  8
寸法
  6
CONTINUOUS
 10
0.0
 20
0.0
  0
INSERT
  2
*DIM_0026
  8
寸法
  6
CONTINUOUS
 10
0.0
 20
0.0
  0
INSERT
  2
*DIM_0027
  8
寸法
  6
CONTINUOUS
 10
0.0
 20
0.0
  0
INSERT
  2
*DIM_0028
  8
寸法
  6
CONTINUOUS
 10
0.0
 20
0.0
  0
INSERT
  2
*DIM_0029
  8
寸法
  6
CONTINUOUS
 10
0.0
 20
0.0
  0
INSERT
  2
*DIM_0030
  8
寸法
  6
CONTINUOUS
 10
0.0
 20
0.0
  0
INSERT
  2
*DIM_0031
  8
寸法
  6
CONTINUOUS
 10
0.0
 20
0.0
  0
INSERT
  2
*DIM_0032
  8
寸法
  6
CONTINUOUS
 10
0.0
 20
0.0
  0
INSERT
  2
*DIM_0033
  8
寸法
  6
CONTINUOUS
 10
0.0
 20
0.0
  0
INSERT
  2
*DIM_0034
  8
寸法
  6
CONTINUOUS
 10
0.0
 20
0.0
  0
INSERT
  2
*DIM_0035
  8
寸法
  6
CONTINUOUS
 10
0.0
 20
0.0
  0
INSERT
  2
*DIM_0036
  8
寸法
  6
CONTINUOUS
 10
0.0
 20
0.0
  0
INSERT
  2
*DIM_0037
  8
寸法
  6
CONTINUOUS
 10
0.0
 20
0.0
  0
INSERT
  2
*DIM_0038
  8
寸法
  6
CONTINUOUS
 10
0.0
 20
0.0
  0
INSERT
  2
*DIM_0039
  8
寸法
  6
CONTINUOUS
 10
0.0
 20
0.0
  0
INSERT
  2
*DIM_0040
  8
寸法
  6
CONTINUOUS
 10
0.0
 20
0.0
  0
INSERT
  2
*DIM_0041
  8
寸法
  6
CONTINUOUS
 10
0.0
 20
0.0
  0
INSERT
  2
*DIM_0042
  8
寸法
  6
CONTINUOUS
 10
0.0
 20
0.0
  0
INSERT
  2
*DIM_0043
  8
寸法
  6
CONTINUOUS
 10
0.0
 20
0.0
  0
INSERT
  2
*GRP_0052
  8
寸法
  6
CONTINUOUS
 10
0.0
 20
0.0
  0
INSERT
  2
*GRP_0053
  8
寸法
  6
CONTINUOUS
 10
0.0
 20
0.0
  0
INSERT
  2
*GRP_0054
  8
寸法
  6
CONTINUOUS
 10
0.0
 20
0.0
  0
INSERT
  2
*GRP_0055
  8
寸法
  6
CONTINUOUS
 10
0.0
 20
0.0
  0
INSERT
  2
*GRP_0056
  8
寸法
  6
CONTINUOUS
 10
0.0
 20
0.0
  0
INSERT
  2
*GRP_0057
  8
寸法
  6
CONTINUOUS
 10
0.0
 20
0.0
  0
INSERT
  2
*GRP_0058
  8
寸法
  6
CONTINUOUS
 10
0.0
 20
0.0
  0
INSERT
  2
*DIM_0059
  8
寸法
  6
CONTINUOUS
 10
0.0
 20
0.0
  0
INSERT
  2
*GRP_0060
  8
寸法
  6
CONTINUOUS
 10
0.0
 20
0.0
  0
INSERT
  2
*DIM_0062
  8
寸法
  6
CONTINUOUS
 10
0.0
 20
0.0
  0
INSERT
  2
*HAT_0002
  8
ﾊｯﾁﾝｸﾞ
 10
0.0
 20
0.0
  0
INSERT
  2
*GRP_0044
  8
別途部材
  6
CONTINUOUS
 10
0.0
 20
0.0
  0
INSERT
  2
*GRP_0045
  8
別途部材
  6
CONTINUOUS
 10
0.0
 20
0.0
  0
INSERT
  2
*GRP_0046
  8
別途部材
  6
CONTINUOUS
 10
0.0
 20
0.0
  0
INSERT
  2
*GRP_0047
  8
別途部材
  6
CONTINUOUS
 10
0.0
 20
0.0
  0
INSERT
  2
*GRP_0048
  8
別途部材
  6
CONTINUOUS
 10
0.0
 20
0.0
  0
INSERT
  2
*GRP_0049
  8
別途部材
  6
CONTINUOUS
 10
0.0
 20
0.0
  0
ARC
  8
St
  6
CONTINUOUS
 10
113.645691
 20
-39.423851
 40
1.094103
 50
90.0
 51
270.0
  0
ARC
  8
St
  6
CONTINUOUS
 10
113.645691
 20
-40.517953
 40
1.094103
 50
150.0
 51
270.0
  0
ARC
  8
St
  6
CONTINUOUS
 10
113.645691
 20
-52.331589
 40
1.094103
 50
90.0
 51
270.0
  0
ARC
  8
St
  6
CONTINUOUS
 10
113.645691
 20
-53.425691
 40
1.094103
 50
150.0
 51
270.0
  0
ARC
  8
St
  6
CONTINUOUS
 10
113.645691
 20
-27.368977
 40
1.094103
 50
90.0
 51
270.0
  0
ARC
  8
St
  6
CONTINUOUS
 10
113.645691
 20
-28.463079
 40
1.094103
 50
150.0
 51
270.0
  0
ARC
  8
St
  6
CONTINUOUS
 10
-52.854311
 20
-46.506581
 40
1.094103
 50
0.0
 51
180.0
  0
ARC
  8
St
  6
CONTINUOUS
 10
-51.760209
 20
-46.506581
 40
1.094103
 50
0.0
 51
120.0
  0
ARC
  8
St
  6
CONTINUOUS
 10
-47.067882
 20
-46.506581
 40
1.094103
 50
0.0
 51
180.0
  0
ARC
  8
St
  6
CONTINUOUS
 10
-45.97378
 20
-46.506581
 40
1.094103
 50
0.0
 51
120.0
  0
ARC
  8
St
  6
CONTINUOUS
 10
-55.854312
 20
-39.423849
 40
1.094103
 50
270.0
 51
450.0
  0
ARC
  8
St
  6
CONTINUOUS
 10
-55.854312
 20
-40.517952
 40
1.094103
 50
270.0
 51
390.0
  0
ARC
  8
St
  6
CONTINUOUS
 10
-55.854312
 20
-26.899756
 40
1.094103
 50
270.0
 51
450.0
  0
ARC
  8
St
  6
CONTINUOUS
 10
-55.854312
 20
-27.993859
 40
1.094103
 50
270.0
 51
390.0
  0
INSERT
  2
*GRP_0050
  8
St
  6
CONTINUOUS
 62
   127
 10
0.0
 20
0.0
  0
INSERT
  2
*HAT_0003
  8
St
 10
0.0
 20
0.0
  0
INSERT
  2
*GRP_0051
  8
St
  6
CONTINUOUS
 10
0.0
 20
0.0
  0
LINE
  8
その他部品等
  6
CONTINUOUS
 10
-107.349285
 20
21.89342
 11
-98.154315
 21
21.89342
  0
LINE
  8
その他部品等
  6
CONTINUOUS
 10
-107.349285
 20
11.893427
 11
-98.154315
 21
11.893427
  0
LINE
  8
その他部品等
  6
CONTINUOUS
 10
-107.349285
 20
6.893425
 11
-98.154315
 21
6.893425
  0
LINE
  8
その他部品等
  6
CONTINUOUS
 10
-98.154315
 20
11.893427
 11
-107.349285
 21
6.893425
  0
ENDSEC
  0
EOF
