  0
SECTION
  2
HEADER
  9
$EXTMIN
 10
-210.0
 20
-148.5
  9
$EXTMAX
 10
210.0
 20
148.5
  9
$PDMODE
 70
    32
  9
$PDSIZE
 40
1.5
  9
$LTSCALE
 40
10.0
  0
ENDSEC
  0
SECTION
  2
TABLES
  0
TABLE
  2
LTYPE
 70
    15
  0
LTYPE
  2
CONTINUOUS
 70
    64
  3
実線
 72
    65
 73
     0
 40
0.0
  0
LTYPE
  2
DASHED
 70
    64
  3
破線A
 72
    65
 73
     2
 40
0.6
 49
0.4
 49
-0.2
  0
LTYPE
  2
DASHEDX2
 70
    64
  3
破線B
 72
    65
 73
     2
 40
1.3
 49
0.9
 49
-0.4
  0
LTYPE
  2
DASHDOT
 70
    64
  3
１点鎖線A
 72
    65
 73
     4
 40
0.5375
 49
0.375
 49
-0.05
 49
0.0625
 49
-0.05
  0
LTYPE
  2
DASHDOTX2
 70
    64
  3
１点鎖線B
 72
    65
 73
     4
 40
1.075
 49
0.75
 49
-0.1
 49
0.125
 49
-0.1
  0
LTYPE
  2
DIVIDE2
 70
    64
  3
２点鎖線A
 72
    65
 73
     6
 40
0.5125
 49
0.3
 49
-0.0375
 49
0.05
 49
-0.0375
 49
0.05
 49
-0.0375
  0
LTYPE
  2
DIVIDE
 70
    64
  3
２点鎖線B
 72
    65
 73
     6
 40
1.05
 49
0.55
 49
-0.1
 49
0.1
 49
-0.1
 49
0.1
 49
-0.1
  0
LTYPE
  2
DOT
 70
    64
  3
点線A
 72
    65
 73
     2
 40
0.1125
 49
0.0625
 49
-0.05
  0
LTYPE
  2
DOTX2
 70
    64
  3
点線B
 72
    65
 73
     2
 40
0.275
 49
0.15
 49
-0.125
  0
LTYPE
  2
CONTINUOUS
 70
    64
  3
実線
 72
    65
 73
     0
 40
0.0
  0
LTYPE
  2
CONTINUOUS
 70
    64
  3
実線
 72
    65
 73
     0
 40
0.0
  0
LTYPE
  2
CONTINUOUS
 70
    64
  3
実線
 72
    65
 73
     0
 40
0.0
  0
LTYPE
  2
CONTINUOUS
 70
    64
  3
実線
 72
    65
 73
     0
 40
0.0
  0
LTYPE
  2
CONTINUOUS
 70
    64
  3
実線
 72
    65
 73
     0
 40
0.0
  0
LTYPE
  2
CONTINUOUS
 70
    64
  3
実線
 72
    65
 73
     0
 40
0.0
  0
ENDTAB
  0
TABLE
  2
LAYER
 70
    34
  0
LAYER
  2
通り芯
 70
     0
 62
    15
  6
CONTINUOUS
  0
LAYER
  2
補助線
 70
     0
 62
    16
  6
DOT
  0
LAYER
  2
躯体
 70
     0
 62
    31
  6
CONTINUOUS
  0
LAYER
  2
型材
 70
     0
 62
    32
  6
CONTINUOUS
  0
LAYER
  2
型材断面
 70
     0
 62
    47
  6
CONTINUOUS
  0
LAYER
  2
ガラス
 70
     0
 62
    48
  6
CONTINUOUS
  0
LAYER
  2
ゴム等
 70
     0
 62
    63
  6
CONTINUOUS
  0
LAYER
  2
ボルト／ビス
 70
     0
 62
    64
  6
CONTINUOUS
  0
LAYER
  2
文字
 70
     0
 62
    79
  6
CONTINUOUS
  0
LAYER
  2
寸法
 70
     0
 62
    80
  6
CONTINUOUS
  0
LAYER
  2
ﾊｯﾁﾝｸﾞ
 70
     0
 62
    95
  6
CONTINUOUS
  0
LAYER
  2
別途部材
 70
     0
 62
    96
  6
CONTINUOUS
  0
LAYER
  2
曲げ物
 70
     0
 62
   111
  6
CONTINUOUS
  0
LAYER
  2
鉄骨等
 70
     0
 62
   112
  6
CONTINUOUS
  0
LAYER
  2
St
 70
     0
 62
   127
  6
CONTINUOUS
  0
LAYER
  2
その他部品等
 70
     0
 62
   128
  6
CONTINUOUS
  0
LAYER
  2
ｶﾞｽｹｯﾄ
 70
     0
 62
   143
  6
CONTINUOUS
  0
LAYER
  2
ｽｹｯﾁ
 70
     0
 62
    14
  6
CONTINUOUS
  0
LAYER
  2
0
 70
     0
 62
    17
  6
CONTINUOUS
  0
LAYER
  2
1
 70
     0
 62
    30
  6
CONTINUOUS
  0
LAYER
  2
4
 70
     0
 62
    33
  6
CONTINUOUS
  0
LAYER
  2
ﾚｲﾔ3
 70
     0
 62
    46
  6
CONTINUOUS
  0
LAYER
  2
外形線
 70
     0
 62
    49
  6
CONTINUOUS
  0
LAYER
  2
部品
 70
     0
 62
    14
  6
CONTINUOUS
  0
LAYER
  2
サッシ芯
 70
     0
 62
    17
  6
DASHDOTX2
  0
LAYER
  2
寸法線
 70
     0
 62
    62
  6
CONTINUOUS
  0
LAYER
  2
姿図外形線
 70
     0
 62
    65
  6
CONTINUOUS
  0
LAYER
  2
姿補助線
 70
     0
 62
    30
  6
CONTINUOUS
  0
LAYER
  2
透視線
 70
     0
 62
    78
  6
DOT
  0
LAYER
  2
用紙
 70
     0
 62
    81
  6
CONTINUOUS
  0
LAYER
  2
実線図枠
 70
     0
 62
    94
  6
CONTINUOUS
  0
LAYER
  2
補助図枠
 70
     0
 62
    97
  6
CONTINUOUS
  0
LAYER
  2
建具記号
 70
     0
 62
   110
  6
CONTINUOUS
  0
LAYER
  2
補助文字
 70
     0
 62
   113
  6
CONTINUOUS
  0
ENDTAB
  0
TABLE
  2
STYLE
 70
    10
  0
STYLE
  2
STANDARD
 70
     0
 40
1.0
 41
1.0
 42
1.0
 50
0.0
 71
     0
  3
TXT
  4
BIGFONT
  0
STYLE
  2
TATE
 70
     4
 40
1.0
 41
1.0
 42
1.0
 50
0.0
 71
     0
  3
TXT
  4
BIGFONT
  0
STYLE
  2
TextStyle03
 70
     0
 40
1.0
 41
1.0
 42
1.0
 50
0.0
 71
     0
  3
MONOTXT
  4
BIGFONT
  0
STYLE
  2
TextStyle04
 70
     0
 40
1.0
 41
1.0
 42
1.0
 50
0.0
 71
     0
  3
MONOTXT
  4
BIGFONT
  0
STYLE
  2
TextStyle05
 70
     0
 40
1.0
 41
1.0
 42
1.0
 50
0.0
 71
     0
  3
MONOTXT
  4
BIGFONT
  0
STYLE
  2
TextStyle06
 70
     0
 40
1.0
 41
1.0
 42
1.0
 50
0.0
 71
     0
  3
MONOTXT
  4
BIGFONT
  0
STYLE
  2
TextStyle07
 70
     0
 40
1.0
 41
1.0
 42
1.0
 50
0.0
 71
     0
  3
MONOTXT
  4
BIGFONT
  0
STYLE
  2
TextStyle08
 70
     0
 40
1.0
 41
1.0
 42
1.0
 50
0.0
 71
     0
  3
MONOTXT
  4
BIGFONT
  0
STYLE
  2
TextStyle09
 70
     0
 40
1.0
 41
1.0
 42
1.0
 50
0.0
 71
     0
  3
MONOTXT
  4
BIGFONT
  0
STYLE
  2
TextStyle10
 70
     0
 40
1.0
 41
1.0
 42
1.0
 50
0.0
 71
     0
  3
MONOTXT
  4
BIGFONT
  0
ENDTAB
  0
ENDSEC
  0
SECTION
  2
BLOCKS
  0
BLOCK
  2
*GRP_0001
 70
    65
 10
0.0
 20
0.0
  0
LINE
  8
型材断面
  6
CONTINUOUS
 10
195.0
 20
133.5
 11
195.0
 21
-133.5
  0
LINE
  8
型材断面
  6
CONTINUOUS
 10
195.0
 20
-133.5
 11
-185.0
 21
-133.5
  0
LINE
  8
型材断面
  6
CONTINUOUS
 10
-185.0
 20
-133.5
 11
-185.0
 21
133.5
  0
LINE
  8
型材断面
  6
CONTINUOUS
 10
195.0
 20
133.5
 11
-185.0
 21
133.5
  0
LINE
  8
型材断面
  6
CONTINUOUS
 10
145.0
 20
-133.5
 11
145.0
 21
-118.5
  0
LINE
  8
型材断面
  6
CONTINUOUS
 10
195.0
 20
-118.5
 11
145.0
 21
-118.5
  0
ENDBLK
  0
BLOCK
  2
*GRP_0002
 70
    65
 10
0.0
 20
0.0
  0
INSERT
  2
M8横
  8
ゴム等
  6
CONTINUOUS
 10
-33.398718
 20
-73.68637
 50
180.0
 41
0.05
 42
-0.05
  0
LINE
  8
ボルト／ビス
  6
CONTINUOUS
 10
-33.598718
 20
-73.371372
 11
-33.573718
 21
-73.346372
  0
LINE
  8
ボルト／ビス
  6
CONTINUOUS
 10
-33.223718
 20
-73.346372
 11
-33.198718
 21
-73.371372
  0
LINE
  8
ボルト／ビス
  6
CONTINUOUS
 10
-33.198718
 20
-73.371372
 11
-33.598718
 21
-73.371372
  0
LINE
  8
ボルト／ビス
  6
CONTINUOUS
 10
-33.223718
 20
-73.346372
 11
-33.573718
 21
-73.346372
  0
LINE
  8
ボルト／ビス
  6
CONTINUOUS
 10
-33.573718
 20
-73.346372
 11
-33.573718
 21
-73.41137
  0
LINE
  8
ボルト／ビス
  6
CONTINUOUS
 10
-33.598718
 20
-73.371372
 11
-33.598718
 21
-73.41137
  0
LINE
  8
ボルト／ビス
  6
CONTINUOUS
 10
-33.198718
 20
-73.371372
 11
-33.198718
 21
-73.41137
  0
LINE
  8
ボルト／ビス
  6
CONTINUOUS
 10
-33.223718
 20
-73.346372
 11
-33.223718
 21
-73.41137
  0
LINE
  8
ボルト／ビス
  6
CONTINUOUS
 10
-32.848718
 20
-73.68637
 11
-33.948718
 21
-73.68637
  0
LINE
  8
ボルト／ビス
  6
CONTINUOUS
 10
-34.023718
 20
-73.74637
 11
-34.023718
 21
-73.87137
  0
LINE
  8
ボルト／ビス
  6
CONTINUOUS
 10
-34.023718
 20
-73.87137
 11
-32.773718
 21
-73.87137
  0
LINE
  8
ボルト／ビス
  6
CONTINUOUS
 10
-32.773718
 20
-73.87137
 11
-32.773718
 21
-73.74637
  0
LINE
  8
ボルト／ビス
  6
CONTINUOUS
 10
-34.023718
 20
-73.74637
 11
-32.773718
 21
-73.74637
  0
LINE
  8
ボルト／ビス
  6
CONTINUOUS
 10
-32.848718
 20
-73.68637
 11
-32.848718
 21
-73.74637
  0
LINE
  8
ボルト／ビス
  6
CONTINUOUS
 10
-33.948718
 20
-73.68637
 11
-33.948718
 21
-73.74637
  0
LINE
  8
ボルト／ビス
  6
CONTINUOUS
 10
-33.398718
 20
-73.76137
 11
-33.398718
 21
-73.68637
  0
ENDBLK
  0
BLOCK
  2
*GRP_0003
 70
    65
 10
0.0
 20
0.0
  0
LINE
  8
ボルト／ビス
  6
CONTINUOUS
 10
-33.088715
 20
-72.39662
 11
-33.088715
 21
-72.29662
  0
LINE
  8
ボルト／ビス
  6
CONTINUOUS
 10
-33.088715
 20
-72.29662
 11
-34.188715
 21
-72.29662
  0
LINE
  8
ボルト／ビス
  6
CONTINUOUS
 10
-34.188715
 20
-72.29662
 11
-34.188715
 21
-72.39662
  0
LINE
  8
ボルト／ビス
  6
CONTINUOUS
 10
-33.088715
 20
-72.39662
 11
-34.188715
 21
-72.39662
  0
LINE
  8
ボルト／ビス
  6
CONTINUOUS
 10
-33.188715
 20
-72.24662
 11
-33.188715
 21
-72.29662
  0
LINE
  8
ボルト／ビス
  6
CONTINUOUS
 10
-33.188715
 20
-72.24662
 11
-34.088715
 21
-72.24662
  0
LINE
  8
ボルト／ビス
  6
CONTINUOUS
 10
-34.088715
 20
-72.24662
 11
-34.088715
 21
-72.29662
  0
LINE
  8
ボルト／ビス
  6
CONTINUOUS
 62
    64
 10
-33.398153
 20
-71.94662
 11
-33.35004
 21
-71.964132
  0
ARC
  8
ボルト／ビス
  6
CONTINUOUS
 62
    64
 10
-33.422208
 20
-72.104088
 40
0.157468
 50
90.0
 51
117.278033
  0
ARC
  8
ボルト／ビス
  6
CONTINUOUS
 62
    64
 10
-33.638715
 20
-72.550224
 40
0.603603
 50
76.165015
 51
103.834998
  0
LINE
  8
ボルト／ビス
  6
CONTINUOUS
 62
    64
 10
-33.879277
 20
-71.94662
 11
-33.92739
 21
-71.964132
  0
ARC
  8
ボルト／ビス
  6
CONTINUOUS
 62
    64
 10
-33.855221
 20
-72.104088
 40
0.157468
 50
62.721967
 51
90.0
  0
LINE
  8
ボルト／ビス
  6
CONTINUOUS
 62
    64
 10
-33.398153
 20
-71.94662
 11
-33.879277
 21
-71.94662
  0
LINE
  8
ボルト／ビス
  6
CONTINUOUS
 62
    64
 10
-33.92739
 20
-71.964132
 11
-33.92739
 21
-72.14662
  0
LINE
  8
ボルト／ビス
  6
CONTINUOUS
 62
    64
 10
-33.783053
 20
-71.964132
 11
-33.783053
 21
-72.14662
  0
LINE
  8
ボルト／ビス
  6
CONTINUOUS
 62
    64
 10
-33.35004
 20
-71.964132
 11
-33.35004
 21
-72.14662
  0
LINE
  8
ボルト／ビス
  6
CONTINUOUS
 62
    64
 10
-33.494377
 20
-71.964132
 11
-33.494377
 21
-72.14662
  0
LINE
  8
ボルト／ビス
  6
CONTINUOUS
 10
-33.35004
 20
-72.14662
 11
-33.92739
 21
-72.14662
  0
LINE
  8
ボルト／ビス
  6
CONTINUOUS
 10
-33.338715
 20
-72.14662
 11
-33.338715
 21
-72.24662
  0
LINE
  8
ボルト／ビス
  6
CONTINUOUS
 10
-33.338715
 20
-72.14662
 11
-33.938715
 21
-72.14662
  0
LINE
  8
ボルト／ビス
  6
CONTINUOUS
 10
-33.938715
 20
-72.14662
 11
-33.938715
 21
-72.24662
  0
ENDBLK
  0
BLOCK
  2
*DIM_0004
 70
    65
 10
0.0
 20
0.0
  0
LINE
  8
寸法
  6
CONTINUOUS
 10
-26.688715
 20
-82.49637
 11
-13.636863
 21
-82.49637
  0
LINE
  8
寸法
  6
CONTINUOUS
 10
-29.638257
 20
-71.29662
 11
-13.636863
 21
-71.29662
  0
LINE
  8
寸法
  6
CONTINUOUS
 10
-13.636863
 20
-82.49637
 11
-13.636863
 21
-71.29662
  0
POINT
  8
寸法
 10
-13.636863
 20
-82.49637
  0
POINT
  8
寸法
 10
-13.636863
 20
-71.29662
  0
TEXT
  7
TextStyle03
  8
寸法
  6
CONTINUOUS
 10
-14.025
 20
-79.3375
  1
224
 40
3.0
 50
90.0
 72
     5
 11
-14.025
 21
-74.4625
  0
ENDBLK
  0
BLOCK
  2
*GRP_0005
 70
    65
 10
0.0
 20
0.0
  0
INSERT
  2
M8横
  8
ゴム等
  6
CONTINUOUS
 10
-80.877798
 20
-73.68637
 41
0.05
 42
0.05
  0
LINE
  8
ボルト／ビス
  6
CONTINUOUS
 10
-80.677797
 20
-73.371372
 11
-80.702798
 21
-73.346372
  0
LINE
  8
ボルト／ビス
  6
CONTINUOUS
 10
-81.052797
 20
-73.346372
 11
-81.077798
 21
-73.371372
  0
LINE
  8
ボルト／ビス
  6
CONTINUOUS
 10
-81.077798
 20
-73.371372
 11
-80.677797
 21
-73.371372
  0
LINE
  8
ボルト／ビス
  6
CONTINUOUS
 10
-81.052797
 20
-73.346372
 11
-80.702798
 21
-73.346372
  0
LINE
  8
ボルト／ビス
  6
CONTINUOUS
 10
-80.702798
 20
-73.346372
 11
-80.702798
 21
-73.41137
  0
LINE
  8
ボルト／ビス
  6
CONTINUOUS
 10
-80.677797
 20
-73.371372
 11
-80.677797
 21
-73.41137
  0
LINE
  8
ボルト／ビス
  6
CONTINUOUS
 10
-81.077798
 20
-73.371372
 11
-81.077798
 21
-73.41137
  0
LINE
  8
ボルト／ビス
  6
CONTINUOUS
 10
-81.052797
 20
-73.346372
 11
-81.052797
 21
-73.41137
  0
LINE
  8
ボルト／ビス
  6
CONTINUOUS
 10
-81.427797
 20
-73.68637
 11
-80.327798
 21
-73.68637
  0
LINE
  8
ボルト／ビス
  6
CONTINUOUS
 10
-80.252798
 20
-73.74637
 11
-80.252798
 21
-73.87137
  0
LINE
  8
ボルト／ビス
  6
CONTINUOUS
 10
-80.252798
 20
-73.87137
 11
-81.502798
 21
-73.87137
  0
LINE
  8
ボルト／ビス
  6
CONTINUOUS
 10
-81.502798
 20
-73.87137
 11
-81.502798
 21
-73.74637
  0
LINE
  8
ボルト／ビス
  6
CONTINUOUS
 10
-80.252798
 20
-73.74637
 11
-81.502798
 21
-73.74637
  0
LINE
  8
ボルト／ビス
  6
CONTINUOUS
 10
-81.427797
 20
-73.68637
 11
-81.427797
 21
-73.74637
  0
LINE
  8
ボルト／ビス
  6
CONTINUOUS
 10
-80.327798
 20
-73.68637
 11
-80.327798
 21
-73.74637
  0
LINE
  8
ボルト／ビス
  6
CONTINUOUS
 10
-80.877798
 20
-73.76137
 11
-80.877798
 21
-73.68637
  0
ENDBLK
  0
BLOCK
  2
*GRP_0006
 70
    65
 10
0.0
 20
0.0
  0
LINE
  8
ボルト／ビス
  6
CONTINUOUS
 10
-81.1878
 20
-72.39662
 11
-81.1878
 21
-72.29662
  0
LINE
  8
ボルト／ビス
  6
CONTINUOUS
 10
-81.1878
 20
-72.29662
 11
-80.0878
 21
-72.29662
  0
LINE
  8
ボルト／ビス
  6
CONTINUOUS
 10
-80.0878
 20
-72.29662
 11
-80.0878
 21
-72.39662
  0
LINE
  8
ボルト／ビス
  6
CONTINUOUS
 10
-81.1878
 20
-72.39662
 11
-80.0878
 21
-72.39662
  0
LINE
  8
ボルト／ビス
  6
CONTINUOUS
 10
-81.0878
 20
-72.24662
 11
-81.0878
 21
-72.29662
  0
LINE
  8
ボルト／ビス
  6
CONTINUOUS
 10
-81.0878
 20
-72.24662
 11
-80.1878
 21
-72.24662
  0
LINE
  8
ボルト／ビス
  6
CONTINUOUS
 10
-80.1878
 20
-72.24662
 11
-80.1878
 21
-72.29662
  0
LINE
  8
ボルト／ビス
  6
CONTINUOUS
 62
    64
 10
-80.878363
 20
-71.94662
 11
-80.926475
 21
-71.964132
  0
ARC
  8
ボルト／ビス
  6
CONTINUOUS
 62
    64
 10
-80.854307
 20
-72.104088
 40
0.157468
 50
62.721967
 51
90.0
  0
ARC
  8
ボルト／ビス
  6
CONTINUOUS
 62
    64
 10
-80.6378
 20
-72.550224
 40
0.603603
 50
76.165002
 51
103.834985
  0
LINE
  8
ボルト／ビス
  6
CONTINUOUS
 62
    64
 10
-80.397238
 20
-71.94662
 11
-80.349125
 21
-71.964132
  0
ARC
  8
ボルト／ビス
  6
CONTINUOUS
 62
    64
 10
-80.421294
 20
-72.104088
 40
0.157468
 50
90.0
 51
117.278033
  0
LINE
  8
ボルト／ビス
  6
CONTINUOUS
 62
    64
 10
-80.878363
 20
-71.94662
 11
-80.397238
 21
-71.94662
  0
LINE
  8
ボルト／ビス
  6
CONTINUOUS
 62
    64
 10
-80.349125
 20
-71.964132
 11
-80.349125
 21
-72.14662
  0
LINE
  8
ボルト／ビス
  6
CONTINUOUS
 62
    64
 10
-80.493462
 20
-71.964132
 11
-80.493462
 21
-72.14662
  0
LINE
  8
ボルト／ビス
  6
CONTINUOUS
 62
    64
 10
-80.926475
 20
-71.964132
 11
-80.926475
 21
-72.14662
  0
LINE
  8
ボルト／ビス
  6
CONTINUOUS
 62
    64
 10
-80.782138
 20
-71.964132
 11
-80.782138
 21
-72.14662
  0
LINE
  8
ボルト／ビス
  6
CONTINUOUS
 10
-80.926475
 20
-72.14662
 11
-80.349125
 21
-72.14662
  0
LINE
  8
ボルト／ビス
  6
CONTINUOUS
 10
-80.9378
 20
-72.14662
 11
-80.9378
 21
-72.24662
  0
LINE
  8
ボルト／ビス
  6
CONTINUOUS
 10
-80.9378
 20
-72.14662
 11
-80.3378
 21
-72.14662
  0
LINE
  8
ボルト／ビス
  6
CONTINUOUS
 10
-80.3378
 20
-72.14662
 11
-80.3378
 21
-72.24662
  0
ENDBLK
  0
BLOCK
  2
*DIM_0007
 70
    65
 10
0.0
 20
0.0
  0
LINE
  8
寸法
  6
CONTINUOUS
 10
-83.0578
 20
-73.055408
 11
-83.0578
 21
-41.89646
  0
LINE
  8
寸法
  6
CONTINUOUS
 10
-79.638257
 20
-41.89646
 11
-83.0578
 21
-41.89646
  0
POINT
  8
寸法
 10
-79.638257
 20
-41.89646
  0
POINT
  8
寸法
 10
-83.0578
 20
-41.89646
  0
TEXT
  7
TextStyle03
  8
寸法
  6
CONTINUOUS
 10
-91.38125
 20
-41.525
  1
68.4
 40
3.0
 72
     5
 11
-84.81875
 21
-41.525
  0
ENDBLK
  0
BLOCK
  2
*DIM_0008
 70
    65
 10
0.0
 20
0.0
  0
LINE
  8
寸法
  6
CONTINUOUS
 10
-31.218715
 20
-73.055408
 11
-31.218715
 21
-41.89646
  0
LINE
  8
寸法
  6
CONTINUOUS
 10
-34.638257
 20
-41.89646
 11
-31.218715
 21
-41.89646
  0
POINT
  8
寸法
 10
-34.638257
 20
-41.89646
  0
POINT
  8
寸法
 10
-31.218715
 20
-41.89646
  0
TEXT
  7
TextStyle03
  8
寸法
  6
CONTINUOUS
 10
-29.48125
 20
-41.525
  1
68.4
 40
3.0
 72
     5
 11
-22.91875
 21
-41.525
  0
ENDBLK
  0
BLOCK
  2
*GRP_0009
 70
    65
 10
0.0
 20
0.0
  0
INSERT
  2
*GRP_0025
  8
補助線
  6
CONTINUOUS
 10
0.0
 20
0.0
  0
LINE
  8
ボルト／ビス
  6
CONTINUOUS
 10
-72.138257
 20
34.82141
 11
-71.888257
 21
34.965747
  0
LINE
  8
ボルト／ビス
  6
CONTINUOUS
 10
-72.138257
 20
34.82141
 11
-72.388257
 21
34.965747
  0
LINE
  8
ボルト／ビス
  6
CONTINUOUS
 10
-71.888257
 20
35.254422
 11
-72.138257
 21
35.39876
  0
LINE
  8
ボルト／ビス
  6
CONTINUOUS
 10
-72.388257
 20
35.254422
 11
-72.138257
 21
35.39876
  0
CIRCLE
  8
ボルト／ビス
  6
CONTINUOUS
 10
-72.138257
 20
35.110085
 40
0.25
  0
LINE
  8
ボルト／ビス
  6
CONTINUOUS
 10
-72.388257
 20
34.965747
 11
-72.388257
 21
35.254422
  0
LINE
  8
ボルト／ビス
  6
CONTINUOUS
 10
-71.888257
 20
35.254422
 11
-71.888257
 21
34.965747
  0
ENDBLK
  0
BLOCK
  2
*GRP_0010
 70
    65
 10
0.0
 20
0.0
  0
INSERT
  2
*GRP_0026
  8
補助線
  6
CONTINUOUS
 10
0.0
 20
0.0
  0
LINE
  8
ボルト／ビス
  6
CONTINUOUS
 10
-57.138257
 20
34.82141
 11
-56.888257
 21
34.965747
  0
LINE
  8
ボルト／ビス
  6
CONTINUOUS
 10
-57.138257
 20
34.82141
 11
-57.388257
 21
34.965747
  0
LINE
  8
ボルト／ビス
  6
CONTINUOUS
 10
-56.888257
 20
35.254422
 11
-57.138257
 21
35.39876
  0
LINE
  8
ボルト／ビス
  6
CONTINUOUS
 10
-57.388257
 20
35.254422
 11
-57.138257
 21
35.39876
  0
CIRCLE
  8
ボルト／ビス
  6
CONTINUOUS
 10
-57.138257
 20
35.110085
 40
0.25
  0
LINE
  8
ボルト／ビス
  6
CONTINUOUS
 10
-57.388257
 20
34.965747
 11
-57.388257
 21
35.254422
  0
LINE
  8
ボルト／ビス
  6
CONTINUOUS
 10
-56.888257
 20
35.254422
 11
-56.888257
 21
34.965747
  0
ENDBLK
  0
BLOCK
  2
*GRP_0011
 70
    65
 10
0.0
 20
0.0
  0
INSERT
  2
*GRP_0027
  8
補助線
  6
CONTINUOUS
 10
0.0
 20
0.0
  0
LINE
  8
ボルト／ビス
  6
CONTINUOUS
 10
-80.926933
 20
43.610085
 11
-80.782595
 21
43.860085
  0
LINE
  8
ボルト／ビス
  6
CONTINUOUS
 10
-80.926933
 20
43.610085
 11
-80.782595
 21
43.360085
  0
LINE
  8
ボルト／ビス
  6
CONTINUOUS
 10
-80.49392
 20
43.860085
 11
-80.349582
 21
43.610085
  0
LINE
  8
ボルト／ビス
  6
CONTINUOUS
 10
-80.49392
 20
43.360085
 11
-80.349582
 21
43.610085
  0
CIRCLE
  8
ボルト／ビス
  6
CONTINUOUS
 10
-80.638257
 20
43.610085
 40
0.25
  0
LINE
  8
ボルト／ビス
  6
CONTINUOUS
 10
-80.782595
 20
43.360085
 11
-80.49392
 21
43.360085
  0
LINE
  8
ボルト／ビス
  6
CONTINUOUS
 10
-80.49392
 20
43.860085
 11
-80.782595
 21
43.860085
  0
ENDBLK
  0
BLOCK
  2
*GRP_0012
 70
    65
 10
0.0
 20
0.0
  0
INSERT
  2
*GRP_0028
  8
補助線
  6
CONTINUOUS
 10
0.0
 20
0.0
  0
LINE
  8
ボルト／ビス
  6
CONTINUOUS
 10
-80.926933
 20
58.610085
 11
-80.782595
 21
58.860085
  0
LINE
  8
ボルト／ビス
  6
CONTINUOUS
 10
-80.926933
 20
58.610085
 11
-80.782595
 21
58.360085
  0
LINE
  8
ボルト／ビス
  6
CONTINUOUS
 10
-80.49392
 20
58.860085
 11
-80.349582
 21
58.610085
  0
LINE
  8
ボルト／ビス
  6
CONTINUOUS
 10
-80.49392
 20
58.360085
 11
-80.349582
 21
58.610085
  0
CIRCLE
  8
ボルト／ビス
  6
CONTINUOUS
 10
-80.638257
 20
58.610085
 40
0.25
  0
LINE
  8
ボルト／ビス
  6
CONTINUOUS
 10
-80.782595
 20
58.360085
 11
-80.49392
 21
58.360085
  0
LINE
  8
ボルト／ビス
  6
CONTINUOUS
 10
-80.49392
 20
58.860085
 11
-80.782595
 21
58.860085
  0
ENDBLK
  0
BLOCK
  2
*GRP_0013
 70
    65
 10
0.0
 20
0.0
  0
INSERT
  2
*GRP_0029
  8
補助線
  6
CONTINUOUS
 10
0.0
 20
0.0
  0
LINE
  8
ボルト／ビス
  6
CONTINUOUS
 10
-42.138257
 20
34.82141
 11
-42.388257
 21
34.965747
  0
LINE
  8
ボルト／ビス
  6
CONTINUOUS
 10
-42.138257
 20
34.82141
 11
-41.888257
 21
34.965747
  0
LINE
  8
ボルト／ビス
  6
CONTINUOUS
 10
-42.388257
 20
35.254422
 11
-42.138257
 21
35.39876
  0
LINE
  8
ボルト／ビス
  6
CONTINUOUS
 10
-41.888257
 20
35.254422
 11
-42.138257
 21
35.39876
  0
CIRCLE
  8
ボルト／ビス
  6
CONTINUOUS
 10
-42.138257
 20
35.110085
 40
0.25
  0
LINE
  8
ボルト／ビス
  6
CONTINUOUS
 10
-41.888257
 20
34.965747
 11
-41.888257
 21
35.254422
  0
LINE
  8
ボルト／ビス
  6
CONTINUOUS
 10
-42.388257
 20
35.254422
 11
-42.388257
 21
34.965747
  0
ENDBLK
  0
BLOCK
  2
*GRP_0014
 70
    65
 10
0.0
 20
0.0
  0
INSERT
  2
*GRP_0030
  8
補助線
  6
CONTINUOUS
 10
0.0
 20
0.0
  0
LINE
  8
ボルト／ビス
  6
CONTINUOUS
 10
-33.349582
 20
43.610085
 11
-33.49392
 21
43.860085
  0
LINE
  8
ボルト／ビス
  6
CONTINUOUS
 10
-33.349582
 20
43.610085
 11
-33.49392
 21
43.360085
  0
LINE
  8
ボルト／ビス
  6
CONTINUOUS
 10
-33.782595
 20
43.860085
 11
-33.926933
 21
43.610085
  0
LINE
  8
ボルト／ビス
  6
CONTINUOUS
 10
-33.782595
 20
43.360085
 11
-33.926933
 21
43.610085
  0
CIRCLE
  8
ボルト／ビス
  6
CONTINUOUS
 10
-33.638257
 20
43.610085
 40
0.25
  0
LINE
  8
ボルト／ビス
  6
CONTINUOUS
 10
-33.49392
 20
43.360085
 11
-33.782595
 21
43.360085
  0
LINE
  8
ボルト／ビス
  6
CONTINUOUS
 10
-33.782595
 20
43.860085
 11
-33.49392
 21
43.860085
  0
ENDBLK
  0
BLOCK
  2
*GRP_0015
 70
    65
 10
0.0
 20
0.0
  0
INSERT
  2
*GRP_0031
  8
補助線
  6
CONTINUOUS
 10
0.0
 20
0.0
  0
LINE
  8
ボルト／ビス
  6
CONTINUOUS
 10
-33.349582
 20
58.610085
 11
-33.49392
 21
58.860085
  0
LINE
  8
ボルト／ビス
  6
CONTINUOUS
 10
-33.349582
 20
58.610085
 11
-33.49392
 21
58.360085
  0
LINE
  8
ボルト／ビス
  6
CONTINUOUS
 10
-33.782595
 20
58.860085
 11
-33.926933
 21
58.610085
  0
LINE
  8
ボルト／ビス
  6
CONTINUOUS
 10
-33.782595
 20
58.360085
 11
-33.926933
 21
58.610085
  0
CIRCLE
  8
ボルト／ビス
  6
CONTINUOUS
 10
-33.638257
 20
58.610085
 40
0.25
  0
LINE
  8
ボルト／ビス
  6
CONTINUOUS
 10
-33.49392
 20
58.360085
 11
-33.782595
 21
58.360085
  0
LINE
  8
ボルト／ビス
  6
CONTINUOUS
 10
-33.782595
 20
58.860085
 11
-33.49392
 21
58.860085
  0
ENDBLK
  0
BLOCK
  2
*GRP_0016
 70
    65
 10
0.0
 20
0.0
  0
INSERT
  2
*GRP_0032
  8
補助線
  6
CONTINUOUS
 10
0.0
 20
0.0
  0
LINE
  8
ボルト／ビス
  6
CONTINUOUS
 10
-72.138257
 20
82.39876
 11
-71.888257
 21
82.254422
  0
LINE
  8
ボルト／ビス
  6
CONTINUOUS
 10
-72.138257
 20
82.39876
 11
-72.388257
 21
82.254422
  0
LINE
  8
ボルト／ビス
  6
CONTINUOUS
 10
-71.888257
 20
81.965747
 11
-72.138257
 21
81.82141
  0
LINE
  8
ボルト／ビス
  6
CONTINUOUS
 10
-72.388257
 20
81.965747
 11
-72.138257
 21
81.82141
  0
CIRCLE
  8
ボルト／ビス
  6
CONTINUOUS
 10
-72.138257
 20
82.110085
 40
0.25
  0
LINE
  8
ボルト／ビス
  6
CONTINUOUS
 10
-72.388257
 20
82.254422
 11
-72.388257
 21
81.965747
  0
LINE
  8
ボルト／ビス
  6
CONTINUOUS
 10
-71.888257
 20
81.965747
 11
-71.888257
 21
82.254422
  0
ENDBLK
  0
BLOCK
  2
*GRP_0017
 70
    65
 10
0.0
 20
0.0
  0
INSERT
  2
*GRP_0033
  8
補助線
  6
CONTINUOUS
 10
0.0
 20
0.0
  0
LINE
  8
ボルト／ビス
  6
CONTINUOUS
 10
-57.138257
 20
82.39876
 11
-56.888257
 21
82.254422
  0
LINE
  8
ボルト／ビス
  6
CONTINUOUS
 10
-57.138257
 20
82.39876
 11
-57.388257
 21
82.254422
  0
LINE
  8
ボルト／ビス
  6
CONTINUOUS
 10
-56.888257
 20
81.965747
 11
-57.138257
 21
81.82141
  0
LINE
  8
ボルト／ビス
  6
CONTINUOUS
 10
-57.388257
 20
81.965747
 11
-57.138257
 21
81.82141
  0
CIRCLE
  8
ボルト／ビス
  6
CONTINUOUS
 10
-57.138257
 20
82.110085
 40
0.25
  0
LINE
  8
ボルト／ビス
  6
CONTINUOUS
 10
-57.388257
 20
82.254422
 11
-57.388257
 21
81.965747
  0
LINE
  8
ボルト／ビス
  6
CONTINUOUS
 10
-56.888257
 20
81.965747
 11
-56.888257
 21
82.254422
  0
ENDBLK
  0
BLOCK
  2
*GRP_0018
 70
    65
 10
0.0
 20
0.0
  0
INSERT
  2
*GRP_0034
  8
補助線
  6
CONTINUOUS
 10
0.0
 20
0.0
  0
LINE
  8
ボルト／ビス
  6
CONTINUOUS
 10
-80.926933
 20
73.610085
 11
-80.782595
 21
73.360085
  0
LINE
  8
ボルト／ビス
  6
CONTINUOUS
 10
-80.926933
 20
73.610085
 11
-80.782595
 21
73.860085
  0
LINE
  8
ボルト／ビス
  6
CONTINUOUS
 10
-80.49392
 20
73.360085
 11
-80.349582
 21
73.610085
  0
LINE
  8
ボルト／ビス
  6
CONTINUOUS
 10
-80.49392
 20
73.860085
 11
-80.349582
 21
73.610085
  0
CIRCLE
  8
ボルト／ビス
  6
CONTINUOUS
 10
-80.638257
 20
73.610085
 40
0.25
  0
LINE
  8
ボルト／ビス
  6
CONTINUOUS
 10
-80.782595
 20
73.860085
 11
-80.49392
 21
73.860085
  0
LINE
  8
ボルト／ビス
  6
CONTINUOUS
 10
-80.49392
 20
73.360085
 11
-80.782595
 21
73.360085
  0
ENDBLK
  0
BLOCK
  2
*GRP_0019
 70
    65
 10
0.0
 20
0.0
  0
INSERT
  2
*GRP_0035
  8
補助線
  6
CONTINUOUS
 10
0.0
 20
0.0
  0
LINE
  8
ボルト／ビス
  6
CONTINUOUS
 10
-42.138257
 20
82.39876
 11
-42.388257
 21
82.254422
  0
LINE
  8
ボルト／ビス
  6
CONTINUOUS
 10
-42.138257
 20
82.39876
 11
-41.888257
 21
82.254422
  0
LINE
  8
ボルト／ビス
  6
CONTINUOUS
 10
-42.388257
 20
81.965747
 11
-42.138257
 21
81.82141
  0
LINE
  8
ボルト／ビス
  6
CONTINUOUS
 10
-41.888257
 20
81.965747
 11
-42.138257
 21
81.82141
  0
CIRCLE
  8
ボルト／ビス
  6
CONTINUOUS
 10
-42.138257
 20
82.110085
 40
0.25
  0
LINE
  8
ボルト／ビス
  6
CONTINUOUS
 10
-41.888257
 20
82.254422
 11
-41.888257
 21
81.965747
  0
LINE
  8
ボルト／ビス
  6
CONTINUOUS
 10
-42.388257
 20
81.965747
 11
-42.388257
 21
82.254422
  0
ENDBLK
  0
BLOCK
  2
*GRP_0020
 70
    65
 10
0.0
 20
0.0
  0
INSERT
  2
*GRP_0036
  8
補助線
  6
CONTINUOUS
 10
0.0
 20
0.0
  0
LINE
  8
ボルト／ビス
  6
CONTINUOUS
 10
-33.349582
 20
73.610085
 11
-33.49392
 21
73.360085
  0
LINE
  8
ボルト／ビス
  6
CONTINUOUS
 10
-33.349582
 20
73.610085
 11
-33.49392
 21
73.860085
  0
LINE
  8
ボルト／ビス
  6
CONTINUOUS
 10
-33.782595
 20
73.360085
 11
-33.926933
 21
73.610085
  0
LINE
  8
ボルト／ビス
  6
CONTINUOUS
 10
-33.782595
 20
73.860085
 11
-33.926933
 21
73.610085
  0
CIRCLE
  8
ボルト／ビス
  6
CONTINUOUS
 10
-33.638257
 20
73.610085
 40
0.25
  0
LINE
  8
ボルト／ビス
  6
CONTINUOUS
 10
-33.49392
 20
73.860085
 11
-33.782595
 21
73.860085
  0
LINE
  8
ボルト／ビス
  6
CONTINUOUS
 10
-33.782595
 20
73.360085
 11
-33.49392
 21
73.360085
  0
ENDBLK
  0
BLOCK
  2
*GRP_0021
 70
    65
 10
0.0
 20
0.0
  0
POLYLINE
  8
寸法
  6
CONTINUOUS
 62
     0
 66
     1
  0
VERTEX
  8
寸法
 10
-36.740503
 20
48.606378
  0
VERTEX
  8
寸法
 10
-33.059307
 20
44.925182
  0
VERTEX
  8
寸法
 10
-10.21673
 20
44.925182
  0
SEQEND
  0
ENDBLK
  0
BLOCK
  2
*DIM_0022
 70
    65
 10
0.0
 20
0.0
  0
LINE
  8
寸法
  6
BYBLOCK
 62
     0
 10
-72.138257
 20
82.110085
 11
-72.138257
 21
100.0491
  0
LINE
  8
寸法
  6
BYBLOCK
 62
     0
 10
-42.138257
 20
82.110085
 11
-42.138257
 21
100.0491
  0
LINE
  8
寸法
  6
BYBLOCK
 62
     0
 10
-72.138257
 20
100.0491
 11
-42.138257
 21
100.0491
  0
POINT
  8
寸法
 62
     0
 10
-72.138257
 20
100.0491
  0
POINT
  8
寸法
 62
     0
 10
-42.138257
 20
100.0491
  0
TEXT
  7
TextStyle03
  8
寸法
  6
CONTINUOUS
 62
     0
 10
-59.6375
 20
100.375
  1
600
 40
3.0
 72
     5
 11
-54.7625
 21
100.375
  0
ENDBLK
  0
BLOCK
  2
*DIM_0023
 70
    65
 10
0.0
 20
0.0
  0
LINE
  8
寸法
  6
BYBLOCK
 62
     0
 10
-80.638257
 20
81.110085
 11
-103.5465
 21
81.110085
  0
LINE
  8
寸法
  6
BYBLOCK
 62
     0
 10
-80.638257
 20
58.610085
 11
-103.5465
 21
58.610085
  0
LINE
  8
寸法
  6
BYBLOCK
 62
     0
 10
-103.5465
 20
81.110085
 11
-103.5465
 21
58.610085
  0
POINT
  8
寸法
 62
     0
 10
-103.5465
 20
81.110085
  0
POINT
  8
寸法
 62
     0
 10
-103.5465
 20
58.610085
  0
TEXT
  7
TextStyle03
  8
寸法
  6
CONTINUOUS
 62
     0
 10
-103.975
 20
67.3625
  1
450
 40
3.0
 50
90.0
 72
     5
 11
-103.975
 21
72.2375
  0
ENDBLK
  0
BLOCK
  2
*DIM_0024
 70
    65
 10
0.0
 20
0.0
  0
LINE
  8
寸法
  6
BYBLOCK
 62
     0
 10
-80.638257
 20
36.110085
 11
-103.5465
 21
36.110085
  0
LINE
  8
寸法
  6
BYBLOCK
 62
     0
 10
-103.5465
 20
58.610085
 11
-103.5465
 21
36.110085
  0
POINT
  8
寸法
 62
     0
 10
-103.5465
 20
36.110085
  0
TEXT
  7
TextStyle03
  8
寸法
  6
CONTINUOUS
 62
     0
 10
-103.975
 20
44.8625
  1
450
 40
3.0
 50
90.0
 72
     5
 11
-103.975
 21
49.7375
  0
ENDBLK
  0
BLOCK
  2
*GRP_0025
 70
    65
 10
0.0
 20
0.0
  0
LINE
  8
補助線
  6
BYBLOCK
 62
     0
 10
-72.263257
 20
35.110085
 11
-72.013257
 21
35.110085
  0
LINE
  8
補助線
  6
BYBLOCK
 62
     0
 10
-72.138257
 20
34.985085
 11
-72.138257
 21
35.235085
  0
ENDBLK
  0
BLOCK
  2
*GRP_0026
 70
    65
 10
0.0
 20
0.0
  0
LINE
  8
補助線
  6
BYBLOCK
 62
     0
 10
-57.263257
 20
35.110085
 11
-57.013257
 21
35.110085
  0
LINE
  8
補助線
  6
BYBLOCK
 62
     0
 10
-57.138257
 20
34.985085
 11
-57.138257
 21
35.235085
  0
ENDBLK
  0
BLOCK
  2
*GRP_0027
 70
    65
 10
0.0
 20
0.0
  0
LINE
  8
補助線
  6
BYBLOCK
 62
     0
 10
-80.638257
 20
43.485085
 11
-80.638257
 21
43.735085
  0
LINE
  8
補助線
  6
BYBLOCK
 62
     0
 10
-80.763257
 20
43.610085
 11
-80.513257
 21
43.610085
  0
ENDBLK
  0
BLOCK
  2
*GRP_0028
 70
    65
 10
0.0
 20
0.0
  0
LINE
  8
補助線
  6
BYBLOCK
 62
     0
 10
-80.638257
 20
58.485085
 11
-80.638257
 21
58.735085
  0
LINE
  8
補助線
  6
BYBLOCK
 62
     0
 10
-80.763257
 20
58.610085
 11
-80.513257
 21
58.610085
  0
ENDBLK
  0
BLOCK
  2
*GRP_0029
 70
    65
 10
0.0
 20
0.0
  0
LINE
  8
補助線
  6
BYBLOCK
 62
     0
 10
-42.013257
 20
35.110085
 11
-42.263257
 21
35.110085
  0
LINE
  8
補助線
  6
BYBLOCK
 62
     0
 10
-42.138257
 20
34.985085
 11
-42.138257
 21
35.235085
  0
ENDBLK
  0
BLOCK
  2
*GRP_0030
 70
    65
 10
0.0
 20
0.0
  0
LINE
  8
補助線
  6
BYBLOCK
 62
     0
 10
-33.638257
 20
43.485085
 11
-33.638257
 21
43.735085
  0
LINE
  8
補助線
  6
BYBLOCK
 62
     0
 10
-33.513257
 20
43.610085
 11
-33.763257
 21
43.610085
  0
ENDBLK
  0
BLOCK
  2
*GRP_0031
 70
    65
 10
0.0
 20
0.0
  0
LINE
  8
補助線
  6
BYBLOCK
 62
     0
 10
-33.638257
 20
58.485085
 11
-33.638257
 21
58.735085
  0
LINE
  8
補助線
  6
BYBLOCK
 62
     0
 10
-33.513257
 20
58.610085
 11
-33.763257
 21
58.610085
  0
ENDBLK
  0
BLOCK
  2
*GRP_0032
 70
    65
 10
0.0
 20
0.0
  0
LINE
  8
補助線
  6
BYBLOCK
 62
     0
 10
-72.263257
 20
82.110085
 11
-72.013257
 21
82.110085
  0
LINE
  8
補助線
  6
BYBLOCK
 62
     0
 10
-72.138257
 20
82.235085
 11
-72.138257
 21
81.985085
  0
ENDBLK
  0
BLOCK
  2
*GRP_0033
 70
    65
 10
0.0
 20
0.0
  0
LINE
  8
補助線
  6
BYBLOCK
 62
     0
 10
-57.263257
 20
82.110085
 11
-57.013257
 21
82.110085
  0
LINE
  8
補助線
  6
BYBLOCK
 62
     0
 10
-57.138257
 20
82.235085
 11
-57.138257
 21
81.985085
  0
ENDBLK
  0
BLOCK
  2
*GRP_0034
 70
    65
 10
0.0
 20
0.0
  0
LINE
  8
補助線
  6
BYBLOCK
 62
     0
 10
-80.638257
 20
73.735085
 11
-80.638257
 21
73.485085
  0
LINE
  8
補助線
  6
BYBLOCK
 62
     0
 10
-80.763257
 20
73.610085
 11
-80.513257
 21
73.610085
  0
ENDBLK
  0
BLOCK
  2
*GRP_0035
 70
    65
 10
0.0
 20
0.0
  0
LINE
  8
補助線
  6
BYBLOCK
 62
     0
 10
-42.013257
 20
82.110085
 11
-42.263257
 21
82.110085
  0
LINE
  8
補助線
  6
BYBLOCK
 62
     0
 10
-42.138257
 20
82.235085
 11
-42.138257
 21
81.985085
  0
ENDBLK
  0
BLOCK
  2
*GRP_0036
 70
    65
 10
0.0
 20
0.0
  0
LINE
  8
補助線
  6
BYBLOCK
 62
     0
 10
-33.638257
 20
73.735085
 11
-33.638257
 21
73.485085
  0
LINE
  8
補助線
  6
BYBLOCK
 62
     0
 10
-33.513257
 20
73.610085
 11
-33.763257
 21
73.610085
  0
ENDBLK
  0
BLOCK
  2
*DIM_0037
 70
    65
 10
0.0
 20
0.0
  0
LINE
  8
寸法
  6
BYBLOCK
 62
     0
 10
-33.638257
 20
81.110085
 11
-17.548758
 21
81.110085
  0
LINE
  8
寸法
  6
BYBLOCK
 62
     0
 10
-25.61438
 20
75.260085
 11
-17.548758
 21
75.260085
  0
LINE
  8
寸法
  6
BYBLOCK
 62
     0
 10
-17.548758
 20
81.110085
 11
-17.548758
 21
75.260085
  0
POINT
  8
寸法
 62
     0
 10
-17.548758
 20
81.110085
  0
POINT
  8
寸法
 62
     0
 10
-17.548758
 20
75.260085
  0
TEXT
  7
TextStyle03
  8
寸法
  6
CONTINUOUS
 62
     0
 10
-17.95
 20
75.6875
  1
117
 40
3.0
 50
90.0
 72
     5
 11
-17.95
 21
80.5625
  0
ENDBLK
  0
BLOCK
  2
*DIM_0038
 70
    65
 10
0.0
 20
0.0
  0
LINE
  8
寸法
  6
BYBLOCK
 62
     0
 10
-33.638257
 20
36.110085
 11
-17.548758
 21
36.110085
  0
LINE
  8
寸法
  6
BYBLOCK
 62
     0
 10
-25.61438
 20
41.960085
 11
-17.548758
 21
41.960085
  0
LINE
  8
寸法
  6
BYBLOCK
 62
     0
 10
-17.548758
 20
36.110085
 11
-17.548758
 21
41.960085
  0
POINT
  8
寸法
 62
     0
 10
-17.548758
 20
36.110085
  0
POINT
  8
寸法
 62
     0
 10
-17.548758
 20
41.960085
  0
TEXT
  7
TextStyle03
  8
寸法
  6
CONTINUOUS
 62
     0
 10
-17.95
 20
36.5625
  1
117
 40
3.0
 50
90.0
 72
     5
 11
-17.95
 21
41.4375
  0
ENDBLK
  0
BLOCK
  2
*GRP_0039
 70
    65
 10
0.0
 20
0.0
  0
INSERT
  2
M8横
  8
ゴム等
  6
CONTINUOUS
 10
121.50611
 20
-73.68637
 50
180.0
 41
0.05
 42
-0.05
  0
LINE
  8
ボルト／ビス
  6
CONTINUOUS
 10
121.30611
 20
-73.371372
 11
121.33111
 21
-73.346372
  0
LINE
  8
ボルト／ビス
  6
CONTINUOUS
 10
121.68111
 20
-73.346372
 11
121.70611
 21
-73.371372
  0
LINE
  8
ボルト／ビス
  6
CONTINUOUS
 10
121.70611
 20
-73.371372
 11
121.30611
 21
-73.371372
  0
LINE
  8
ボルト／ビス
  6
CONTINUOUS
 10
121.68111
 20
-73.346372
 11
121.33111
 21
-73.346372
  0
LINE
  8
ボルト／ビス
  6
CONTINUOUS
 10
121.33111
 20
-73.346372
 11
121.33111
 21
-73.41137
  0
LINE
  8
ボルト／ビス
  6
CONTINUOUS
 10
121.30611
 20
-73.371372
 11
121.30611
 21
-73.41137
  0
LINE
  8
ボルト／ビス
  6
CONTINUOUS
 10
121.70611
 20
-73.371372
 11
121.70611
 21
-73.41137
  0
LINE
  8
ボルト／ビス
  6
CONTINUOUS
 10
121.68111
 20
-73.346372
 11
121.68111
 21
-73.41137
  0
LINE
  8
ボルト／ビス
  6
CONTINUOUS
 10
122.05611
 20
-73.68637
 11
120.95611
 21
-73.68637
  0
LINE
  8
ボルト／ビス
  6
CONTINUOUS
 10
120.88111
 20
-73.74637
 11
120.88111
 21
-73.87137
  0
LINE
  8
ボルト／ビス
  6
CONTINUOUS
 10
120.88111
 20
-73.87137
 11
122.13111
 21
-73.87137
  0
LINE
  8
ボルト／ビス
  6
CONTINUOUS
 10
122.13111
 20
-73.87137
 11
122.13111
 21
-73.74637
  0
LINE
  8
ボルト／ビス
  6
CONTINUOUS
 10
120.88111
 20
-73.74637
 11
122.13111
 21
-73.74637
  0
LINE
  8
ボルト／ビス
  6
CONTINUOUS
 10
122.05611
 20
-73.68637
 11
122.05611
 21
-73.74637
  0
LINE
  8
ボルト／ビス
  6
CONTINUOUS
 10
120.95611
 20
-73.68637
 11
120.95611
 21
-73.74637
  0
LINE
  8
ボルト／ビス
  6
CONTINUOUS
 10
121.50611
 20
-73.76137
 11
121.50611
 21
-73.68637
  0
ENDBLK
  0
BLOCK
  2
*GRP_0040
 70
    65
 10
0.0
 20
0.0
  0
LINE
  8
ボルト／ビス
  6
CONTINUOUS
 10
121.816113
 20
-72.39662
 11
121.816113
 21
-72.29662
  0
LINE
  8
ボルト／ビス
  6
CONTINUOUS
 10
121.816113
 20
-72.29662
 11
120.716113
 21
-72.29662
  0
LINE
  8
ボルト／ビス
  6
CONTINUOUS
 10
120.716113
 20
-72.29662
 11
120.716113
 21
-72.39662
  0
LINE
  8
ボルト／ビス
  6
CONTINUOUS
 10
121.816113
 20
-72.39662
 11
120.716113
 21
-72.39662
  0
LINE
  8
ボルト／ビス
  6
CONTINUOUS
 10
121.716113
 20
-72.24662
 11
121.716113
 21
-72.29662
  0
LINE
  8
ボルト／ビス
  6
CONTINUOUS
 10
121.716113
 20
-72.24662
 11
120.816113
 21
-72.24662
  0
LINE
  8
ボルト／ビス
  6
CONTINUOUS
 10
120.816113
 20
-72.24662
 11
120.816113
 21
-72.29662
  0
LINE
  8
ボルト／ビス
  6
CONTINUOUS
 62
    64
 10
121.506675
 20
-71.94662
 11
121.554788
 21
-71.964132
  0
ARC
  8
ボルト／ビス
  6
CONTINUOUS
 62
    64
 10
121.48262
 20
-72.104088
 40
0.157468
 50
90.0
 51
117.278033
  0
ARC
  8
ボルト／ビス
  6
CONTINUOUS
 62
    64
 10
121.266113
 20
-72.550224
 40
0.603603
 50
76.165015
 51
103.834998
  0
LINE
  8
ボルト／ビス
  6
CONTINUOUS
 62
    64
 10
121.02555
 20
-71.94662
 11
120.977438
 21
-71.964132
  0
ARC
  8
ボルト／ビス
  6
CONTINUOUS
 62
    64
 10
121.049607
 20
-72.104088
 40
0.157468
 50
62.721967
 51
90.0
  0
LINE
  8
ボルト／ビス
  6
CONTINUOUS
 62
    64
 10
121.506675
 20
-71.94662
 11
121.02555
 21
-71.94662
  0
LINE
  8
ボルト／ビス
  6
CONTINUOUS
 62
    64
 10
120.977438
 20
-71.964132
 11
120.977438
 21
-72.14662
  0
LINE
  8
ボルト／ビス
  6
CONTINUOUS
 62
    64
 10
121.121775
 20
-71.964132
 11
121.121775
 21
-72.14662
  0
LINE
  8
ボルト／ビス
  6
CONTINUOUS
 62
    64
 10
121.554788
 20
-71.964132
 11
121.554788
 21
-72.14662
  0
LINE
  8
ボルト／ビス
  6
CONTINUOUS
 62
    64
 10
121.41045
 20
-71.964132
 11
121.41045
 21
-72.14662
  0
LINE
  8
ボルト／ビス
  6
CONTINUOUS
 10
121.554788
 20
-72.14662
 11
120.977438
 21
-72.14662
  0
LINE
  8
ボルト／ビス
  6
CONTINUOUS
 10
121.566113
 20
-72.14662
 11
121.566113
 21
-72.24662
  0
LINE
  8
ボルト／ビス
  6
CONTINUOUS
 10
121.566113
 20
-72.14662
 11
120.966113
 21
-72.14662
  0
LINE
  8
ボルト／ビス
  6
CONTINUOUS
 10
120.966113
 20
-72.14662
 11
120.966113
 21
-72.24662
  0
ENDBLK
  0
BLOCK
  2
*GRP_0041
 70
    65
 10
0.0
 20
0.0
  0
INSERT
  2
M8横
  8
ゴム等
  6
CONTINUOUS
 10
74.02703
 20
-73.68637
 41
0.05
 42
0.05
  0
LINE
  8
ボルト／ビス
  6
CONTINUOUS
 10
74.22703
 20
-73.371372
 11
74.20203
 21
-73.346372
  0
LINE
  8
ボルト／ビス
  6
CONTINUOUS
 10
73.85203
 20
-73.346372
 11
73.82703
 21
-73.371372
  0
LINE
  8
ボルト／ビス
  6
CONTINUOUS
 10
73.82703
 20
-73.371372
 11
74.22703
 21
-73.371372
  0
LINE
  8
ボルト／ビス
  6
CONTINUOUS
 10
73.85203
 20
-73.346372
 11
74.20203
 21
-73.346372
  0
LINE
  8
ボルト／ビス
  6
CONTINUOUS
 10
74.20203
 20
-73.346372
 11
74.20203
 21
-73.41137
  0
LINE
  8
ボルト／ビス
  6
CONTINUOUS
 10
74.22703
 20
-73.371372
 11
74.22703
 21
-73.41137
  0
LINE
  8
ボルト／ビス
  6
CONTINUOUS
 10
73.82703
 20
-73.371372
 11
73.82703
 21
-73.41137
  0
LINE
  8
ボルト／ビス
  6
CONTINUOUS
 10
73.85203
 20
-73.346372
 11
73.85203
 21
-73.41137
  0
LINE
  8
ボルト／ビス
  6
CONTINUOUS
 10
73.47703
 20
-73.68637
 11
74.57703
 21
-73.68637
  0
LINE
  8
ボルト／ビス
  6
CONTINUOUS
 10
74.65203
 20
-73.74637
 11
74.65203
 21
-73.87137
  0
LINE
  8
ボルト／ビス
  6
CONTINUOUS
 10
74.65203
 20
-73.87137
 11
73.40203
 21
-73.87137
  0
LINE
  8
ボルト／ビス
  6
CONTINUOUS
 10
73.40203
 20
-73.87137
 11
73.40203
 21
-73.74637
  0
LINE
  8
ボルト／ビス
  6
CONTINUOUS
 10
74.65203
 20
-73.74637
 11
73.40203
 21
-73.74637
  0
LINE
  8
ボルト／ビス
  6
CONTINUOUS
 10
73.47703
 20
-73.68637
 11
73.47703
 21
-73.74637
  0
LINE
  8
ボルト／ビス
  6
CONTINUOUS
 10
74.57703
 20
-73.68637
 11
74.57703
 21
-73.74637
  0
LINE
  8
ボルト／ビス
  6
CONTINUOUS
 10
74.02703
 20
-73.76137
 11
74.02703
 21
-73.68637
  0
ENDBLK
  0
BLOCK
  2
*GRP_0042
 70
    65
 10
0.0
 20
0.0
  0
LINE
  8
ボルト／ビス
  6
CONTINUOUS
 10
73.717028
 20
-72.39662
 11
73.717028
 21
-72.29662
  0
LINE
  8
ボルト／ビス
  6
CONTINUOUS
 10
73.717028
 20
-72.29662
 11
74.817028
 21
-72.29662
  0
LINE
  8
ボルト／ビス
  6
CONTINUOUS
 10
74.817028
 20
-72.29662
 11
74.817028
 21
-72.39662
  0
LINE
  8
ボルト／ビス
  6
CONTINUOUS
 10
73.717028
 20
-72.39662
 11
74.817028
 21
-72.39662
  0
LINE
  8
ボルト／ビス
  6
CONTINUOUS
 10
73.817028
 20
-72.24662
 11
73.817028
 21
-72.29662
  0
LINE
  8
ボルト／ビス
  6
CONTINUOUS
 10
73.817028
 20
-72.24662
 11
74.717028
 21
-72.24662
  0
LINE
  8
ボルト／ビス
  6
CONTINUOUS
 10
74.717028
 20
-72.24662
 11
74.717028
 21
-72.29662
  0
LINE
  8
ボルト／ビス
  6
CONTINUOUS
 62
    64
 10
74.026465
 20
-71.94662
 11
73.978353
 21
-71.964132
  0
ARC
  8
ボルト／ビス
  6
CONTINUOUS
 62
    64
 10
74.050521
 20
-72.104088
 40
0.157468
 50
62.721967
 51
90.0
  0
ARC
  8
ボルト／ビス
  6
CONTINUOUS
 62
    64
 10
74.267028
 20
-72.550224
 40
0.603603
 50
76.165002
 51
103.834985
  0
LINE
  8
ボルト／ビス
  6
CONTINUOUS
 62
    64
 10
74.50759
 20
-71.94662
 11
74.555703
 21
-71.964132
  0
ARC
  8
ボルト／ビス
  6
CONTINUOUS
 62
    64
 10
74.483534
 20
-72.104088
 40
0.157468
 50
90.0
 51
117.278033
  0
LINE
  8
ボルト／ビス
  6
CONTINUOUS
 62
    64
 10
74.026465
 20
-71.94662
 11
74.50759
 21
-71.94662
  0
LINE
  8
ボルト／ビス
  6
CONTINUOUS
 62
    64
 10
74.555703
 20
-71.964132
 11
74.555703
 21
-72.14662
  0
LINE
  8
ボルト／ビス
  6
CONTINUOUS
 62
    64
 10
74.411365
 20
-71.964132
 11
74.411365
 21
-72.14662
  0
LINE
  8
ボルト／ビス
  6
CONTINUOUS
 62
    64
 10
73.978353
 20
-71.964132
 11
73.978353
 21
-72.14662
  0
LINE
  8
ボルト／ビス
  6
CONTINUOUS
 62
    64
 10
74.12269
 20
-71.964132
 11
74.12269
 21
-72.14662
  0
LINE
  8
ボルト／ビス
  6
CONTINUOUS
 10
73.978353
 20
-72.14662
 11
74.555703
 21
-72.14662
  0
LINE
  8
ボルト／ビス
  6
CONTINUOUS
 10
73.967028
 20
-72.14662
 11
73.967028
 21
-72.24662
  0
LINE
  8
ボルト／ビス
  6
CONTINUOUS
 10
73.967028
 20
-72.14662
 11
74.567028
 21
-72.14662
  0
LINE
  8
ボルト／ビス
  6
CONTINUOUS
 10
74.567028
 20
-72.14662
 11
74.567028
 21
-72.24662
  0
ENDBLK
  0
BLOCK
  2
*GRP_0043
 70
    65
 10
0.0
 20
0.0
  0
LINE
  8
型材断面
  6
DOT
 10
122.76657
 20
-62.14662
 11
122.69157
 21
-62.14662
  0
LINE
  8
型材断面
  6
DOT
 10
120.26657
 20
-61.39662
 11
120.26657
 21
-60.29662
  0
LINE
  8
型材断面
  6
DOT
 10
120.341113
 20
-62.87137
 11
122.511112
 21
-62.87137
  0
LINE
  8
型材断面
  6
DOT
 10
122.511112
 20
-63.54637
 11
122.511112
 21
-62.87137
  0
LINE
  8
型材断面
  6
DOT
 62
    47
 10
123.611112
 20
-67.555408
 11
123.686112
 21
-67.555408
  0
LINE
  8
型材断面
  6
DOT
 62
    47
 10
123.686112
 20
-67.555408
 11
123.686112
 21
-67.055408
  0
LINE
  8
型材断面
  6
DOT
 62
    47
 10
123.686112
 20
-67.055408
 11
122.511112
 21
-66.905407
  0
LINE
  8
型材断面
  6
DOT
 62
    47
 10
122.511112
 20
-66.29637
 11
122.511112
 21
-66.905407
  0
LINE
  8
型材断面
  6
DOT
 62
    47
 10
123.216113
 20
-66.29637
 11
123.216113
 21
-63.54637
  0
LINE
  8
型材断面
  6
DOT
 10
122.76657
 20
-62.14662
 11
122.76657
 21
-61.39662
  0
LINE
  8
型材断面
  6
DOT
 10
120.341113
 20
-62.87137
 11
120.341113
 21
-62.14662
  0
INSERT
  2
*GRP_0044
  8
型材断面
  6
DOT
 10
0.0
 20
0.0
  0
INSERT
  2
*GRP_0045
  8
型材断面
  6
DOT
 10
0.0
 20
0.0
  0
LINE
  8
型材断面
  6
DOT
 10
123.686112
 20
-67.555408
 11
97.76657
 21
-67.555408
  0
LINE
  8
型材断面
  6
DOT
 10
123.686112
 20
-67.055408
 11
97.76657
 21
-67.055408
  0
LINE
  8
型材断面
  6
DOT
 10
122.511112
 20
-66.905407
 11
97.76657
 21
-66.905407
  0
LINE
  8
型材断面
  6
DOT
 10
123.216113
 20
-66.29637
 11
97.76657
 21
-66.29637
  0
LINE
  8
型材断面
  6
DOT
 10
122.76657
 20
-62.14662
 11
97.76657
 21
-62.14662
  0
LINE
  8
型材断面
  6
DOT
 10
120.26657
 20
-60.29662
 11
97.76657
 21
-60.29662
  0
LINE
  8
型材断面
  6
DOT
 10
122.76657
 20
-61.39662
 11
97.76657
 21
-61.39662
  0
LINE
  8
型材断面
  6
DOT
 10
122.511112
 20
-62.87137
 11
97.76657
 21
-62.87137
  0
LINE
  8
型材断面
  6
DOT
 10
123.216113
 20
-63.54637
 11
97.76657
 21
-63.54637
  0
LINE
  8
型材断面
  6
DOT
 10
72.76657
 20
-62.14662
 11
72.84157
 21
-62.14662
  0
LINE
  8
型材断面
  6
DOT
 10
75.26657
 20
-61.39662
 11
75.26657
 21
-60.29662
  0
LINE
  8
型材断面
  6
DOT
 10
75.192028
 20
-62.87137
 11
73.022027
 21
-62.87137
  0
LINE
  8
型材断面
  6
DOT
 10
73.022027
 20
-63.54637
 11
73.022027
 21
-62.87137
  0
LINE
  8
型材断面
  6
DOT
 62
    47
 10
71.922027
 20
-67.555408
 11
71.847027
 21
-67.555408
  0
LINE
  8
型材断面
  6
DOT
 62
    47
 10
71.847027
 20
-67.555408
 11
71.847027
 21
-67.055408
  0
LINE
  8
型材断面
  6
DOT
 62
    47
 10
71.847027
 20
-67.055408
 11
73.022027
 21
-66.905407
  0
LINE
  8
型材断面
  6
DOT
 62
    47
 10
73.022027
 20
-66.29637
 11
73.022027
 21
-66.905407
  0
LINE
  8
型材断面
  6
DOT
 62
    47
 10
72.317028
 20
-66.29637
 11
72.317028
 21
-63.54637
  0
LINE
  8
型材断面
  6
DOT
 10
72.76657
 20
-62.14662
 11
72.76657
 21
-61.39662
  0
LINE
  8
型材断面
  6
DOT
 10
75.192028
 20
-62.87137
 11
75.192028
 21
-62.14662
  0
INSERT
  2
*GRP_0046
  8
型材断面
  6
DOT
 10
0.0
 20
0.0
  0
INSERT
  2
*GRP_0047
  8
型材断面
  6
DOT
 10
0.0
 20
0.0
  0
LINE
  8
型材断面
  6
DOT
 10
71.847027
 20
-67.555408
 11
97.76657
 21
-67.555408
  0
LINE
  8
型材断面
  6
DOT
 10
71.847027
 20
-67.055408
 11
97.76657
 21
-67.055408
  0
LINE
  8
型材断面
  6
DOT
 10
73.022027
 20
-66.905407
 11
97.76657
 21
-66.905407
  0
LINE
  8
型材断面
  6
DOT
 10
72.317028
 20
-66.29637
 11
97.76657
 21
-66.29637
  0
LINE
  8
型材断面
  6
DOT
 10
72.76657
 20
-62.14662
 11
97.76657
 21
-62.14662
  0
LINE
  8
型材断面
  6
DOT
 10
75.26657
 20
-60.29662
 11
97.76657
 21
-60.29662
  0
LINE
  8
型材断面
  6
DOT
 10
72.76657
 20
-61.39662
 11
97.76657
 21
-61.39662
  0
LINE
  8
型材断面
  6
DOT
 10
73.022027
 20
-62.87137
 11
97.76657
 21
-62.87137
  0
LINE
  8
型材断面
  6
DOT
 10
72.317028
 20
-63.54637
 11
97.76657
 21
-63.54637
  0
ENDBLK
  0
BLOCK
  2
*GRP_0044
 70
    65
 10
0.0
 20
0.0
  0
INSERT
  2
M8横
  8
ゴム等
  6
DOT
 10
121.50611
 20
-62.68637
 50
180.0
 41
0.05
 42
-0.05
  0
LINE
  8
ボルト／ビス
  6
DOT
 10
121.30611
 20
-62.371372
 11
121.33111
 21
-62.346372
  0
LINE
  8
ボルト／ビス
  6
DOT
 10
121.68111
 20
-62.346372
 11
121.70611
 21
-62.371372
  0
LINE
  8
ボルト／ビス
  6
DOT
 10
121.70611
 20
-62.371372
 11
121.30611
 21
-62.371372
  0
LINE
  8
ボルト／ビス
  6
DOT
 10
121.68111
 20
-62.346372
 11
121.33111
 21
-62.346372
  0
LINE
  8
ボルト／ビス
  6
DOT
 10
121.33111
 20
-62.346372
 11
121.33111
 21
-62.41137
  0
LINE
  8
ボルト／ビス
  6
DOT
 10
121.30611
 20
-62.371372
 11
121.30611
 21
-62.41137
  0
LINE
  8
ボルト／ビス
  6
DOT
 10
121.70611
 20
-62.371372
 11
121.70611
 21
-62.41137
  0
LINE
  8
ボルト／ビス
  6
DOT
 10
121.68111
 20
-62.346372
 11
121.68111
 21
-62.41137
  0
LINE
  8
ボルト／ビス
  6
DOT
 10
122.05611
 20
-62.68637
 11
120.95611
 21
-62.68637
  0
LINE
  8
ボルト／ビス
  6
DOT
 10
120.88111
 20
-62.74637
 11
120.88111
 21
-62.87137
  0
LINE
  8
ボルト／ビス
  6
DOT
 10
120.88111
 20
-62.87137
 11
122.13111
 21
-62.87137
  0
LINE
  8
ボルト／ビス
  6
DOT
 10
122.13111
 20
-62.87137
 11
122.13111
 21
-62.74637
  0
LINE
  8
ボルト／ビス
  6
DOT
 10
120.88111
 20
-62.74637
 11
122.13111
 21
-62.74637
  0
LINE
  8
ボルト／ビス
  6
DOT
 10
122.05611
 20
-62.68637
 11
122.05611
 21
-62.74637
  0
LINE
  8
ボルト／ビス
  6
DOT
 10
120.95611
 20
-62.68637
 11
120.95611
 21
-62.74637
  0
LINE
  8
ボルト／ビス
  6
DOT
 10
121.50611
 20
-62.76137
 11
121.50611
 21
-62.68637
  0
ENDBLK
  0
BLOCK
  2
*GRP_0045
 70
    65
 10
0.0
 20
0.0
  0
LINE
  8
ボルト／ビス
  6
DOT
 10
121.816113
 20
-61.39662
 11
121.816113
 21
-61.29662
  0
LINE
  8
ボルト／ビス
  6
DOT
 10
121.816113
 20
-61.29662
 11
120.716113
 21
-61.29662
  0
LINE
  8
ボルト／ビス
  6
DOT
 10
120.716113
 20
-61.29662
 11
120.716113
 21
-61.39662
  0
LINE
  8
ボルト／ビス
  6
DOT
 10
121.816113
 20
-61.39662
 11
120.716113
 21
-61.39662
  0
LINE
  8
ボルト／ビス
  6
DOT
 10
121.716113
 20
-61.24662
 11
121.716113
 21
-61.29662
  0
LINE
  8
ボルト／ビス
  6
DOT
 10
121.716113
 20
-61.24662
 11
120.816113
 21
-61.24662
  0
LINE
  8
ボルト／ビス
  6
DOT
 10
120.816113
 20
-61.24662
 11
120.816113
 21
-61.29662
  0
LINE
  8
ボルト／ビス
  6
DOT
 62
    64
 10
121.506675
 20
-60.94662
 11
121.554788
 21
-60.964132
  0
ARC
  8
ボルト／ビス
  6
DOT
 62
    64
 10
121.48262
 20
-61.104088
 40
0.157468
 50
90.0
 51
117.278033
  0
ARC
  8
ボルト／ビス
  6
DOT
 62
    64
 10
121.266113
 20
-61.550224
 40
0.603603
 50
76.165015
 51
103.834998
  0
LINE
  8
ボルト／ビス
  6
DOT
 62
    64
 10
121.02555
 20
-60.94662
 11
120.977438
 21
-60.964132
  0
ARC
  8
ボルト／ビス
  6
DOT
 62
    64
 10
121.049607
 20
-61.104088
 40
0.157468
 50
62.721967
 51
90.0
  0
LINE
  8
ボルト／ビス
  6
DOT
 62
    64
 10
121.506675
 20
-60.94662
 11
121.02555
 21
-60.94662
  0
LINE
  8
ボルト／ビス
  6
DOT
 62
    64
 10
120.977438
 20
-60.964132
 11
120.977438
 21
-61.14662
  0
LINE
  8
ボルト／ビス
  6
DOT
 62
    64
 10
121.121775
 20
-60.964132
 11
121.121775
 21
-61.14662
  0
LINE
  8
ボルト／ビス
  6
DOT
 62
    64
 10
121.554788
 20
-60.964132
 11
121.554788
 21
-61.14662
  0
LINE
  8
ボルト／ビス
  6
DOT
 62
    64
 10
121.41045
 20
-60.964132
 11
121.41045
 21
-61.14662
  0
LINE
  8
ボルト／ビス
  6
DOT
 10
121.554788
 20
-61.14662
 11
120.977438
 21
-61.14662
  0
LINE
  8
ボルト／ビス
  6
DOT
 10
121.566113
 20
-61.14662
 11
121.566113
 21
-61.24662
  0
LINE
  8
ボルト／ビス
  6
DOT
 10
121.566113
 20
-61.14662
 11
120.966113
 21
-61.14662
  0
LINE
  8
ボルト／ビス
  6
DOT
 10
120.966113
 20
-61.14662
 11
120.966113
 21
-61.24662
  0
ENDBLK
  0
BLOCK
  2
*GRP_0046
 70
    65
 10
0.0
 20
0.0
  0
INSERT
  2
M8横
  8
ゴム等
  6
DOT
 10
74.02703
 20
-62.68637
 41
0.05
 42
0.05
  0
LINE
  8
ボルト／ビス
  6
DOT
 10
74.22703
 20
-62.371372
 11
74.20203
 21
-62.346372
  0
LINE
  8
ボルト／ビス
  6
DOT
 10
73.85203
 20
-62.346372
 11
73.82703
 21
-62.371372
  0
LINE
  8
ボルト／ビス
  6
DOT
 10
73.82703
 20
-62.371372
 11
74.22703
 21
-62.371372
  0
LINE
  8
ボルト／ビス
  6
DOT
 10
73.85203
 20
-62.346372
 11
74.20203
 21
-62.346372
  0
LINE
  8
ボルト／ビス
  6
DOT
 10
74.20203
 20
-62.346372
 11
74.20203
 21
-62.41137
  0
LINE
  8
ボルト／ビス
  6
DOT
 10
74.22703
 20
-62.371372
 11
74.22703
 21
-62.41137
  0
LINE
  8
ボルト／ビス
  6
DOT
 10
73.82703
 20
-62.371372
 11
73.82703
 21
-62.41137
  0
LINE
  8
ボルト／ビス
  6
DOT
 10
73.85203
 20
-62.346372
 11
73.85203
 21
-62.41137
  0
LINE
  8
ボルト／ビス
  6
DOT
 10
73.47703
 20
-62.68637
 11
74.57703
 21
-62.68637
  0
LINE
  8
ボルト／ビス
  6
DOT
 10
74.65203
 20
-62.74637
 11
74.65203
 21
-62.87137
  0
LINE
  8
ボルト／ビス
  6
DOT
 10
74.65203
 20
-62.87137
 11
73.40203
 21
-62.87137
  0
LINE
  8
ボルト／ビス
  6
DOT
 10
73.40203
 20
-62.87137
 11
73.40203
 21
-62.74637
  0
LINE
  8
ボルト／ビス
  6
DOT
 10
74.65203
 20
-62.74637
 11
73.40203
 21
-62.74637
  0
LINE
  8
ボルト／ビス
  6
DOT
 10
73.47703
 20
-62.68637
 11
73.47703
 21
-62.74637
  0
LINE
  8
ボルト／ビス
  6
DOT
 10
74.57703
 20
-62.68637
 11
74.57703
 21
-62.74637
  0
LINE
  8
ボルト／ビス
  6
DOT
 10
74.02703
 20
-62.76137
 11
74.02703
 21
-62.68637
  0
ENDBLK
  0
BLOCK
  2
*GRP_0047
 70
    65
 10
0.0
 20
0.0
  0
LINE
  8
ボルト／ビス
  6
DOT
 10
73.717028
 20
-61.39662
 11
73.717028
 21
-61.29662
  0
LINE
  8
ボルト／ビス
  6
DOT
 10
73.717028
 20
-61.29662
 11
74.817028
 21
-61.29662
  0
LINE
  8
ボルト／ビス
  6
DOT
 10
74.817028
 20
-61.29662
 11
74.817028
 21
-61.39662
  0
LINE
  8
ボルト／ビス
  6
DOT
 10
73.717028
 20
-61.39662
 11
74.817028
 21
-61.39662
  0
LINE
  8
ボルト／ビス
  6
DOT
 10
73.817028
 20
-61.24662
 11
73.817028
 21
-61.29662
  0
LINE
  8
ボルト／ビス
  6
DOT
 10
73.817028
 20
-61.24662
 11
74.717028
 21
-61.24662
  0
LINE
  8
ボルト／ビス
  6
DOT
 10
74.717028
 20
-61.24662
 11
74.717028
 21
-61.29662
  0
LINE
  8
ボルト／ビス
  6
DOT
 62
    64
 10
74.026465
 20
-60.94662
 11
73.978353
 21
-60.964132
  0
ARC
  8
ボルト／ビス
  6
DOT
 62
    64
 10
74.050521
 20
-61.104088
 40
0.157468
 50
62.721967
 51
90.0
  0
ARC
  8
ボルト／ビス
  6
DOT
 62
    64
 10
74.267028
 20
-61.550224
 40
0.603603
 50
76.165002
 51
103.834985
  0
LINE
  8
ボルト／ビス
  6
DOT
 62
    64
 10
74.50759
 20
-60.94662
 11
74.555703
 21
-60.964132
  0
ARC
  8
ボルト／ビス
  6
DOT
 62
    64
 10
74.483534
 20
-61.104088
 40
0.157468
 50
90.0
 51
117.278033
  0
LINE
  8
ボルト／ビス
  6
DOT
 62
    64
 10
74.026465
 20
-60.94662
 11
74.50759
 21
-60.94662
  0
LINE
  8
ボルト／ビス
  6
DOT
 62
    64
 10
74.555703
 20
-60.964132
 11
74.555703
 21
-61.14662
  0
LINE
  8
ボルト／ビス
  6
DOT
 62
    64
 10
74.411365
 20
-60.964132
 11
74.411365
 21
-61.14662
  0
LINE
  8
ボルト／ビス
  6
DOT
 62
    64
 10
73.978353
 20
-60.964132
 11
73.978353
 21
-61.14662
  0
LINE
  8
ボルト／ビス
  6
DOT
 62
    64
 10
74.12269
 20
-60.964132
 11
74.12269
 21
-61.14662
  0
LINE
  8
ボルト／ビス
  6
DOT
 10
73.978353
 20
-61.14662
 11
74.555703
 21
-61.14662
  0
LINE
  8
ボルト／ビス
  6
DOT
 10
73.967028
 20
-61.14662
 11
73.967028
 21
-61.24662
  0
LINE
  8
ボルト／ビス
  6
DOT
 10
73.967028
 20
-61.14662
 11
74.567028
 21
-61.14662
  0
LINE
  8
ボルト／ビス
  6
DOT
 10
74.567028
 20
-61.14662
 11
74.567028
 21
-61.24662
  0
ENDBLK
  0
BLOCK
  2
*GRP_0048
 70
    65
 10
0.0
 20
0.0
  0
LINE
  8
補助線
  6
BYBLOCK
 62
    64
 10
118.079422
 20
-80.01525
 11
118.302808
 21
-80.12749
  0
LINE
  8
補助線
  6
BYBLOCK
 62
    64
 10
118.247235
 20
-79.959677
 11
118.134995
 21
-80.183062
  0
LINE
  8
補助線
  6
BYBLOCK
 62
    64
 10
103.425063
 20
-72.65253
 11
103.20167
 21
-72.54029
  0
LINE
  8
補助線
  6
BYBLOCK
 62
    64
 10
103.369483
 20
-72.484713
 11
103.257248
 21
-72.708103
  0
LINE
  8
補助線
  6
BYBLOCK
 62
    64
 10
88.547272
 20
-65.17764
 11
88.323883
 21
-65.065408
  0
LINE
  8
補助線
  6
BYBLOCK
 62
    64
 10
88.491695
 20
-65.009828
 11
88.37946
 21
-65.233217
  0
LINE
  8
型材断面
  6
CONTINUOUS
 10
119.199078
 20
-79.178895
 11
119.532535
 21
-80.185772
  0
LINE
  8
型材断面
  6
CONTINUOUS
 10
119.532535
 20
-80.185772
 11
119.08359
 21
-81.079332
  0
LINE
  8
型材断面
  6
CONTINUOUS
 10
119.08359
 20
-81.079332
 11
118.076713
 21
-81.41279
  0
LINE
  8
型材断面
  6
CONTINUOUS
 10
88.549972
 20
-63.7801
 11
87.5431
 21
-64.113565
  0
LINE
  8
型材断面
  6
CONTINUOUS
 10
87.5431
 20
-64.113565
 11
87.094153
 21
-65.007128
  0
LINE
  8
型材断面
  6
CONTINUOUS
 10
87.094153
 20
-65.007128
 11
87.42762
 21
-66.014002
  0
LINE
  8
型材断面
  6
CONTINUOUS
 10
119.199078
 20
-79.178895
 11
88.550087
 21
-63.78006
  0
LINE
  8
型材断面
  6
CONTINUOUS
 10
118.076713
 20
-81.41279
 11
87.427585
 21
-66.013895
  0
LINE
  8
ボルト／ビス
  6
CONTINUOUS
 62
    64
 10
118.398473
 20
-79.658652
 11
118.652218
 21
-80.04459
  0
LINE
  8
ボルト／ビス
  6
CONTINUOUS
 62
    64
 10
118.398473
 20
-79.658652
 11
117.937372
 21
-79.685435
  0
LINE
  8
ボルト／ビス
  6
CONTINUOUS
 62
    64
 10
117.983757
 20
-80.484087
 11
118.444858
 21
-80.457305
  0
LINE
  8
ボルト／ビス
  6
CONTINUOUS
 62
    64
 10
117.983757
 20
-80.484087
 11
117.730012
 21
-80.09815
  0
CIRCLE
  8
ボルト／ビス
  6
CONTINUOUS
 62
    64
 10
118.191115
 20
-80.07137
 40
0.4
  0
LINE
  8
ボルト／ビス
  6
CONTINUOUS
 62
    64
 10
117.937372
 20
-79.685435
 11
117.730012
 21
-80.09815
  0
LINE
  8
ボルト／ビス
  6
CONTINUOUS
 62
    64
 10
118.652218
 20
-80.04459
 11
118.444858
 21
-80.457305
  0
LINE
  8
ボルト／ビス
  6
CONTINUOUS
 62
    64
 10
103.520725
 20
-72.183692
 11
103.05962
 21
-72.21047
  0
LINE
  8
ボルト／ビス
  6
CONTINUOUS
 62
    64
 10
103.520725
 20
-72.183692
 11
103.77447
 21
-72.569628
  0
LINE
  8
ボルト／ビス
  6
CONTINUOUS
 62
    64
 10
103.106005
 20
-73.009125
 11
102.852262
 21
-72.62319
  0
LINE
  8
ボルト／ビス
  6
CONTINUOUS
 62
    64
 10
103.106005
 20
-73.009125
 11
103.567108
 21
-72.982345
  0
CIRCLE
  8
ボルト／ビス
  6
CONTINUOUS
 62
    64
 10
103.313363
 20
-72.59641
 40
0.4
  0
LINE
  8
ボルト／ビス
  6
CONTINUOUS
 62
    64
 10
103.77447
 20
-72.569628
 11
103.567108
 21
-72.982345
  0
LINE
  8
ボルト／ビス
  6
CONTINUOUS
 62
    64
 10
103.05962
 20
-72.21047
 11
102.852262
 21
-72.62319
  0
LINE
  8
ボルト／ビス
  6
CONTINUOUS
 62
    64
 10
88.642935
 20
-64.708803
 11
88.18183
 21
-64.735585
  0
LINE
  8
ボルト／ビス
  6
CONTINUOUS
 62
    64
 10
88.642935
 20
-64.708803
 11
88.896678
 21
-65.09474
  0
LINE
  8
ボルト／ビス
  6
CONTINUOUS
 62
    64
 10
88.228218
 20
-65.53424
 11
87.974475
 21
-65.148303
  0
LINE
  8
ボルト／ビス
  6
CONTINUOUS
 62
    64
 10
88.228218
 20
-65.53424
 11
88.689325
 21
-65.507457
  0
CIRCLE
  8
ボルト／ビス
  6
CONTINUOUS
 62
    64
 10
88.43558
 20
-65.121522
 40
0.4
  0
LINE
  8
ボルト／ビス
  6
CONTINUOUS
 62
    64
 10
88.896678
 20
-65.09474
 11
88.689325
 21
-65.507457
  0
LINE
  8
ボルト／ビス
  6
CONTINUOUS
 62
    64
 10
88.18183
 20
-64.735585
 11
87.974475
 21
-65.148303
  0
ENDBLK
  0
BLOCK
  2
*GRP_0049
 70
    65
 10
0.0
 20
0.0
  0
LINE
  8
補助線
  6
BYBLOCK
 62
    64
 10
88.547307
 20
-80.01525
 11
88.323922
 21
-80.12749
  0
LINE
  8
補助線
  6
BYBLOCK
 62
    64
 10
88.379495
 20
-79.959677
 11
88.491735
 21
-80.183062
  0
LINE
  8
補助線
  6
BYBLOCK
 62
    64
 10
103.201668
 20
-72.65253
 11
103.42506
 21
-72.54029
  0
LINE
  8
補助線
  6
BYBLOCK
 62
    64
 10
103.257248
 20
-72.484713
 11
103.369483
 21
-72.708103
  0
LINE
  8
補助線
  6
BYBLOCK
 62
    64
 10
118.079457
 20
-65.17764
 11
118.302847
 21
-65.065408
  0
LINE
  8
補助線
  6
BYBLOCK
 62
    64
 10
118.135035
 20
-65.009828
 11
118.24727
 21
-65.233217
  0
LINE
  8
型材断面
  6
CONTINUOUS
 10
87.427652
 20
-79.178895
 11
87.094195
 21
-80.185772
  0
LINE
  8
型材断面
  6
CONTINUOUS
 10
87.094195
 20
-80.185772
 11
87.54314
 21
-81.079332
  0
LINE
  8
型材断面
  6
CONTINUOUS
 10
87.54314
 20
-81.079332
 11
88.550017
 21
-81.41279
  0
LINE
  8
型材断面
  6
CONTINUOUS
 10
118.076757
 20
-63.7801
 11
119.08363
 21
-64.113565
  0
LINE
  8
型材断面
  6
CONTINUOUS
 10
119.08363
 20
-64.113565
 11
119.532577
 21
-65.007128
  0
LINE
  8
型材断面
  6
CONTINUOUS
 10
119.532577
 20
-65.007128
 11
119.19911
 21
-66.014002
  0
LINE
  8
型材断面
  6
CONTINUOUS
 10
87.427652
 20
-79.178895
 11
118.076642
 21
-63.78006
  0
LINE
  8
型材断面
  6
CONTINUOUS
 10
88.550017
 20
-81.41279
 11
119.199145
 21
-66.013895
  0
LINE
  8
ボルト／ビス
  6
CONTINUOUS
 62
    64
 10
88.228257
 20
-79.658652
 11
87.974512
 21
-80.04459
  0
LINE
  8
ボルト／ビス
  6
CONTINUOUS
 62
    64
 10
88.228257
 20
-79.658652
 11
88.689358
 21
-79.685435
  0
LINE
  8
ボルト／ビス
  6
CONTINUOUS
 62
    64
 10
88.642972
 20
-80.484087
 11
88.181872
 21
-80.457305
  0
LINE
  8
ボルト／ビス
  6
CONTINUOUS
 62
    64
 10
88.642972
 20
-80.484087
 11
88.896717
 21
-80.09815
  0
CIRCLE
  8
ボルト／ビス
  6
CONTINUOUS
 62
    64
 10
88.435615
 20
-80.07137
 40
0.4
  0
LINE
  8
ボルト／ビス
  6
CONTINUOUS
 62
    64
 10
88.689358
 20
-79.685435
 11
88.896717
 21
-80.09815
  0
LINE
  8
ボルト／ビス
  6
CONTINUOUS
 62
    64
 10
87.974512
 20
-80.04459
 11
88.181872
 21
-80.457305
  0
LINE
  8
ボルト／ビス
  6
CONTINUOUS
 62
    64
 10
103.106005
 20
-72.183692
 11
103.56711
 21
-72.21047
  0
LINE
  8
ボルト／ビス
  6
CONTINUOUS
 62
    64
 10
103.106005
 20
-72.183692
 11
102.85226
 21
-72.569628
  0
LINE
  8
ボルト／ビス
  6
CONTINUOUS
 62
    64
 10
103.520725
 20
-73.009125
 11
103.774467
 21
-72.62319
  0
LINE
  8
ボルト／ビス
  6
CONTINUOUS
 62
    64
 10
103.520725
 20
-73.009125
 11
103.059622
 21
-72.982345
  0
CIRCLE
  8
ボルト／ビス
  6
CONTINUOUS
 62
    64
 10
103.313367
 20
-72.59641
 40
0.4
  0
LINE
  8
ボルト／ビス
  6
CONTINUOUS
 62
    64
 10
102.85226
 20
-72.569628
 11
103.059622
 21
-72.982345
  0
LINE
  8
ボルト／ビス
  6
CONTINUOUS
 62
    64
 10
103.56711
 20
-72.21047
 11
103.774467
 21
-72.62319
  0
LINE
  8
ボルト／ビス
  6
CONTINUOUS
 62
    64
 10
117.983795
 20
-64.708803
 11
118.4449
 21
-64.735585
  0
LINE
  8
ボルト／ビス
  6
CONTINUOUS
 62
    64
 10
117.983795
 20
-64.708803
 11
117.730053
 21
-65.09474
  0
LINE
  8
ボルト／ビス
  6
CONTINUOUS
 62
    64
 10
118.398512
 20
-65.53424
 11
118.652255
 21
-65.148303
  0
LINE
  8
ボルト／ビス
  6
CONTINUOUS
 62
    64
 10
118.398512
 20
-65.53424
 11
117.937405
 21
-65.507457
  0
CIRCLE
  8
ボルト／ビス
  6
CONTINUOUS
 62
    64
 10
118.19115
 20
-65.121522
 40
0.4
  0
LINE
  8
ボルト／ビス
  6
CONTINUOUS
 62
    64
 10
117.730053
 20
-65.09474
 11
117.937405
 21
-65.507457
  0
LINE
  8
ボルト／ビス
  6
CONTINUOUS
 62
    64
 10
118.4449
 20
-64.735585
 11
118.652255
 21
-65.148303
  0
ENDBLK
  0
BLOCK
  2
*DIM_0050
 70
    65
 10
0.0
 20
0.0
  0
LINE
  8
寸法
  6
CONTINUOUS
 10
128.686112
 20
-78.555408
 11
141.95904
 21
-78.555408
  0
LINE
  8
寸法
  6
CONTINUOUS
 10
128.686112
 20
-67.555408
 11
141.95904
 21
-67.555408
  0
LINE
  8
寸法
  6
CONTINUOUS
 10
141.95904
 20
-78.555408
 11
141.95904
 21
-67.555408
  0
POINT
  8
寸法
 10
141.95904
 20
-78.555408
  0
POINT
  8
寸法
 10
141.95904
 20
-67.555408
  0
TEXT
  7
TextStyle03
  8
寸法
  6
CONTINUOUS
 10
144.95
 20
-82.16875
  1
上昇159以上
 40
3.0
 50
90.0
 72
     5
 11
144.95
 21
-63.98125
  0
ENDBLK
  0
BLOCK
  2
*DIM_0051
 70
    65
 10
0.0
 20
0.0
  0
LINE
  8
寸法
  6
CONTINUOUS
 10
98.941787
 20
81.127855
 11
98.941787
 21
88.6604
  0
LINE
  8
寸法
  6
CONTINUOUS
 10
142.941787
 20
81.127855
 11
142.941787
 21
88.6604
  0
LINE
  8
寸法
  6
CONTINUOUS
 10
98.941787
 20
88.6604
 11
142.941787
 21
88.6604
  0
POINT
  8
寸法
 10
98.941787
 20
88.6604
  0
POINT
  8
寸法
 10
142.941787
 20
88.6604
  0
TEXT
  7
TextStyle03
  8
寸法
  6
CONTINUOUS
 10
118.4875
 20
89.025
  1
880
 40
3.0
 72
     5
 11
123.3625
 21
89.025
  0
ENDBLK
  0
BLOCK
  2
*DIM_0052
 70
    65
 10
0.0
 20
0.0
  0
LINE
  8
寸法
  6
CONTINUOUS
 10
147.941787
 20
76.127855
 11
159.592058
 21
76.127855
  0
LINE
  8
寸法
  6
CONTINUOUS
 10
147.941787
 20
32.127855
 11
159.592058
 21
32.127855
  0
LINE
  8
寸法
  6
CONTINUOUS
 10
159.592058
 20
76.127855
 11
159.592058
 21
32.127855
  0
POINT
  8
寸法
 10
159.592058
 20
76.127855
  0
POINT
  8
寸法
 10
159.592058
 20
32.127855
  0
TEXT
  7
TextStyle03
  8
寸法
  6
CONTINUOUS
 10
159.2
 20
51.6875
  1
880
 40
3.0
 50
90.0
 72
     5
 11
159.2
 21
56.5625
  0
ENDBLK
  0
BLOCK
  2
*DIM_0053
 70
    65
 10
0.0
 20
0.0
  0
LINE
  8
寸法
  6
CONTINUOUS
 10
-34.638257
 20
-41.89646
 11
-79.638257
 21
-41.89646
  0
POINT
  8
寸法
 10
-34.638257
 20
-41.89646
  0
POINT
  8
寸法
 10
-79.638257
 20
-41.89646
  0
TEXT
  7
TextStyle03
  8
寸法
  6
CONTINUOUS
 10
-68.025
 20
-41.525
  1
呼称寸法　900
 40
3.0
 72
     5
 11
-46.275
 21
-41.525
  0
ENDBLK
  0
BLOCK
  2
M8横
 70
    64
 10
-88.370132
 20
140.837665
  0
LINE
  8
ボルト／ビス
 10
-95.870132
 20
140.837665
 11
-80.870132
 21
140.837665
  0
LINE
  8
ボルト／ビス
 10
-80.870132
 20
145.837665
 11
-81.370132
 21
146.337665
  0
POLYLINE
  8
ボルト／ビス
 66
     1
  0
VERTEX
  8
ボルト／ビス
 10
-84.120132
 20
146.337665
  0
VERTEX
  8
ボルト／ビス
 10
-84.620132
 20
145.837665
  0
VERTEX
  8
ボルト／ビス
 10
-85.120132
 20
146.337665
  0
SEQEND
  0
POLYLINE
  8
ボルト／ビス
 66
     1
  0
VERTEX
  8
ボルト／ビス
 10
-91.620132
 20
146.337665
  0
VERTEX
  8
ボルト／ビス
 10
-92.120132
 20
145.837665
  0
VERTEX
  8
ボルト／ビス
 10
-92.620132
 20
146.337665
  0
SEQEND
  0
LINE
  8
ボルト／ビス
 10
-95.370132
 20
146.337665
 11
-95.870132
 21
145.837665
  0
LINE
  8
ボルト／ビス
 10
-95.870132
 20
140.837665
 11
-95.870132
 21
145.837665
  0
LINE
  8
ボルト／ビス
 10
-80.870132
 20
140.837665
 11
-80.870132
 21
145.837665
  0
LINE
  8
ボルト／ビス
 10
-95.370132
 20
146.337665
 11
-81.370132
 21
146.337665
  0
LINE
  8
ボルト／ビス
 10
-84.620132
 20
140.837665
 11
-84.620132
 21
145.837665
  0
LINE
  8
ボルト／ビス
 10
-92.120132
 20
140.837665
 11
-92.120132
 21
145.837665
  0
ENDBLK
  0
ENDSEC
  0
SECTION
  2
ENTITIES
  0
POLYLINE
  8
通り芯
  6
CONTINUOUS
 66
     1
 70
     1
  0
VERTEX
  8
通り芯
 10
-210.0
 20
-148.5
  0
VERTEX
  8
通り芯
 10
210.0
 20
-148.5
  0
VERTEX
  8
通り芯
 10
210.0
 20
148.5
  0
VERTEX
  8
通り芯
 10
-210.0
 20
148.5
  0
SEQEND
  0
INSERT
  2
*GRP_0001
  8
型材断面
  6
CONTINUOUS
 10
0.0
 20
0.0
  0
POLYLINE
  8
型材断面
  6
CONTINUOUS
 66
     1
 70
     1
  0
VERTEX
  8
型材断面
 10
-29.783597
 20
-94.850355
  0
VERTEX
  8
型材断面
 10
-78.462273
 20
-94.850355
  0
VERTEX
  8
型材断面
 10
-78.462273
 20
-111.19502
  0
VERTEX
  8
型材断面
 10
-29.783597
 20
-111.19502
  0
SEQEND
  0
LINE
  8
型材断面
  6
CONTINUOUS
 10
-32.138257
 20
-73.14662
 11
-32.213257
 21
-73.14662
  0
LINE
  8
型材断面
  6
CONTINUOUS
 10
-34.638257
 20
-72.39662
 11
-34.638257
 21
-71.29662
  0
LINE
  8
型材断面
  6
CONTINUOUS
 62
    47
 10
-32.538715
 20
-83.24637
 11
-32.613715
 21
-83.24637
  0
LINE
  8
型材断面
  6
CONTINUOUS
 62
    47
 10
-32.538715
 20
-83.24637
 11
-32.538715
 21
-82.49637
  0
LINE
  8
型材断面
  6
CONTINUOUS
 10
-34.563715
 20
-73.87137
 11
-32.393715
 21
-73.87137
  0
LINE
  8
型材断面
  6
CONTINUOUS
 10
-32.393715
 20
-74.54637
 11
-32.393715
 21
-73.87137
  0
LINE
  8
型材断面
  6
CONTINUOUS
 62
    47
 10
-31.293715
 20
-78.555408
 11
-31.218715
 21
-78.555408
  0
LINE
  8
型材断面
  6
CONTINUOUS
 62
    47
 10
-31.218715
 20
-78.555408
 11
-31.218715
 21
-78.055408
  0
LINE
  8
型材断面
  6
CONTINUOUS
 62
    47
 10
-31.218715
 20
-78.055408
 11
-32.393715
 21
-77.905407
  0
LINE
  8
型材断面
  6
CONTINUOUS
 62
    47
 10
-32.393715
 20
-77.29637
 11
-32.393715
 21
-77.905407
  0
LINE
  8
型材断面
  6
CONTINUOUS
 62
    47
 10
-31.688715
 20
-77.29637
 11
-31.688715
 21
-74.54637
  0
LINE
  8
型材断面
  6
CONTINUOUS
 10
-32.138257
 20
-73.14662
 11
-32.138257
 21
-72.39662
  0
LINE
  8
型材断面
  6
CONTINUOUS
 10
-34.563715
 20
-73.87137
 11
-34.563715
 21
-73.14662
  0
LINE
  8
型材断面
  6
CONTINUOUS
 62
    47
 10
-31.688715
 20
-82.49637
 11
-31.688715
 21
-78.555408
  0
INSERT
  2
*GRP_0002
  8
型材断面
  6
DOT
 10
0.0
 20
0.0
  0
INSERT
  2
*GRP_0003
  8
型材断面
  6
DOT
 10
0.0
 20
0.0
  0
LINE
  8
型材断面
  6
CONTINUOUS
 10
-31.688715
 20
-82.49637
 11
-57.138257
 21
-82.49637
  0
LINE
  8
型材断面
  6
CONTINUOUS
 10
-32.538715
 20
-83.24637
 11
-57.138257
 21
-83.24637
  0
LINE
  8
型材断面
  6
CONTINUOUS
 10
-31.218715
 20
-78.555408
 11
-57.138257
 21
-78.555408
  0
LINE
  8
型材断面
  6
CONTINUOUS
 10
-31.218715
 20
-78.055408
 11
-57.138257
 21
-78.055408
  0
LINE
  8
型材断面
  6
CONTINUOUS
 10
-32.393715
 20
-77.905407
 11
-57.138257
 21
-77.905407
  0
LINE
  8
型材断面
  6
CONTINUOUS
 10
-31.688715
 20
-77.29637
 11
-57.138257
 21
-77.29637
  0
LINE
  8
型材断面
  6
CONTINUOUS
 10
-32.138257
 20
-73.14662
 11
-57.138257
 21
-73.14662
  0
LINE
  8
型材断面
  6
CONTINUOUS
 10
-34.638257
 20
-71.29662
 11
-57.138257
 21
-71.29662
  0
LINE
  8
型材断面
  6
CONTINUOUS
 10
-32.138257
 20
-72.39662
 11
-57.138257
 21
-72.39662
  0
LINE
  8
型材断面
  6
CONTINUOUS
 10
-32.393715
 20
-73.87137
 11
-57.138257
 21
-73.87137
  0
LINE
  8
型材断面
  6
CONTINUOUS
 10
-31.688715
 20
-74.54637
 11
-57.138257
 21
-74.54637
  0
LINE
  8
型材断面
  6
CONTINUOUS
 10
-35.888257
 20
59.235085
 11
-34.638257
 21
59.235085
  0
LINE
  8
型材断面
  6
CONTINUOUS
 10
-35.888257
 20
57.985085
 11
-34.638257
 21
57.985085
  0
LINE
  8
型材断面
  6
CONTINUOUS
 10
-82.138257
 20
-73.14662
 11
-82.063257
 21
-73.14662
  0
LINE
  8
型材断面
  6
CONTINUOUS
 10
-79.638257
 20
-72.39662
 11
-79.638257
 21
-71.29662
  0
LINE
  8
型材断面
  6
CONTINUOUS
 62
    47
 10
-81.7378
 20
-83.24637
 11
-81.6628
 21
-83.24637
  0
LINE
  8
型材断面
  6
CONTINUOUS
 62
    47
 10
-81.7378
 20
-83.24637
 11
-81.7378
 21
-82.49637
  0
LINE
  8
型材断面
  6
CONTINUOUS
 10
-79.7128
 20
-73.87137
 11
-81.8828
 21
-73.87137
  0
LINE
  8
型材断面
  6
CONTINUOUS
 10
-81.8828
 20
-74.54637
 11
-81.8828
 21
-73.87137
  0
LINE
  8
型材断面
  6
CONTINUOUS
 62
    47
 10
-82.9828
 20
-78.555408
 11
-83.0578
 21
-78.555408
  0
LINE
  8
型材断面
  6
CONTINUOUS
 62
    47
 10
-83.0578
 20
-78.555408
 11
-83.0578
 21
-78.055408
  0
LINE
  8
型材断面
  6
CONTINUOUS
 62
    47
 10
-83.0578
 20
-78.055408
 11
-81.8828
 21
-77.905407
  0
LINE
  8
型材断面
  6
CONTINUOUS
 62
    47
 10
-81.8828
 20
-77.29637
 11
-81.8828
 21
-77.905407
  0
LINE
  8
型材断面
  6
CONTINUOUS
 62
    47
 10
-82.5878
 20
-77.29637
 11
-82.5878
 21
-74.54637
  0
LINE
  8
型材断面
  6
CONTINUOUS
 10
-82.138257
 20
-73.14662
 11
-82.138257
 21
-72.39662
  0
LINE
  8
型材断面
  6
CONTINUOUS
 10
-79.7128
 20
-73.87137
 11
-79.7128
 21
-73.14662
  0
LINE
  8
型材断面
  6
CONTINUOUS
 62
    47
 10
-82.5878
 20
-82.49637
 11
-82.5878
 21
-78.555408
  0
INSERT
  2
*GRP_0005
  8
型材断面
  6
DOT
 10
0.0
 20
0.0
  0
INSERT
  2
*GRP_0006
  8
型材断面
  6
DOT
 10
0.0
 20
0.0
  0
LINE
  8
型材断面
  6
CONTINUOUS
 10
-82.5878
 20
-82.49637
 11
-57.138257
 21
-82.49637
  0
LINE
  8
型材断面
  6
CONTINUOUS
 10
-81.7378
 20
-83.24637
 11
-57.138257
 21
-83.24637
  0
LINE
  8
型材断面
  6
CONTINUOUS
 10
-83.0578
 20
-78.555408
 11
-57.138257
 21
-78.555408
  0
LINE
  8
型材断面
  6
CONTINUOUS
 10
-83.0578
 20
-78.055408
 11
-57.138257
 21
-78.055408
  0
LINE
  8
型材断面
  6
CONTINUOUS
 10
-81.8828
 20
-77.905407
 11
-57.138257
 21
-77.905407
  0
LINE
  8
型材断面
  6
CONTINUOUS
 10
-82.5878
 20
-77.29637
 11
-57.138257
 21
-77.29637
  0
LINE
  8
型材断面
  6
CONTINUOUS
 10
-82.138257
 20
-73.14662
 11
-57.138257
 21
-73.14662
  0
LINE
  8
型材断面
  6
CONTINUOUS
 10
-79.638257
 20
-71.29662
 11
-57.138257
 21
-71.29662
  0
LINE
  8
型材断面
  6
CONTINUOUS
 10
-82.138257
 20
-72.39662
 11
-57.138257
 21
-72.39662
  0
LINE
  8
型材断面
  6
CONTINUOUS
 10
-81.8828
 20
-73.87137
 11
-57.138257
 21
-73.87137
  0
LINE
  8
型材断面
  6
CONTINUOUS
 10
-82.5878
 20
-74.54637
 11
-57.138257
 21
-74.54637
  0
LINE
  8
型材断面
  6
CONTINUOUS
 10
-78.388257
 20
57.985085
 11
-79.638257
 21
57.985085
  0
LINE
  8
型材断面
  6
CONTINUOUS
 10
-78.388257
 20
59.235085
 11
-79.638257
 21
59.235085
  0
LINE
  8
型材断面
  6
DASHDOT
 10
-79.638257
 20
58.610085
 11
-34.638257
 21
58.610085
  0
LINE
  8
型材断面
  6
CONTINUOUS
 10
-56.513257
 20
79.860085
 11
-56.513257
 21
81.110085
  0
LINE
  8
型材断面
  6
CONTINUOUS
 10
-57.763257
 20
79.860085
 11
-57.763257
 21
81.110085
  0
LINE
  8
型材断面
  6
CONTINUOUS
 10
-35.888257
 20
79.860085
 11
-31.218715
 21
84.529628
  0
LINE
  8
型材断面
  6
CONTINUOUS
 10
-35.888257
 20
79.860085
 11
-56.513257
 21
79.860085
  0
LINE
  8
型材断面
  6
CONTINUOUS
 10
-78.388257
 20
79.860085
 11
-83.0578
 21
84.529628
  0
LINE
  8
型材断面
  6
CONTINUOUS
 10
-57.763257
 20
79.860085
 11
-78.388257
 21
79.860085
  0
LINE
  8
型材断面
  6
CONTINUOUS
 10
-34.638257
 20
81.110085
 11
-79.638257
 21
81.110085
  0
LINE
  8
型材断面
  6
CONTINUOUS
 10
-31.688715
 20
84.059627
 11
-82.5878
 21
84.059627
  0
LINE
  8
型材断面
  6
CONTINUOUS
 10
-31.218715
 20
84.529628
 11
-83.0578
 21
84.529628
  0
LINE
  8
型材断面
  6
CONTINUOUS
 10
-32.138257
 20
83.610085
 11
-82.138257
 21
83.610085
  0
LINE
  8
型材断面
  6
CONTINUOUS
 10
-57.763257
 20
37.360085
 11
-57.763257
 21
36.110085
  0
LINE
  8
型材断面
  6
CONTINUOUS
 10
-56.513257
 20
37.360085
 11
-56.513257
 21
36.110085
  0
LINE
  8
型材断面
  6
CONTINUOUS
 10
-35.888257
 20
37.360085
 11
-31.218715
 21
32.690543
  0
LINE
  8
型材断面
  6
CONTINUOUS
 10
-35.888257
 20
37.360085
 11
-56.513257
 21
37.360085
  0
LINE
  8
型材断面
  6
CONTINUOUS
 10
-78.388257
 20
37.360085
 11
-83.0578
 21
32.690543
  0
LINE
  8
型材断面
  6
CONTINUOUS
 10
-57.763257
 20
37.360085
 11
-78.388257
 21
37.360085
  0
LINE
  8
型材断面
  6
CONTINUOUS
 10
-34.638257
 20
36.110085
 11
-79.638257
 21
36.110085
  0
LINE
  8
型材断面
  6
CONTINUOUS
 10
-31.688715
 20
33.160542
 11
-82.5878
 21
33.160542
  0
LINE
  8
型材断面
  6
CONTINUOUS
 10
-31.218715
 20
32.690543
 11
-83.0578
 21
32.690543
  0
LINE
  8
型材断面
  6
CONTINUOUS
 10
-32.138257
 20
33.610085
 11
-82.138257
 21
33.610085
  0
LINE
  8
型材断面
  6
CONTINUOUS
 10
-35.888257
 20
57.985085
 11
-35.888257
 21
37.360085
  0
LINE
  8
型材断面
  6
CONTINUOUS
 10
-35.888257
 20
59.235085
 11
-35.888257
 21
79.860085
  0
LINE
  8
型材断面
  6
CONTINUOUS
 10
-32.138257
 20
33.610085
 11
-32.138257
 21
83.610085
  0
LINE
  8
型材断面
  6
CONTINUOUS
 10
-31.688715
 20
33.160542
 11
-31.688715
 21
84.059627
  0
LINE
  8
型材断面
  6
CONTINUOUS
 10
-31.218715
 20
32.690543
 11
-31.218715
 21
84.529628
  0
LINE
  8
型材断面
  6
DASHDOT
 10
-57.138257
 20
-87.120773
 11
-57.138257
 21
81.110085
  0
LINE
  8
型材断面
  6
CONTINUOUS
 10
-78.388257
 20
59.235085
 11
-78.388257
 21
79.860085
  0
LINE
  8
型材断面
  6
DASHDOT
 10
-79.638257
 20
-87.120773
 11
-79.638257
 21
36.110085
  0
LINE
  8
型材断面
  6
CONTINUOUS
 10
-78.388257
 20
57.985085
 11
-78.388257
 21
37.360085
  0
LINE
  8
型材断面
  6
CONTINUOUS
 10
-82.138257
 20
83.610085
 11
-82.138257
 21
33.610085
  0
LINE
  8
型材断面
  6
CONTINUOUS
 10
-79.638257
 20
81.110085
 11
-79.638257
 21
36.110085
  0
LINE
  8
型材断面
  6
CONTINUOUS
 10
-82.5878
 20
84.059627
 11
-82.5878
 21
33.160542
  0
LINE
  8
型材断面
  6
CONTINUOUS
 10
-83.0578
 20
84.529628
 11
-83.0578
 21
32.690543
  0
LINE
  8
型材断面
  6
DASHDOT
 10
-34.638257
 20
-87.120773
 11
-34.638257
 21
36.110085
  0
LINE
  8
型材断面
  6
CONTINUOUS
 10
-34.638257
 20
81.110085
 11
-34.638257
 21
36.110085
  0
LINE
  8
型材断面
  6
DOT
 10
-38.740503
 20
81.110085
 11
-38.740503
 21
36.110085
  0
LINE
  8
型材断面
  6
DOT
 10
-36.740503
 20
81.110085
 11
-36.740503
 21
36.110085
  0
LINE
  8
型材断面
  6
CONTINUOUS
 10
-57.138257
 20
89.13396
 11
-59.381703
 21
93.01972
  0
LINE
  8
型材断面
  6
CONTINUOUS
 10
-57.138257
 20
89.13396
 11
-54.894812
 21
93.01972
  0
LINE
  8
型材断面
  6
CONTINUOUS
 10
-54.894812
 20
93.01972
 11
-59.381703
 21
93.01972
  0
LINE
  8
型材断面
  6
CONTINUOUS
 10
-57.138257
 20
28.08621
 11
-59.381703
 21
24.20045
  0
LINE
  8
型材断面
  6
CONTINUOUS
 10
-57.138257
 20
28.08621
 11
-54.894812
 21
24.20045
  0
LINE
  8
型材断面
  6
CONTINUOUS
 10
-54.894812
 20
24.20045
 11
-59.381703
 21
24.20045
  0
LINE
  8
型材断面
  6
CONTINUOUS
 10
-26.614383
 20
58.610085
 11
-22.728622
 21
60.85353
  0
LINE
  8
型材断面
  6
CONTINUOUS
 10
-26.614383
 20
58.610085
 11
-22.728622
 21
56.36664
  0
LINE
  8
型材断面
  6
CONTINUOUS
 10
-22.728622
 20
56.36664
 11
-22.728622
 21
60.85353
  0
LINE
  8
型材断面
  6
CONTINUOUS
 10
-87.662133
 20
58.610085
 11
-91.547893
 21
60.85353
  0
LINE
  8
型材断面
  6
CONTINUOUS
 10
-87.662133
 20
58.610085
 11
-91.547893
 21
56.36664
  0
LINE
  8
型材断面
  6
CONTINUOUS
 10
-91.547893
 20
56.36664
 11
-91.547893
 21
60.85353
  0
LINE
  8
型材断面
  6
CONTINUOUS
 10
5.455065
 20
29.646272
 11
3.21162
 21
25.760513
  0
LINE
  8
型材断面
  6
CONTINUOUS
 10
5.455065
 20
29.646272
 11
7.69851
 21
25.760513
  0
LINE
  8
型材断面
  6
CONTINUOUS
 10
7.69851
 20
25.760513
 11
3.21162
 21
25.760513
  0
LINE
  8
型材断面
  6
CONTINUOUS
 10
5.455065
 20
21.956725
 11
6.34915
 21
18.070965
  0
LINE
  8
型材断面
  6
CONTINUOUS
 10
5.455065
 20
21.956725
 11
4.56098
 21
18.070965
  0
LINE
  8
型材断面
  6
CONTINUOUS
 10
4.56098
 20
18.070965
 11
6.34915
 21
18.070965
  0
LINE
  8
型材断面
  6
CONTINUOUS
 10
-3.578815
 20
24.35262
 11
49.077865
 21
24.35262
  0
LINE
  8
型材断面
  6
CONTINUOUS
 10
-3.578815
 20
13.152628
 11
49.077865
 21
13.152628
  0
LINE
  8
型材断面
  6
CONTINUOUS
 10
-3.578815
 20
6.312682
 11
49.077865
 21
6.312682
  0
LINE
  8
型材断面
  6
CONTINUOUS
 10
-26.61438
 20
75.260085
 11
-22.72862
 21
74.366
  0
LINE
  8
型材断面
  6
CONTINUOUS
 10
-26.61438
 20
75.260085
 11
-22.72862
 21
76.15417
  0
LINE
  8
型材断面
  6
CONTINUOUS
 10
-22.72862
 20
76.15417
 11
-22.72862
 21
74.366
  0
LINE
  8
型材断面
  6
CONTINUOUS
 10
-26.61438
 20
41.960085
 11
-22.72862
 21
42.85417
  0
LINE
  8
型材断面
  6
CONTINUOUS
 10
-26.61438
 20
41.960085
 11
-22.72862
 21
41.066
  0
LINE
  8
型材断面
  6
CONTINUOUS
 10
-22.72862
 20
41.066
 11
-22.72862
 21
42.85417
  0
LINE
  8
型材断面
  6
CONTINUOUS
 10
-87.662135
 20
75.260085
 11
-91.547895
 21
74.366
  0
LINE
  8
型材断面
  6
CONTINUOUS
 10
-87.662135
 20
75.260085
 11
-91.547895
 21
76.15417
  0
LINE
  8
型材断面
  6
CONTINUOUS
 10
-91.547895
 20
76.15417
 11
-91.547895
 21
74.366
  0
LINE
  8
型材断面
  6
CONTINUOUS
 10
-87.662135
 20
41.960085
 11
-91.547895
 21
42.85417
  0
LINE
  8
型材断面
  6
CONTINUOUS
 10
-87.662135
 20
41.960085
 11
-91.547895
 21
41.066
  0
LINE
  8
型材断面
  6
CONTINUOUS
 10
-91.547895
 20
41.066
 11
-91.547895
 21
42.85417
  0
POLYLINE
  8
型材断面
  6
CONTINUOUS
 66
     1
 70
     1
  0
VERTEX
  8
型材断面
 10
-47.69087
 20
22.900745
  0
VERTEX
  8
型材断面
 10
-66.246083
 20
22.900745
  0
VERTEX
  8
型材断面
 10
-66.246083
 20
18.10871
  0
VERTEX
  8
型材断面
 10
-47.69087
 20
18.10871
  0
SEQEND
  0
POLYLINE
  8
型材断面
  6
CONTINUOUS
 66
     1
 70
     1
  0
VERTEX
  8
型材断面
 10
-47.69087
 20
98.689582
  0
VERTEX
  8
型材断面
 10
-66.246083
 20
98.689582
  0
VERTEX
  8
型材断面
 10
-66.246083
 20
93.897547
  0
VERTEX
  8
型材断面
 10
-47.69087
 20
93.897547
  0
SEQEND
  0
LINE
  8
型材断面
  6
CONTINUOUS
 10
-3.578815
 20
-0.527262
 11
49.077865
 21
-0.527262
  0
LINE
  8
型材断面
  6
CONTINUOUS
 10
122.76657
 20
-73.14662
 11
122.69157
 21
-73.14662
  0
LINE
  8
型材断面
  6
CONTINUOUS
 10
120.26657
 20
-72.39662
 11
120.26657
 21
-71.29662
  0
LINE
  8
型材断面
  6
CONTINUOUS
 62
    47
 10
122.366113
 20
-83.24637
 11
122.291113
 21
-83.24637
  0
LINE
  8
型材断面
  6
CONTINUOUS
 62
    47
 10
122.366113
 20
-83.24637
 11
122.366113
 21
-82.49637
  0
LINE
  8
型材断面
  6
CONTINUOUS
 10
120.341113
 20
-73.87137
 11
122.511112
 21
-73.87137
  0
LINE
  8
型材断面
  6
CONTINUOUS
 10
122.511112
 20
-74.54637
 11
122.511112
 21
-73.87137
  0
LINE
  8
型材断面
  6
CONTINUOUS
 62
    47
 10
123.611112
 20
-78.555408
 11
123.686112
 21
-78.555408
  0
LINE
  8
型材断面
  6
CONTINUOUS
 62
    47
 10
123.686112
 20
-78.555408
 11
123.686112
 21
-78.055408
  0
LINE
  8
型材断面
  6
CONTINUOUS
 62
    47
 10
123.686112
 20
-78.055408
 11
122.511112
 21
-77.905407
  0
LINE
  8
型材断面
  6
CONTINUOUS
 62
    47
 10
122.511112
 20
-77.29637
 11
122.511112
 21
-77.905407
  0
LINE
  8
型材断面
  6
CONTINUOUS
 62
    47
 10
123.216113
 20
-77.29637
 11
123.216113
 21
-74.54637
  0
LINE
  8
型材断面
  6
CONTINUOUS
 10
122.76657
 20
-73.14662
 11
122.76657
 21
-72.39662
  0
LINE
  8
型材断面
  6
CONTINUOUS
 10
120.341113
 20
-73.87137
 11
120.341113
 21
-73.14662
  0
LINE
  8
型材断面
  6
CONTINUOUS
 62
    47
 10
123.216113
 20
-82.49637
 11
123.216113
 21
-78.555408
  0
INSERT
  2
*GRP_0039
  8
型材断面
  6
DOT
 10
0.0
 20
0.0
  0
INSERT
  2
*GRP_0040
  8
型材断面
  6
DOT
 10
0.0
 20
0.0
  0
LINE
  8
型材断面
  6
CONTINUOUS
 10
123.216113
 20
-82.49637
 11
97.76657
 21
-82.49637
  0
LINE
  8
型材断面
  6
CONTINUOUS
 10
122.366113
 20
-83.24637
 11
97.76657
 21
-83.24637
  0
LINE
  8
型材断面
  6
CONTINUOUS
 10
123.686112
 20
-78.555408
 11
97.76657
 21
-78.555408
  0
LINE
  8
型材断面
  6
CONTINUOUS
 10
123.686112
 20
-78.055408
 11
97.76657
 21
-78.055408
  0
LINE
  8
型材断面
  6
CONTINUOUS
 10
122.511112
 20
-77.905407
 11
97.76657
 21
-77.905407
  0
LINE
  8
型材断面
  6
CONTINUOUS
 10
123.216113
 20
-77.29637
 11
97.76657
 21
-77.29637
  0
LINE
  8
型材断面
  6
CONTINUOUS
 10
122.76657
 20
-73.14662
 11
97.76657
 21
-73.14662
  0
LINE
  8
型材断面
  6
CONTINUOUS
 10
120.26657
 20
-71.29662
 11
97.76657
 21
-71.29662
  0
LINE
  8
型材断面
  6
CONTINUOUS
 10
122.76657
 20
-72.39662
 11
97.76657
 21
-72.39662
  0
LINE
  8
型材断面
  6
CONTINUOUS
 10
122.511112
 20
-73.87137
 11
97.76657
 21
-73.87137
  0
LINE
  8
型材断面
  6
CONTINUOUS
 10
123.216113
 20
-74.54637
 11
97.76657
 21
-74.54637
  0
LINE
  8
型材断面
  6
CONTINUOUS
 10
72.76657
 20
-73.14662
 11
72.84157
 21
-73.14662
  0
LINE
  8
型材断面
  6
CONTINUOUS
 10
75.26657
 20
-72.39662
 11
75.26657
 21
-71.29662
  0
LINE
  8
型材断面
  6
CONTINUOUS
 62
    47
 10
73.167028
 20
-83.24637
 11
73.242028
 21
-83.24637
  0
LINE
  8
型材断面
  6
CONTINUOUS
 62
    47
 10
73.167028
 20
-83.24637
 11
73.167028
 21
-82.49637
  0
LINE
  8
型材断面
  6
CONTINUOUS
 10
75.192028
 20
-73.87137
 11
73.022027
 21
-73.87137
  0
LINE
  8
型材断面
  6
CONTINUOUS
 10
73.022027
 20
-74.54637
 11
73.022027
 21
-73.87137
  0
LINE
  8
型材断面
  6
CONTINUOUS
 62
    47
 10
71.922027
 20
-78.555408
 11
71.847027
 21
-78.555408
  0
LINE
  8
型材断面
  6
CONTINUOUS
 62
    47
 10
71.847027
 20
-78.555408
 11
71.847027
 21
-78.055408
  0
LINE
  8
型材断面
  6
CONTINUOUS
 62
    47
 10
71.847027
 20
-78.055408
 11
73.022027
 21
-77.905407
  0
LINE
  8
型材断面
  6
CONTINUOUS
 62
    47
 10
73.022027
 20
-77.29637
 11
73.022027
 21
-77.905407
  0
LINE
  8
型材断面
  6
CONTINUOUS
 62
    47
 10
72.317028
 20
-77.29637
 11
72.317028
 21
-74.54637
  0
LINE
  8
型材断面
  6
CONTINUOUS
 10
72.76657
 20
-73.14662
 11
72.76657
 21
-72.39662
  0
LINE
  8
型材断面
  6
CONTINUOUS
 10
75.192028
 20
-73.87137
 11
75.192028
 21
-73.14662
  0
LINE
  8
型材断面
  6
CONTINUOUS
 62
    47
 10
72.317028
 20
-82.49637
 11
72.317028
 21
-78.555408
  0
INSERT
  2
*GRP_0041
  8
型材断面
  6
DOT
 10
0.0
 20
0.0
  0
INSERT
  2
*GRP_0042
  8
型材断面
  6
DOT
 10
0.0
 20
0.0
  0
LINE
  8
型材断面
  6
CONTINUOUS
 10
72.317028
 20
-82.49637
 11
97.76657
 21
-82.49637
  0
LINE
  8
型材断面
  6
CONTINUOUS
 10
73.167028
 20
-83.24637
 11
97.76657
 21
-83.24637
  0
LINE
  8
型材断面
  6
CONTINUOUS
 10
71.847027
 20
-78.555408
 11
97.76657
 21
-78.555408
  0
LINE
  8
型材断面
  6
CONTINUOUS
 10
71.847027
 20
-78.055408
 11
97.76657
 21
-78.055408
  0
LINE
  8
型材断面
  6
CONTINUOUS
 10
73.022027
 20
-77.905407
 11
97.76657
 21
-77.905407
  0
LINE
  8
型材断面
  6
CONTINUOUS
 10
72.317028
 20
-77.29637
 11
97.76657
 21
-77.29637
  0
LINE
  8
型材断面
  6
CONTINUOUS
 10
72.76657
 20
-73.14662
 11
97.76657
 21
-73.14662
  0
LINE
  8
型材断面
  6
CONTINUOUS
 10
75.26657
 20
-71.29662
 11
97.76657
 21
-71.29662
  0
LINE
  8
型材断面
  6
CONTINUOUS
 10
72.76657
 20
-72.39662
 11
97.76657
 21
-72.39662
  0
LINE
  8
型材断面
  6
CONTINUOUS
 10
73.022027
 20
-73.87137
 11
97.76657
 21
-73.87137
  0
LINE
  8
型材断面
  6
CONTINUOUS
 10
72.317028
 20
-74.54637
 11
97.76657
 21
-74.54637
  0
INSERT
  2
*GRP_0043
  8
型材断面
  6
DOT
 10
0.0
 20
0.0
  0
INSERT
  2
*GRP_0048
  8
型材断面
  6
CONTINUOUS
 10
0.0
 20
0.0
  0
INSERT
  2
*GRP_0049
  8
型材断面
  6
CONTINUOUS
 10
0.0
 20
0.0
  0
LINE
  8
ガラス
  6
CONTINUOUS
 10
-55.121562
 20
60.575015
 11
-59.06801
 21
56.62857
  0
LINE
  8
ガラス
  6
CONTINUOUS
 10
-56.105822
 20
57.612827
 11
-58.083748
 21
59.590762
  0
LINE
  8
ガラス
  6
CONTINUOUS
 10
-57.38539
 20
57.658505
 11
-55.860615
 21
59.18328
  0
LINE
  8
ガラス
  6
CONTINUOUS
 10
-56.804183
 20
59.545085
 11
-58.328953
 21
58.020313
  0
POLYLINE
  8
ガラス
  6
CONTINUOUS
 66
     1
 70
     1
  0
VERTEX
  8
ガラス
 10
142.941787
 20
76.127855
  0
VERTEX
  8
ガラス
 10
98.941787
 20
76.127855
  0
VERTEX
  8
ガラス
 10
98.941787
 20
32.127855
  0
VERTEX
  8
ガラス
 10
142.941787
 20
32.127855
  0
SEQEND
  0
CIRCLE
  8
ボルト／ビス
  6
CONTINUOUS
 10
-72.138257
 20
35.110085
 40
0.288675
  0
CIRCLE
  8
ボルト／ビス
  6
CONTINUOUS
 10
-72.138257
 20
35.110085
 40
0.455885
  0
CIRCLE
  8
ボルト／ビス
  6
CONTINUOUS
 10
-57.138257
 20
35.110085
 40
0.288675
  0
CIRCLE
  8
ボルト／ビス
  6
CONTINUOUS
 10
-57.138257
 20
35.110085
 40
0.455885
  0
CIRCLE
  8
ボルト／ビス
  6
CONTINUOUS
 10
-80.638257
 20
43.610085
 40
0.288675
  0
CIRCLE
  8
ボルト／ビス
  6
CONTINUOUS
 10
-80.638257
 20
43.610085
 40
0.455885
  0
CIRCLE
  8
ボルト／ビス
  6
CONTINUOUS
 10
-80.638257
 20
58.610085
 40
0.288675
  0
CIRCLE
  8
ボルト／ビス
  6
CONTINUOUS
 10
-80.638257
 20
58.610085
 40
0.455885
  0
CIRCLE
  8
ボルト／ビス
  6
CONTINUOUS
 10
-42.138257
 20
35.110085
 40
0.288675
  0
CIRCLE
  8
ボルト／ビス
  6
CONTINUOUS
 10
-42.138257
 20
35.110085
 40
0.455885
  0
CIRCLE
  8
ボルト／ビス
  6
CONTINUOUS
 10
-33.638257
 20
43.610085
 40
0.288675
  0
CIRCLE
  8
ボルト／ビス
  6
CONTINUOUS
 10
-33.638257
 20
43.610085
 40
0.455885
  0
CIRCLE
  8
ボルト／ビス
  6
CONTINUOUS
 10
-33.638257
 20
58.610085
 40
0.288675
  0
CIRCLE
  8
ボルト／ビス
  6
CONTINUOUS
 10
-33.638257
 20
58.610085
 40
0.455885
  0
CIRCLE
  8
ボルト／ビス
  6
CONTINUOUS
 10
-72.138257
 20
82.110085
 40
0.288675
  0
CIRCLE
  8
ボルト／ビス
  6
CONTINUOUS
 10
-72.138257
 20
82.110085
 40
0.455885
  0
CIRCLE
  8
ボルト／ビス
  6
CONTINUOUS
 10
-57.138257
 20
82.110085
 40
0.288675
  0
CIRCLE
  8
ボルト／ビス
  6
CONTINUOUS
 10
-57.138257
 20
82.110085
 40
0.455885
  0
CIRCLE
  8
ボルト／ビス
  6
CONTINUOUS
 10
-80.638257
 20
73.610085
 40
0.288675
  0
CIRCLE
  8
ボルト／ビス
  6
CONTINUOUS
 10
-80.638257
 20
73.610085
 40
0.455885
  0
CIRCLE
  8
ボルト／ビス
  6
CONTINUOUS
 10
-42.138257
 20
82.110085
 40
0.288675
  0
CIRCLE
  8
ボルト／ビス
  6
CONTINUOUS
 10
-42.138257
 20
82.110085
 40
0.455885
  0
CIRCLE
  8
ボルト／ビス
  6
CONTINUOUS
 10
-33.638257
 20
73.610085
 40
0.288675
  0
CIRCLE
  8
ボルト／ビス
  6
CONTINUOUS
 10
-33.638257
 20
73.610085
 40
0.455885
  0
TEXT
  7
TextStyle03
  8
文字
  6
CONTINUOUS
 10
73.075
 20
125.25
  1
シリーズ：ＳＴＦＦ
 40
5.0
 72
     5
 11
123.075
 21
125.25
  0
TEXT
  7
TextStyle03
  8
文字
  6
CONTINUOUS
 10
73.075
 20
119.625
  1
　　　　　（上下可動）900×900タイプ
 40
5.0
 72
     5
 11
173.7
 21
119.625
  0
TEXT
  7
TextStyle03
  8
文字
  6
CONTINUOUS
 10
73.075
 20
114.0
  1
図面名　：外観姿図
 40
5.0
 72
     5
 11
123.075
 21
114.0
  0
TEXT
  7
TextStyle03
  8
文字
  6
CONTINUOUS
 10
73.075
 20
108.375
  1
　　　　　　
 40
5.0
 72
     5
 11
106.2
 21
108.375
  0
TEXT
  7
TextStyle03
  8
文字
  6
CONTINUOUS
 10
-74.125
 20
-100.575
  1
※トップライト枠高さ寸法
 40
3.0
 72
     5
 11
-34.0
 21
-100.575
  0
TEXT
  7
TextStyle03
  8
文字
  6
CONTINUOUS
 10
-74.125
 20
-103.95
  1
　シングルガラス：214
 40
3.0
 72
     5
 11
-38.875
 21
-103.95
  0
TEXT
  7
TextStyle03
  8
文字
  6
CONTINUOUS
 10
-74.125
 20
-107.325
  1
　ペアガラス：224
 40
3.0
 72
     5
 11
-45.625
 21
-107.325
  0
INSERT
  2
*GRP_0009
  8
文字
  6
CONTINUOUS
 10
0.0
 20
0.0
  0
INSERT
  2
*GRP_0010
  8
文字
  6
CONTINUOUS
 10
0.0
 20
0.0
  0
INSERT
  2
*GRP_0011
  8
文字
  6
CONTINUOUS
 10
0.0
 20
0.0
  0
INSERT
  2
*GRP_0012
  8
文字
  6
CONTINUOUS
 10
0.0
 20
0.0
  0
INSERT
  2
*GRP_0013
  8
文字
  6
CONTINUOUS
 10
0.0
 20
0.0
  0
INSERT
  2
*GRP_0014
  8
文字
  6
CONTINUOUS
 10
0.0
 20
0.0
  0
INSERT
  2
*GRP_0015
  8
文字
  6
CONTINUOUS
 10
0.0
 20
0.0
  0
INSERT
  2
*GRP_0016
  8
文字
  6
CONTINUOUS
 10
0.0
 20
0.0
  0
INSERT
  2
*GRP_0017
  8
文字
  6
CONTINUOUS
 10
0.0
 20
0.0
  0
INSERT
  2
*GRP_0018
  8
文字
  6
CONTINUOUS
 10
0.0
 20
0.0
  0
INSERT
  2
*GRP_0019
  8
文字
  6
CONTINUOUS
 10
0.0
 20
0.0
  0
INSERT
  2
*GRP_0020
  8
文字
  6
CONTINUOUS
 10
0.0
 20
0.0
  0
TEXT
  7
TextStyle03
  8
文字
  6
CONTINUOUS
 10
-9.5
 20
43.45
  1
ﾊﾞﾗﾝｽｽﾃｰ
 40
3.0
 72
     5
 11
3.8125
 21
43.45
  0
TEXT
  7
TextStyle03
  8
文字
  6
CONTINUOUS
 10
-86.075
 20
104.275
  1
アンカーピッチ
 40
3.0
 72
     5
 11
-62.825
 21
104.275
  0
TEXT
  7
TextStyle03
  8
文字
  6
CONTINUOUS
 10
-109.725
 20
26.175
  1
アンカーピッチ
 40
3.0
 50
90.0
 72
     5
 11
-109.725
 21
49.425
  0
TEXT
  7
TextStyle03
  8
文字
  6
CONTINUOUS
 10
9.7
 20
26.05
  1
は排水穴位置を示す
 40
3.0
 72
     5
 11
39.7
 21
26.05
  0
TEXT
  7
TextStyle03
  8
文字
  6
CONTINUOUS
 10
9.7
 20
18.2
  1
はケーシング位置を示す
 40
3.0
 72
     5
 11
46.45
 21
18.2
  0
TEXT
  7
TextStyle03
  8
文字
  6
CONTINUOUS
 10
9.7
 20
14.825
  1
４ヶ所中1ヶ所に設定
 40
3.0
 72
     5
 11
41.3875
 21
14.825
  0
TEXT
  7
TextStyle03
  8
文字
  6
CONTINUOUS
 10
4.1
 20
7.675
  1
アンカー数量　６ヶ所
 40
3.0
 72
     5
 11
37.475
 21
7.675
  0
TEXT
  7
TextStyle03
  8
文字
  6
CONTINUOUS
 10
-65.3
 20
19.075
  1
可動装置側
 40
3.0
 72
     5
 11
-48.8
 21
19.075
  0
TEXT
  7
TextStyle03
  8
文字
  6
CONTINUOUS
 10
-65.3
 20
94.85
  1
可動装置側
 40
3.0
 72
     5
 11
-48.8
 21
94.85
  0
TEXT
  7
TextStyle03
  8
文字
  6
CONTINUOUS
 10
4.05
 20
0.85
  1
アームユニット数　２ヶ所
 40
3.0
 72
     5
 11
44.175
 21
0.85
  0
TEXT
  7
TextStyle03
  8
文字
  6
CONTINUOUS
 10
129.275
 20
35.275
  1
×１枚
 40
3.0
 72
     5
 11
139.025
 21
35.275
  0
TEXT
  7
TextStyle03
  8
文字
  6
CONTINUOUS
 10
97.4
 20
94.675
  1
ガラス寸法
 40
3.0
 72
     5
 11
113.9
 21
94.675
  0
LINE
  8
文字
  6
CONTINUOUS
 10
95.66518
 20
93.925577
 11
115.589582
 21
93.925577
  0
INSERT
  2
*DIM_0004
  8
寸法
  6
CONTINUOUS
 10
0.0
 20
0.0
  0
INSERT
  2
*DIM_0007
  8
寸法
  6
CONTINUOUS
 10
0.0
 20
0.0
  0
INSERT
  2
*DIM_0008
  8
寸法
  6
CONTINUOUS
 10
0.0
 20
0.0
  0
INSERT
  2
*GRP_0021
  8
寸法
  6
CONTINUOUS
 10
0.0
 20
0.0
  0
INSERT
  2
*DIM_0022
  8
寸法
  6
CONTINUOUS
 10
0.0
 20
0.0
  0
INSERT
  2
*DIM_0023
  8
寸法
  6
CONTINUOUS
 10
0.0
 20
0.0
  0
INSERT
  2
*DIM_0024
  8
寸法
  6
CONTINUOUS
 10
0.0
 20
0.0
  0
INSERT
  2
*DIM_0037
  8
寸法
  6
CONTINUOUS
 10
0.0
 20
0.0
  0
INSERT
  2
*DIM_0038
  8
寸法
  6
CONTINUOUS
 10
0.0
 20
0.0
  0
INSERT
  2
*DIM_0050
  8
寸法
  6
CONTINUOUS
 10
0.0
 20
0.0
  0
INSERT
  2
*DIM_0051
  8
寸法
  6
CONTINUOUS
 10
0.0
 20
0.0
  0
INSERT
  2
*DIM_0052
  8
寸法
  6
CONTINUOUS
 10
0.0
 20
0.0
  0
INSERT
  2
*DIM_0053
  8
寸法
  6
CONTINUOUS
 10
0.0
 20
0.0
  0
ENDSEC
  0
EOF
