  0
SECTION
  2
HEADER
  9
$EXTMIN
 10
-210.0
 20
-148.5
  9
$EXTMAX
 10
210.0
 20
148.5
  9
$PDMODE
 70
    32
  9
$PDSIZE
 40
1.5
  9
$LTSCALE
 40
10.0
  0
ENDSEC
  0
SECTION
  2
TABLES
  0
TABLE
  2
LTYPE
 70
    15
  0
LTYPE
  2
CONTINUOUS
 70
    64
  3
実線
 72
    65
 73
     0
 40
0.0
  0
LTYPE
  2
DASHED
 70
    64
  3
破線A
 72
    65
 73
     2
 40
0.6
 49
0.4
 49
-0.2
  0
LTYPE
  2
DASHEDX2
 70
    64
  3
破線B
 72
    65
 73
     2
 40
1.3
 49
0.9
 49
-0.4
  0
LTYPE
  2
DASHDOT
 70
    64
  3
１点鎖線A
 72
    65
 73
     4
 40
0.5375
 49
0.375
 49
-0.05
 49
0.0625
 49
-0.05
  0
LTYPE
  2
DASHDOTX2
 70
    64
  3
１点鎖線B
 72
    65
 73
     4
 40
1.075
 49
0.75
 49
-0.1
 49
0.125
 49
-0.1
  0
LTYPE
  2
DIVIDE2
 70
    64
  3
２点鎖線A
 72
    65
 73
     6
 40
0.5125
 49
0.3
 49
-0.0375
 49
0.05
 49
-0.0375
 49
0.05
 49
-0.0375
  0
LTYPE
  2
DIVIDE
 70
    64
  3
２点鎖線B
 72
    65
 73
     6
 40
1.05
 49
0.55
 49
-0.1
 49
0.1
 49
-0.1
 49
0.1
 49
-0.1
  0
LTYPE
  2
DOT
 70
    64
  3
点線A
 72
    65
 73
     2
 40
0.1125
 49
0.0625
 49
-0.05
  0
LTYPE
  2
DOTX2
 70
    64
  3
点線B
 72
    65
 73
     2
 40
0.275
 49
0.15
 49
-0.125
  0
LTYPE
  2
CONTINUOUS
 70
    64
  3
実線
 72
    65
 73
     0
 40
0.0
  0
LTYPE
  2
CONTINUOUS
 70
    64
  3
実線
 72
    65
 73
     0
 40
0.0
  0
LTYPE
  2
CONTINUOUS
 70
    64
  3
実線
 72
    65
 73
     0
 40
0.0
  0
LTYPE
  2
CONTINUOUS
 70
    64
  3
実線
 72
    65
 73
     0
 40
0.0
  0
LTYPE
  2
CONTINUOUS
 70
    64
  3
実線
 72
    65
 73
     0
 40
0.0
  0
LTYPE
  2
CONTINUOUS
 70
    64
  3
実線
 72
    65
 73
     0
 40
0.0
  0
ENDTAB
  0
TABLE
  2
LAYER
 70
    34
  0
LAYER
  2
通り芯
 70
     0
 62
    15
  6
CONTINUOUS
  0
LAYER
  2
補助線
 70
     0
 62
    16
  6
DOT
  0
LAYER
  2
躯体
 70
     0
 62
    31
  6
CONTINUOUS
  0
LAYER
  2
型材
 70
     0
 62
    32
  6
CONTINUOUS
  0
LAYER
  2
型材断面
 70
     0
 62
    47
  6
CONTINUOUS
  0
LAYER
  2
ガラス
 70
     0
 62
    48
  6
CONTINUOUS
  0
LAYER
  2
ゴム等
 70
     0
 62
    63
  6
CONTINUOUS
  0
LAYER
  2
ボルト／ビス
 70
     0
 62
    64
  6
CONTINUOUS
  0
LAYER
  2
文字
 70
     0
 62
    79
  6
CONTINUOUS
  0
LAYER
  2
寸法
 70
     0
 62
    80
  6
CONTINUOUS
  0
LAYER
  2
ﾊｯﾁﾝｸﾞ
 70
     0
 62
    95
  6
CONTINUOUS
  0
LAYER
  2
別途部材
 70
     0
 62
    96
  6
CONTINUOUS
  0
LAYER
  2
曲げ物
 70
     0
 62
   111
  6
CONTINUOUS
  0
LAYER
  2
鉄骨等
 70
     0
 62
   112
  6
CONTINUOUS
  0
LAYER
  2
St
 70
     0
 62
   127
  6
CONTINUOUS
  0
LAYER
  2
その他部品等
 70
     0
 62
   128
  6
CONTINUOUS
  0
LAYER
  2
ｶﾞｽｹｯﾄ
 70
     0
 62
   143
  6
CONTINUOUS
  0
LAYER
  2
ｽｹｯﾁ
 70
     0
 62
    14
  6
CONTINUOUS
  0
LAYER
  2
0
 70
     0
 62
    17
  6
CONTINUOUS
  0
LAYER
  2
1
 70
     0
 62
    30
  6
CONTINUOUS
  0
LAYER
  2
4
 70
     0
 62
    33
  6
CONTINUOUS
  0
LAYER
  2
ﾚｲﾔ3
 70
     0
 62
    46
  6
CONTINUOUS
  0
LAYER
  2
外形線
 70
     0
 62
    49
  6
CONTINUOUS
  0
LAYER
  2
部品
 70
     0
 62
    14
  6
CONTINUOUS
  0
LAYER
  2
サッシ芯
 70
     0
 62
    17
  6
DASHDOTX2
  0
LAYER
  2
寸法線
 70
     0
 62
    62
  6
CONTINUOUS
  0
LAYER
  2
姿図外形線
 70
     0
 62
    65
  6
CONTINUOUS
  0
LAYER
  2
姿補助線
 70
     0
 62
    30
  6
CONTINUOUS
  0
LAYER
  2
透視線
 70
     0
 62
    78
  6
DOT
  0
LAYER
  2
用紙
 70
     0
 62
    81
  6
CONTINUOUS
  0
LAYER
  2
実線図枠
 70
     0
 62
    94
  6
CONTINUOUS
  0
LAYER
  2
補助図枠
 70
     0
 62
    97
  6
CONTINUOUS
  0
LAYER
  2
建具記号
 70
     0
 62
   110
  6
CONTINUOUS
  0
LAYER
  2
補助文字
 70
     0
 62
   113
  6
CONTINUOUS
  0
ENDTAB
  0
TABLE
  2
STYLE
 70
    10
  0
STYLE
  2
STANDARD
 70
     0
 40
1.0
 41
1.0
 42
1.0
 50
0.0
 71
     0
  3
TXT
  4
BIGFONT
  0
STYLE
  2
TATE
 70
     4
 40
1.0
 41
1.0
 42
1.0
 50
0.0
 71
     0
  3
TXT
  4
BIGFONT
  0
STYLE
  2
TextStyle03
 70
     0
 40
1.0
 41
1.0
 42
1.0
 50
0.0
 71
     0
  3
MONOTXT
  4
BIGFONT
  0
STYLE
  2
TextStyle04
 70
     0
 40
1.0
 41
1.0
 42
1.0
 50
0.0
 71
     0
  3
MONOTXT
  4
BIGFONT
  0
STYLE
  2
TextStyle05
 70
     0
 40
1.0
 41
1.0
 42
1.0
 50
0.0
 71
     0
  3
MONOTXT
  4
BIGFONT
  0
STYLE
  2
TextStyle06
 70
     0
 40
1.0
 41
1.0
 42
1.0
 50
0.0
 71
     0
  3
MONOTXT
  4
BIGFONT
  0
STYLE
  2
TextStyle07
 70
     0
 40
1.0
 41
1.0
 42
1.0
 50
0.0
 71
     0
  3
MONOTXT
  4
BIGFONT
  0
STYLE
  2
TextStyle08
 70
     0
 40
1.0
 41
1.0
 42
1.0
 50
0.0
 71
     0
  3
MONOTXT
  4
BIGFONT
  0
STYLE
  2
TextStyle09
 70
     0
 40
1.0
 41
1.0
 42
1.0
 50
0.0
 71
     0
  3
MONOTXT
  4
BIGFONT
  0
STYLE
  2
TextStyle10
 70
     0
 40
1.0
 41
1.0
 42
1.0
 50
0.0
 71
     0
  3
MONOTXT
  4
BIGFONT
  0
ENDTAB
  0
ENDSEC
  0
SECTION
  2
BLOCKS
  0
BLOCK
  2
*GRP_0001
 70
    65
 10
0.0
 20
0.0
  0
LINE
  8
型材断面
  6
CONTINUOUS
 10
195.0
 20
133.5
 11
195.0
 21
-133.5
  0
LINE
  8
型材断面
  6
CONTINUOUS
 10
195.0
 20
-133.5
 11
-185.0
 21
-133.5
  0
LINE
  8
型材断面
  6
CONTINUOUS
 10
-185.0
 20
-133.5
 11
-185.0
 21
133.5
  0
LINE
  8
型材断面
  6
CONTINUOUS
 10
195.0
 20
133.5
 11
-185.0
 21
133.5
  0
LINE
  8
型材断面
  6
CONTINUOUS
 10
145.0
 20
-133.5
 11
145.0
 21
-118.5
  0
LINE
  8
型材断面
  6
CONTINUOUS
 10
195.0
 20
-118.5
 11
145.0
 21
-118.5
  0
ENDBLK
  0
BLOCK
  2
*DIM_0002
 70
    65
 10
0.0
 20
0.0
  0
LINE
  8
寸法
  6
BYBLOCK
 62
     0
 10
-41.938977
 20
-75.304255
 11
-23.760088
 21
-75.304255
  0
LINE
  8
寸法
  6
BYBLOCK
 62
     0
 10
-40.613975
 20
-67.310877
 11
-23.760088
 21
-67.310877
  0
LINE
  8
寸法
  6
BYBLOCK
 62
     0
 10
-23.760088
 20
-75.304255
 11
-23.760088
 21
-67.310877
  0
POINT
  8
寸法
 62
     0
 10
-23.760088
 20
-75.304255
  0
POINT
  8
寸法
 62
     0
 10
-23.760088
 20
-67.310877
  0
TEXT
  7
TextStyle03
  8
寸法
  6
CONTINUOUS
 62
     0
 10
-20.75
 20
-75.475
  1
159.9
 40
3.0
 50
90.0
 72
     5
 11
-20.75
 21
-67.225
  0
ENDBLK
  0
BLOCK
  2
*DIM_0003
 70
    65
 10
0.0
 20
0.0
  0
LINE
  8
寸法
  6
BYBLOCK
 62
     0
 10
-72.638972
 20
-43.679912
 11
-72.638972
 21
-33.830735
  0
LINE
  8
寸法
  6
BYBLOCK
 62
     0
 10
-64.138975
 20
-43.679912
 11
-64.138975
 21
-33.830735
  0
LINE
  8
寸法
  6
BYBLOCK
 62
     0
 10
-72.638972
 20
-33.830735
 11
-64.138975
 21
-33.830735
  0
POINT
  8
寸法
 62
     0
 10
-72.638972
 20
-33.830735
  0
POINT
  8
寸法
 62
     0
 10
-64.138975
 20
-33.830735
  0
TEXT
  7
TextStyle03
  8
寸法
  6
CONTINUOUS
 62
     0
 10
-70.8125
 20
-33.5
  1
170
 40
3.0
 72
     5
 11
-65.9375
 21
-33.5
  0
ENDBLK
  0
BLOCK
  2
*DIM_0004
 70
    65
 10
0.0
 20
0.0
  0
LINE
  8
寸法
  6
BYBLOCK
 62
     0
 10
-57.350505
 20
-40.429912
 11
-58.294783
 21
-40.429912
  0
LINE
  8
寸法
  6
BYBLOCK
 62
     0
 10
-63.138975
 20
-44.679912
 11
-58.294783
 21
-44.679912
  0
LINE
  8
寸法
  6
BYBLOCK
 62
     0
 10
-58.294783
 20
-40.429912
 11
-58.294783
 21
-44.679912
  0
POINT
  8
寸法
 62
     0
 10
-58.294783
 20
-40.429912
  0
POINT
  8
寸法
 62
     0
 10
-58.294783
 20
-44.679912
  0
TEXT
  7
TextStyle03
  8
寸法
  6
CONTINUOUS
 62
     0
 10
-58.65
 20
-44.19375
  1
85
 40
3.0
 50
90.0
 72
     5
 11
-58.65
 21
-41.00625
  0
ENDBLK
  0
BLOCK
  2
*DIM_0005
 70
    65
 10
0.0
 20
0.0
  0
LINE
  8
寸法
  6
BYBLOCK
 62
     0
 10
-67.388975
 20
-40.429912
 11
-23.760088
 21
-40.429912
  0
LINE
  8
寸法
  6
BYBLOCK
 62
     0
 10
-23.760088
 20
-67.310877
 11
-23.760088
 21
-40.429912
  0
POINT
  8
寸法
 62
     0
 10
-23.760088
 20
-67.310877
  0
POINT
  8
寸法
 62
     0
 10
-23.760088
 20
-40.429912
  0
TEXT
  7
TextStyle03
  8
寸法
  6
CONTINUOUS
 62
     0
 10
-24.15
 20
-58.025
  1
537.6
 40
3.0
 50
90.0
 72
     5
 11
-24.15
 21
-49.775
  0
ENDBLK
  0
BLOCK
  2
*DIM_0006
 70
    65
 10
0.0
 20
0.0
  0
LINE
  8
寸法
  6
BYBLOCK
 62
     0
 10
-90.888975
 20
-25.265823
 11
-90.888975
 21
-25.76433
  0
LINE
  8
寸法
  6
BYBLOCK
 62
     0
 10
-45.888975
 20
-25.432985
 11
-45.888975
 21
-25.76433
  0
LINE
  8
寸法
  6
BYBLOCK
 62
     0
 10
-90.888975
 20
-25.76433
 11
-45.888975
 21
-25.76433
  0
POINT
  8
寸法
 62
     0
 10
-90.888975
 20
-25.76433
  0
POINT
  8
寸法
 62
     0
 10
-45.888975
 20
-25.76433
  0
TEXT
  7
TextStyle03
  8
寸法
  6
CONTINUOUS
 62
     0
 10
-79.275
 20
-25.425
  1
呼称寸法　900
 40
3.0
 72
     5
 11
-57.525
 21
-25.425
  0
ENDBLK
  0
BLOCK
  2
*DIM_0007
 70
    65
 10
0.0
 20
0.0
  0
LINE
  8
寸法
  6
BYBLOCK
 62
     0
 10
-41.613975
 20
-66.310877
 11
-41.613975
 21
-25.76433
  0
LINE
  8
寸法
  6
BYBLOCK
 62
     0
 10
-45.888975
 20
-25.76433
 11
-41.613975
 21
-25.76433
  0
POINT
  8
寸法
 62
     0
 10
-41.613975
 20
-25.76433
  0
TEXT
  7
TextStyle03
  8
寸法
  6
CONTINUOUS
 62
     0
 10
-40.30625
 20
-25.425
  1
85.5
 40
3.0
 72
     5
 11
-33.74375
 21
-25.425
  0
ENDBLK
  0
BLOCK
  2
*DIM_0008
 70
    65
 10
0.0
 20
0.0
  0
LINE
  8
寸法
  6
BYBLOCK
 62
     0
 10
-95.163975
 20
-66.310877
 11
-95.163975
 21
-25.76433
  0
LINE
  8
寸法
  6
BYBLOCK
 62
     0
 10
-90.888975
 20
-25.76433
 11
-95.163975
 21
-25.76433
  0
POINT
  8
寸法
 62
     0
 10
-90.888975
 20
-25.76433
  0
POINT
  8
寸法
 62
     0
 10
-95.163975
 20
-25.76433
  0
TEXT
  7
TextStyle03
  8
寸法
  6
CONTINUOUS
 62
     0
 10
-103.08125
 20
-25.425
  1
85.5
 40
3.0
 72
     5
 11
-96.51875
 21
-25.425
  0
ENDBLK
  0
BLOCK
  2
*GRP_0009
 70
    65
 10
0.0
 20
0.0
  0
POLYLINE
  8
寸法
  6
CONTINUOUS
 62
     0
 66
     1
  0
VERTEX
  8
寸法
 10
-47.99122
 20
23.801368
  0
VERTEX
  8
寸法
 10
-44.310025
 20
20.120173
  0
VERTEX
  8
寸法
 10
-21.467447
 20
20.120173
  0
SEQEND
  0
ENDBLK
  0
BLOCK
  2
*DIM_0010
 70
    65
 10
0.0
 20
0.0
  0
LINE
  8
寸法
  6
BYBLOCK
 62
     0
 10
-83.388975
 20
57.305075
 11
-83.388975
 21
75.24409
  0
LINE
  8
寸法
  6
BYBLOCK
 62
     0
 10
-53.388975
 20
57.305075
 11
-53.388975
 21
75.24409
  0
LINE
  8
寸法
  6
BYBLOCK
 62
     0
 10
-83.388975
 20
75.24409
 11
-53.388975
 21
75.24409
  0
POINT
  8
寸法
 62
     0
 10
-83.388975
 20
75.24409
  0
POINT
  8
寸法
 62
     0
 10
-53.388975
 20
75.24409
  0
TEXT
  7
TextStyle03
  8
寸法
  6
CONTINUOUS
 62
     0
 10
-70.8375
 20
75.625
  1
600
 40
3.0
 72
     5
 11
-65.9625
 21
75.625
  0
ENDBLK
  0
BLOCK
  2
*DIM_0011
 70
    65
 10
0.0
 20
0.0
  0
LINE
  8
寸法
  6
BYBLOCK
 62
     0
 10
-91.888975
 20
56.305075
 11
-114.797217
 21
56.305075
  0
LINE
  8
寸法
  6
BYBLOCK
 62
     0
 10
-91.888975
 20
33.805075
 11
-114.797217
 21
33.805075
  0
LINE
  8
寸法
  6
BYBLOCK
 62
     0
 10
-114.797217
 20
56.305075
 11
-114.797217
 21
33.805075
  0
POINT
  8
寸法
 62
     0
 10
-114.797217
 20
56.305075
  0
POINT
  8
寸法
 62
     0
 10
-114.797217
 20
33.805075
  0
TEXT
  7
TextStyle03
  8
寸法
  6
CONTINUOUS
 62
     0
 10
-115.175
 20
42.6125
  1
450
 40
3.0
 50
90.0
 72
     5
 11
-115.175
 21
47.4875
  0
ENDBLK
  0
BLOCK
  2
*DIM_0012
 70
    65
 10
0.0
 20
0.0
  0
LINE
  8
寸法
  6
BYBLOCK
 62
     0
 10
-91.888975
 20
11.305075
 11
-114.797217
 21
11.305075
  0
LINE
  8
寸法
  6
BYBLOCK
 62
     0
 10
-114.797217
 20
33.805075
 11
-114.797217
 21
11.305075
  0
POINT
  8
寸法
 62
     0
 10
-114.797217
 20
11.305075
  0
TEXT
  7
TextStyle03
  8
寸法
  6
CONTINUOUS
 62
     0
 10
-115.175
 20
20.1125
  1
450
 40
3.0
 50
90.0
 72
     5
 11
-115.175
 21
24.9875
  0
ENDBLK
  0
BLOCK
  2
*GRP_0013
 70
    65
 10
0.0
 20
0.0
  0
LINE
  8
補助線
  6
BYBLOCK
 62
    64
 10
83.331925
 20
-72.823135
 11
83.55531
 21
-72.935375
  0
LINE
  8
補助線
  6
BYBLOCK
 62
    64
 10
83.499738
 20
-72.767562
 11
83.387498
 21
-72.990948
  0
LINE
  8
補助線
  6
BYBLOCK
 62
    64
 10
68.677565
 20
-65.460415
 11
68.454172
 21
-65.348175
  0
LINE
  8
補助線
  6
BYBLOCK
 62
    64
 10
68.621985
 20
-65.292598
 11
68.50975
 21
-65.515988
  0
LINE
  8
補助線
  6
BYBLOCK
 62
    64
 10
53.799775
 20
-57.985525
 11
53.576385
 21
-57.873293
  0
LINE
  8
補助線
  6
BYBLOCK
 62
    64
 10
53.744197
 20
-57.817713
 11
53.631963
 21
-58.041103
  0
LINE
  8
型材断面
  6
CONTINUOUS
 10
84.45158
 20
-71.98678
 11
84.785038
 21
-72.993657
  0
LINE
  8
型材断面
  6
CONTINUOUS
 10
84.785038
 20
-72.993657
 11
84.336093
 21
-73.887218
  0
LINE
  8
型材断面
  6
CONTINUOUS
 10
84.336093
 20
-73.887218
 11
83.329215
 21
-74.220675
  0
LINE
  8
型材断面
  6
CONTINUOUS
 10
53.802475
 20
-56.587985
 11
52.795602
 21
-56.92145
  0
LINE
  8
型材断面
  6
CONTINUOUS
 10
52.795602
 20
-56.92145
 11
52.346655
 21
-57.815013
  0
LINE
  8
型材断面
  6
CONTINUOUS
 10
52.346655
 20
-57.815013
 11
52.680122
 21
-58.821887
  0
LINE
  8
型材断面
  6
CONTINUOUS
 10
84.45158
 20
-71.98678
 11
53.80259
 21
-56.587945
  0
LINE
  8
型材断面
  6
CONTINUOUS
 10
83.329215
 20
-74.220675
 11
52.680088
 21
-58.82178
  0
LINE
  8
ボルト／ビス
  6
CONTINUOUS
 62
    64
 10
83.650975
 20
-72.466537
 11
83.90472
 21
-72.852475
  0
LINE
  8
ボルト／ビス
  6
CONTINUOUS
 62
    64
 10
83.650975
 20
-72.466537
 11
83.189875
 21
-72.49332
  0
LINE
  8
ボルト／ビス
  6
CONTINUOUS
 62
    64
 10
83.23626
 20
-73.291972
 11
83.69736
 21
-73.26519
  0
LINE
  8
ボルト／ビス
  6
CONTINUOUS
 62
    64
 10
83.23626
 20
-73.291972
 11
82.982515
 21
-72.906035
  0
CIRCLE
  8
ボルト／ビス
  6
CONTINUOUS
 62
    64
 10
83.443618
 20
-72.879255
 40
0.4
  0
LINE
  8
ボルト／ビス
  6
CONTINUOUS
 62
    64
 10
83.189875
 20
-72.49332
 11
82.982515
 21
-72.906035
  0
LINE
  8
ボルト／ビス
  6
CONTINUOUS
 62
    64
 10
83.90472
 20
-72.852475
 11
83.69736
 21
-73.26519
  0
LINE
  8
ボルト／ビス
  6
CONTINUOUS
 62
    64
 10
68.773228
 20
-64.991578
 11
68.312123
 21
-65.018355
  0
LINE
  8
ボルト／ビス
  6
CONTINUOUS
 62
    64
 10
68.773228
 20
-64.991578
 11
69.026973
 21
-65.377513
  0
LINE
  8
ボルト／ビス
  6
CONTINUOUS
 62
    64
 10
68.358508
 20
-65.81701
 11
68.104765
 21
-65.431075
  0
LINE
  8
ボルト／ビス
  6
CONTINUOUS
 62
    64
 10
68.358508
 20
-65.81701
 11
68.81961
 21
-65.79023
  0
CIRCLE
  8
ボルト／ビス
  6
CONTINUOUS
 62
    64
 10
68.565865
 20
-65.404295
 40
0.4
  0
LINE
  8
ボルト／ビス
  6
CONTINUOUS
 62
    64
 10
69.026973
 20
-65.377513
 11
68.81961
 21
-65.79023
  0
LINE
  8
ボルト／ビス
  6
CONTINUOUS
 62
    64
 10
68.312123
 20
-65.018355
 11
68.104765
 21
-65.431075
  0
LINE
  8
ボルト／ビス
  6
CONTINUOUS
 62
    64
 10
53.895437
 20
-57.516687
 11
53.434332
 21
-57.54347
  0
LINE
  8
ボルト／ビス
  6
CONTINUOUS
 62
    64
 10
53.895437
 20
-57.516687
 11
54.14918
 21
-57.902625
  0
LINE
  8
ボルト／ビス
  6
CONTINUOUS
 62
    64
 10
53.48072
 20
-58.342125
 11
53.226978
 21
-57.956188
  0
LINE
  8
ボルト／ビス
  6
CONTINUOUS
 62
    64
 10
53.48072
 20
-58.342125
 11
53.941828
 21
-58.315343
  0
CIRCLE
  8
ボルト／ビス
  6
CONTINUOUS
 62
    64
 10
53.688083
 20
-57.929407
 40
0.4
  0
LINE
  8
ボルト／ビス
  6
CONTINUOUS
 62
    64
 10
54.14918
 20
-57.902625
 11
53.941828
 21
-58.315343
  0
LINE
  8
ボルト／ビス
  6
CONTINUOUS
 62
    64
 10
53.434332
 20
-57.54347
 11
53.226978
 21
-57.956188
  0
ENDBLK
  0
BLOCK
  2
*GRP_0014
 70
    65
 10
0.0
 20
0.0
  0
LINE
  8
補助線
  6
BYBLOCK
 62
    64
 10
53.79981
 20
-72.823135
 11
53.576425
 21
-72.935375
  0
LINE
  8
補助線
  6
BYBLOCK
 62
    64
 10
53.631998
 20
-72.767562
 11
53.744238
 21
-72.990948
  0
LINE
  8
補助線
  6
BYBLOCK
 62
    64
 10
68.45417
 20
-65.460415
 11
68.677563
 21
-65.348175
  0
LINE
  8
補助線
  6
BYBLOCK
 62
    64
 10
68.50975
 20
-65.292598
 11
68.621985
 21
-65.515988
  0
LINE
  8
補助線
  6
BYBLOCK
 62
    64
 10
83.33196
 20
-57.985525
 11
83.55535
 21
-57.873293
  0
LINE
  8
補助線
  6
BYBLOCK
 62
    64
 10
83.387537
 20
-57.817713
 11
83.499772
 21
-58.041103
  0
LINE
  8
型材断面
  6
CONTINUOUS
 10
52.680155
 20
-71.98678
 11
52.346697
 21
-72.993657
  0
LINE
  8
型材断面
  6
CONTINUOUS
 10
52.346697
 20
-72.993657
 11
52.795643
 21
-73.887218
  0
LINE
  8
型材断面
  6
CONTINUOUS
 10
52.795643
 20
-73.887218
 11
53.80252
 21
-74.220675
  0
LINE
  8
型材断面
  6
CONTINUOUS
 10
83.32926
 20
-56.587985
 11
84.336132
 21
-56.92145
  0
LINE
  8
型材断面
  6
CONTINUOUS
 10
84.336132
 20
-56.92145
 11
84.78508
 21
-57.815013
  0
LINE
  8
型材断面
  6
CONTINUOUS
 10
84.78508
 20
-57.815013
 11
84.451613
 21
-58.821887
  0
LINE
  8
型材断面
  6
CONTINUOUS
 10
52.680155
 20
-71.98678
 11
83.329145
 21
-56.587945
  0
LINE
  8
型材断面
  6
CONTINUOUS
 10
53.80252
 20
-74.220675
 11
84.451648
 21
-58.82178
  0
LINE
  8
ボルト／ビス
  6
CONTINUOUS
 62
    64
 10
53.48076
 20
-72.466537
 11
53.227015
 21
-72.852475
  0
LINE
  8
ボルト／ビス
  6
CONTINUOUS
 62
    64
 10
53.48076
 20
-72.466537
 11
53.94186
 21
-72.49332
  0
LINE
  8
ボルト／ビス
  6
CONTINUOUS
 62
    64
 10
53.895475
 20
-73.291972
 11
53.434375
 21
-73.26519
  0
LINE
  8
ボルト／ビス
  6
CONTINUOUS
 62
    64
 10
53.895475
 20
-73.291972
 11
54.14922
 21
-72.906035
  0
CIRCLE
  8
ボルト／ビス
  6
CONTINUOUS
 62
    64
 10
53.688118
 20
-72.879255
 40
0.4
  0
LINE
  8
ボルト／ビス
  6
CONTINUOUS
 62
    64
 10
53.94186
 20
-72.49332
 11
54.14922
 21
-72.906035
  0
LINE
  8
ボルト／ビス
  6
CONTINUOUS
 62
    64
 10
53.227015
 20
-72.852475
 11
53.434375
 21
-73.26519
  0
LINE
  8
ボルト／ビス
  6
CONTINUOUS
 62
    64
 10
68.358508
 20
-64.991578
 11
68.819613
 21
-65.018355
  0
LINE
  8
ボルト／ビス
  6
CONTINUOUS
 62
    64
 10
68.358508
 20
-64.991578
 11
68.104762
 21
-65.377513
  0
LINE
  8
ボルト／ビス
  6
CONTINUOUS
 62
    64
 10
68.773228
 20
-65.81701
 11
69.02697
 21
-65.431075
  0
LINE
  8
ボルト／ビス
  6
CONTINUOUS
 62
    64
 10
68.773228
 20
-65.81701
 11
68.312125
 21
-65.79023
  0
CIRCLE
  8
ボルト／ビス
  6
CONTINUOUS
 62
    64
 10
68.56587
 20
-65.404295
 40
0.4
  0
LINE
  8
ボルト／ビス
  6
CONTINUOUS
 62
    64
 10
68.104762
 20
-65.377513
 11
68.312125
 21
-65.79023
  0
LINE
  8
ボルト／ビス
  6
CONTINUOUS
 62
    64
 10
68.819613
 20
-65.018355
 11
69.02697
 21
-65.431075
  0
LINE
  8
ボルト／ビス
  6
CONTINUOUS
 62
    64
 10
83.236298
 20
-57.516687
 11
83.697402
 21
-57.54347
  0
LINE
  8
ボルト／ビス
  6
CONTINUOUS
 62
    64
 10
83.236298
 20
-57.516687
 11
82.982555
 21
-57.902625
  0
LINE
  8
ボルト／ビス
  6
CONTINUOUS
 62
    64
 10
83.651015
 20
-58.342125
 11
83.904758
 21
-57.956188
  0
LINE
  8
ボルト／ビス
  6
CONTINUOUS
 62
    64
 10
83.651015
 20
-58.342125
 11
83.189907
 21
-58.315343
  0
CIRCLE
  8
ボルト／ビス
  6
CONTINUOUS
 62
    64
 10
83.443652
 20
-57.929407
 40
0.4
  0
LINE
  8
ボルト／ビス
  6
CONTINUOUS
 62
    64
 10
82.982555
 20
-57.902625
 11
83.189907
 21
-58.315343
  0
LINE
  8
ボルト／ビス
  6
CONTINUOUS
 62
    64
 10
83.697402
 20
-57.54347
 11
83.904758
 21
-57.956188
  0
ENDBLK
  0
BLOCK
  2
*DIM_0015
 70
    65
 10
0.0
 20
0.0
  0
LINE
  8
寸法
  6
BYBLOCK
 62
     0
 10
-44.888975
 20
56.305075
 11
-24.339545
 21
56.305075
  0
LINE
  8
寸法
  6
BYBLOCK
 62
     0
 10
-36.865097
 20
50.455077
 11
-24.339545
 21
50.455077
  0
LINE
  8
寸法
  6
BYBLOCK
 62
     0
 10
-24.339545
 20
56.305075
 11
-24.339545
 21
50.455077
  0
POINT
  8
寸法
 62
     0
 10
-24.339545
 20
56.305075
  0
POINT
  8
寸法
 62
     0
 10
-24.339545
 20
50.455077
  0
TEXT
  7
TextStyle03
  8
寸法
  6
CONTINUOUS
 62
     0
 10
-24.725
 20
50.8875
  1
117
 40
3.0
 50
90.0
 72
     5
 11
-24.725
 21
55.7625
  0
ENDBLK
  0
BLOCK
  2
*DIM_0016
 70
    65
 10
0.0
 20
0.0
  0
LINE
  8
寸法
  6
BYBLOCK
 62
     0
 10
-44.888975
 20
11.305075
 11
-24.339545
 21
11.305075
  0
LINE
  8
寸法
  6
BYBLOCK
 62
     0
 10
-36.865097
 20
17.155072
 11
-24.339545
 21
17.155072
  0
LINE
  8
寸法
  6
BYBLOCK
 62
     0
 10
-24.339545
 20
11.305075
 11
-24.339545
 21
17.155072
  0
POINT
  8
寸法
 62
     0
 10
-24.339545
 20
11.305075
  0
POINT
  8
寸法
 62
     0
 10
-24.339545
 20
17.155072
  0
TEXT
  7
TextStyle03
  8
寸法
  6
CONTINUOUS
 62
     0
 10
-24.725
 20
11.7875
  1
117
 40
3.0
 50
90.0
 72
     5
 11
-24.725
 21
16.6625
  0
ENDBLK
  0
BLOCK
  2
*DIM_0017
 70
    65
 10
0.0
 20
0.0
  0
LINE
  8
寸法
  6
BYBLOCK
 62
     0
 10
133.710815
 20
-73.6379
 11
133.710815
 21
-79.777175
  0
LINE
  8
寸法
  6
BYBLOCK
 62
     0
 10
180.496395
 20
-73.6379
 11
180.496395
 21
-79.777175
  0
LINE
  8
寸法
  6
BYBLOCK
 62
     0
 10
133.710815
 20
-79.777175
 11
180.496395
 21
-79.777175
  0
POINT
  8
寸法
 62
     0
 10
133.710815
 20
-79.777175
  0
POINT
  8
寸法
 62
     0
 10
180.496395
 20
-79.777175
  0
TEXT
  7
TextStyle03
  8
寸法
  6
CONTINUOUS
 62
     0
 10
152.975
 20
-79.425
  1
935.7
 40
3.0
 72
     5
 11
161.225
 21
-79.425
  0
ENDBLK
  0
BLOCK
  2
*DIM_0018
 70
    65
 10
0.0
 20
0.0
  0
LINE
  8
寸法
  6
BYBLOCK
 62
     0
 10
183.496395
 20
-70.6379
 11
187.97826
 21
-70.6379
  0
LINE
  8
寸法
  6
BYBLOCK
 62
     0
 10
160.103605
 20
-37.555498
 11
187.97826
 21
-37.555498
  0
LINE
  8
寸法
  6
BYBLOCK
 62
     0
 10
187.97826
 20
-70.6379
 11
187.97826
 21
-37.555498
  0
POINT
  8
寸法
 62
     0
 10
187.97826
 20
-70.6379
  0
POINT
  8
寸法
 62
     0
 10
187.97826
 20
-37.555498
  0
TEXT
  7
TextStyle03
  8
寸法
  6
CONTINUOUS
 62
     0
 10
187.6
 20
-58.225
  1
661.6
 40
3.0
 50
90.0
 72
     5
 11
187.6
 21
-49.975
  0
ENDBLK
  0
BLOCK
  2
*DIM_0019
 70
    65
 10
0.0
 20
0.0
  0
LINE
  8
寸法
  6
BYBLOCK
 62
     0
 10
91.863617
 20
-60.363292
 11
103.971875
 21
-60.363292
  0
LINE
  8
寸法
  6
BYBLOCK
 62
     0
 10
91.863617
 20
-71.363292
 11
103.971875
 21
-71.363292
  0
LINE
  8
寸法
  6
BYBLOCK
 62
     0
 10
103.971875
 20
-60.363292
 11
103.971875
 21
-71.363292
  0
POINT
  8
寸法
 62
     0
 10
103.971875
 20
-60.363292
  0
POINT
  8
寸法
 62
     0
 10
103.971875
 20
-71.363292
  0
TEXT
  7
TextStyle03
  8
寸法
  6
CONTINUOUS
 62
     0
 10
108.225
 20
-75.16875
  1
上昇159以上
 40
3.0
 50
90.0
 72
     5
 11
108.225
 21
-56.98125
  0
ENDBLK
  0
ENDSEC
  0
SECTION
  2
ENTITIES
  0
POLYLINE
  8
通り芯
  6
CONTINUOUS
 66
     1
 70
     1
  0
VERTEX
  8
通り芯
 10
-210.0
 20
-148.5
  0
VERTEX
  8
通り芯
 10
210.0
 20
-148.5
  0
VERTEX
  8
通り芯
 10
210.0
 20
148.5
  0
VERTEX
  8
通り芯
 10
-210.0
 20
148.5
  0
SEQEND
  0
INSERT
  2
*GRP_0001
  8
型材断面
  6
CONTINUOUS
 10
0.0
 20
0.0
  0
LINE
  8
型材断面
  6
CONTINUOUS
 10
-41.613975
 20
7.030075
 11
-48.763975
 21
14.180075
  0
LINE
  8
型材断面
  6
CONTINUOUS
 10
-46.507042
 20
9.487522
 11
-44.071422
 21
9.487522
  0
LINE
  8
型材断面
  6
CONTINUOUS
 10
-44.071422
 20
11.923142
 11
-44.071422
 21
9.487522
  0
LINE
  8
型材断面
  6
DASHDOT
 10
-45.888975
 20
11.305075
 11
-45.888975
 21
26.305075
  0
LINE
  8
型材断面
  6
CONTINUOUS
 62
    47
 10
-41.613975
 20
-67.310877
 11
-41.613975
 21
-67.879255
  0
LINE
  8
型材断面
  6
CONTINUOUS
 62
    47
 10
-42.288975
 20
-68.579255
 11
-41.613975
 21
-68.579255
  0
LINE
  8
型材断面
  6
CONTINUOUS
 62
    47
 10
-41.613975
 20
-68.579255
 11
-41.613975
 21
-67.879255
  0
LINE
  8
型材断面
  6
CONTINUOUS
 62
    47
 10
-42.938977
 20
-67.879255
 11
-41.613975
 21
-67.879255
  0
LINE
  8
型材断面
  6
CONTINUOUS
 62
    47
 10
-42.288975
 20
-68.579255
 11
-42.288975
 21
-69.079255
  0
LINE
  8
型材断面
  6
CONTINUOUS
 10
-42.363975
 20
-69.079255
 11
-42.288975
 21
-69.079255
  0
LINE
  8
型材断面
  6
CONTINUOUS
 62
    47
 10
-43.71787
 20
-65.206982
 11
-42.657208
 21
-66.267645
  0
LINE
  8
型材断面
  6
CONTINUOUS
 10
-44.2482
 20
-64.676653
 11
-46.966643
 21
-64.676653
  0
LINE
  8
型材断面
  6
CONTINUOUS
 62
    47
 10
-42.468975
 20
-71.363292
 11
-42.468975
 21
-70.863292
  0
LINE
  8
型材断面
  6
CONTINUOUS
 62
    47
 10
-42.468975
 20
-70.863292
 11
-43.643975
 21
-70.713292
  0
LINE
  8
型材断面
  6
CONTINUOUS
 62
    47
 10
-43.643975
 20
-70.104255
 11
-43.643975
 21
-70.713292
  0
LINE
  8
型材断面
  6
CONTINUOUS
 62
    47
 10
-42.938977
 20
-75.304255
 11
-42.938977
 21
-71.363292
  0
LINE
  8
型材断面
  6
CONTINUOUS
 62
    47
 10
-43.788977
 20
-76.054255
 11
-43.788977
 21
-75.304255
  0
LINE
  8
型材断面
  6
CONTINUOUS
 62
    47
 10
-42.938977
 20
-70.104255
 11
-42.938977
 21
-69.079255
  0
LINE
  8
型材断面
  6
CONTINUOUS
 62
    47
 10
-41.613975
 20
-67.310877
 11
-68.388975
 21
-40.535877
  0
LINE
  8
型材断面
  6
CONTINUOUS
 10
-64.138975
 20
-44.679912
 11
-68.388975
 21
-44.679912
  0
LINE
  8
型材断面
  6
CONTINUOUS
 10
-72.638972
 20
-44.679912
 11
-68.388975
 21
-44.679912
  0
LINE
  8
型材断面
  6
CONTINUOUS
 10
-72.58599
 20
-44.732895
 11
-68.388975
 21
-44.732895
  0
LINE
  8
型材断面
  6
CONTINUOUS
 10
-68.388975
 20
-40.429912
 11
-64.138975
 21
-44.679912
  0
LINE
  8
型材断面
  6
CONTINUOUS
 10
-68.388975
 20
-40.429912
 11
-72.638972
 21
-44.679912
  0
LINE
  8
型材断面
  6
CONTINUOUS
 10
-64.19196
 20
-44.732895
 11
-68.388975
 21
-44.732895
  0
LINE
  8
型材断面
  6
CONTINUOUS
 10
-72.638972
 20
-44.679912
 11
-72.58599
 21
-44.732895
  0
LINE
  8
型材断面
  6
CONTINUOUS
 10
-64.19196
 20
-44.732895
 11
-64.138975
 21
-44.679912
  0
LINE
  8
型材断面
  6
CONTINUOUS
 10
-46.6838
 20
-64.676653
 11
-66.68054
 21
-44.679912
  0
LINE
  8
型材断面
  6
CONTINUOUS
 10
-46.966643
 20
-64.676653
 11
-66.963388
 21
-44.679912
  0
LINE
  8
型材断面
  6
CONTINUOUS
 10
-43.71787
 20
-65.206982
 11
-68.388975
 21
-65.206982
  0
LINE
  8
型材断面
  6
CONTINUOUS
 10
-43.010762
 20
-65.91409
 11
-68.388975
 21
-65.91409
  0
LINE
  8
型材断面
  6
CONTINUOUS
 10
-42.657208
 20
-66.267645
 11
-68.388975
 21
-66.267645
  0
LINE
  8
型材断面
  6
CONTINUOUS
 10
-42.288975
 20
-69.079255
 11
-68.388975
 21
-69.079255
  0
LINE
  8
型材断面
  6
CONTINUOUS
 10
-42.288975
 20
-68.579255
 11
-68.388975
 21
-68.579255
  0
LINE
  8
型材断面
  6
CONTINUOUS
 10
-41.613975
 20
-67.879255
 11
-68.388975
 21
-67.879255
  0
LINE
  8
型材断面
  6
CONTINUOUS
 10
-41.613975
 20
-67.310877
 11
-68.388975
 21
-67.310877
  0
LINE
  8
型材断面
  6
CONTINUOUS
 10
-42.468975
 20
-70.863292
 11
-68.388975
 21
-70.863292
  0
LINE
  8
型材断面
  6
CONTINUOUS
 62
    47
 10
-42.468975
 20
-71.363292
 11
-68.388975
 21
-71.363292
  0
LINE
  8
型材断面
  6
CONTINUOUS
 10
-43.643975
 20
-70.713292
 11
-68.388975
 21
-70.713292
  0
LINE
  8
型材断面
  6
CONTINUOUS
 62
    47
 10
-42.938977
 20
-70.104255
 11
-68.388975
 21
-70.104255
  0
LINE
  8
型材断面
  6
CONTINUOUS
 62
    47
 10
-42.938977
 20
-75.304255
 11
-68.388975
 21
-75.304255
  0
LINE
  8
型材断面
  6
CONTINUOUS
 62
    47
 10
-43.788977
 20
-76.054255
 11
-68.388975
 21
-76.054255
  0
LINE
  8
型材断面
  6
CONTINUOUS
 62
    47
 10
-95.163975
 20
-67.310877
 11
-95.163975
 21
-67.879255
  0
LINE
  8
型材断面
  6
CONTINUOUS
 62
    47
 10
-94.488975
 20
-68.579255
 11
-95.163975
 21
-68.579255
  0
LINE
  8
型材断面
  6
CONTINUOUS
 62
    47
 10
-95.163975
 20
-68.579255
 11
-95.163975
 21
-67.879255
  0
LINE
  8
型材断面
  6
CONTINUOUS
 62
    47
 10
-93.838972
 20
-67.879255
 11
-95.163975
 21
-67.879255
  0
LINE
  8
型材断面
  6
CONTINUOUS
 62
    47
 10
-94.488975
 20
-68.579255
 11
-94.488975
 21
-69.079255
  0
LINE
  8
型材断面
  6
CONTINUOUS
 10
-94.413975
 20
-69.079255
 11
-94.488975
 21
-69.079255
  0
LINE
  8
型材断面
  6
CONTINUOUS
 62
    47
 10
-93.06008
 20
-65.206982
 11
-94.120742
 21
-66.267645
  0
LINE
  8
型材断面
  6
CONTINUOUS
 10
-92.52975
 20
-64.676653
 11
-89.811308
 21
-64.676653
  0
LINE
  8
型材断面
  6
CONTINUOUS
 62
    47
 10
-94.308975
 20
-71.363292
 11
-94.308975
 21
-70.863292
  0
LINE
  8
型材断面
  6
CONTINUOUS
 62
    47
 10
-94.308975
 20
-70.863292
 11
-93.133975
 21
-70.713292
  0
LINE
  8
型材断面
  6
CONTINUOUS
 62
    47
 10
-93.133975
 20
-70.104255
 11
-93.133975
 21
-70.713292
  0
LINE
  8
型材断面
  6
CONTINUOUS
 62
    47
 10
-93.838972
 20
-75.304255
 11
-93.838972
 21
-71.363292
  0
LINE
  8
型材断面
  6
CONTINUOUS
 62
    47
 10
-92.988973
 20
-76.054255
 11
-92.988973
 21
-75.304255
  0
LINE
  8
型材断面
  6
CONTINUOUS
 62
    47
 10
-93.838972
 20
-70.104255
 11
-93.838972
 21
-69.079255
  0
LINE
  8
型材断面
  6
CONTINUOUS
 62
    47
 10
-95.163975
 20
-67.310877
 11
-68.388975
 21
-40.535877
  0
LINE
  8
型材断面
  6
CONTINUOUS
 10
-72.638975
 20
-44.679912
 11
-68.388975
 21
-44.679912
  0
LINE
  8
型材断面
  6
CONTINUOUS
 10
-72.58599
 20
-44.732895
 11
-68.388975
 21
-44.732895
  0
LINE
  8
型材断面
  6
CONTINUOUS
 10
-72.58599
 20
-44.732895
 11
-72.638975
 21
-44.679912
  0
LINE
  8
型材断面
  6
CONTINUOUS
 10
-90.09415
 20
-64.676653
 11
-70.09741
 21
-44.679912
  0
LINE
  8
型材断面
  6
CONTINUOUS
 10
-89.811308
 20
-64.676653
 11
-69.814563
 21
-44.679912
  0
LINE
  8
型材断面
  6
CONTINUOUS
 10
-93.06008
 20
-65.206982
 11
-68.388975
 21
-65.206982
  0
LINE
  8
型材断面
  6
CONTINUOUS
 10
-93.767188
 20
-65.91409
 11
-68.388975
 21
-65.91409
  0
LINE
  8
型材断面
  6
CONTINUOUS
 10
-94.120742
 20
-66.267645
 11
-68.388975
 21
-66.267645
  0
LINE
  8
型材断面
  6
CONTINUOUS
 10
-94.488975
 20
-69.079255
 11
-68.388975
 21
-69.079255
  0
LINE
  8
型材断面
  6
CONTINUOUS
 10
-94.488975
 20
-68.579255
 11
-68.388975
 21
-68.579255
  0
LINE
  8
型材断面
  6
CONTINUOUS
 10
-95.163975
 20
-67.879255
 11
-68.388975
 21
-67.879255
  0
LINE
  8
型材断面
  6
CONTINUOUS
 10
-95.163975
 20
-67.310877
 11
-68.388975
 21
-67.310877
  0
LINE
  8
型材断面
  6
CONTINUOUS
 10
-94.308975
 20
-70.863292
 11
-68.388975
 21
-70.863292
  0
LINE
  8
型材断面
  6
CONTINUOUS
 62
    47
 10
-94.308975
 20
-71.363292
 11
-68.388975
 21
-71.363292
  0
LINE
  8
型材断面
  6
CONTINUOUS
 10
-93.133975
 20
-70.713292
 11
-68.388975
 21
-70.713292
  0
LINE
  8
型材断面
  6
CONTINUOUS
 62
    47
 10
-93.838972
 20
-70.104255
 11
-68.388975
 21
-70.104255
  0
LINE
  8
型材断面
  6
CONTINUOUS
 62
    47
 10
-93.838972
 20
-75.304255
 11
-68.388975
 21
-75.304255
  0
LINE
  8
型材断面
  6
CONTINUOUS
 62
    47
 10
-92.988973
 20
-76.054255
 11
-68.388975
 21
-76.054255
  0
LINE
  8
型材断面
  6
DASHDOT
 10
-45.888975
 20
11.305075
 11
-90.888975
 21
11.305075
  0
LINE
  8
型材断面
  6
DASHDOT
 10
-45.888975
 20
-75.304255
 11
-45.888975
 21
56.305075
  0
LINE
  8
型材断面
  6
DASHDOT
 10
-45.888975
 20
33.805075
 11
-90.888975
 21
33.805075
  0
LINE
  8
型材断面
  6
DASHDOT
 10
-45.888975
 20
56.305075
 11
-90.888975
 21
56.305075
  0
LINE
  8
型材断面
  6
DASHDOT
 10
-90.888975
 20
-75.304255
 11
-90.888975
 21
56.305075
  0
LINE
  8
型材断面
  6
DASHDOT
 10
-68.388975
 20
-75.304255
 11
-68.388975
 21
56.305075
  0
LINE
  8
型材断面
  6
CONTINUOUS
 10
-68.388975
 20
29.555075
 11
-64.138975
 21
29.555075
  0
LINE
  8
型材断面
  6
CONTINUOUS
 10
-64.138975
 20
33.805075
 11
-64.138975
 21
29.555075
  0
LINE
  8
型材断面
  6
CONTINUOUS
 10
-64.138975
 20
29.555075
 11
-68.388975
 21
33.805075
  0
LINE
  8
型材断面
  6
CONTINUOUS
 10
-46.507042
 20
9.487522
 11
-66.574595
 21
29.555075
  0
LINE
  8
型材断面
  6
CONTINUOUS
 10
-44.424975
 20
9.487522
 11
-64.492533
 21
29.555075
  0
LINE
  8
型材断面
  6
CONTINUOUS
 10
-44.071422
 20
11.923142
 11
-64.138975
 21
31.990695
  0
LINE
  8
型材断面
  6
CONTINUOUS
 10
-44.071422
 20
9.841075
 11
-64.138975
 21
29.908627
  0
LINE
  8
型材断面
  6
DASHDOT
 10
-45.888975
 20
11.305075
 11
-68.388975
 21
33.805075
  0
LINE
  8
型材断面
  6
CONTINUOUS
 10
-43.71787
 20
9.13397
 11
-68.388975
 21
9.13397
  0
LINE
  8
型材断面
  6
CONTINUOUS
 10
-44.000713
 20
9.416813
 11
-68.388975
 21
9.416813
  0
LINE
  8
型材断面
  6
CONTINUOUS
 10
-43.010762
 20
8.426863
 11
-68.388975
 21
8.426863
  0
LINE
  8
型材断面
  6
CONTINUOUS
 10
-42.657208
 20
8.073308
 11
-68.388975
 21
8.073308
  0
LINE
  8
型材断面
  6
CONTINUOUS
 10
-41.613975
 20
7.030075
 11
-68.388975
 21
7.030075
  0
LINE
  8
型材断面
  6
CONTINUOUS
 10
-44.000713
 20
9.416813
 11
-44.000713
 21
33.805075
  0
LINE
  8
型材断面
  6
CONTINUOUS
 10
-43.71787
 20
9.13397
 11
-43.71787
 21
33.805075
  0
LINE
  8
型材断面
  6
CONTINUOUS
 10
-43.010762
 20
8.426863
 11
-43.010762
 21
33.805075
  0
LINE
  8
型材断面
  6
CONTINUOUS
 10
-42.657208
 20
8.073308
 11
-42.657208
 21
33.805075
  0
LINE
  8
型材断面
  6
CONTINUOUS
 10
-41.613975
 20
7.030075
 11
-41.613975
 21
33.805075
  0
LINE
  8
型材断面
  6
CONTINUOUS
 10
-41.613975
 20
60.580075
 11
-48.763975
 21
53.430075
  0
LINE
  8
型材断面
  6
CONTINUOUS
 10
-46.507042
 20
58.122628
 11
-44.071422
 21
58.122628
  0
LINE
  8
型材断面
  6
CONTINUOUS
 10
-44.071422
 20
55.687008
 11
-44.071422
 21
58.122628
  0
LINE
  8
型材断面
  6
DASHDOT
 10
-45.888975
 20
56.305075
 11
-45.888975
 21
41.305075
  0
LINE
  8
型材断面
  6
CONTINUOUS
 10
-68.388975
 20
38.055075
 11
-64.138975
 21
38.055075
  0
LINE
  8
型材断面
  6
CONTINUOUS
 10
-64.138975
 20
33.805075
 11
-64.138975
 21
38.055075
  0
LINE
  8
型材断面
  6
CONTINUOUS
 10
-64.138975
 20
38.055075
 11
-68.388975
 21
33.805075
  0
LINE
  8
型材断面
  6
CONTINUOUS
 10
-46.507042
 20
58.122628
 11
-66.574595
 21
38.055075
  0
LINE
  8
型材断面
  6
CONTINUOUS
 10
-44.424975
 20
58.122628
 11
-64.492533
 21
38.055075
  0
LINE
  8
型材断面
  6
CONTINUOUS
 10
-44.071422
 20
55.687008
 11
-64.138975
 21
35.619455
  0
LINE
  8
型材断面
  6
CONTINUOUS
 10
-44.071422
 20
57.769075
 11
-64.138975
 21
37.701522
  0
LINE
  8
型材断面
  6
DASHDOT
 10
-45.888975
 20
56.305075
 11
-68.388975
 21
33.805075
  0
LINE
  8
型材断面
  6
CONTINUOUS
 10
-43.71787
 20
58.47618
 11
-68.388975
 21
58.47618
  0
LINE
  8
型材断面
  6
CONTINUOUS
 10
-44.000713
 20
58.193338
 11
-68.388975
 21
58.193338
  0
LINE
  8
型材断面
  6
CONTINUOUS
 10
-43.010762
 20
59.183288
 11
-68.388975
 21
59.183288
  0
LINE
  8
型材断面
  6
CONTINUOUS
 10
-42.657208
 20
59.536843
 11
-68.388975
 21
59.536843
  0
LINE
  8
型材断面
  6
CONTINUOUS
 10
-41.613975
 20
60.580075
 11
-68.388975
 21
60.580075
  0
LINE
  8
型材断面
  6
CONTINUOUS
 10
-44.000713
 20
58.193338
 11
-44.000713
 21
33.805075
  0
LINE
  8
型材断面
  6
CONTINUOUS
 10
-43.71787
 20
58.47618
 11
-43.71787
 21
33.805075
  0
LINE
  8
型材断面
  6
CONTINUOUS
 10
-43.010762
 20
59.183288
 11
-43.010762
 21
33.805075
  0
LINE
  8
型材断面
  6
CONTINUOUS
 10
-42.657208
 20
59.536843
 11
-42.657208
 21
33.805075
  0
LINE
  8
型材断面
  6
CONTINUOUS
 10
-41.613975
 20
60.580075
 11
-41.613975
 21
33.805075
  0
LINE
  8
型材断面
  6
CONTINUOUS
 10
-95.163975
 20
60.580075
 11
-88.013975
 21
53.430075
  0
LINE
  8
型材断面
  6
CONTINUOUS
 10
-90.270907
 20
58.122628
 11
-92.706527
 21
58.122628
  0
LINE
  8
型材断面
  6
CONTINUOUS
 10
-92.706527
 20
55.687008
 11
-92.706527
 21
58.122628
  0
LINE
  8
型材断面
  6
DASHDOT
 10
-90.888975
 20
56.305075
 11
-90.888975
 21
41.305075
  0
LINE
  8
型材断面
  6
CONTINUOUS
 10
-68.388975
 20
38.055075
 11
-72.638975
 21
38.055075
  0
LINE
  8
型材断面
  6
CONTINUOUS
 10
-72.638975
 20
33.805075
 11
-72.638975
 21
38.055075
  0
LINE
  8
型材断面
  6
CONTINUOUS
 10
-72.638975
 20
38.055075
 11
-68.388975
 21
33.805075
  0
LINE
  8
型材断面
  6
CONTINUOUS
 10
-90.270907
 20
58.122628
 11
-70.203355
 21
38.055075
  0
LINE
  8
型材断面
  6
CONTINUOUS
 10
-92.352975
 20
58.122628
 11
-72.285418
 21
38.055075
  0
LINE
  8
型材断面
  6
CONTINUOUS
 10
-92.706527
 20
55.687008
 11
-72.638975
 21
35.619455
  0
LINE
  8
型材断面
  6
CONTINUOUS
 10
-92.706527
 20
57.769075
 11
-72.638975
 21
37.701522
  0
LINE
  8
型材断面
  6
DASHDOT
 10
-90.888975
 20
56.305075
 11
-68.388975
 21
33.805075
  0
LINE
  8
型材断面
  6
CONTINUOUS
 10
-93.06008
 20
58.47618
 11
-68.388975
 21
58.47618
  0
LINE
  8
型材断面
  6
CONTINUOUS
 10
-92.777237
 20
58.193338
 11
-68.388975
 21
58.193338
  0
LINE
  8
型材断面
  6
CONTINUOUS
 10
-93.767188
 20
59.183288
 11
-68.388975
 21
59.183288
  0
LINE
  8
型材断面
  6
CONTINUOUS
 10
-94.120742
 20
59.536843
 11
-68.388975
 21
59.536843
  0
LINE
  8
型材断面
  6
CONTINUOUS
 10
-95.163975
 20
60.580075
 11
-68.388975
 21
60.580075
  0
LINE
  8
型材断面
  6
CONTINUOUS
 10
-92.777237
 20
58.193338
 11
-92.777237
 21
33.805075
  0
LINE
  8
型材断面
  6
CONTINUOUS
 10
-93.06008
 20
58.47618
 11
-93.06008
 21
33.805075
  0
LINE
  8
型材断面
  6
CONTINUOUS
 10
-93.767188
 20
59.183288
 11
-93.767188
 21
33.805075
  0
LINE
  8
型材断面
  6
CONTINUOUS
 10
-94.120742
 20
59.536843
 11
-94.120742
 21
33.805075
  0
LINE
  8
型材断面
  6
CONTINUOUS
 10
-95.163975
 20
60.580075
 11
-95.163975
 21
33.805075
  0
LINE
  8
型材断面
  6
CONTINUOUS
 10
-95.163975
 20
7.030075
 11
-88.013975
 21
14.180075
  0
LINE
  8
型材断面
  6
CONTINUOUS
 10
-90.270907
 20
9.487522
 11
-92.706527
 21
9.487522
  0
LINE
  8
型材断面
  6
CONTINUOUS
 10
-92.706527
 20
11.923142
 11
-92.706527
 21
9.487522
  0
LINE
  8
型材断面
  6
DASHDOT
 10
-90.888975
 20
11.305075
 11
-90.888975
 21
26.305075
  0
LINE
  8
型材断面
  6
CONTINUOUS
 10
-68.388975
 20
29.555075
 11
-72.638975
 21
29.555075
  0
LINE
  8
型材断面
  6
CONTINUOUS
 10
-72.638975
 20
33.805075
 11
-72.638975
 21
29.555075
  0
LINE
  8
型材断面
  6
CONTINUOUS
 10
-72.638975
 20
29.555075
 11
-68.388975
 21
33.805075
  0
LINE
  8
型材断面
  6
CONTINUOUS
 10
-90.270907
 20
9.487522
 11
-70.203355
 21
29.555075
  0
LINE
  8
型材断面
  6
CONTINUOUS
 10
-92.352975
 20
9.487522
 11
-72.285418
 21
29.555075
  0
LINE
  8
型材断面
  6
CONTINUOUS
 10
-92.706527
 20
11.923142
 11
-72.638975
 21
31.990695
  0
LINE
  8
型材断面
  6
CONTINUOUS
 10
-92.706527
 20
9.841075
 11
-72.638975
 21
29.908627
  0
LINE
  8
型材断面
  6
DASHDOT
 10
-90.888975
 20
11.305075
 11
-68.388975
 21
33.805075
  0
LINE
  8
型材断面
  6
CONTINUOUS
 10
-93.06008
 20
9.13397
 11
-68.388975
 21
9.13397
  0
LINE
  8
型材断面
  6
CONTINUOUS
 10
-92.777237
 20
9.416813
 11
-68.388975
 21
9.416813
  0
LINE
  8
型材断面
  6
CONTINUOUS
 10
-93.767188
 20
8.426863
 11
-68.388975
 21
8.426863
  0
LINE
  8
型材断面
  6
CONTINUOUS
 10
-94.120742
 20
8.073308
 11
-68.388975
 21
8.073308
  0
LINE
  8
型材断面
  6
CONTINUOUS
 10
-95.163975
 20
7.030075
 11
-68.388975
 21
7.030075
  0
LINE
  8
型材断面
  6
CONTINUOUS
 10
-92.777237
 20
9.416813
 11
-92.777237
 21
33.805075
  0
LINE
  8
型材断面
  6
CONTINUOUS
 10
-93.06008
 20
9.13397
 11
-93.06008
 21
33.805075
  0
LINE
  8
型材断面
  6
CONTINUOUS
 10
-93.767188
 20
8.426863
 11
-93.767188
 21
33.805075
  0
LINE
  8
型材断面
  6
CONTINUOUS
 10
-94.120742
 20
8.073308
 11
-94.120742
 21
33.805075
  0
LINE
  8
型材断面
  6
CONTINUOUS
 10
-95.163975
 20
7.030075
 11
-95.163975
 21
33.805075
  0
LINE
  8
型材断面
  6
DOT
 10
-49.99122
 20
56.305075
 11
-49.99122
 21
11.305075
  0
LINE
  8
型材断面
  6
DOT
 10
-47.99122
 20
56.305075
 11
-47.99122
 21
11.305075
  0
LINE
  8
型材断面
  6
CONTINUOUS
 10
-68.388975
 20
64.32895
 11
-70.63242
 21
68.21471
  0
LINE
  8
型材断面
  6
CONTINUOUS
 10
-68.388975
 20
64.32895
 11
-66.14553
 21
68.21471
  0
LINE
  8
型材断面
  6
CONTINUOUS
 10
-66.14553
 20
68.21471
 11
-70.63242
 21
68.21471
  0
LINE
  8
型材断面
  6
CONTINUOUS
 10
-68.388975
 20
3.2812
 11
-70.63242
 21
-0.60456
  0
LINE
  8
型材断面
  6
CONTINUOUS
 10
-68.388975
 20
3.2812
 11
-66.14553
 21
-0.60456
  0
LINE
  8
型材断面
  6
CONTINUOUS
 10
-66.14553
 20
-0.60456
 11
-70.63242
 21
-0.60456
  0
LINE
  8
型材断面
  6
CONTINUOUS
 10
-37.8651
 20
33.805075
 11
-33.97934
 21
36.04852
  0
LINE
  8
型材断面
  6
CONTINUOUS
 10
-37.8651
 20
33.805075
 11
-33.97934
 21
31.56163
  0
LINE
  8
型材断面
  6
CONTINUOUS
 10
-33.97934
 20
31.56163
 11
-33.97934
 21
36.04852
  0
LINE
  8
型材断面
  6
CONTINUOUS
 10
-98.91285
 20
33.805075
 11
-102.79861
 21
36.04852
  0
LINE
  8
型材断面
  6
CONTINUOUS
 10
-98.91285
 20
33.805075
 11
-102.79861
 21
31.56163
  0
LINE
  8
型材断面
  6
CONTINUOUS
 10
-102.79861
 20
31.56163
 11
-102.79861
 21
36.04852
  0
LINE
  8
型材断面
  6
CONTINUOUS
 62
    47
 10
89.718618
 20
-67.310877
 11
89.718618
 21
-67.879255
  0
LINE
  8
型材断面
  6
CONTINUOUS
 62
    47
 10
89.043618
 20
-68.579255
 11
89.718618
 21
-68.579255
  0
LINE
  8
型材断面
  6
CONTINUOUS
 62
    47
 10
89.718618
 20
-68.579255
 11
89.718618
 21
-67.879255
  0
LINE
  8
型材断面
  6
CONTINUOUS
 62
    47
 10
88.393615
 20
-67.879255
 11
89.718618
 21
-67.879255
  0
LINE
  8
型材断面
  6
CONTINUOUS
 62
    47
 10
89.043618
 20
-68.579255
 11
89.043618
 21
-69.079255
  0
LINE
  8
型材断面
  6
CONTINUOUS
 10
88.968618
 20
-69.079255
 11
89.043618
 21
-69.079255
  0
LINE
  8
型材断面
  6
CONTINUOUS
 62
    47
 10
87.614723
 20
-65.206982
 11
88.675385
 21
-66.267645
  0
LINE
  8
型材断面
  6
CONTINUOUS
 10
87.084392
 20
-64.676653
 11
84.36595
 21
-64.676653
  0
LINE
  8
型材断面
  6
CONTINUOUS
 62
    47
 10
88.863617
 20
-71.363292
 11
88.863617
 21
-70.863292
  0
LINE
  8
型材断面
  6
CONTINUOUS
 62
    47
 10
88.863617
 20
-70.863292
 11
87.688617
 21
-70.713292
  0
LINE
  8
型材断面
  6
CONTINUOUS
 62
    47
 10
87.688617
 20
-70.104255
 11
87.688617
 21
-70.713292
  0
LINE
  8
型材断面
  6
CONTINUOUS
 62
    47
 10
88.393615
 20
-75.304255
 11
88.393615
 21
-71.363292
  0
LINE
  8
型材断面
  6
CONTINUOUS
 62
    47
 10
87.543615
 20
-76.054255
 11
87.543615
 21
-75.304255
  0
LINE
  8
型材断面
  6
CONTINUOUS
 62
    47
 10
88.393615
 20
-70.104255
 11
88.393615
 21
-69.079255
  0
LINE
  8
型材断面
  6
CONTINUOUS
 62
    47
 10
89.718618
 20
-67.310877
 11
62.943618
 21
-40.535877
  0
LINE
  8
型材断面
  6
CONTINUOUS
 10
67.193618
 20
-44.679912
 11
62.943618
 21
-44.679912
  0
LINE
  8
型材断面
  6
CONTINUOUS
 10
58.69362
 20
-44.679912
 11
62.943618
 21
-44.679912
  0
LINE
  8
型材断面
  6
CONTINUOUS
 10
58.746602
 20
-44.732895
 11
62.943618
 21
-44.732895
  0
LINE
  8
型材断面
  6
CONTINUOUS
 10
62.943618
 20
-40.429912
 11
67.193618
 21
-44.679912
  0
LINE
  8
型材断面
  6
CONTINUOUS
 10
62.943618
 20
-40.429912
 11
58.69362
 21
-44.679912
  0
LINE
  8
型材断面
  6
CONTINUOUS
 10
67.140632
 20
-44.732895
 11
62.943618
 21
-44.732895
  0
LINE
  8
型材断面
  6
CONTINUOUS
 10
58.69362
 20
-44.679912
 11
58.746602
 21
-44.732895
  0
LINE
  8
型材断面
  6
CONTINUOUS
 10
67.140632
 20
-44.732895
 11
67.193618
 21
-44.679912
  0
LINE
  8
型材断面
  6
CONTINUOUS
 10
84.648792
 20
-64.676653
 11
64.652052
 21
-44.679912
  0
LINE
  8
型材断面
  6
CONTINUOUS
 10
84.36595
 20
-64.676653
 11
64.369205
 21
-44.679912
  0
LINE
  8
型材断面
  6
CONTINUOUS
 10
87.614723
 20
-65.206982
 11
62.943618
 21
-65.206982
  0
LINE
  8
型材断面
  6
CONTINUOUS
 10
88.32183
 20
-65.91409
 11
62.943618
 21
-65.91409
  0
LINE
  8
型材断面
  6
CONTINUOUS
 10
88.675385
 20
-66.267645
 11
62.943618
 21
-66.267645
  0
LINE
  8
型材断面
  6
CONTINUOUS
 10
89.043618
 20
-69.079255
 11
62.943618
 21
-69.079255
  0
LINE
  8
型材断面
  6
CONTINUOUS
 10
89.043618
 20
-68.579255
 11
62.943618
 21
-68.579255
  0
LINE
  8
型材断面
  6
CONTINUOUS
 10
89.718618
 20
-67.879255
 11
62.943618
 21
-67.879255
  0
LINE
  8
型材断面
  6
CONTINUOUS
 10
89.718618
 20
-67.310877
 11
62.943618
 21
-67.310877
  0
LINE
  8
型材断面
  6
CONTINUOUS
 10
88.863617
 20
-70.863292
 11
62.943618
 21
-70.863292
  0
LINE
  8
型材断面
  6
CONTINUOUS
 62
    47
 10
88.863617
 20
-71.363292
 11
62.943618
 21
-71.363292
  0
LINE
  8
型材断面
  6
CONTINUOUS
 10
87.688617
 20
-70.713292
 11
62.943618
 21
-70.713292
  0
LINE
  8
型材断面
  6
CONTINUOUS
 62
    47
 10
88.393615
 20
-70.104255
 11
62.943618
 21
-70.104255
  0
LINE
  8
型材断面
  6
CONTINUOUS
 62
    47
 10
88.393615
 20
-75.304255
 11
62.943618
 21
-75.304255
  0
LINE
  8
型材断面
  6
CONTINUOUS
 62
    47
 10
87.543615
 20
-76.054255
 11
62.943618
 21
-76.054255
  0
LINE
  8
型材断面
  6
CONTINUOUS
 62
    47
 10
36.168618
 20
-67.310877
 11
36.168618
 21
-67.879255
  0
LINE
  8
型材断面
  6
CONTINUOUS
 62
    47
 10
36.843618
 20
-68.579255
 11
36.168618
 21
-68.579255
  0
LINE
  8
型材断面
  6
CONTINUOUS
 62
    47
 10
36.168618
 20
-68.579255
 11
36.168618
 21
-67.879255
  0
LINE
  8
型材断面
  6
CONTINUOUS
 62
    47
 10
37.49362
 20
-67.879255
 11
36.168618
 21
-67.879255
  0
LINE
  8
型材断面
  6
CONTINUOUS
 62
    47
 10
36.843618
 20
-68.579255
 11
36.843618
 21
-69.079255
  0
LINE
  8
型材断面
  6
CONTINUOUS
 10
36.918618
 20
-69.079255
 11
36.843618
 21
-69.079255
  0
LINE
  8
型材断面
  6
CONTINUOUS
 62
    47
 10
38.272513
 20
-65.206982
 11
37.21185
 21
-66.267645
  0
LINE
  8
型材断面
  6
CONTINUOUS
 10
38.802843
 20
-64.676653
 11
41.521285
 21
-64.676653
  0
LINE
  8
型材断面
  6
CONTINUOUS
 62
    47
 10
37.023618
 20
-71.363292
 11
37.023618
 21
-70.863292
  0
LINE
  8
型材断面
  6
CONTINUOUS
 62
    47
 10
37.023618
 20
-70.863292
 11
38.198617
 21
-70.713292
  0
LINE
  8
型材断面
  6
CONTINUOUS
 62
    47
 10
38.198617
 20
-70.104255
 11
38.198617
 21
-70.713292
  0
LINE
  8
型材断面
  6
CONTINUOUS
 62
    47
 10
37.49362
 20
-75.304255
 11
37.49362
 21
-71.363292
  0
LINE
  8
型材断面
  6
CONTINUOUS
 62
    47
 10
38.34362
 20
-76.054255
 11
38.34362
 21
-75.304255
  0
LINE
  8
型材断面
  6
CONTINUOUS
 62
    47
 10
37.49362
 20
-70.104255
 11
37.49362
 21
-69.079255
  0
LINE
  8
型材断面
  6
CONTINUOUS
 62
    47
 10
36.168618
 20
-67.310877
 11
62.943618
 21
-40.535877
  0
LINE
  8
型材断面
  6
CONTINUOUS
 10
58.693618
 20
-44.679912
 11
62.943618
 21
-44.679912
  0
LINE
  8
型材断面
  6
CONTINUOUS
 10
58.746602
 20
-44.732895
 11
62.943618
 21
-44.732895
  0
LINE
  8
型材断面
  6
CONTINUOUS
 10
58.746602
 20
-44.732895
 11
58.693618
 21
-44.679912
  0
LINE
  8
型材断面
  6
CONTINUOUS
 10
41.238443
 20
-64.676653
 11
61.235182
 21
-44.679912
  0
LINE
  8
型材断面
  6
CONTINUOUS
 10
41.521285
 20
-64.676653
 11
61.51803
 21
-44.679912
  0
LINE
  8
型材断面
  6
CONTINUOUS
 10
38.272513
 20
-65.206982
 11
62.943618
 21
-65.206982
  0
LINE
  8
型材断面
  6
CONTINUOUS
 10
37.565405
 20
-65.91409
 11
62.943618
 21
-65.91409
  0
LINE
  8
型材断面
  6
CONTINUOUS
 10
37.21185
 20
-66.267645
 11
62.943618
 21
-66.267645
  0
LINE
  8
型材断面
  6
CONTINUOUS
 10
36.843618
 20
-69.079255
 11
62.943618
 21
-69.079255
  0
LINE
  8
型材断面
  6
CONTINUOUS
 10
36.843618
 20
-68.579255
 11
62.943618
 21
-68.579255
  0
LINE
  8
型材断面
  6
CONTINUOUS
 10
36.168618
 20
-67.879255
 11
62.943618
 21
-67.879255
  0
LINE
  8
型材断面
  6
CONTINUOUS
 10
36.168618
 20
-67.310877
 11
62.943618
 21
-67.310877
  0
LINE
  8
型材断面
  6
CONTINUOUS
 10
37.023618
 20
-70.863292
 11
62.943618
 21
-70.863292
  0
LINE
  8
型材断面
  6
CONTINUOUS
 62
    47
 10
37.023618
 20
-71.363292
 11
62.943618
 21
-71.363292
  0
LINE
  8
型材断面
  6
CONTINUOUS
 10
38.198617
 20
-70.713292
 11
62.943618
 21
-70.713292
  0
LINE
  8
型材断面
  6
CONTINUOUS
 62
    47
 10
37.49362
 20
-70.104255
 11
62.943618
 21
-70.104255
  0
LINE
  8
型材断面
  6
CONTINUOUS
 62
    47
 10
37.49362
 20
-75.304255
 11
62.943618
 21
-75.304255
  0
LINE
  8
型材断面
  6
CONTINUOUS
 62
    47
 10
38.34362
 20
-76.054255
 11
62.943618
 21
-76.054255
  0
LINE
  8
型材断面
  6
DOT
 62
    47
 10
89.718618
 20
-56.310877
 11
89.718618
 21
-56.879255
  0
LINE
  8
型材断面
  6
DOT
 62
    47
 10
89.043618
 20
-57.579255
 11
89.718618
 21
-57.579255
  0
LINE
  8
型材断面
  6
DOT
 62
    47
 10
89.718618
 20
-57.579255
 11
89.718618
 21
-56.879255
  0
LINE
  8
型材断面
  6
DOT
 62
    47
 10
88.393615
 20
-56.879255
 11
89.718618
 21
-56.879255
  0
LINE
  8
型材断面
  6
DOT
 62
    47
 10
89.043618
 20
-57.579255
 11
89.043618
 21
-58.079255
  0
LINE
  8
型材断面
  6
DOT
 10
88.968618
 20
-58.079255
 11
89.043618
 21
-58.079255
  0
LINE
  8
型材断面
  6
DOT
 62
    47
 10
87.614723
 20
-54.206982
 11
88.675385
 21
-55.267645
  0
LINE
  8
型材断面
  6
DOT
 10
87.084392
 20
-53.676653
 11
84.36595
 21
-53.676653
  0
LINE
  8
型材断面
  6
DOT
 62
    47
 10
88.863617
 20
-60.363292
 11
88.863617
 21
-59.863292
  0
LINE
  8
型材断面
  6
DOT
 62
    47
 10
88.863617
 20
-59.863292
 11
87.688617
 21
-59.713292
  0
LINE
  8
型材断面
  6
DOT
 62
    47
 10
87.688617
 20
-59.104255
 11
87.688617
 21
-59.713292
  0
LINE
  8
型材断面
  6
DOT
 62
    47
 10
88.393615
 20
-59.104255
 11
88.393615
 21
-58.079255
  0
LINE
  8
型材断面
  6
DOT
 62
    47
 10
89.718618
 20
-56.310877
 11
62.943618
 21
-29.535877
  0
LINE
  8
型材断面
  6
DOT
 10
67.193618
 20
-33.679912
 11
62.943618
 21
-33.679912
  0
LINE
  8
型材断面
  6
DOT
 10
58.69362
 20
-33.679912
 11
62.943618
 21
-33.679912
  0
LINE
  8
型材断面
  6
DOT
 10
58.746602
 20
-33.732895
 11
62.943618
 21
-33.732895
  0
LINE
  8
型材断面
  6
DOT
 10
62.943618
 20
-29.429912
 11
67.193618
 21
-33.679912
  0
LINE
  8
型材断面
  6
DOT
 10
62.943618
 20
-29.429912
 11
58.69362
 21
-33.679912
  0
LINE
  8
型材断面
  6
DOT
 10
67.140632
 20
-33.732895
 11
62.943618
 21
-33.732895
  0
LINE
  8
型材断面
  6
DOT
 10
58.69362
 20
-33.679912
 11
58.746602
 21
-33.732895
  0
LINE
  8
型材断面
  6
DOT
 10
67.140632
 20
-33.732895
 11
67.193618
 21
-33.679912
  0
LINE
  8
型材断面
  6
DOT
 10
84.648792
 20
-53.676653
 11
64.652052
 21
-33.679912
  0
LINE
  8
型材断面
  6
DOT
 10
84.36595
 20
-53.676653
 11
64.369205
 21
-33.679912
  0
LINE
  8
型材断面
  6
DOT
 10
87.614723
 20
-54.206982
 11
62.943618
 21
-54.206982
  0
LINE
  8
型材断面
  6
DOT
 10
88.32183
 20
-54.91409
 11
62.943618
 21
-54.91409
  0
LINE
  8
型材断面
  6
DOT
 10
88.675385
 20
-55.267645
 11
62.943618
 21
-55.267645
  0
LINE
  8
型材断面
  6
DOT
 10
89.043618
 20
-58.079255
 11
62.943618
 21
-58.079255
  0
LINE
  8
型材断面
  6
DOT
 10
89.043618
 20
-57.579255
 11
62.943618
 21
-57.579255
  0
LINE
  8
型材断面
  6
DOT
 10
89.718618
 20
-56.879255
 11
62.943618
 21
-56.879255
  0
LINE
  8
型材断面
  6
DOT
 10
89.718618
 20
-56.310877
 11
62.943618
 21
-56.310877
  0
LINE
  8
型材断面
  6
DOT
 10
88.863617
 20
-59.863292
 11
62.943618
 21
-59.863292
  0
LINE
  8
型材断面
  6
DOT
 62
    47
 10
88.863617
 20
-60.363292
 11
62.943618
 21
-60.363292
  0
LINE
  8
型材断面
  6
DOT
 10
87.688617
 20
-59.713292
 11
62.943618
 21
-59.713292
  0
LINE
  8
型材断面
  6
DOT
 62
    47
 10
88.393615
 20
-59.104255
 11
62.943618
 21
-59.104255
  0
LINE
  8
型材断面
  6
DOT
 62
    47
 10
36.168618
 20
-56.310877
 11
36.168618
 21
-56.879255
  0
LINE
  8
型材断面
  6
DOT
 62
    47
 10
36.843618
 20
-57.579255
 11
36.168618
 21
-57.579255
  0
LINE
  8
型材断面
  6
DOT
 62
    47
 10
36.168618
 20
-57.579255
 11
36.168618
 21
-56.879255
  0
LINE
  8
型材断面
  6
DOT
 62
    47
 10
37.49362
 20
-56.879255
 11
36.168618
 21
-56.879255
  0
LINE
  8
型材断面
  6
DOT
 62
    47
 10
36.843618
 20
-57.579255
 11
36.843618
 21
-58.079255
  0
LINE
  8
型材断面
  6
DOT
 10
36.918618
 20
-58.079255
 11
36.843618
 21
-58.079255
  0
LINE
  8
型材断面
  6
DOT
 62
    47
 10
38.272513
 20
-54.206982
 11
37.21185
 21
-55.267645
  0
LINE
  8
型材断面
  6
DOT
 10
38.802843
 20
-53.676653
 11
41.521285
 21
-53.676653
  0
LINE
  8
型材断面
  6
DOT
 62
    47
 10
37.023618
 20
-60.363292
 11
37.023618
 21
-59.863292
  0
LINE
  8
型材断面
  6
DOT
 62
    47
 10
37.023618
 20
-59.863292
 11
38.198617
 21
-59.713292
  0
LINE
  8
型材断面
  6
DOT
 62
    47
 10
38.198617
 20
-59.104255
 11
38.198617
 21
-59.713292
  0
LINE
  8
型材断面
  6
DOT
 62
    47
 10
37.49362
 20
-59.104255
 11
37.49362
 21
-58.079255
  0
LINE
  8
型材断面
  6
DOT
 62
    47
 10
36.168618
 20
-56.310877
 11
62.943618
 21
-29.535877
  0
LINE
  8
型材断面
  6
DOT
 10
58.693618
 20
-33.679912
 11
62.943618
 21
-33.679912
  0
LINE
  8
型材断面
  6
DOT
 10
58.746602
 20
-33.732895
 11
62.943618
 21
-33.732895
  0
LINE
  8
型材断面
  6
DOT
 10
58.746602
 20
-33.732895
 11
58.693618
 21
-33.679912
  0
LINE
  8
型材断面
  6
DOT
 10
41.238443
 20
-53.676653
 11
61.235182
 21
-33.679912
  0
LINE
  8
型材断面
  6
DOT
 10
41.521285
 20
-53.676653
 11
61.51803
 21
-33.679912
  0
LINE
  8
型材断面
  6
DOT
 10
38.272513
 20
-54.206982
 11
62.943618
 21
-54.206982
  0
LINE
  8
型材断面
  6
DOT
 10
37.565405
 20
-54.91409
 11
62.943618
 21
-54.91409
  0
LINE
  8
型材断面
  6
DOT
 10
37.21185
 20
-55.267645
 11
62.943618
 21
-55.267645
  0
LINE
  8
型材断面
  6
DOT
 10
36.843618
 20
-58.079255
 11
62.943618
 21
-58.079255
  0
LINE
  8
型材断面
  6
DOT
 10
36.843618
 20
-57.579255
 11
62.943618
 21
-57.579255
  0
LINE
  8
型材断面
  6
DOT
 10
36.168618
 20
-56.879255
 11
62.943618
 21
-56.879255
  0
LINE
  8
型材断面
  6
DOT
 10
36.168618
 20
-56.310877
 11
62.943618
 21
-56.310877
  0
LINE
  8
型材断面
  6
DOT
 10
37.023618
 20
-59.863292
 11
62.943618
 21
-59.863292
  0
LINE
  8
型材断面
  6
DOT
 62
    47
 10
37.023618
 20
-60.363292
 11
62.943618
 21
-60.363292
  0
LINE
  8
型材断面
  6
DOT
 10
38.198617
 20
-59.713292
 11
62.943618
 21
-59.713292
  0
LINE
  8
型材断面
  6
DOT
 62
    47
 10
37.49362
 20
-59.104255
 11
62.943618
 21
-59.104255
  0
INSERT
  2
*GRP_0013
  8
型材断面
  6
CONTINUOUS
 10
0.0
 20
0.0
  0
INSERT
  2
*GRP_0014
  8
型材断面
  6
CONTINUOUS
 10
0.0
 20
0.0
  0
LINE
  8
型材断面
  6
CONTINUOUS
 10
-37.865097
 20
50.455077
 11
-33.979338
 21
49.560993
  0
LINE
  8
型材断面
  6
CONTINUOUS
 10
-37.865097
 20
50.455077
 11
-33.979338
 21
51.349163
  0
LINE
  8
型材断面
  6
CONTINUOUS
 10
-33.979338
 20
51.349163
 11
-33.979338
 21
49.560993
  0
LINE
  8
型材断面
  6
CONTINUOUS
 10
-37.865097
 20
17.155072
 11
-33.979338
 21
18.049158
  0
LINE
  8
型材断面
  6
CONTINUOUS
 10
-37.865097
 20
17.155072
 11
-33.979338
 21
16.260988
  0
LINE
  8
型材断面
  6
CONTINUOUS
 10
-33.979338
 20
16.260988
 11
-33.979338
 21
18.049158
  0
LINE
  8
型材断面
  6
CONTINUOUS
 10
-98.912853
 20
17.155072
 11
-102.798613
 21
18.049158
  0
LINE
  8
型材断面
  6
CONTINUOUS
 10
-98.912853
 20
17.155072
 11
-102.798613
 21
16.260988
  0
LINE
  8
型材断面
  6
CONTINUOUS
 10
-102.798613
 20
16.260988
 11
-102.798613
 21
18.049158
  0
LINE
  8
型材断面
  6
CONTINUOUS
 10
-98.912853
 20
50.455077
 11
-102.798613
 21
49.560993
  0
LINE
  8
型材断面
  6
CONTINUOUS
 10
-98.912853
 20
50.455077
 11
-102.798613
 21
51.349163
  0
LINE
  8
型材断面
  6
CONTINUOUS
 10
-102.798613
 20
51.349163
 11
-102.798613
 21
49.560993
  0
POLYLINE
  8
型材断面
  6
CONTINUOUS
 66
     1
 70
     1
  0
VERTEX
  8
型材断面
 10
-58.963018
 20
-2.066482
  0
VERTEX
  8
型材断面
 10
-77.51823
 20
-2.066482
  0
VERTEX
  8
型材断面
 10
-77.51823
 20
-6.858518
  0
VERTEX
  8
型材断面
 10
-58.963018
 20
-6.858518
  0
SEQEND
  0
POLYLINE
  8
型材断面
  6
CONTINUOUS
 66
     1
 70
     1
  0
VERTEX
  8
型材断面
 10
-58.963018
 20
73.733518
  0
VERTEX
  8
型材断面
 10
-77.51823
 20
73.733518
  0
VERTEX
  8
型材断面
 10
-77.51823
 20
68.941482
  0
VERTEX
  8
型材断面
 10
-58.963018
 20
68.941482
  0
SEQEND
  0
LINE
  8
型材断面
  6
CONTINUOUS
 10
-14.62742
 20
4.585462
 11
-16.870865
 21
0.699703
  0
LINE
  8
型材断面
  6
CONTINUOUS
 10
-14.62742
 20
4.585462
 11
-12.383975
 21
0.699703
  0
LINE
  8
型材断面
  6
CONTINUOUS
 10
-12.383975
 20
0.699703
 11
-16.870865
 21
0.699703
  0
LINE
  8
型材断面
  6
CONTINUOUS
 10
-14.62742
 20
-3.104085
 11
-13.733335
 21
-6.989845
  0
LINE
  8
型材断面
  6
CONTINUOUS
 10
-14.62742
 20
-3.104085
 11
-15.521505
 21
-6.989845
  0
LINE
  8
型材断面
  6
CONTINUOUS
 10
-15.521505
 20
-6.989845
 11
-13.733335
 21
-6.989845
  0
LINE
  8
型材断面
  6
CONTINUOUS
 10
-23.6613
 20
-0.70819
 11
28.99538
 21
-0.70819
  0
LINE
  8
型材断面
  6
CONTINUOUS
 10
-23.6613
 20
-11.908183
 11
28.99538
 21
-11.908183
  0
LINE
  8
型材断面
  6
CONTINUOUS
 10
-23.6613
 20
-18.748128
 11
28.99538
 21
-18.748128
  0
LINE
  8
型材断面
  6
CONTINUOUS
 10
-23.6613
 20
-25.588072
 11
28.99538
 21
-25.588072
  0
LINE
  8
型材断面
  6
CONTINUOUS
 10
121.211362
 20
-38.757607
 11
145.142985
 21
-38.757607
  0
LINE
  8
ガラス
  6
CONTINUOUS
 10
-66.481965
 20
-55.035473
 11
-70.3546
 21
-58.908108
  0
LINE
  8
ガラス
  6
CONTINUOUS
 10
-67.362288
 20
-56.63383
 11
-68.756243
 21
-58.027785
  0
LINE
  8
ガラス
  6
CONTINUOUS
 10
-68.080322
 20
-55.915795
 11
-69.474277
 21
-57.30975
  0
LINE
  8
ガラス
  6
CONTINUOUS
 10
-66.391708
 20
20.318943
 11
-70.264343
 21
16.446307
  0
LINE
  8
ガラス
  6
CONTINUOUS
 10
-67.27203
 20
18.720585
 11
-68.665985
 21
17.32663
  0
LINE
  8
ガラス
  6
CONTINUOUS
 10
-67.990065
 20
19.43862
 11
-69.38402
 21
18.044665
  0
LINE
  8
ガラス
  6
CONTINUOUS
 10
-50.335632
 20
35.730747
 11
-54.208267
 21
31.858113
  0
LINE
  8
ガラス
  6
CONTINUOUS
 10
-51.215955
 20
34.13239
 11
-52.60991
 21
32.738435
  0
LINE
  8
ガラス
  6
CONTINUOUS
 10
-51.93399
 20
34.850425
 11
-53.327945
 21
33.45647
  0
LINE
  8
ガラス
  6
CONTINUOUS
 10
-82.57973
 20
35.730747
 11
-86.452365
 21
31.858113
  0
LINE
  8
ガラス
  6
CONTINUOUS
 10
-83.460052
 20
34.13239
 11
-84.854007
 21
32.738435
  0
LINE
  8
ガラス
  6
CONTINUOUS
 10
-84.178088
 20
34.850425
 11
-85.572043
 21
33.45647
  0
LINE
  8
ガラス
  6
CONTINUOUS
 10
-66.391708
 20
52.492728
 11
-70.264343
 21
48.620092
  0
LINE
  8
ガラス
  6
CONTINUOUS
 10
-67.27203
 20
50.89437
 11
-68.665985
 21
49.500415
  0
LINE
  8
ガラス
  6
CONTINUOUS
 10
-67.990065
 20
51.612405
 11
-69.38402
 21
50.21845
  0
TEXT
  7
TextStyle03
  8
文字
  6
CONTINUOUS
 10
-20.7
 20
18.7
  1
ﾊﾞﾗﾝｽｽﾃｰ
 40
3.0
 72
     5
 11
-7.3875
 21
18.7
  0
TEXT
  7
TextStyle03
  8
文字
  6
CONTINUOUS
 10
-97.275
 20
79.525
  1
アンカーピッチ
 40
3.0
 72
     5
 11
-74.025
 21
79.525
  0
TEXT
  7
TextStyle03
  8
文字
  6
CONTINUOUS
 10
-120.925
 20
1.425
  1
アンカーピッチ
 40
3.0
 50
90.0
 72
     5
 11
-120.925
 21
24.675
  0
TEXT
  7
TextStyle03
  8
文字
  6
CONTINUOUS
 10
-76.525
 20
-5.875
  1
可動装置側
 40
3.0
 72
     5
 11
-60.025
 21
-5.875
  0
TEXT
  7
TextStyle03
  8
文字
  6
CONTINUOUS
 10
-76.525
 20
69.925
  1
可動装置側
 40
3.0
 72
     5
 11
-60.025
 21
69.925
  0
TEXT
  7
TextStyle03
  8
文字
  6
CONTINUOUS
 10
71.5
 20
92.0
  1
ＮＳコード：ＮＳ４ＣＳ
 40
5.0
 72
     5
 11
132.75
 21
92.0
  0
TEXT
  7
TextStyle03
  8
文字
  6
CONTINUOUS
 10
-10.35
 20
1.025
  1
は排水穴位置を示す
 40
3.0
 72
     5
 11
19.65
 21
1.025
  0
TEXT
  7
TextStyle03
  8
文字
  6
CONTINUOUS
 10
-10.35
 20
-6.825
  1
はケーシング位置を示す
 40
3.0
 72
     5
 11
26.4
 21
-6.825
  0
TEXT
  7
TextStyle03
  8
文字
  6
CONTINUOUS
 10
-10.35
 20
-10.2
  1
４ヶ所中1ヶ所に設定
 40
3.0
 72
     5
 11
21.3375
 21
-10.2
  0
TEXT
  7
TextStyle03
  8
文字
  6
CONTINUOUS
 10
-15.95
 20
-17.35
  1
アンカー数量　６ヶ所
 40
3.0
 72
     5
 11
17.425
 21
-17.35
  0
TEXT
  7
TextStyle03
  8
文字
  6
CONTINUOUS
 10
-15.975
 20
-24.15
  1
アームユニット数　２ヶ所
 40
3.0
 72
     5
 11
24.15
 21
-24.15
  0
TEXT
  7
TextStyle03
  8
文字
  6
CONTINUOUS
 10
124.8
 20
-37.525
  1
ガラス寸法
 40
3.0
 72
     5
 11
141.3
 21
-37.525
  0
TEXT
  7
TextStyle03
  8
文字
  6
CONTINUOUS
 10
160.725
 20
-68.025
  1
×４枚
 40
3.0
 72
     5
 11
170.475
 21
-68.025
  0
TEXT
  7
TextStyle03
  8
文字
  6
CONTINUOUS
 10
71.575
 20
118.825
  1
シリーズ：ＳＴＦ４
 40
5.0
 72
     5
 11
121.575
 21
118.825
  0
TEXT
  7
TextStyle03
  8
文字
  6
CONTINUOUS
 10
71.575
 20
113.2
  1
　　　　　四角錘（上下可動）900×900タイプ
 40
5.0
 72
     5
 11
189.075
 21
113.2
  0
TEXT
  7
TextStyle03
  8
文字
  6
CONTINUOUS
 10
71.575
 20
107.575
  1
　　　　　シングルガラス仕様
 40
5.0
 72
     5
 11
149.7
 21
107.575
  0
TEXT
  7
TextStyle03
  8
文字
  6
CONTINUOUS
 10
71.575
 20
101.95
  1
図面名　：外観姿図
 40
5.0
 72
     5
 11
121.575
 21
101.95
  0
TEXT
  7
TextStyle03
  8
文字
  6
CONTINUOUS
 10
71.575
 20
96.325
  1
　　　　　　
 40
5.0
 72
     5
 11
104.7
 21
96.325
  0
INSERT
  2
*DIM_0002
  8
寸法
  6
CONTINUOUS
 10
0.0
 20
0.0
  0
INSERT
  2
*DIM_0003
  8
寸法
  6
CONTINUOUS
 10
0.0
 20
0.0
  0
INSERT
  2
*DIM_0004
  8
寸法
  6
CONTINUOUS
 10
0.0
 20
0.0
  0
INSERT
  2
*DIM_0005
  8
寸法
  6
CONTINUOUS
 10
0.0
 20
0.0
  0
INSERT
  2
*DIM_0006
  8
寸法
  6
CONTINUOUS
 10
0.0
 20
0.0
  0
INSERT
  2
*DIM_0007
  8
寸法
  6
CONTINUOUS
 10
0.0
 20
0.0
  0
INSERT
  2
*DIM_0008
  8
寸法
  6
CONTINUOUS
 10
0.0
 20
0.0
  0
INSERT
  2
*GRP_0009
  8
寸法
  6
CONTINUOUS
 10
0.0
 20
0.0
  0
INSERT
  2
*DIM_0010
  8
寸法
  6
CONTINUOUS
 10
0.0
 20
0.0
  0
INSERT
  2
*DIM_0011
  8
寸法
  6
CONTINUOUS
 10
0.0
 20
0.0
  0
INSERT
  2
*DIM_0012
  8
寸法
  6
CONTINUOUS
 10
0.0
 20
0.0
  0
INSERT
  2
*DIM_0015
  8
寸法
  6
CONTINUOUS
 10
0.0
 20
0.0
  0
INSERT
  2
*DIM_0016
  8
寸法
  6
CONTINUOUS
 10
0.0
 20
0.0
  0
CIRCLE
  8
寸法
  6
CONTINUOUS
 10
-109.907333
 20
33.805075
 40
1.73792
  0
INSERT
  2
*DIM_0017
  8
寸法
  6
CONTINUOUS
 10
0.0
 20
0.0
  0
INSERT
  2
*DIM_0018
  8
寸法
  6
CONTINUOUS
 10
0.0
 20
0.0
  0
INSERT
  2
*DIM_0019
  8
寸法
  6
CONTINUOUS
 10
0.0
 20
0.0
  0
LINE
  8
曲げ物
  6
CONTINUOUS
 10
133.710815
 20
-70.6379
 11
157.103605
 21
-37.555498
  0
LINE
  8
曲げ物
  6
CONTINUOUS
 10
157.103605
 20
-37.555498
 11
180.496395
 21
-70.6379
  0
LINE
  8
曲げ物
  6
CONTINUOUS
 10
133.710815
 20
-70.6379
 11
180.496395
 21
-70.6379
  0
ENDSEC
  0
EOF
