  0
SECTION
  2
HEADER
  9
$EXTMIN
 10
-210.0
 20
-148.5
  9
$EXTMAX
 10
210.0
 20
148.5
  9
$PDMODE
 70
    32
  9
$PDSIZE
 40
1.5
  9
$LTSCALE
 40
10.0
  0
ENDSEC
  0
SECTION
  2
TABLES
  0
TABLE
  2
LTYPE
 70
    15
  0
LTYPE
  2
CONTINUOUS
 70
    64
  3
実線
 72
    65
 73
     0
 40
0.0
  0
LTYPE
  2
DASHED
 70
    64
  3
破線A
 72
    65
 73
     2
 40
0.6
 49
0.4
 49
-0.2
  0
LTYPE
  2
DASHEDX2
 70
    64
  3
破線B
 72
    65
 73
     2
 40
1.3
 49
0.9
 49
-0.4
  0
LTYPE
  2
DASHDOT
 70
    64
  3
１点鎖線A
 72
    65
 73
     4
 40
0.5375
 49
0.375
 49
-0.05
 49
0.0625
 49
-0.05
  0
LTYPE
  2
DASHDOTX2
 70
    64
  3
１点鎖線B
 72
    65
 73
     4
 40
1.075
 49
0.75
 49
-0.1
 49
0.125
 49
-0.1
  0
LTYPE
  2
DIVIDE2
 70
    64
  3
２点鎖線A
 72
    65
 73
     6
 40
0.5125
 49
0.3
 49
-0.0375
 49
0.05
 49
-0.0375
 49
0.05
 49
-0.0375
  0
LTYPE
  2
DIVIDE
 70
    64
  3
２点鎖線B
 72
    65
 73
     6
 40
1.05
 49
0.55
 49
-0.1
 49
0.1
 49
-0.1
 49
0.1
 49
-0.1
  0
LTYPE
  2
DOT
 70
    64
  3
点線A
 72
    65
 73
     2
 40
0.1125
 49
0.0625
 49
-0.05
  0
LTYPE
  2
DOTX2
 70
    64
  3
点線B
 72
    65
 73
     2
 40
0.275
 49
0.15
 49
-0.125
  0
LTYPE
  2
CONTINUOUS
 70
    64
  3
実線
 72
    65
 73
     0
 40
0.0
  0
LTYPE
  2
CONTINUOUS
 70
    64
  3
実線
 72
    65
 73
     0
 40
0.0
  0
LTYPE
  2
CONTINUOUS
 70
    64
  3
実線
 72
    65
 73
     0
 40
0.0
  0
LTYPE
  2
CONTINUOUS
 70
    64
  3
実線
 72
    65
 73
     0
 40
0.0
  0
LTYPE
  2
CONTINUOUS
 70
    64
  3
実線
 72
    65
 73
     0
 40
0.0
  0
LTYPE
  2
CONTINUOUS
 70
    64
  3
実線
 72
    65
 73
     0
 40
0.0
  0
ENDTAB
  0
TABLE
  2
LAYER
 70
    34
  0
LAYER
  2
通り芯
 70
     0
 62
    15
  6
CONTINUOUS
  0
LAYER
  2
補助線
 70
     0
 62
    16
  6
DOT
  0
LAYER
  2
躯体
 70
     0
 62
    31
  6
CONTINUOUS
  0
LAYER
  2
型材
 70
     0
 62
    32
  6
CONTINUOUS
  0
LAYER
  2
型材断面
 70
     0
 62
    47
  6
CONTINUOUS
  0
LAYER
  2
ガラス
 70
     0
 62
    48
  6
CONTINUOUS
  0
LAYER
  2
ゴム等
 70
     0
 62
    63
  6
CONTINUOUS
  0
LAYER
  2
ボルト／ビス
 70
     0
 62
    64
  6
CONTINUOUS
  0
LAYER
  2
文字
 70
     0
 62
    79
  6
CONTINUOUS
  0
LAYER
  2
寸法
 70
     0
 62
    80
  6
CONTINUOUS
  0
LAYER
  2
ﾊｯﾁﾝｸﾞ
 70
     0
 62
    95
  6
CONTINUOUS
  0
LAYER
  2
別途部材
 70
     0
 62
    96
  6
CONTINUOUS
  0
LAYER
  2
曲げ物
 70
     0
 62
   111
  6
CONTINUOUS
  0
LAYER
  2
鉄骨等
 70
     0
 62
   112
  6
CONTINUOUS
  0
LAYER
  2
St
 70
     0
 62
   127
  6
CONTINUOUS
  0
LAYER
  2
その他部品等
 70
     0
 62
   128
  6
CONTINUOUS
  0
LAYER
  2
ｶﾞｽｹｯﾄ
 70
     0
 62
   143
  6
CONTINUOUS
  0
LAYER
  2
ｽｹｯﾁ
 70
     0
 62
    14
  6
CONTINUOUS
  0
LAYER
  2
0
 70
     0
 62
    17
  6
CONTINUOUS
  0
LAYER
  2
1
 70
     0
 62
    30
  6
CONTINUOUS
  0
LAYER
  2
4
 70
     0
 62
    33
  6
CONTINUOUS
  0
LAYER
  2
ﾚｲﾔ3
 70
     0
 62
    46
  6
CONTINUOUS
  0
LAYER
  2
外形線
 70
     0
 62
    49
  6
CONTINUOUS
  0
LAYER
  2
部品
 70
     0
 62
    14
  6
CONTINUOUS
  0
LAYER
  2
サッシ芯
 70
     0
 62
    17
  6
DASHDOTX2
  0
LAYER
  2
寸法線
 70
     0
 62
    62
  6
CONTINUOUS
  0
LAYER
  2
姿図外形線
 70
     0
 62
    65
  6
CONTINUOUS
  0
LAYER
  2
姿補助線
 70
     0
 62
    30
  6
CONTINUOUS
  0
LAYER
  2
透視線
 70
     0
 62
    78
  6
DOT
  0
LAYER
  2
用紙
 70
     0
 62
    81
  6
CONTINUOUS
  0
LAYER
  2
実線図枠
 70
     0
 62
    94
  6
CONTINUOUS
  0
LAYER
  2
補助図枠
 70
     0
 62
    97
  6
CONTINUOUS
  0
LAYER
  2
建具記号
 70
     0
 62
   110
  6
CONTINUOUS
  0
LAYER
  2
補助文字
 70
     0
 62
   113
  6
CONTINUOUS
  0
ENDTAB
  0
TABLE
  2
STYLE
 70
    10
  0
STYLE
  2
STANDARD
 70
     0
 40
1.0
 41
1.0
 42
1.0
 50
0.0
 71
     0
  3
TXT
  4
BIGFONT
  0
STYLE
  2
TATE
 70
     4
 40
1.0
 41
1.0
 42
1.0
 50
0.0
 71
     0
  3
TXT
  4
BIGFONT
  0
STYLE
  2
TextStyle03
 70
     0
 40
1.0
 41
1.0
 42
1.0
 50
0.0
 71
     0
  3
MONOTXT
  4
BIGFONT
  0
STYLE
  2
TextStyle04
 70
     0
 40
1.0
 41
1.0
 42
1.0
 50
0.0
 71
     0
  3
MONOTXT
  4
BIGFONT
  0
STYLE
  2
TextStyle05
 70
     0
 40
1.0
 41
1.0
 42
1.0
 50
0.0
 71
     0
  3
MONOTXT
  4
BIGFONT
  0
STYLE
  2
TextStyle06
 70
     0
 40
1.0
 41
1.0
 42
1.0
 50
0.0
 71
     0
  3
MONOTXT
  4
BIGFONT
  0
STYLE
  2
TextStyle07
 70
     0
 40
1.0
 41
1.0
 42
1.0
 50
0.0
 71
     0
  3
MONOTXT
  4
BIGFONT
  0
STYLE
  2
TextStyle08
 70
     0
 40
1.0
 41
1.0
 42
1.0
 50
0.0
 71
     0
  3
MONOTXT
  4
BIGFONT
  0
STYLE
  2
TextStyle09
 70
     0
 40
1.0
 41
1.0
 42
1.0
 50
0.0
 71
     0
  3
MONOTXT
  4
BIGFONT
  0
STYLE
  2
TextStyle10
 70
     0
 40
1.0
 41
1.0
 42
1.0
 50
0.0
 71
     0
  3
MONOTXT
  4
BIGFONT
  0
ENDTAB
  0
ENDSEC
  0
SECTION
  2
BLOCKS
  0
BLOCK
  2
*GRP_0001
 70
    65
 10
0.0
 20
0.0
  0
LINE
  8
型材断面
  6
CONTINUOUS
 10
195.0
 20
133.5
 11
195.0
 21
-133.5
  0
LINE
  8
型材断面
  6
CONTINUOUS
 10
195.0
 20
-133.5
 11
-185.0
 21
-133.5
  0
LINE
  8
型材断面
  6
CONTINUOUS
 10
-185.0
 20
-133.5
 11
-185.0
 21
133.5
  0
LINE
  8
型材断面
  6
CONTINUOUS
 10
195.0
 20
133.5
 11
-185.0
 21
133.5
  0
LINE
  8
型材断面
  6
CONTINUOUS
 10
145.0
 20
-133.5
 11
145.0
 21
-118.5
  0
LINE
  8
型材断面
  6
CONTINUOUS
 10
195.0
 20
-118.5
 11
145.0
 21
-118.5
  0
ENDBLK
  0
BLOCK
  2
*DIM_0002
 70
    65
 10
0.0
 20
0.0
  0
LINE
  8
寸法
  6
BYBLOCK
 62
     0
 10
-72.146997
 20
-25.570405
 11
-72.146997
 21
-24.904732
  0
LINE
  8
寸法
  6
BYBLOCK
 62
     0
 10
-42.146997
 20
-25.570405
 11
-42.146997
 21
-24.904732
  0
LINE
  8
寸法
  6
BYBLOCK
 62
     0
 10
-72.146997
 20
-24.904732
 11
-42.146997
 21
-24.904732
  0
POINT
  8
寸法
 62
     0
 10
-72.146997
 20
-24.904732
  0
POINT
  8
寸法
 62
     0
 10
-42.146997
 20
-24.904732
  0
TEXT
  7
TextStyle03
  8
寸法
  6
CONTINUOUS
 62
     0
 10
-68.025
 20
-24.575
  1
呼称寸法　600
 40
3.0
 72
     5
 11
-46.275
 21
-24.575
  0
ENDBLK
  0
BLOCK
  2
*DIM_0003
 70
    65
 10
0.0
 20
0.0
  0
LINE
  8
寸法
  6
BYBLOCK
 62
     0
 10
-37.871997
 20
-61.66373
 11
-37.871997
 21
-24.904732
  0
LINE
  8
寸法
  6
BYBLOCK
 62
     0
 10
-42.146997
 20
-24.904732
 11
-37.871997
 21
-24.904732
  0
POINT
  8
寸法
 62
     0
 10
-37.871997
 20
-24.904732
  0
TEXT
  7
TextStyle03
  8
寸法
  6
CONTINUOUS
 62
     0
 10
-36.55625
 20
-24.575
  1
85.5
 40
3.0
 72
     5
 11
-29.99375
 21
-24.575
  0
ENDBLK
  0
BLOCK
  2
*DIM_0004
 70
    65
 10
0.0
 20
0.0
  0
LINE
  8
寸法
  6
BYBLOCK
 62
     0
 10
-76.421998
 20
-61.66373
 11
-76.421998
 21
-24.904732
  0
LINE
  8
寸法
  6
BYBLOCK
 62
     0
 10
-72.146997
 20
-24.904732
 11
-76.421998
 21
-24.904732
  0
POINT
  8
寸法
 62
     0
 10
-72.146997
 20
-24.904732
  0
POINT
  8
寸法
 62
     0
 10
-76.421998
 20
-24.904732
  0
TEXT
  7
TextStyle03
  8
寸法
  6
CONTINUOUS
 62
     0
 10
-84.33125
 20
-24.575
  1
85.5
 40
3.0
 72
     5
 11
-77.76875
 21
-24.575
  0
ENDBLK
  0
BLOCK
  2
*DIM_0005
 70
    65
 10
0.0
 20
0.0
  0
LINE
  8
寸法
  6
BYBLOCK
 62
     0
 10
-38.197
 20
-70.657107
 11
-20.01811
 21
-70.657107
  0
LINE
  8
寸法
  6
BYBLOCK
 62
     0
 10
-36.871997
 20
-62.66373
 11
-20.01811
 21
-62.66373
  0
LINE
  8
寸法
  6
BYBLOCK
 62
     0
 10
-20.01811
 20
-70.657107
 11
-20.01811
 21
-62.66373
  0
POINT
  8
寸法
 62
     0
 10
-20.01811
 20
-70.657107
  0
POINT
  8
寸法
 62
     0
 10
-20.01811
 20
-62.66373
  0
TEXT
  7
TextStyle03
  8
寸法
  6
CONTINUOUS
 62
     0
 10
-17.025
 20
-70.825
  1
159.9
 40
3.0
 50
90.0
 72
     5
 11
-17.025
 21
-62.575
  0
ENDBLK
  0
BLOCK
  2
*DIM_0006
 70
    65
 10
0.0
 20
0.0
  0
LINE
  8
寸法
  6
BYBLOCK
 62
     0
 10
-56.146997
 20
-43.282765
 11
-20.01811
 21
-43.282765
  0
LINE
  8
寸法
  6
BYBLOCK
 62
     0
 10
-20.01811
 20
-62.66373
 11
-20.01811
 21
-43.282765
  0
POINT
  8
寸法
 62
     0
 10
-20.01811
 20
-62.66373
  0
POINT
  8
寸法
 62
     0
 10
-20.01811
 20
-43.282765
  0
TEXT
  7
TextStyle03
  8
寸法
  6
CONTINUOUS
 62
     0
 10
-20.4
 20
-57.125
  1
387.6
 40
3.0
 50
90.0
 72
     5
 11
-20.4
 21
-48.875
  0
ENDBLK
  0
BLOCK
  2
*DIM_0007
 70
    65
 10
0.0
 20
0.0
  0
LINE
  8
寸法
  6
BYBLOCK
 62
     0
 10
-61.396995
 20
-46.532765
 11
-61.396995
 21
-36.683587
  0
LINE
  8
寸法
  6
BYBLOCK
 62
     0
 10
-52.896997
 20
-46.532765
 11
-52.896997
 21
-36.683587
  0
LINE
  8
寸法
  6
BYBLOCK
 62
     0
 10
-61.396995
 20
-36.683587
 11
-52.896997
 21
-36.683587
  0
POINT
  8
寸法
 62
     0
 10
-61.396995
 20
-36.683587
  0
POINT
  8
寸法
 62
     0
 10
-52.896997
 20
-36.683587
  0
TEXT
  7
TextStyle03
  8
寸法
  6
CONTINUOUS
 62
     0
 10
-59.5875
 20
-36.35
  1
170
 40
3.0
 72
     5
 11
-54.7125
 21
-36.35
  0
ENDBLK
  0
BLOCK
  2
*DIM_0008
 70
    65
 10
0.0
 20
0.0
  0
LINE
  8
寸法
  6
BYBLOCK
 62
     0
 10
-46.108528
 20
-43.282765
 11
-47.052805
 21
-43.282765
  0
LINE
  8
寸法
  6
BYBLOCK
 62
     0
 10
-51.896997
 20
-47.532765
 11
-47.052805
 21
-47.532765
  0
LINE
  8
寸法
  6
BYBLOCK
 62
     0
 10
-47.052805
 20
-43.282765
 11
-47.052805
 21
-47.532765
  0
POINT
  8
寸法
 62
     0
 10
-47.052805
 20
-43.282765
  0
POINT
  8
寸法
 62
     0
 10
-47.052805
 20
-47.532765
  0
TEXT
  7
TextStyle03
  8
寸法
  6
CONTINUOUS
 62
     0
 10
-47.425
 20
-47.04375
  1
85
 40
3.0
 50
90.0
 72
     5
 11
-47.425
 21
-43.85625
  0
ENDBLK
  0
BLOCK
  2
*DIM_0009
 70
    65
 10
0.0
 20
0.0
  0
LINE
  8
寸法
  6
CONTINUOUS
 62
     0
 10
-47.146997
 20
46.95222
 11
-47.146997
 21
66.902825
  0
LINE
  8
寸法
  6
CONTINUOUS
 62
     0
 10
-67.146997
 20
46.95222
 11
-67.146997
 21
66.902825
  0
LINE
  8
寸法
  6
CONTINUOUS
 62
     0
 10
-47.146997
 20
66.902825
 11
-67.146997
 21
66.902825
  0
POINT
  8
寸法
 62
     0
 10
-47.146997
 20
66.902825
 50
-270.0
  0
POINT
  8
寸法
 62
     0
 10
-67.146997
 20
66.902825
 50
-270.0
  0
TEXT
  7
TextStyle03
  8
寸法
  6
CONTINUOUS
 62
     0
 10
-59.6375
 20
67.3
  1
400
 40
3.0
 72
     5
 11
-54.7625
 21
67.3
  0
ENDBLK
  0
BLOCK
  2
*GRP_0010
 70
    65
 10
0.0
 20
0.0
  0
POLYLINE
  8
寸法
  6
CONTINUOUS
 62
     0
 66
     1
  0
VERTEX
  8
寸法
 10
-44.483478
 20
28.448515
  0
VERTEX
  8
寸法
 10
-40.802283
 20
24.76732
  0
VERTEX
  8
寸法
 10
-17.959705
 20
24.76732
  0
SEQEND
  0
ENDBLK
  0
BLOCK
  2
*DIM_0011
 70
    65
 10
0.0
 20
0.0
  0
LINE
  8
寸法
  6
BYBLOCK
 62
     0
 10
-41.146997
 20
45.952223
 11
-20.597567
 21
45.952223
  0
LINE
  8
寸法
  6
BYBLOCK
 62
     0
 10
-33.12312
 20
40.102225
 11
-20.597567
 21
40.102225
  0
LINE
  8
寸法
  6
BYBLOCK
 62
     0
 10
-20.597567
 20
45.952223
 11
-20.597567
 21
40.102225
  0
POINT
  8
寸法
 62
     0
 10
-20.597567
 20
45.952223
  0
POINT
  8
寸法
 62
     0
 10
-20.597567
 20
40.102225
  0
TEXT
  7
TextStyle03
  8
寸法
  6
CONTINUOUS
 62
     0
 10
-20.975
 20
40.5625
  1
117
 40
3.0
 50
90.0
 72
     5
 11
-20.975
 21
45.4375
  0
ENDBLK
  0
BLOCK
  2
*DIM_0012
 70
    65
 10
0.0
 20
0.0
  0
LINE
  8
寸法
  6
BYBLOCK
 62
     0
 10
-41.146997
 20
15.952223
 11
-20.597567
 21
15.952223
  0
LINE
  8
寸法
  6
BYBLOCK
 62
     0
 10
-33.12312
 20
21.80222
 11
-20.597567
 21
21.80222
  0
LINE
  8
寸法
  6
BYBLOCK
 62
     0
 10
-20.597567
 20
15.952223
 11
-20.597567
 21
21.80222
  0
POINT
  8
寸法
 62
     0
 10
-20.597567
 20
15.952223
  0
POINT
  8
寸法
 62
     0
 10
-20.597567
 20
21.80222
  0
TEXT
  7
TextStyle03
  8
寸法
  6
CONTINUOUS
 62
     0
 10
-20.975
 20
16.4125
  1
117
 40
3.0
 50
90.0
 72
     5
 11
-20.975
 21
21.2875
  0
ENDBLK
  0
BLOCK
  2
*GRP_0013
 70
    65
 10
0.0
 20
0.0
  0
LINE
  8
補助線
  6
BYBLOCK
 62
    64
 10
64.508473
 20
-68.160545
 11
64.713448
 21
-68.30367
  0
LINE
  8
補助線
  6
BYBLOCK
 62
    64
 10
64.682523
 20
-68.12962
 11
64.539398
 21
-68.334595
  0
LINE
  8
補助線
  6
BYBLOCK
 62
    64
 10
56.514352
 20
-62.578743
 11
56.309375
 21
-62.435617
  0
LINE
  8
補助線
  6
BYBLOCK
 62
    64
 10
56.483425
 20
-62.40469
 11
56.340302
 21
-62.609667
  0
LINE
  8
補助線
  6
BYBLOCK
 62
    64
 10
48.31525
 20
-56.85382
 11
48.110273
 21
-56.710697
  0
LINE
  8
補助線
  6
BYBLOCK
 62
    64
 10
48.284323
 20
-56.67977
 11
48.1412
 21
-56.884747
  0
LINE
  8
型材断面
  6
CONTINUOUS
 10
65.736533
 20
-67.493468
 11
65.922092
 21
-68.537767
  0
LINE
  8
型材断面
  6
CONTINUOUS
 10
65.922092
 20
-68.537767
 11
65.3496
 21
-69.35768
  0
LINE
  8
型材断面
  6
CONTINUOUS
 10
65.3496
 20
-69.35768
 11
64.3053
 21
-69.54324
  0
LINE
  8
型材断面
  6
CONTINUOUS
 10
56.698107
 20
-62.09723
 11
56.125612
 21
-62.91714
  0
LINE
  8
型材断面
  6
CONTINUOUS
 10
48.51842
 20
-55.471125
 11
47.47412
 21
-55.656688
  0
LINE
  8
型材断面
  6
CONTINUOUS
 10
47.47412
 20
-55.656688
 11
46.901627
 21
-56.476598
  0
LINE
  8
型材断面
  6
CONTINUOUS
 10
46.901627
 20
-56.476598
 11
47.087192
 21
-57.5209
  0
LINE
  8
型材断面
  6
CONTINUOUS
 10
65.736533
 20
-67.493468
 11
48.518435
 21
-55.471123
  0
LINE
  8
型材断面
  6
CONTINUOUS
 10
64.3053
 20
-69.54324
 11
47.087188
 21
-57.52089
  0
LINE
  8
ボルト／ビス
  6
CONTINUOUS
 62
    64
 10
64.875382
 20
-67.853407
 11
65.071135
 21
-68.271755
  0
LINE
  8
ボルト／ビス
  6
CONTINUOUS
 62
    64
 10
64.875382
 20
-67.853407
 11
64.415207
 21
-67.813763
  0
LINE
  8
ボルト／ビス
  6
CONTINUOUS
 62
    64
 10
64.346537
 20
-68.610808
 11
64.806712
 21
-68.650453
  0
LINE
  8
ボルト／ビス
  6
CONTINUOUS
 62
    64
 10
64.346537
 20
-68.610808
 11
64.150785
 21
-68.19246
  0
CIRCLE
  8
ボルト／ビス
  6
CONTINUOUS
 62
    64
 10
64.61096
 20
-68.232107
 40
0.4
  0
LINE
  8
ボルト／ビス
  6
CONTINUOUS
 62
    64
 10
64.415207
 20
-67.813763
 11
64.150785
 21
-68.19246
  0
LINE
  8
ボルト／ビス
  6
CONTINUOUS
 62
    64
 10
65.071135
 20
-68.271755
 11
64.806712
 21
-68.650453
  0
LINE
  8
ボルト／ビス
  6
CONTINUOUS
 62
    64
 10
56.676288
 20
-62.12848
 11
56.21611
 21
-62.088832
  0
LINE
  8
ボルト／ビス
  6
CONTINUOUS
 62
    64
 10
56.676288
 20
-62.12848
 11
56.87204
 21
-62.546825
  0
LINE
  8
ボルト／ビス
  6
CONTINUOUS
 62
    64
 10
56.14744
 20
-62.885877
 11
55.951687
 21
-62.467533
  0
LINE
  8
ボルト／ビス
  6
CONTINUOUS
 62
    64
 10
56.14744
 20
-62.885877
 11
56.607615
 21
-62.925525
  0
CIRCLE
  8
ボルト／ビス
  6
CONTINUOUS
 62
    64
 10
56.411862
 20
-62.50718
 40
0.4
  0
LINE
  8
ボルト／ビス
  6
CONTINUOUS
 62
    64
 10
56.87204
 20
-62.546825
 11
56.607615
 21
-62.925525
  0
LINE
  8
ボルト／ビス
  6
CONTINUOUS
 62
    64
 10
56.21611
 20
-62.088832
 11
55.951687
 21
-62.467533
  0
LINE
  8
ボルト／ビス
  6
CONTINUOUS
 62
    64
 10
48.477182
 20
-56.40356
 11
48.017007
 21
-56.363912
  0
LINE
  8
ボルト／ビス
  6
CONTINUOUS
 62
    64
 10
48.477182
 20
-56.40356
 11
48.672935
 21
-56.821907
  0
LINE
  8
ボルト／ビス
  6
CONTINUOUS
 62
    64
 10
47.94834
 20
-57.16096
 11
47.752587
 21
-56.742612
  0
LINE
  8
ボルト／ビス
  6
CONTINUOUS
 62
    64
 10
47.94834
 20
-57.16096
 11
48.408515
 21
-57.200605
  0
CIRCLE
  8
ボルト／ビス
  6
CONTINUOUS
 62
    64
 10
48.21276
 20
-56.78226
 40
0.4
  0
LINE
  8
ボルト／ビス
  6
CONTINUOUS
 62
    64
 10
48.672935
 20
-56.821907
 11
48.408515
 21
-57.200605
  0
LINE
  8
ボルト／ビス
  6
CONTINUOUS
 62
    64
 10
48.017007
 20
-56.363912
 11
47.752587
 21
-56.742612
  0
ENDBLK
  0
BLOCK
  2
*GRP_0014
 70
    65
 10
0.0
 20
0.0
  0
LINE
  8
補助線
  6
BYBLOCK
 62
    64
 10
48.315252
 20
-68.160545
 11
48.110277
 21
-68.30367
  0
LINE
  8
補助線
  6
BYBLOCK
 62
    64
 10
48.141202
 20
-68.12962
 11
48.284327
 21
-68.334595
  0
LINE
  8
補助線
  6
BYBLOCK
 62
    64
 10
56.309373
 20
-62.578743
 11
56.51435
 21
-62.435617
  0
LINE
  8
補助線
  6
BYBLOCK
 62
    64
 10
56.3403
 20
-62.40469
 11
56.483423
 21
-62.609667
  0
LINE
  8
補助線
  6
BYBLOCK
 62
    64
 10
64.508475
 20
-56.85382
 11
64.713452
 21
-56.710697
  0
LINE
  8
補助線
  6
BYBLOCK
 62
    64
 10
64.539402
 20
-56.67977
 11
64.682525
 21
-56.884747
  0
LINE
  8
型材断面
  6
CONTINUOUS
 10
47.087192
 20
-67.493468
 11
46.901633
 21
-68.537767
  0
LINE
  8
型材断面
  6
CONTINUOUS
 10
46.901633
 20
-68.537767
 11
47.474125
 21
-69.35768
  0
LINE
  8
型材断面
  6
CONTINUOUS
 10
47.474125
 20
-69.35768
 11
48.518425
 21
-69.54324
  0
LINE
  8
型材断面
  6
CONTINUOUS
 10
56.125618
 20
-62.09723
 11
56.698113
 21
-62.91714
  0
LINE
  8
型材断面
  6
CONTINUOUS
 10
64.305305
 20
-55.471125
 11
65.349605
 21
-55.656688
  0
LINE
  8
型材断面
  6
CONTINUOUS
 10
65.349605
 20
-55.656688
 11
65.922098
 21
-56.476598
  0
LINE
  8
型材断面
  6
CONTINUOUS
 10
65.922098
 20
-56.476598
 11
65.736533
 21
-57.5209
  0
LINE
  8
型材断面
  6
CONTINUOUS
 10
47.087192
 20
-67.493468
 11
64.30529
 21
-55.471123
  0
LINE
  8
型材断面
  6
CONTINUOUS
 10
48.518425
 20
-69.54324
 11
65.736537
 21
-57.52089
  0
LINE
  8
ボルト／ビス
  6
CONTINUOUS
 62
    64
 10
47.948343
 20
-67.853407
 11
47.75259
 21
-68.271755
  0
LINE
  8
ボルト／ビス
  6
CONTINUOUS
 62
    64
 10
47.948343
 20
-67.853407
 11
48.408518
 21
-67.813763
  0
LINE
  8
ボルト／ビス
  6
CONTINUOUS
 62
    64
 10
48.477188
 20
-68.610808
 11
48.017013
 21
-68.650453
  0
LINE
  8
ボルト／ビス
  6
CONTINUOUS
 62
    64
 10
48.477188
 20
-68.610808
 11
48.67294
 21
-68.19246
  0
CIRCLE
  8
ボルト／ビス
  6
CONTINUOUS
 62
    64
 10
48.212765
 20
-68.232107
 40
0.4
  0
LINE
  8
ボルト／ビス
  6
CONTINUOUS
 62
    64
 10
48.408518
 20
-67.813763
 11
48.67294
 21
-68.19246
  0
LINE
  8
ボルト／ビス
  6
CONTINUOUS
 62
    64
 10
47.75259
 20
-68.271755
 11
48.017013
 21
-68.650453
  0
LINE
  8
ボルト／ビス
  6
CONTINUOUS
 62
    64
 10
56.147437
 20
-62.12848
 11
56.607615
 21
-62.088832
  0
LINE
  8
ボルト／ビス
  6
CONTINUOUS
 62
    64
 10
56.147437
 20
-62.12848
 11
55.951685
 21
-62.546825
  0
LINE
  8
ボルト／ビス
  6
CONTINUOUS
 62
    64
 10
56.676285
 20
-62.885877
 11
56.872038
 21
-62.467533
  0
LINE
  8
ボルト／ビス
  6
CONTINUOUS
 62
    64
 10
56.676285
 20
-62.885877
 11
56.21611
 21
-62.925525
  0
CIRCLE
  8
ボルト／ビス
  6
CONTINUOUS
 62
    64
 10
56.411862
 20
-62.50718
 40
0.4
  0
LINE
  8
ボルト／ビス
  6
CONTINUOUS
 62
    64
 10
55.951685
 20
-62.546825
 11
56.21611
 21
-62.925525
  0
LINE
  8
ボルト／ビス
  6
CONTINUOUS
 62
    64
 10
56.607615
 20
-62.088832
 11
56.872038
 21
-62.467533
  0
LINE
  8
ボルト／ビス
  6
CONTINUOUS
 62
    64
 10
64.346543
 20
-56.40356
 11
64.806718
 21
-56.363912
  0
LINE
  8
ボルト／ビス
  6
CONTINUOUS
 62
    64
 10
64.346543
 20
-56.40356
 11
64.15079
 21
-56.821907
  0
LINE
  8
ボルト／ビス
  6
CONTINUOUS
 62
    64
 10
64.875385
 20
-57.16096
 11
65.071138
 21
-56.742612
  0
LINE
  8
ボルト／ビス
  6
CONTINUOUS
 62
    64
 10
64.875385
 20
-57.16096
 11
64.41521
 21
-57.200605
  0
CIRCLE
  8
ボルト／ビス
  6
CONTINUOUS
 62
    64
 10
64.610965
 20
-56.78226
 40
0.4
  0
LINE
  8
ボルト／ビス
  6
CONTINUOUS
 62
    64
 10
64.15079
 20
-56.821907
 11
64.41521
 21
-57.200605
  0
LINE
  8
ボルト／ビス
  6
CONTINUOUS
 62
    64
 10
64.806718
 20
-56.363912
 11
65.071138
 21
-56.742612
  0
ENDBLK
  0
BLOCK
  2
*DIM_0015
 70
    65
 10
0.0
 20
0.0
  0
LINE
  8
寸法
  6
BYBLOCK
 62
     0
 10
123.130517
 20
-61.71755
 11
123.130517
 21
-69.368178
  0
LINE
  8
寸法
  6
BYBLOCK
 62
     0
 10
154.916098
 20
-61.71755
 11
154.916098
 21
-69.368178
  0
LINE
  8
寸法
  6
BYBLOCK
 62
     0
 10
123.130517
 20
-69.368178
 11
154.916098
 21
-69.368178
  0
POINT
  8
寸法
 62
     0
 10
123.130517
 20
-69.368178
  0
POINT
  8
寸法
 62
     0
 10
154.916098
 20
-69.368178
  0
TEXT
  7
TextStyle03
  8
寸法
  6
CONTINUOUS
 62
     0
 10
134.875
 20
-69.0
  1
635.7
 40
3.0
 72
     5
 11
143.125
 21
-69.0
  0
ENDBLK
  0
BLOCK
  2
*DIM_0016
 70
    65
 10
0.0
 20
0.0
  0
LINE
  8
寸法
  6
BYBLOCK
 62
     0
 10
157.916098
 20
-58.71755
 11
162.248015
 21
-58.71755
  0
LINE
  8
寸法
  6
BYBLOCK
 62
     0
 10
142.023308
 20
-36.24175
 11
162.248015
 21
-36.24175
  0
LINE
  8
寸法
  6
BYBLOCK
 62
     0
 10
162.248015
 20
-58.71755
 11
162.248015
 21
-36.24175
  0
POINT
  8
寸法
 62
     0
 10
162.248015
 20
-58.71755
  0
POINT
  8
寸法
 62
     0
 10
162.248015
 20
-36.24175
  0
TEXT
  7
TextStyle03
  8
寸法
  6
CONTINUOUS
 62
     0
 10
161.85
 20
-51.625
  1
449.5
 40
3.0
 50
90.0
 72
     5
 11
161.85
 21
-43.375
  0
ENDBLK
  0
BLOCK
  2
*DIM_0017
 70
    65
 10
0.0
 20
0.0
  0
LINE
  8
寸法
  6
BYBLOCK
 62
     0
 10
76.03096
 20
-59.216145
 11
85.800848
 21
-59.216145
  0
LINE
  8
寸法
  6
BYBLOCK
 62
     0
 10
76.03096
 20
-66.716145
 11
85.800848
 21
-66.716145
  0
LINE
  8
寸法
  6
BYBLOCK
 62
     0
 10
85.800848
 20
-59.216145
 11
85.800848
 21
-66.716145
  0
POINT
  8
寸法
 62
     0
 10
85.800848
 20
-59.216145
  0
POINT
  8
寸法
 62
     0
 10
85.800848
 20
-66.716145
  0
TEXT
  7
TextStyle03
  8
寸法
  6
CONTINUOUS
 62
     0
 10
89.775
 20
-71.425
  1
上昇87以上
 40
3.0
 50
90.0
 72
     5
 11
89.775
 21
-54.925
  0
ENDBLK
  0
ENDSEC
  0
SECTION
  2
ENTITIES
  0
POLYLINE
  8
通り芯
  6
CONTINUOUS
 66
     1
 70
     1
  0
VERTEX
  8
通り芯
 10
-210.0
 20
-148.5
  0
VERTEX
  8
通り芯
 10
210.0
 20
-148.5
  0
VERTEX
  8
通り芯
 10
210.0
 20
148.5
  0
VERTEX
  8
通り芯
 10
-210.0
 20
148.5
  0
SEQEND
  0
INSERT
  2
*GRP_0001
  8
型材断面
  6
CONTINUOUS
 10
0.0
 20
0.0
  0
LINE
  8
型材断面
  6
CONTINUOUS
 10
-76.421998
 20
50.227223
 11
-69.271997
 21
43.077223
  0
LINE
  8
型材断面
  6
CONTINUOUS
 10
-71.528932
 20
47.769778
 11
-73.964552
 21
47.769778
  0
LINE
  8
型材断面
  6
CONTINUOUS
 10
-73.964552
 20
45.334158
 11
-73.964552
 21
47.769778
  0
LINE
  8
型材断面
  6
DASHDOT
 10
-72.146997
 20
45.952223
 11
-72.146997
 21
30.952223
  0
LINE
  8
型材断面
  6
CONTINUOUS
 10
-76.421998
 20
50.227223
 11
-76.421998
 21
30.952223
  0
LINE
  8
型材断面
  6
CONTINUOUS
 10
-75.378765
 20
49.18399
 11
-75.378765
 21
30.952223
  0
LINE
  8
型材断面
  6
CONTINUOUS
 10
-75.025212
 20
48.830437
 11
-75.025212
 21
30.952223
  0
LINE
  8
型材断面
  6
CONTINUOUS
 10
-74.035263
 20
47.840488
 11
-74.035263
 21
30.952223
  0
LINE
  8
型材断面
  6
CONTINUOUS
 10
-74.318105
 20
48.12333
 11
-74.318105
 21
30.952223
  0
LINE
  8
型材断面
  6
DASHDOT
 10
-72.146997
 20
45.952223
 11
-57.146997
 21
45.952223
  0
LINE
  8
型材断面
  6
CONTINUOUS
 10
-76.421998
 20
50.227223
 11
-57.146997
 21
50.227223
  0
LINE
  8
型材断面
  6
CONTINUOUS
 10
-75.378765
 20
49.18399
 11
-57.146997
 21
49.18399
  0
LINE
  8
型材断面
  6
CONTINUOUS
 10
-75.025212
 20
48.830437
 11
-57.146997
 21
48.830437
  0
LINE
  8
型材断面
  6
CONTINUOUS
 10
-74.318105
 20
48.12333
 11
-57.146997
 21
48.12333
  0
LINE
  8
型材断面
  6
CONTINUOUS
 10
-74.035263
 20
47.840488
 11
-57.146997
 21
47.840488
  0
LINE
  8
型材断面
  6
CONTINUOUS
 10
-57.146997
 20
35.202223
 11
-61.396997
 21
35.202223
  0
LINE
  8
型材断面
  6
CONTINUOUS
 10
-61.396997
 20
30.952223
 11
-61.396997
 21
35.202223
  0
LINE
  8
型材断面
  6
CONTINUOUS
 10
-61.396997
 20
35.202223
 11
-57.146997
 21
30.952223
  0
LINE
  8
型材断面
  6
CONTINUOUS
 10
-73.964552
 20
45.334158
 11
-61.396997
 21
32.766603
  0
LINE
  8
型材断面
  6
CONTINUOUS
 10
-73.964552
 20
47.416225
 11
-61.396997
 21
34.84867
  0
LINE
  8
型材断面
  6
CONTINUOUS
 10
-73.610998
 20
47.769778
 11
-61.043445
 21
35.202223
  0
LINE
  8
型材断面
  6
CONTINUOUS
 10
-71.528932
 20
47.769778
 11
-58.961377
 21
35.202223
  0
LINE
  8
型材断面
  6
DASHDOT
 10
-72.146997
 20
45.952223
 11
-57.146997
 21
30.952223
  0
LINE
  8
型材断面
  6
DASHDOT
 10
-57.146997
 20
45.952223
 11
-57.146997
 21
30.952223
  0
LINE
  8
型材断面
  6
DASHDOT
 10
-72.146997
 20
30.952223
 11
-57.146997
 21
30.952223
  0
LINE
  8
型材断面
  6
CONTINUOUS
 10
-37.871997
 20
50.227223
 11
-45.021997
 21
43.077223
  0
LINE
  8
型材断面
  6
CONTINUOUS
 10
-42.765065
 20
47.769778
 11
-40.329445
 21
47.769778
  0
LINE
  8
型材断面
  6
CONTINUOUS
 10
-40.329445
 20
45.334158
 11
-40.329445
 21
47.769778
  0
LINE
  8
型材断面
  6
DASHDOT
 10
-42.146997
 20
45.952223
 11
-42.146997
 21
30.952223
  0
LINE
  8
型材断面
  6
CONTINUOUS
 10
-37.871997
 20
50.227223
 11
-37.871997
 21
30.952223
  0
LINE
  8
型材断面
  6
CONTINUOUS
 10
-38.91523
 20
49.18399
 11
-38.91523
 21
30.952223
  0
LINE
  8
型材断面
  6
CONTINUOUS
 10
-39.268785
 20
48.830437
 11
-39.268785
 21
30.952223
  0
LINE
  8
型材断面
  6
CONTINUOUS
 10
-40.258735
 20
47.840488
 11
-40.258735
 21
30.952223
  0
LINE
  8
型材断面
  6
CONTINUOUS
 10
-39.975893
 20
48.12333
 11
-39.975893
 21
30.952223
  0
LINE
  8
型材断面
  6
DASHDOT
 10
-42.146997
 20
45.952223
 11
-57.146997
 21
45.952223
  0
LINE
  8
型材断面
  6
CONTINUOUS
 10
-37.871997
 20
50.227223
 11
-57.146997
 21
50.227223
  0
LINE
  8
型材断面
  6
CONTINUOUS
 10
-38.91523
 20
49.18399
 11
-57.146997
 21
49.18399
  0
LINE
  8
型材断面
  6
CONTINUOUS
 10
-39.268785
 20
48.830437
 11
-57.146997
 21
48.830437
  0
LINE
  8
型材断面
  6
CONTINUOUS
 10
-39.975893
 20
48.12333
 11
-57.146997
 21
48.12333
  0
LINE
  8
型材断面
  6
CONTINUOUS
 10
-40.258735
 20
47.840488
 11
-57.146997
 21
47.840488
  0
LINE
  8
型材断面
  6
CONTINUOUS
 10
-57.146997
 20
35.202223
 11
-52.896997
 21
35.202223
  0
LINE
  8
型材断面
  6
CONTINUOUS
 10
-52.896997
 20
30.952223
 11
-52.896997
 21
35.202223
  0
LINE
  8
型材断面
  6
CONTINUOUS
 10
-52.896997
 20
35.202223
 11
-57.146997
 21
30.952223
  0
LINE
  8
型材断面
  6
CONTINUOUS
 10
-40.329445
 20
45.334158
 11
-52.896997
 21
32.766603
  0
LINE
  8
型材断面
  6
CONTINUOUS
 10
-40.329445
 20
47.416225
 11
-52.896997
 21
34.84867
  0
LINE
  8
型材断面
  6
CONTINUOUS
 10
-40.682997
 20
47.769778
 11
-53.250552
 21
35.202223
  0
LINE
  8
型材断面
  6
CONTINUOUS
 10
-42.765065
 20
47.769778
 11
-55.332618
 21
35.202223
  0
LINE
  8
型材断面
  6
DASHDOT
 10
-42.146997
 20
45.952223
 11
-57.146997
 21
30.952223
  0
LINE
  8
型材断面
  6
DASHDOT
 10
-42.146997
 20
30.952223
 11
-57.146997
 21
30.952223
  0
LINE
  8
型材断面
  6
CONTINUOUS
 10
-76.421998
 20
11.677223
 11
-69.271997
 21
18.827223
  0
LINE
  8
型材断面
  6
CONTINUOUS
 10
-71.528932
 20
14.13467
 11
-73.964552
 21
14.13467
  0
LINE
  8
型材断面
  6
CONTINUOUS
 10
-73.964552
 20
16.57029
 11
-73.964552
 21
14.13467
  0
LINE
  8
型材断面
  6
DASHDOT
 10
-72.146997
 20
15.952223
 11
-72.146997
 21
30.952223
  0
LINE
  8
型材断面
  6
CONTINUOUS
 10
-76.421998
 20
11.677223
 11
-76.421998
 21
30.952223
  0
LINE
  8
型材断面
  6
CONTINUOUS
 10
-75.378765
 20
12.720455
 11
-75.378765
 21
30.952223
  0
LINE
  8
型材断面
  6
CONTINUOUS
 10
-75.025212
 20
13.07401
 11
-75.025212
 21
30.952223
  0
LINE
  8
型材断面
  6
CONTINUOUS
 10
-74.035263
 20
14.06396
 11
-74.035263
 21
30.952223
  0
LINE
  8
型材断面
  6
CONTINUOUS
 10
-74.318105
 20
13.781118
 11
-74.318105
 21
30.952223
  0
LINE
  8
型材断面
  6
DASHDOT
 10
-72.146997
 20
15.952223
 11
-57.146997
 21
15.952223
  0
LINE
  8
型材断面
  6
CONTINUOUS
 10
-76.421998
 20
11.677223
 11
-57.146997
 21
11.677223
  0
LINE
  8
型材断面
  6
CONTINUOUS
 10
-75.378765
 20
12.720455
 11
-57.146997
 21
12.720455
  0
LINE
  8
型材断面
  6
CONTINUOUS
 10
-75.025212
 20
13.07401
 11
-57.146997
 21
13.07401
  0
LINE
  8
型材断面
  6
CONTINUOUS
 10
-74.318105
 20
13.781118
 11
-57.146997
 21
13.781118
  0
LINE
  8
型材断面
  6
CONTINUOUS
 10
-74.035263
 20
14.06396
 11
-57.146997
 21
14.06396
  0
LINE
  8
型材断面
  6
CONTINUOUS
 10
-57.146997
 20
26.702223
 11
-61.396997
 21
26.702223
  0
LINE
  8
型材断面
  6
CONTINUOUS
 10
-61.396997
 20
30.952223
 11
-61.396997
 21
26.702223
  0
LINE
  8
型材断面
  6
CONTINUOUS
 10
-61.396997
 20
26.702223
 11
-57.146997
 21
30.952223
  0
LINE
  8
型材断面
  6
CONTINUOUS
 10
-73.964552
 20
16.57029
 11
-61.396997
 21
29.137843
  0
LINE
  8
型材断面
  6
CONTINUOUS
 10
-73.964552
 20
14.488222
 11
-61.396997
 21
27.055775
  0
LINE
  8
型材断面
  6
CONTINUOUS
 10
-73.610998
 20
14.13467
 11
-61.043445
 21
26.702223
  0
LINE
  8
型材断面
  6
CONTINUOUS
 10
-71.528932
 20
14.13467
 11
-58.961377
 21
26.702223
  0
LINE
  8
型材断面
  6
DASHDOT
 10
-72.146997
 20
15.952223
 11
-57.146997
 21
30.952223
  0
LINE
  8
型材断面
  6
CONTINUOUS
 10
-37.871997
 20
11.677223
 11
-45.021997
 21
18.827223
  0
LINE
  8
型材断面
  6
CONTINUOUS
 10
-42.765065
 20
14.13467
 11
-40.329445
 21
14.13467
  0
LINE
  8
型材断面
  6
CONTINUOUS
 10
-40.329445
 20
16.57029
 11
-40.329445
 21
14.13467
  0
LINE
  8
型材断面
  6
DASHDOT
 10
-42.146997
 20
15.952223
 11
-42.146997
 21
30.952223
  0
LINE
  8
型材断面
  6
CONTINUOUS
 10
-37.871997
 20
11.677223
 11
-37.871997
 21
30.952223
  0
LINE
  8
型材断面
  6
CONTINUOUS
 10
-38.91523
 20
12.720455
 11
-38.91523
 21
30.952223
  0
LINE
  8
型材断面
  6
CONTINUOUS
 10
-39.268785
 20
13.07401
 11
-39.268785
 21
30.952223
  0
LINE
  8
型材断面
  6
CONTINUOUS
 10
-40.258735
 20
14.06396
 11
-40.258735
 21
30.952223
  0
LINE
  8
型材断面
  6
CONTINUOUS
 10
-39.975893
 20
13.781118
 11
-39.975893
 21
30.952223
  0
LINE
  8
型材断面
  6
DASHDOT
 10
-42.146997
 20
15.952223
 11
-57.146997
 21
15.952223
  0
LINE
  8
型材断面
  6
CONTINUOUS
 10
-37.871997
 20
11.677223
 11
-57.146997
 21
11.677223
  0
LINE
  8
型材断面
  6
CONTINUOUS
 10
-38.91523
 20
12.720455
 11
-57.146997
 21
12.720455
  0
LINE
  8
型材断面
  6
CONTINUOUS
 10
-39.268785
 20
13.07401
 11
-57.146997
 21
13.07401
  0
LINE
  8
型材断面
  6
CONTINUOUS
 10
-39.975893
 20
13.781118
 11
-57.146997
 21
13.781118
  0
LINE
  8
型材断面
  6
CONTINUOUS
 10
-40.258735
 20
14.06396
 11
-57.146997
 21
14.06396
  0
LINE
  8
型材断面
  6
CONTINUOUS
 10
-57.146997
 20
26.702223
 11
-52.896997
 21
26.702223
  0
LINE
  8
型材断面
  6
CONTINUOUS
 10
-52.896997
 20
30.952223
 11
-52.896997
 21
26.702223
  0
LINE
  8
型材断面
  6
CONTINUOUS
 10
-52.896997
 20
26.702223
 11
-57.146997
 21
30.952223
  0
LINE
  8
型材断面
  6
CONTINUOUS
 10
-40.329445
 20
16.57029
 11
-52.896997
 21
29.137843
  0
LINE
  8
型材断面
  6
CONTINUOUS
 10
-40.329445
 20
14.488222
 11
-52.896997
 21
27.055775
  0
LINE
  8
型材断面
  6
CONTINUOUS
 10
-40.682997
 20
14.13467
 11
-53.250552
 21
26.702223
  0
LINE
  8
型材断面
  6
CONTINUOUS
 10
-42.765065
 20
14.13467
 11
-55.332618
 21
26.702223
  0
LINE
  8
型材断面
  6
DASHDOT
 10
-42.146997
 20
15.952223
 11
-57.146997
 21
30.952223
  0
LINE
  8
型材断面
  6
CONTINUOUS
 62
    47
 10
-76.421998
 20
-62.66373
 11
-76.421998
 21
-63.232107
  0
LINE
  8
型材断面
  6
CONTINUOUS
 62
    47
 10
-75.746997
 20
-63.932107
 11
-76.421998
 21
-63.932107
  0
LINE
  8
型材断面
  6
CONTINUOUS
 62
    47
 10
-76.421998
 20
-63.932107
 11
-76.421998
 21
-63.232107
  0
LINE
  8
型材断面
  6
CONTINUOUS
 62
    47
 10
-75.096998
 20
-63.232107
 11
-76.421998
 21
-63.232107
  0
LINE
  8
型材断面
  6
CONTINUOUS
 62
    47
 10
-75.746997
 20
-63.932107
 11
-75.746997
 21
-64.432107
  0
LINE
  8
型材断面
  6
CONTINUOUS
 10
-75.671998
 20
-64.432107
 11
-75.746997
 21
-64.432107
  0
LINE
  8
型材断面
  6
CONTINUOUS
 62
    47
 10
-74.318105
 20
-60.559835
 11
-75.378765
 21
-61.620497
  0
LINE
  8
型材断面
  6
CONTINUOUS
 10
-73.787775
 20
-60.029505
 11
-71.06933
 21
-60.029505
  0
LINE
  8
型材断面
  6
CONTINUOUS
 10
-76.421998
 20
-63.232107
 11
-57.146997
 21
-63.232107
  0
LINE
  8
型材断面
  6
CONTINUOUS
 10
-75.746997
 20
-64.432107
 11
-57.146997
 21
-64.432107
  0
LINE
  8
型材断面
  6
CONTINUOUS
 10
-75.025212
 20
-61.266943
 11
-57.146997
 21
-61.266943
  0
LINE
  8
型材断面
  6
CONTINUOUS
 10
-74.318105
 20
-60.559835
 11
-57.146997
 21
-60.559835
  0
LINE
  8
型材断面
  6
CONTINUOUS
 10
-75.378765
 20
-61.620497
 11
-57.146997
 21
-61.620497
  0
LINE
  8
型材断面
  6
CONTINUOUS
 10
-76.421998
 20
-62.66373
 11
-57.146997
 21
-62.66373
  0
LINE
  8
型材断面
  6
CONTINUOUS
 10
-75.746997
 20
-63.932107
 11
-57.146997
 21
-63.932107
  0
LINE
  8
型材断面
  6
CONTINUOUS
 62
    47
 10
-37.871997
 20
-62.66373
 11
-37.871997
 21
-63.232107
  0
LINE
  8
型材断面
  6
CONTINUOUS
 62
    47
 10
-38.546997
 20
-63.932107
 11
-37.871997
 21
-63.932107
  0
LINE
  8
型材断面
  6
CONTINUOUS
 62
    47
 10
-37.871997
 20
-63.932107
 11
-37.871997
 21
-63.232107
  0
LINE
  8
型材断面
  6
CONTINUOUS
 62
    47
 10
-39.197
 20
-63.232107
 11
-37.871997
 21
-63.232107
  0
LINE
  8
型材断面
  6
CONTINUOUS
 62
    47
 10
-38.546997
 20
-63.932107
 11
-38.546997
 21
-64.432107
  0
LINE
  8
型材断面
  6
CONTINUOUS
 10
-38.621997
 20
-64.432107
 11
-38.546997
 21
-64.432107
  0
LINE
  8
型材断面
  6
CONTINUOUS
 62
    47
 10
-39.975893
 20
-60.559835
 11
-38.91523
 21
-61.620497
  0
LINE
  8
型材断面
  6
CONTINUOUS
 10
-40.506222
 20
-60.029505
 11
-43.224665
 21
-60.029505
  0
LINE
  8
型材断面
  6
CONTINUOUS
 62
    47
 10
-37.871997
 20
-62.66373
 11
-57.146997
 21
-43.38873
  0
LINE
  8
型材断面
  6
CONTINUOUS
 10
-37.871997
 20
-63.232107
 11
-57.146997
 21
-63.232107
  0
LINE
  8
型材断面
  6
CONTINUOUS
 10
-38.546997
 20
-64.432107
 11
-57.146997
 21
-64.432107
  0
LINE
  8
型材断面
  6
CONTINUOUS
 10
-39.268785
 20
-61.266943
 11
-57.146997
 21
-61.266943
  0
LINE
  8
型材断面
  6
CONTINUOUS
 10
-39.975893
 20
-60.559835
 11
-57.146997
 21
-60.559835
  0
LINE
  8
型材断面
  6
CONTINUOUS
 10
-38.91523
 20
-61.620497
 11
-57.146997
 21
-61.620497
  0
LINE
  8
型材断面
  6
CONTINUOUS
 10
-37.871997
 20
-62.66373
 11
-57.146997
 21
-62.66373
  0
LINE
  8
型材断面
  6
CONTINUOUS
 10
-38.546997
 20
-63.932107
 11
-57.146997
 21
-63.932107
  0
LINE
  8
型材断面
  6
CONTINUOUS
 62
    47
 10
-75.566997
 20
-66.716145
 11
-75.566997
 21
-66.216145
  0
LINE
  8
型材断面
  6
CONTINUOUS
 62
    47
 10
-75.566997
 20
-66.216145
 11
-74.391997
 21
-66.066145
  0
LINE
  8
型材断面
  6
CONTINUOUS
 62
    47
 10
-74.391997
 20
-65.457107
 11
-74.391997
 21
-66.066145
  0
LINE
  8
型材断面
  6
CONTINUOUS
 62
    47
 10
-75.096998
 20
-65.457107
 11
-75.096998
 21
-64.432107
  0
LINE
  8
型材断面
  6
CONTINUOUS
 62
    47
 10
-75.096998
 20
-65.457107
 11
-57.146997
 21
-65.457107
  0
LINE
  8
型材断面
  6
CONTINUOUS
 10
-57.146997
 20
-66.216145
 11
-75.566997
 21
-66.216145
  0
LINE
  8
型材断面
  6
CONTINUOUS
 62
    47
 10
-75.566997
 20
-66.716145
 11
-57.146997
 21
-66.716145
  0
LINE
  8
型材断面
  6
CONTINUOUS
 62
    47
 10
-75.096998
 20
-70.657107
 11
-75.096998
 21
-66.716145
  0
LINE
  8
型材断面
  6
CONTINUOUS
 62
    47
 10
-74.246997
 20
-71.407107
 11
-74.246997
 21
-70.657107
  0
LINE
  8
型材断面
  6
CONTINUOUS
 62
    47
 10
-74.246997
 20
-71.407107
 11
-57.146997
 21
-71.407107
  0
LINE
  8
型材断面
  6
CONTINUOUS
 62
    47
 10
-75.096998
 20
-70.657107
 11
-57.146997
 21
-70.657107
  0
LINE
  8
型材断面
  6
CONTINUOUS
 10
-57.146997
 20
-66.066145
 11
-74.391997
 21
-66.066145
  0
LINE
  8
型材断面
  6
CONTINUOUS
 62
    47
 10
-38.726998
 20
-66.716145
 11
-38.726998
 21
-66.216145
  0
LINE
  8
型材断面
  6
CONTINUOUS
 62
    47
 10
-38.726998
 20
-66.216145
 11
-39.901998
 21
-66.066145
  0
LINE
  8
型材断面
  6
CONTINUOUS
 62
    47
 10
-39.901998
 20
-65.457107
 11
-39.901998
 21
-66.066145
  0
LINE
  8
型材断面
  6
CONTINUOUS
 10
-57.146997
 20
-66.216145
 11
-38.726998
 21
-66.216145
  0
LINE
  8
型材断面
  6
CONTINUOUS
 62
    47
 10
-38.726998
 20
-66.716145
 11
-57.146997
 21
-66.716145
  0
LINE
  8
型材断面
  6
CONTINUOUS
 62
    47
 10
-39.197
 20
-70.657107
 11
-39.197
 21
-66.716145
  0
LINE
  8
型材断面
  6
CONTINUOUS
 62
    47
 10
-40.047
 20
-71.407107
 11
-40.047
 21
-70.657107
  0
LINE
  8
型材断面
  6
CONTINUOUS
 62
    47
 10
-40.047
 20
-71.407107
 11
-57.146997
 21
-71.407107
  0
LINE
  8
型材断面
  6
CONTINUOUS
 62
    47
 10
-39.197
 20
-70.657107
 11
-57.146997
 21
-70.657107
  0
LINE
  8
型材断面
  6
CONTINUOUS
 10
-57.146997
 20
-66.066145
 11
-39.901998
 21
-66.066145
  0
LINE
  8
型材断面
  6
CONTINUOUS
 62
    47
 10
-39.197
 20
-65.457107
 11
-39.197
 21
-64.432107
  0
LINE
  8
型材断面
  6
CONTINUOUS
 62
    47
 10
-39.197
 20
-65.457107
 11
-57.146997
 21
-65.457107
  0
LINE
  8
型材断面
  6
DASHDOT
 10
-42.146997
 20
15.952223
 11
-42.146997
 21
-70.657107
  0
LINE
  8
型材断面
  6
DASHDOT
 10
-72.146997
 20
15.952223
 11
-72.146997
 21
-70.657107
  0
LINE
  8
型材断面
  6
DASHDOT
 10
-57.146997
 20
30.952223
 11
-57.146997
 21
-70.657107
  0
LINE
  8
型材断面
  6
CONTINUOUS
 62
    47
 10
-76.421998
 20
-62.66373
 11
-57.146997
 21
-43.38873
  0
LINE
  8
型材断面
  6
CONTINUOUS
 10
-71.352175
 20
-60.029505
 11
-58.908415
 21
-47.585747
  0
LINE
  8
型材断面
  6
CONTINUOUS
 10
-71.06933
 20
-60.029505
 11
-58.625572
 21
-47.585747
  0
LINE
  8
型材断面
  6
CONTINUOUS
 10
-42.941823
 20
-60.029505
 11
-55.38558
 21
-47.585747
  0
LINE
  8
型材断面
  6
CONTINUOUS
 10
-43.224665
 20
-60.029505
 11
-55.668425
 21
-47.585747
  0
LINE
  8
型材断面
  6
CONTINUOUS
 10
-52.896997
 20
-47.532765
 11
-57.146997
 21
-47.532765
  0
LINE
  8
型材断面
  6
CONTINUOUS
 10
-61.396995
 20
-47.532765
 11
-57.146997
 21
-47.532765
  0
LINE
  8
型材断面
  6
CONTINUOUS
 10
-61.344013
 20
-47.585747
 11
-57.146997
 21
-47.585747
  0
LINE
  8
型材断面
  6
CONTINUOUS
 10
-57.146997
 20
-43.282765
 11
-52.896997
 21
-47.532765
  0
LINE
  8
型材断面
  6
CONTINUOUS
 10
-57.146997
 20
-43.282765
 11
-61.396995
 21
-47.532765
  0
LINE
  8
型材断面
  6
CONTINUOUS
 10
-52.949982
 20
-47.585747
 11
-57.146997
 21
-47.585747
  0
LINE
  8
型材断面
  6
CONTINUOUS
 10
-61.396995
 20
-47.532765
 11
-61.344013
 21
-47.585747
  0
LINE
  8
型材断面
  6
CONTINUOUS
 10
-52.949982
 20
-47.585747
 11
-52.896997
 21
-47.532765
  0
LINE
  8
型材断面
  6
CONTINUOUS
 10
-80.17087
 20
30.952223
 11
-84.05663
 21
28.708777
  0
LINE
  8
型材断面
  6
CONTINUOUS
 10
-80.17087
 20
30.952223
 11
-84.05663
 21
33.195667
  0
LINE
  8
型材断面
  6
CONTINUOUS
 10
-84.05663
 20
33.195667
 11
-84.05663
 21
28.708777
  0
LINE
  8
型材断面
  6
CONTINUOUS
 10
-34.12312
 20
30.952223
 11
-30.23736
 21
28.708777
  0
LINE
  8
型材断面
  6
CONTINUOUS
 10
-34.12312
 20
30.952223
 11
-30.23736
 21
33.195667
  0
LINE
  8
型材断面
  6
CONTINUOUS
 10
-30.23736
 20
33.195667
 11
-30.23736
 21
28.708777
  0
LINE
  8
型材断面
  6
CONTINUOUS
 10
-57.146997
 20
53.976095
 11
-59.390442
 21
57.861855
  0
LINE
  8
型材断面
  6
CONTINUOUS
 10
-57.146997
 20
53.976095
 11
-54.903553
 21
57.861855
  0
LINE
  8
型材断面
  6
CONTINUOUS
 10
-54.903553
 20
57.861855
 11
-59.390442
 21
57.861855
  0
LINE
  8
型材断面
  6
CONTINUOUS
 10
-57.146997
 20
7.928345
 11
-59.390442
 21
4.042585
  0
LINE
  8
型材断面
  6
CONTINUOUS
 10
-57.146997
 20
7.928345
 11
-54.903553
 21
4.042585
  0
LINE
  8
型材断面
  6
CONTINUOUS
 10
-54.903553
 20
4.042585
 11
-59.390442
 21
4.042585
  0
LINE
  8
型材断面
  6
DOT
 10
-46.483478
 20
15.952223
 11
-46.483478
 21
45.952225
  0
LINE
  8
型材断面
  6
DOT
 10
-44.483478
 20
15.952223
 11
-44.483478
 21
45.952225
  0
LINE
  8
型材断面
  6
CONTINUOUS
 10
-34.12312
 20
40.102225
 11
-30.23736
 21
39.20814
  0
LINE
  8
型材断面
  6
CONTINUOUS
 10
-34.12312
 20
40.102225
 11
-30.23736
 21
40.99631
  0
LINE
  8
型材断面
  6
CONTINUOUS
 10
-30.23736
 20
40.99631
 11
-30.23736
 21
39.20814
  0
LINE
  8
型材断面
  6
CONTINUOUS
 10
-34.12312
 20
21.80222
 11
-30.23736
 21
22.696305
  0
LINE
  8
型材断面
  6
CONTINUOUS
 10
-34.12312
 20
21.80222
 11
-30.23736
 21
20.908135
  0
LINE
  8
型材断面
  6
CONTINUOUS
 10
-30.23736
 20
20.908135
 11
-30.23736
 21
22.696305
  0
LINE
  8
型材断面
  6
CONTINUOUS
 10
-80.170875
 20
40.102225
 11
-84.056635
 21
39.20814
  0
LINE
  8
型材断面
  6
CONTINUOUS
 10
-80.170875
 20
40.102225
 11
-84.056635
 21
40.99631
  0
LINE
  8
型材断面
  6
CONTINUOUS
 10
-84.056635
 20
40.99631
 11
-84.056635
 21
39.20814
  0
LINE
  8
型材断面
  6
CONTINUOUS
 10
-80.170875
 20
21.80222
 11
-84.056635
 21
22.696305
  0
LINE
  8
型材断面
  6
CONTINUOUS
 10
-80.170875
 20
21.80222
 11
-84.056635
 21
20.908135
  0
LINE
  8
型材断面
  6
CONTINUOUS
 10
-84.056635
 20
20.908135
 11
-84.056635
 21
22.696305
  0
LINE
  8
型材断面
  6
CONTINUOUS
 62
    47
 10
35.33596
 20
-62.66373
 11
35.33596
 21
-63.232107
  0
LINE
  8
型材断面
  6
CONTINUOUS
 62
    47
 10
36.01096
 20
-63.932107
 11
35.33596
 21
-63.932107
  0
LINE
  8
型材断面
  6
CONTINUOUS
 62
    47
 10
35.33596
 20
-63.932107
 11
35.33596
 21
-63.232107
  0
LINE
  8
型材断面
  6
CONTINUOUS
 62
    47
 10
36.66096
 20
-63.232107
 11
35.33596
 21
-63.232107
  0
LINE
  8
型材断面
  6
CONTINUOUS
 62
    47
 10
36.01096
 20
-63.932107
 11
36.01096
 21
-64.432107
  0
LINE
  8
型材断面
  6
CONTINUOUS
 10
36.08596
 20
-64.432107
 11
36.01096
 21
-64.432107
  0
LINE
  8
型材断面
  6
CONTINUOUS
 62
    47
 10
37.439853
 20
-60.559835
 11
36.379192
 21
-61.620497
  0
LINE
  8
型材断面
  6
CONTINUOUS
 10
37.970183
 20
-60.029505
 11
40.688628
 21
-60.029505
  0
LINE
  8
型材断面
  6
CONTINUOUS
 10
35.33596
 20
-63.232107
 11
54.61096
 21
-63.232107
  0
LINE
  8
型材断面
  6
CONTINUOUS
 10
36.01096
 20
-64.432107
 11
54.61096
 21
-64.432107
  0
LINE
  8
型材断面
  6
CONTINUOUS
 10
36.732745
 20
-61.266943
 11
54.61096
 21
-61.266943
  0
LINE
  8
型材断面
  6
CONTINUOUS
 10
37.439853
 20
-60.559835
 11
54.61096
 21
-60.559835
  0
LINE
  8
型材断面
  6
CONTINUOUS
 10
36.379192
 20
-61.620497
 11
54.61096
 21
-61.620497
  0
LINE
  8
型材断面
  6
CONTINUOUS
 10
35.33596
 20
-62.66373
 11
54.61096
 21
-62.66373
  0
LINE
  8
型材断面
  6
CONTINUOUS
 10
36.01096
 20
-63.932107
 11
54.61096
 21
-63.932107
  0
LINE
  8
型材断面
  6
CONTINUOUS
 62
    47
 10
73.88596
 20
-62.66373
 11
73.88596
 21
-63.232107
  0
LINE
  8
型材断面
  6
CONTINUOUS
 62
    47
 10
73.21096
 20
-63.932107
 11
73.88596
 21
-63.932107
  0
LINE
  8
型材断面
  6
CONTINUOUS
 62
    47
 10
73.88596
 20
-63.932107
 11
73.88596
 21
-63.232107
  0
LINE
  8
型材断面
  6
CONTINUOUS
 62
    47
 10
72.560958
 20
-63.232107
 11
73.88596
 21
-63.232107
  0
LINE
  8
型材断面
  6
CONTINUOUS
 62
    47
 10
73.21096
 20
-63.932107
 11
73.21096
 21
-64.432107
  0
LINE
  8
型材断面
  6
CONTINUOUS
 10
73.13596
 20
-64.432107
 11
73.21096
 21
-64.432107
  0
LINE
  8
型材断面
  6
CONTINUOUS
 62
    47
 10
71.782065
 20
-60.559835
 11
72.842727
 21
-61.620497
  0
LINE
  8
型材断面
  6
CONTINUOUS
 10
71.251735
 20
-60.029505
 11
68.533293
 21
-60.029505
  0
LINE
  8
型材断面
  6
CONTINUOUS
 62
    47
 10
73.88596
 20
-62.66373
 11
54.61096
 21
-43.38873
  0
LINE
  8
型材断面
  6
CONTINUOUS
 10
73.88596
 20
-63.232107
 11
54.61096
 21
-63.232107
  0
LINE
  8
型材断面
  6
CONTINUOUS
 10
73.21096
 20
-64.432107
 11
54.61096
 21
-64.432107
  0
LINE
  8
型材断面
  6
CONTINUOUS
 10
72.489172
 20
-61.266943
 11
54.61096
 21
-61.266943
  0
LINE
  8
型材断面
  6
CONTINUOUS
 10
71.782065
 20
-60.559835
 11
54.61096
 21
-60.559835
  0
LINE
  8
型材断面
  6
CONTINUOUS
 10
72.842727
 20
-61.620497
 11
54.61096
 21
-61.620497
  0
LINE
  8
型材断面
  6
CONTINUOUS
 10
73.88596
 20
-62.66373
 11
54.61096
 21
-62.66373
  0
LINE
  8
型材断面
  6
CONTINUOUS
 10
73.21096
 20
-63.932107
 11
54.61096
 21
-63.932107
  0
LINE
  8
型材断面
  6
CONTINUOUS
 62
    47
 10
36.19096
 20
-66.716145
 11
36.19096
 21
-66.216145
  0
LINE
  8
型材断面
  6
CONTINUOUS
 62
    47
 10
36.19096
 20
-66.216145
 11
37.36596
 21
-66.066145
  0
LINE
  8
型材断面
  6
CONTINUOUS
 62
    47
 10
37.36596
 20
-65.457107
 11
37.36596
 21
-66.066145
  0
LINE
  8
型材断面
  6
CONTINUOUS
 62
    47
 10
36.66096
 20
-65.457107
 11
36.66096
 21
-64.432107
  0
LINE
  8
型材断面
  6
CONTINUOUS
 62
    47
 10
36.66096
 20
-65.457107
 11
54.61096
 21
-65.457107
  0
LINE
  8
型材断面
  6
CONTINUOUS
 10
54.61096
 20
-66.216145
 11
36.19096
 21
-66.216145
  0
LINE
  8
型材断面
  6
CONTINUOUS
 62
    47
 10
36.19096
 20
-66.716145
 11
54.61096
 21
-66.716145
  0
LINE
  8
型材断面
  6
CONTINUOUS
 62
    47
 10
36.66096
 20
-70.657107
 11
36.66096
 21
-66.716145
  0
LINE
  8
型材断面
  6
CONTINUOUS
 62
    47
 10
37.51096
 20
-71.407107
 11
37.51096
 21
-70.657107
  0
LINE
  8
型材断面
  6
CONTINUOUS
 62
    47
 10
37.51096
 20
-71.407107
 11
54.61096
 21
-71.407107
  0
LINE
  8
型材断面
  6
CONTINUOUS
 62
    47
 10
36.66096
 20
-70.657107
 11
54.61096
 21
-70.657107
  0
LINE
  8
型材断面
  6
CONTINUOUS
 10
54.61096
 20
-66.066145
 11
37.36596
 21
-66.066145
  0
LINE
  8
型材断面
  6
CONTINUOUS
 62
    47
 10
73.03096
 20
-66.716145
 11
73.03096
 21
-66.216145
  0
LINE
  8
型材断面
  6
CONTINUOUS
 62
    47
 10
73.03096
 20
-66.216145
 11
71.85596
 21
-66.066145
  0
LINE
  8
型材断面
  6
CONTINUOUS
 62
    47
 10
71.85596
 20
-65.457107
 11
71.85596
 21
-66.066145
  0
LINE
  8
型材断面
  6
CONTINUOUS
 10
54.61096
 20
-66.216145
 11
73.03096
 21
-66.216145
  0
LINE
  8
型材断面
  6
CONTINUOUS
 62
    47
 10
73.03096
 20
-66.716145
 11
54.61096
 21
-66.716145
  0
LINE
  8
型材断面
  6
CONTINUOUS
 62
    47
 10
72.560958
 20
-70.657107
 11
72.560958
 21
-66.716145
  0
LINE
  8
型材断面
  6
CONTINUOUS
 62
    47
 10
71.710958
 20
-71.407107
 11
71.710958
 21
-70.657107
  0
LINE
  8
型材断面
  6
CONTINUOUS
 62
    47
 10
71.710958
 20
-71.407107
 11
54.61096
 21
-71.407107
  0
LINE
  8
型材断面
  6
CONTINUOUS
 62
    47
 10
72.560958
 20
-70.657107
 11
54.61096
 21
-70.657107
  0
LINE
  8
型材断面
  6
CONTINUOUS
 10
54.61096
 20
-66.066145
 11
71.85596
 21
-66.066145
  0
LINE
  8
型材断面
  6
CONTINUOUS
 62
    47
 10
72.560958
 20
-65.457107
 11
72.560958
 21
-64.432107
  0
LINE
  8
型材断面
  6
CONTINUOUS
 62
    47
 10
72.560958
 20
-65.457107
 11
54.61096
 21
-65.457107
  0
LINE
  8
型材断面
  6
CONTINUOUS
 62
    47
 10
35.33596
 20
-62.66373
 11
54.61096
 21
-43.38873
  0
LINE
  8
型材断面
  6
CONTINUOUS
 10
40.405782
 20
-60.029505
 11
52.849542
 21
-47.585747
  0
LINE
  8
型材断面
  6
CONTINUOUS
 10
40.688628
 20
-60.029505
 11
53.132385
 21
-47.585747
  0
LINE
  8
型材断面
  6
CONTINUOUS
 10
68.816135
 20
-60.029505
 11
56.372378
 21
-47.585747
  0
LINE
  8
型材断面
  6
CONTINUOUS
 10
68.533293
 20
-60.029505
 11
56.089532
 21
-47.585747
  0
LINE
  8
型材断面
  6
CONTINUOUS
 10
58.86096
 20
-47.532765
 11
54.61096
 21
-47.532765
  0
LINE
  8
型材断面
  6
CONTINUOUS
 10
50.360962
 20
-47.532765
 11
54.61096
 21
-47.532765
  0
LINE
  8
型材断面
  6
CONTINUOUS
 10
50.413945
 20
-47.585747
 11
54.61096
 21
-47.585747
  0
LINE
  8
型材断面
  6
CONTINUOUS
 10
54.61096
 20
-43.282765
 11
58.86096
 21
-47.532765
  0
LINE
  8
型材断面
  6
CONTINUOUS
 10
54.61096
 20
-43.282765
 11
50.360962
 21
-47.532765
  0
LINE
  8
型材断面
  6
CONTINUOUS
 10
58.807975
 20
-47.585747
 11
54.61096
 21
-47.585747
  0
LINE
  8
型材断面
  6
CONTINUOUS
 10
50.360962
 20
-47.532765
 11
50.413945
 21
-47.585747
  0
LINE
  8
型材断面
  6
CONTINUOUS
 10
58.807975
 20
-47.585747
 11
58.86096
 21
-47.532765
  0
LINE
  8
型材断面
  6
DOT
 62
    47
 10
35.33596
 20
-55.16373
 11
35.33596
 21
-55.732107
  0
LINE
  8
型材断面
  6
DOT
 62
    47
 10
36.01096
 20
-56.432107
 11
35.33596
 21
-56.432107
  0
LINE
  8
型材断面
  6
DOT
 62
    47
 10
35.33596
 20
-56.432107
 11
35.33596
 21
-55.732107
  0
LINE
  8
型材断面
  6
DOT
 62
    47
 10
36.66096
 20
-55.732107
 11
35.33596
 21
-55.732107
  0
LINE
  8
型材断面
  6
DOT
 62
    47
 10
36.01096
 20
-56.432107
 11
36.01096
 21
-56.932107
  0
LINE
  8
型材断面
  6
DOT
 10
36.08596
 20
-56.932107
 11
36.01096
 21
-56.932107
  0
LINE
  8
型材断面
  6
DOT
 62
    47
 10
37.439853
 20
-53.059835
 11
36.379192
 21
-54.120497
  0
LINE
  8
型材断面
  6
DOT
 10
37.970183
 20
-52.529505
 11
40.688628
 21
-52.529505
  0
LINE
  8
型材断面
  6
DOT
 10
35.33596
 20
-55.732107
 11
54.61096
 21
-55.732107
  0
LINE
  8
型材断面
  6
DOT
 10
36.01096
 20
-56.932107
 11
54.61096
 21
-56.932107
  0
LINE
  8
型材断面
  6
DOT
 10
36.732745
 20
-53.766943
 11
54.61096
 21
-53.766943
  0
LINE
  8
型材断面
  6
DOT
 10
37.439853
 20
-53.059835
 11
54.61096
 21
-53.059835
  0
LINE
  8
型材断面
  6
DOT
 10
36.379192
 20
-54.120497
 11
54.61096
 21
-54.120497
  0
LINE
  8
型材断面
  6
DOT
 10
35.33596
 20
-55.16373
 11
54.61096
 21
-55.16373
  0
LINE
  8
型材断面
  6
DOT
 10
36.01096
 20
-56.432107
 11
54.61096
 21
-56.432107
  0
LINE
  8
型材断面
  6
DOT
 62
    47
 10
73.88596
 20
-55.16373
 11
73.88596
 21
-55.732107
  0
LINE
  8
型材断面
  6
DOT
 62
    47
 10
73.21096
 20
-56.432107
 11
73.88596
 21
-56.432107
  0
LINE
  8
型材断面
  6
DOT
 62
    47
 10
73.88596
 20
-56.432107
 11
73.88596
 21
-55.732107
  0
LINE
  8
型材断面
  6
DOT
 62
    47
 10
72.560958
 20
-55.732107
 11
73.88596
 21
-55.732107
  0
LINE
  8
型材断面
  6
DOT
 62
    47
 10
73.21096
 20
-56.432107
 11
73.21096
 21
-56.932107
  0
LINE
  8
型材断面
  6
DOT
 10
73.13596
 20
-56.932107
 11
73.21096
 21
-56.932107
  0
LINE
  8
型材断面
  6
DOT
 62
    47
 10
71.782065
 20
-53.059835
 11
72.842727
 21
-54.120497
  0
LINE
  8
型材断面
  6
DOT
 10
71.251735
 20
-52.529505
 11
68.533293
 21
-52.529505
  0
LINE
  8
型材断面
  6
DOT
 62
    47
 10
73.88596
 20
-55.16373
 11
54.61096
 21
-35.88873
  0
LINE
  8
型材断面
  6
DOT
 10
73.88596
 20
-55.732107
 11
54.61096
 21
-55.732107
  0
LINE
  8
型材断面
  6
DOT
 10
73.21096
 20
-56.932107
 11
54.61096
 21
-56.932107
  0
LINE
  8
型材断面
  6
DOT
 10
72.489172
 20
-53.766943
 11
54.61096
 21
-53.766943
  0
LINE
  8
型材断面
  6
DOT
 10
71.782065
 20
-53.059835
 11
54.61096
 21
-53.059835
  0
LINE
  8
型材断面
  6
DOT
 10
72.842727
 20
-54.120497
 11
54.61096
 21
-54.120497
  0
LINE
  8
型材断面
  6
DOT
 10
73.88596
 20
-55.16373
 11
54.61096
 21
-55.16373
  0
LINE
  8
型材断面
  6
DOT
 10
73.21096
 20
-56.432107
 11
54.61096
 21
-56.432107
  0
LINE
  8
型材断面
  6
DOT
 62
    47
 10
36.19096
 20
-59.216145
 11
36.19096
 21
-58.716145
  0
LINE
  8
型材断面
  6
DOT
 62
    47
 10
36.19096
 20
-58.716145
 11
37.36596
 21
-58.566145
  0
LINE
  8
型材断面
  6
DOT
 62
    47
 10
37.36596
 20
-57.957107
 11
37.36596
 21
-58.566145
  0
LINE
  8
型材断面
  6
DOT
 62
    47
 10
36.66096
 20
-57.957107
 11
36.66096
 21
-56.932107
  0
LINE
  8
型材断面
  6
DOT
 62
    47
 10
36.66096
 20
-57.957107
 11
54.61096
 21
-57.957107
  0
LINE
  8
型材断面
  6
DOT
 10
54.61096
 20
-58.716145
 11
36.19096
 21
-58.716145
  0
LINE
  8
型材断面
  6
DOT
 62
    47
 10
36.19096
 20
-59.216145
 11
54.61096
 21
-59.216145
  0
LINE
  8
型材断面
  6
DOT
 10
54.61096
 20
-58.566145
 11
37.36596
 21
-58.566145
  0
LINE
  8
型材断面
  6
DOT
 62
    47
 10
73.03096
 20
-59.216145
 11
73.03096
 21
-58.716145
  0
LINE
  8
型材断面
  6
DOT
 62
    47
 10
73.03096
 20
-58.716145
 11
71.85596
 21
-58.566145
  0
LINE
  8
型材断面
  6
DOT
 62
    47
 10
71.85596
 20
-57.957107
 11
71.85596
 21
-58.566145
  0
LINE
  8
型材断面
  6
DOT
 10
54.61096
 20
-58.716145
 11
73.03096
 21
-58.716145
  0
LINE
  8
型材断面
  6
DOT
 62
    47
 10
73.03096
 20
-59.216145
 11
54.61096
 21
-59.216145
  0
LINE
  8
型材断面
  6
DOT
 10
54.61096
 20
-58.566145
 11
71.85596
 21
-58.566145
  0
LINE
  8
型材断面
  6
DOT
 62
    47
 10
72.560958
 20
-57.957107
 11
72.560958
 21
-56.932107
  0
LINE
  8
型材断面
  6
DOT
 62
    47
 10
72.560958
 20
-57.957107
 11
54.61096
 21
-57.957107
  0
LINE
  8
型材断面
  6
DOT
 62
    47
 10
35.33596
 20
-55.16373
 11
54.61096
 21
-35.88873
  0
LINE
  8
型材断面
  6
DOT
 10
40.405782
 20
-52.529505
 11
52.849542
 21
-40.085747
  0
LINE
  8
型材断面
  6
DOT
 10
40.688628
 20
-52.529505
 11
53.132385
 21
-40.085747
  0
LINE
  8
型材断面
  6
DOT
 10
68.816135
 20
-52.529505
 11
56.372378
 21
-40.085747
  0
LINE
  8
型材断面
  6
DOT
 10
68.533293
 20
-52.529505
 11
56.089532
 21
-40.085747
  0
LINE
  8
型材断面
  6
DOT
 10
58.86096
 20
-40.032765
 11
54.61096
 21
-40.032765
  0
LINE
  8
型材断面
  6
DOT
 10
50.360962
 20
-40.032765
 11
54.61096
 21
-40.032765
  0
LINE
  8
型材断面
  6
DOT
 10
50.413945
 20
-40.085747
 11
54.61096
 21
-40.085747
  0
LINE
  8
型材断面
  6
DOT
 10
54.61096
 20
-35.782765
 11
58.86096
 21
-40.032765
  0
LINE
  8
型材断面
  6
DOT
 10
54.61096
 20
-35.782765
 11
50.360962
 21
-40.032765
  0
LINE
  8
型材断面
  6
DOT
 10
58.807975
 20
-40.085747
 11
54.61096
 21
-40.085747
  0
LINE
  8
型材断面
  6
DOT
 10
50.360962
 20
-40.032765
 11
50.413945
 21
-40.085747
  0
LINE
  8
型材断面
  6
DOT
 10
58.807975
 20
-40.085747
 11
58.86096
 21
-40.032765
  0
INSERT
  2
*GRP_0013
  8
型材断面
  6
CONTINUOUS
 10
0.0
 20
0.0
  0
INSERT
  2
*GRP_0014
  8
型材断面
  6
CONTINUOUS
 10
0.0
 20
0.0
  0
POLYLINE
  8
型材断面
  6
CONTINUOUS
 66
     1
 70
     1
  0
VERTEX
  8
型材断面
 10
-47.769268
 20
2.733518
  0
VERTEX
  8
型材断面
 10
-66.32448
 20
2.733518
  0
VERTEX
  8
型材断面
 10
-66.32448
 20
-2.058518
  0
VERTEX
  8
型材断面
 10
-47.769268
 20
-2.058518
  0
SEQEND
  0
POLYLINE
  8
型材断面
  6
CONTINUOUS
 66
     1
 70
     1
  0
VERTEX
  8
型材断面
 10
-47.769268
 20
63.755393
  0
VERTEX
  8
型材断面
 10
-66.32448
 20
63.755393
  0
VERTEX
  8
型材断面
 10
-66.32448
 20
58.963357
  0
VERTEX
  8
型材断面
 10
-47.769268
 20
58.963357
  0
SEQEND
  0
LINE
  8
型材断面
  6
CONTINUOUS
 10
-9.70687
 20
9.23261
 11
-11.950315
 21
5.34685
  0
LINE
  8
型材断面
  6
CONTINUOUS
 10
-9.70687
 20
9.23261
 11
-7.463425
 21
5.34685
  0
LINE
  8
型材断面
  6
CONTINUOUS
 10
-7.463425
 20
5.34685
 11
-11.950315
 21
5.34685
  0
LINE
  8
型材断面
  6
CONTINUOUS
 10
-9.70687
 20
1.543063
 11
-8.812785
 21
-2.342698
  0
LINE
  8
型材断面
  6
CONTINUOUS
 10
-9.70687
 20
1.543063
 11
-10.600955
 21
-2.342698
  0
LINE
  8
型材断面
  6
CONTINUOUS
 10
-10.600955
 20
-2.342698
 11
-8.812785
 21
-2.342698
  0
LINE
  8
型材断面
  6
CONTINUOUS
 10
-18.74075
 20
3.938957
 11
33.91593
 21
3.938957
  0
LINE
  8
型材断面
  6
CONTINUOUS
 10
-18.74075
 20
-7.261035
 11
33.91593
 21
-7.261035
  0
LINE
  8
型材断面
  6
CONTINUOUS
 10
-18.74075
 20
-14.10098
 11
33.91593
 21
-14.10098
  0
LINE
  8
型材断面
  6
CONTINUOUS
 10
-18.74075
 20
-20.940925
 11
33.91593
 21
-20.940925
  0
LINE
  8
型材断面
  6
CONTINUOUS
 10
107.835625
 20
-38.973123
 11
131.767247
 21
-38.973123
  0
LINE
  8
ガラス
  6
CONTINUOUS
 10
-55.259292
 20
44.34119
 11
-59.131927
 21
40.468555
  0
LINE
  8
ガラス
  6
CONTINUOUS
 10
-56.139615
 20
42.742833
 11
-57.53357
 21
41.348877
  0
LINE
  8
ガラス
  6
CONTINUOUS
 10
-56.85765
 20
43.460867
 11
-58.251605
 21
42.066913
  0
LINE
  8
ガラス
  6
CONTINUOUS
 10
-55.259292
 20
20.255723
 11
-59.131927
 21
16.383087
  0
LINE
  8
ガラス
  6
CONTINUOUS
 10
-56.139615
 20
18.657365
 11
-57.53357
 21
17.26341
  0
LINE
  8
ガラス
  6
CONTINUOUS
 10
-56.85765
 20
19.3754
 11
-58.251605
 21
17.981445
  0
LINE
  8
ガラス
  6
CONTINUOUS
 10
-42.799155
 20
32.907718
 11
-46.67179
 21
29.035082
  0
LINE
  8
ガラス
  6
CONTINUOUS
 10
-43.679478
 20
31.30936
 11
-45.073433
 21
29.915405
  0
LINE
  8
ガラス
  6
CONTINUOUS
 10
-44.397512
 20
32.027395
 11
-45.791467
 21
30.63344
  0
LINE
  8
ガラス
  6
CONTINUOUS
 10
-67.427992
 20
32.907718
 11
-71.300627
 21
29.035082
  0
LINE
  8
ガラス
  6
CONTINUOUS
 10
-68.308315
 20
31.30936
 11
-69.70227
 21
29.915405
  0
LINE
  8
ガラス
  6
CONTINUOUS
 10
-69.02635
 20
32.027395
 11
-70.420305
 21
30.63344
  0
LINE
  8
ガラス
  6
CONTINUOUS
 10
-55.169967
 20
-53.401617
 11
-59.042602
 21
-57.274252
  0
LINE
  8
ガラス
  6
CONTINUOUS
 10
-56.05029
 20
-54.999975
 11
-57.444245
 21
-56.39393
  0
LINE
  8
ガラス
  6
CONTINUOUS
 10
-56.768325
 20
-54.28194
 11
-58.16228
 21
-55.675895
  0
TEXT
  7
TextStyle03
  8
文字
  6
CONTINUOUS
 10
-78.55
 20
72.325
  1
アンカーピッチ
 40
3.0
 72
     5
 11
-55.3
 21
72.325
  0
TEXT
  7
TextStyle03
  8
文字
  6
CONTINUOUS
 10
-17.225
 20
23.325
  1
ﾊﾞﾗﾝｽｽﾃｰ
 40
3.0
 72
     5
 11
-3.9125
 21
23.325
  0
TEXT
  7
TextStyle03
  8
文字
  6
CONTINUOUS
 10
-65.35
 20
-1.075
  1
可動装置側
 40
3.0
 72
     5
 11
-48.85
 21
-1.075
  0
TEXT
  7
TextStyle03
  8
文字
  6
CONTINUOUS
 10
-65.35
 20
59.925
  1
可動装置側
 40
3.0
 72
     5
 11
-48.85
 21
59.925
  0
TEXT
  7
TextStyle03
  8
文字
  6
CONTINUOUS
 10
71.15
 20
95.55
  1
ＮＳコード：ＮＳ４ＣＳ
 40
5.0
 72
     5
 11
132.4
 21
95.55
  0
TEXT
  7
TextStyle03
  8
文字
  6
CONTINUOUS
 10
-5.425
 20
5.675
  1
は排水穴位置を示す
 40
3.0
 72
     5
 11
24.575
 21
5.675
  0
TEXT
  7
TextStyle03
  8
文字
  6
CONTINUOUS
 10
-5.425
 20
-2.175
  1
はケーシング位置を示す
 40
3.0
 72
     5
 11
31.325
 21
-2.175
  0
TEXT
  7
TextStyle03
  8
文字
  6
CONTINUOUS
 10
-5.425
 20
-5.55
  1
４ヶ所中1ヶ所に設定
 40
3.0
 72
     5
 11
26.2625
 21
-5.55
  0
TEXT
  7
TextStyle03
  8
文字
  6
CONTINUOUS
 10
-11.025
 20
-12.7
  1
アンカー数量　４ヶ所
 40
3.0
 72
     5
 11
22.35
 21
-12.7
  0
TEXT
  7
TextStyle03
  8
文字
  6
CONTINUOUS
 10
-11.05
 20
-19.525
  1
アームユニット数　２ヶ所
 40
3.0
 72
     5
 11
29.075
 21
-19.525
  0
TEXT
  7
TextStyle03
  8
文字
  6
CONTINUOUS
 10
139.4
 20
-57.6
  1
×４枚
 40
3.0
 72
     5
 11
149.15
 21
-57.6
  0
TEXT
  7
TextStyle03
  8
文字
  6
CONTINUOUS
 10
111.425
 20
-37.775
  1
ガラス寸法
 40
3.0
 72
     5
 11
127.925
 21
-37.775
  0
TEXT
  7
TextStyle03
  8
文字
  6
CONTINUOUS
 10
71.575
 20
121.1
  1
シリーズ：ＳＴＦ４
 40
5.0
 72
     5
 11
121.575
 21
121.1
  0
TEXT
  7
TextStyle03
  8
文字
  6
CONTINUOUS
 10
71.575
 20
115.475
  1
　　　　　四角錘（上下可動）600×600タイプ
 40
5.0
 72
     5
 11
189.075
 21
115.475
  0
TEXT
  7
TextStyle03
  8
文字
  6
CONTINUOUS
 10
71.575
 20
109.85
  1
　　　　　シングルガラス仕様
 40
5.0
 72
     5
 11
149.7
 21
109.85
  0
TEXT
  7
TextStyle03
  8
文字
  6
CONTINUOUS
 10
71.575
 20
104.225
  1
図面名　：外観姿図
 40
5.0
 72
     5
 11
121.575
 21
104.225
  0
TEXT
  7
TextStyle03
  8
文字
  6
CONTINUOUS
 10
71.575
 20
98.6
  1
　　　　　　
 40
5.0
 72
     5
 11
104.7
 21
98.6
  0
INSERT
  2
*DIM_0002
  8
寸法
  6
CONTINUOUS
 10
0.0
 20
0.0
  0
INSERT
  2
*DIM_0003
  8
寸法
  6
CONTINUOUS
 10
0.0
 20
0.0
  0
INSERT
  2
*DIM_0004
  8
寸法
  6
CONTINUOUS
 10
0.0
 20
0.0
  0
INSERT
  2
*DIM_0005
  8
寸法
  6
CONTINUOUS
 10
0.0
 20
0.0
  0
INSERT
  2
*DIM_0006
  8
寸法
  6
CONTINUOUS
 10
0.0
 20
0.0
  0
INSERT
  2
*DIM_0007
  8
寸法
  6
CONTINUOUS
 10
0.0
 20
0.0
  0
INSERT
  2
*DIM_0008
  8
寸法
  6
CONTINUOUS
 10
0.0
 20
0.0
  0
INSERT
  2
*DIM_0009
  8
寸法
  6
CONTINUOUS
 10
0.0
 20
0.0
  0
INSERT
  2
*GRP_0010
  8
寸法
  6
CONTINUOUS
 10
0.0
 20
0.0
  0
INSERT
  2
*DIM_0011
  8
寸法
  6
CONTINUOUS
 10
0.0
 20
0.0
  0
INSERT
  2
*DIM_0012
  8
寸法
  6
CONTINUOUS
 10
0.0
 20
0.0
  0
INSERT
  2
*DIM_0015
  8
寸法
  6
CONTINUOUS
 10
0.0
 20
0.0
  0
INSERT
  2
*DIM_0016
  8
寸法
  6
CONTINUOUS
 10
0.0
 20
0.0
  0
INSERT
  2
*DIM_0017
  8
寸法
  6
CONTINUOUS
 10
0.0
 20
0.0
  0
LINE
  8
曲げ物
  6
CONTINUOUS
 10
123.130517
 20
-58.71755
 11
139.023308
 21
-36.24175
  0
LINE
  8
曲げ物
  6
CONTINUOUS
 10
139.023308
 20
-36.24175
 11
154.916098
 21
-58.71755
  0
LINE
  8
曲げ物
  6
CONTINUOUS
 10
123.130517
 20
-58.71755
 11
154.916098
 21
-58.71755
  0
ENDSEC
  0
EOF
