  0
SECTION
  2
HEADER
  9
$EXTMIN
 10
-210.0
 20
-148.5
  9
$EXTMAX
 10
210.0
 20
148.5
  9
$PDMODE
 70
    32
  9
$PDSIZE
 40
1.5
  9
$LTSCALE
 40
10.0
  0
ENDSEC
  0
SECTION
  2
TABLES
  0
TABLE
  2
LTYPE
 70
    15
  0
LTYPE
  2
CONTINUOUS
 70
    64
  3
実線
 72
    65
 73
     0
 40
0.0
  0
LTYPE
  2
DASHED
 70
    64
  3
破線A
 72
    65
 73
     2
 40
0.6
 49
0.4
 49
-0.2
  0
LTYPE
  2
DASHEDX2
 70
    64
  3
破線B
 72
    65
 73
     2
 40
1.3
 49
0.9
 49
-0.4
  0
LTYPE
  2
DASHDOT
 70
    64
  3
１点鎖線A
 72
    65
 73
     4
 40
0.5375
 49
0.375
 49
-0.05
 49
0.0625
 49
-0.05
  0
LTYPE
  2
DASHDOTX2
 70
    64
  3
１点鎖線B
 72
    65
 73
     4
 40
1.075
 49
0.75
 49
-0.1
 49
0.125
 49
-0.1
  0
LTYPE
  2
DIVIDE2
 70
    64
  3
２点鎖線A
 72
    65
 73
     6
 40
0.5125
 49
0.3
 49
-0.0375
 49
0.05
 49
-0.0375
 49
0.05
 49
-0.0375
  0
LTYPE
  2
DIVIDE
 70
    64
  3
２点鎖線B
 72
    65
 73
     6
 40
1.05
 49
0.55
 49
-0.1
 49
0.1
 49
-0.1
 49
0.1
 49
-0.1
  0
LTYPE
  2
DOT
 70
    64
  3
点線A
 72
    65
 73
     2
 40
0.1125
 49
0.0625
 49
-0.05
  0
LTYPE
  2
DOTX2
 70
    64
  3
点線B
 72
    65
 73
     2
 40
0.275
 49
0.15
 49
-0.125
  0
LTYPE
  2
CONTINUOUS
 70
    64
  3
実線
 72
    65
 73
     0
 40
0.0
  0
LTYPE
  2
CONTINUOUS
 70
    64
  3
実線
 72
    65
 73
     0
 40
0.0
  0
LTYPE
  2
CONTINUOUS
 70
    64
  3
実線
 72
    65
 73
     0
 40
0.0
  0
LTYPE
  2
CONTINUOUS
 70
    64
  3
実線
 72
    65
 73
     0
 40
0.0
  0
LTYPE
  2
CONTINUOUS
 70
    64
  3
実線
 72
    65
 73
     0
 40
0.0
  0
LTYPE
  2
CONTINUOUS
 70
    64
  3
実線
 72
    65
 73
     0
 40
0.0
  0
ENDTAB
  0
TABLE
  2
LAYER
 70
    34
  0
LAYER
  2
通り芯
 70
     0
 62
    15
  6
CONTINUOUS
  0
LAYER
  2
補助線
 70
     0
 62
    16
  6
DOT
  0
LAYER
  2
躯体
 70
     0
 62
    31
  6
CONTINUOUS
  0
LAYER
  2
型材
 70
     0
 62
    32
  6
CONTINUOUS
  0
LAYER
  2
型材断面
 70
     0
 62
    47
  6
CONTINUOUS
  0
LAYER
  2
ガラス
 70
     0
 62
    48
  6
CONTINUOUS
  0
LAYER
  2
ゴム等
 70
     0
 62
    63
  6
CONTINUOUS
  0
LAYER
  2
ボルト／ビス
 70
     0
 62
    64
  6
CONTINUOUS
  0
LAYER
  2
文字
 70
     0
 62
    79
  6
CONTINUOUS
  0
LAYER
  2
寸法
 70
     0
 62
    80
  6
CONTINUOUS
  0
LAYER
  2
ﾊｯﾁﾝｸﾞ
 70
     0
 62
    95
  6
CONTINUOUS
  0
LAYER
  2
別途部材
 70
     0
 62
    96
  6
CONTINUOUS
  0
LAYER
  2
曲げ物
 70
     0
 62
   111
  6
CONTINUOUS
  0
LAYER
  2
鉄骨等
 70
     0
 62
   112
  6
CONTINUOUS
  0
LAYER
  2
St
 70
     0
 62
   127
  6
CONTINUOUS
  0
LAYER
  2
その他部品等
 70
     0
 62
   128
  6
CONTINUOUS
  0
LAYER
  2
ｶﾞｽｹｯﾄ
 70
     0
 62
   143
  6
CONTINUOUS
  0
LAYER
  2
ｽｹｯﾁ
 70
     0
 62
    14
  6
CONTINUOUS
  0
LAYER
  2
0
 70
     0
 62
    17
  6
CONTINUOUS
  0
LAYER
  2
1
 70
     0
 62
    30
  6
CONTINUOUS
  0
LAYER
  2
4
 70
     0
 62
    33
  6
CONTINUOUS
  0
LAYER
  2
ﾚｲﾔ3
 70
     0
 62
    46
  6
CONTINUOUS
  0
LAYER
  2
外形線
 70
     0
 62
    49
  6
CONTINUOUS
  0
LAYER
  2
部品
 70
     0
 62
    14
  6
CONTINUOUS
  0
LAYER
  2
サッシ芯
 70
     0
 62
    17
  6
DASHDOTX2
  0
LAYER
  2
寸法線
 70
     0
 62
    62
  6
CONTINUOUS
  0
LAYER
  2
姿図外形線
 70
     0
 62
    65
  6
CONTINUOUS
  0
LAYER
  2
姿補助線
 70
     0
 62
    30
  6
CONTINUOUS
  0
LAYER
  2
透視線
 70
     0
 62
    78
  6
DOT
  0
LAYER
  2
用紙
 70
     0
 62
    81
  6
CONTINUOUS
  0
LAYER
  2
実線図枠
 70
     0
 62
    94
  6
CONTINUOUS
  0
LAYER
  2
補助図枠
 70
     0
 62
    97
  6
CONTINUOUS
  0
LAYER
  2
建具記号
 70
     0
 62
   110
  6
CONTINUOUS
  0
LAYER
  2
補助文字
 70
     0
 62
   113
  6
CONTINUOUS
  0
ENDTAB
  0
TABLE
  2
STYLE
 70
    10
  0
STYLE
  2
STANDARD
 70
     0
 40
1.0
 41
1.0
 42
1.0
 50
0.0
 71
     0
  3
TXT
  4
BIGFONT
  0
STYLE
  2
TATE
 70
     4
 40
1.0
 41
1.0
 42
1.0
 50
0.0
 71
     0
  3
TXT
  4
BIGFONT
  0
STYLE
  2
TextStyle03
 70
     0
 40
1.0
 41
1.0
 42
1.0
 50
0.0
 71
     0
  3
MONOTXT
  4
BIGFONT
  0
STYLE
  2
TextStyle04
 70
     0
 40
1.0
 41
1.0
 42
1.0
 50
0.0
 71
     0
  3
MONOTXT
  4
BIGFONT
  0
STYLE
  2
TextStyle05
 70
     0
 40
1.0
 41
1.0
 42
1.0
 50
0.0
 71
     0
  3
MONOTXT
  4
BIGFONT
  0
STYLE
  2
TextStyle06
 70
     0
 40
1.0
 41
1.0
 42
1.0
 50
0.0
 71
     0
  3
MONOTXT
  4
BIGFONT
  0
STYLE
  2
TextStyle07
 70
     0
 40
1.0
 41
1.0
 42
1.0
 50
0.0
 71
     0
  3
MONOTXT
  4
BIGFONT
  0
STYLE
  2
TextStyle08
 70
     0
 40
1.0
 41
1.0
 42
1.0
 50
0.0
 71
     0
  3
MONOTXT
  4
BIGFONT
  0
STYLE
  2
TextStyle09
 70
     0
 40
1.0
 41
1.0
 42
1.0
 50
0.0
 71
     0
  3
MONOTXT
  4
BIGFONT
  0
STYLE
  2
TextStyle10
 70
     0
 40
1.0
 41
1.0
 42
1.0
 50
0.0
 71
     0
  3
MONOTXT
  4
BIGFONT
  0
ENDTAB
  0
ENDSEC
  0
SECTION
  2
BLOCKS
  0
BLOCK
  2
*GRP_0001
 70
    65
 10
0.0
 20
0.0
  0
LINE
  8
型材断面
  6
CONTINUOUS
 10
195.0
 20
133.5
 11
195.0
 21
-133.5
  0
LINE
  8
型材断面
  6
CONTINUOUS
 10
195.0
 20
-133.5
 11
-185.0
 21
-133.5
  0
LINE
  8
型材断面
  6
CONTINUOUS
 10
-185.0
 20
-133.5
 11
-185.0
 21
133.5
  0
LINE
  8
型材断面
  6
CONTINUOUS
 10
195.0
 20
133.5
 11
-185.0
 21
133.5
  0
LINE
  8
型材断面
  6
CONTINUOUS
 10
145.0
 20
-133.5
 11
145.0
 21
-118.5
  0
LINE
  8
型材断面
  6
CONTINUOUS
 10
195.0
 20
-118.5
 11
145.0
 21
-118.5
  0
ENDBLK
  0
BLOCK
  2
*DIM_0002
 70
    65
 10
0.0
 20
0.0
  0
LINE
  8
寸法
  6
CONTINUOUS
 62
     0
 10
-34.900342
 20
28.506685
 11
-34.900342
 21
48.45729
  0
LINE
  8
寸法
  6
CONTINUOUS
 62
     0
 10
-54.900342
 20
28.506685
 11
-54.900342
 21
48.45729
  0
LINE
  8
寸法
  6
CONTINUOUS
 62
     0
 10
-34.900342
 20
48.45729
 11
-54.900342
 21
48.45729
  0
POINT
  8
寸法
 62
     0
 10
-34.900342
 20
48.45729
 50
-270.0
  0
POINT
  8
寸法
 62
     0
 10
-54.900342
 20
48.45729
 50
-270.0
  0
TEXT
  7
TextStyle03
  8
寸法
  6
CONTINUOUS
 62
     0
 10
-47.4125
 20
48.85
  1
400
 40
3.0
 72
     5
 11
-42.5375
 21
48.85
  0
ENDBLK
  0
BLOCK
  2
*GRP_0003
 70
    65
 10
0.0
 20
0.0
  0
POLYLINE
  8
寸法
  6
CONTINUOUS
 62
     0
 66
     1
  0
VERTEX
  8
寸法
 10
-32.236823
 20
10.00298
  0
VERTEX
  8
寸法
 10
-28.555627
 20
6.321785
  0
VERTEX
  8
寸法
 10
-5.71305
 20
6.321785
  0
SEQEND
  0
ENDBLK
  0
BLOCK
  2
*DIM_0004
 70
    65
 10
0.0
 20
0.0
  0
LINE
  8
寸法
  6
BYBLOCK
 62
     0
 10
-28.900342
 20
27.506688
 11
-8.350912
 21
27.506688
  0
LINE
  8
寸法
  6
BYBLOCK
 62
     0
 10
-20.876465
 20
21.65669
 11
-8.350912
 21
21.65669
  0
LINE
  8
寸法
  6
BYBLOCK
 62
     0
 10
-8.350912
 20
27.506688
 11
-8.350912
 21
21.65669
  0
POINT
  8
寸法
 62
     0
 10
-8.350912
 20
27.506688
  0
POINT
  8
寸法
 62
     0
 10
-8.350912
 20
21.65669
  0
TEXT
  7
TextStyle03
  8
寸法
  6
CONTINUOUS
 62
     0
 10
-8.75
 20
22.1125
  1
117
 40
3.0
 50
90.0
 72
     5
 11
-8.75
 21
26.9875
  0
ENDBLK
  0
BLOCK
  2
*DIM_0005
 70
    65
 10
0.0
 20
0.0
  0
LINE
  8
寸法
  6
BYBLOCK
 62
     0
 10
-28.900342
 20
-2.493312
 11
-8.350912
 21
-2.493312
  0
LINE
  8
寸法
  6
BYBLOCK
 62
     0
 10
-20.876465
 20
3.356685
 11
-8.350912
 21
3.356685
  0
LINE
  8
寸法
  6
BYBLOCK
 62
     0
 10
-8.350912
 20
-2.493312
 11
-8.350912
 21
3.356685
  0
POINT
  8
寸法
 62
     0
 10
-8.350912
 20
-2.493312
  0
POINT
  8
寸法
 62
     0
 10
-8.350912
 20
3.356685
  0
TEXT
  7
TextStyle03
  8
寸法
  6
CONTINUOUS
 62
     0
 10
-8.75
 20
-2.0375
  1
117
 40
3.0
 50
90.0
 72
     5
 11
-8.75
 21
2.8375
  0
ENDBLK
  0
BLOCK
  2
*GRP_0006
 70
    65
 10
0.0
 20
0.0
  0
LINE
  8
補助線
  6
BYBLOCK
 62
    64
 10
63.504195
 20
-72.700127
 11
63.70917
 21
-72.843253
  0
LINE
  8
補助線
  6
BYBLOCK
 62
    64
 10
63.678245
 20
-72.669203
 11
63.53512
 21
-72.874178
  0
LINE
  8
補助線
  6
BYBLOCK
 62
    64
 10
55.510075
 20
-67.118325
 11
55.305098
 21
-66.9752
  0
LINE
  8
補助線
  6
BYBLOCK
 62
    64
 10
55.479147
 20
-66.944272
 11
55.336025
 21
-67.14925
  0
LINE
  8
補助線
  6
BYBLOCK
 62
    64
 10
47.310973
 20
-61.393402
 11
47.105995
 21
-61.25028
  0
LINE
  8
補助線
  6
BYBLOCK
 62
    64
 10
47.280045
 20
-61.219352
 11
47.136923
 21
-61.42433
  0
LINE
  8
型材断面
  6
CONTINUOUS
 10
64.732255
 20
-72.03305
 11
64.917815
 21
-73.07735
  0
LINE
  8
型材断面
  6
CONTINUOUS
 10
64.917815
 20
-73.07735
 11
64.345322
 21
-73.897263
  0
LINE
  8
型材断面
  6
CONTINUOUS
 10
64.345322
 20
-73.897263
 11
63.301023
 21
-74.082823
  0
LINE
  8
型材断面
  6
CONTINUOUS
 10
55.69383
 20
-66.636812
 11
55.121335
 21
-67.456722
  0
LINE
  8
型材断面
  6
CONTINUOUS
 10
47.514142
 20
-60.010707
 11
46.469843
 21
-60.19627
  0
LINE
  8
型材断面
  6
CONTINUOUS
 10
46.469843
 20
-60.19627
 11
45.89735
 21
-61.01618
  0
LINE
  8
型材断面
  6
CONTINUOUS
 10
45.89735
 20
-61.01618
 11
46.082915
 21
-62.060483
  0
LINE
  8
型材断面
  6
CONTINUOUS
 10
64.732255
 20
-72.03305
 11
47.514157
 21
-60.010705
  0
LINE
  8
型材断面
  6
CONTINUOUS
 10
63.301023
 20
-74.082823
 11
46.08291
 21
-62.060473
  0
LINE
  8
ボルト／ビス
  6
CONTINUOUS
 62
    64
 10
63.871105
 20
-72.39299
 11
64.066857
 21
-72.811337
  0
LINE
  8
ボルト／ビス
  6
CONTINUOUS
 62
    64
 10
63.871105
 20
-72.39299
 11
63.41093
 21
-72.353345
  0
LINE
  8
ボルト／ビス
  6
CONTINUOUS
 62
    64
 10
63.34226
 20
-73.15039
 11
63.802435
 21
-73.190035
  0
LINE
  8
ボルト／ビス
  6
CONTINUOUS
 62
    64
 10
63.34226
 20
-73.15039
 11
63.146508
 21
-72.732042
  0
CIRCLE
  8
ボルト／ビス
  6
CONTINUOUS
 62
    64
 10
63.606682
 20
-72.77169
 40
0.4
  0
LINE
  8
ボルト／ビス
  6
CONTINUOUS
 62
    64
 10
63.41093
 20
-72.353345
 11
63.146508
 21
-72.732042
  0
LINE
  8
ボルト／ビス
  6
CONTINUOUS
 62
    64
 10
64.066857
 20
-72.811337
 11
63.802435
 21
-73.190035
  0
LINE
  8
ボルト／ビス
  6
CONTINUOUS
 62
    64
 10
55.67201
 20
-66.668062
 11
55.211832
 21
-66.628415
  0
LINE
  8
ボルト／ビス
  6
CONTINUOUS
 62
    64
 10
55.67201
 20
-66.668062
 11
55.867763
 21
-67.086408
  0
LINE
  8
ボルト／ビス
  6
CONTINUOUS
 62
    64
 10
55.143162
 20
-67.42546
 11
54.94741
 21
-67.007115
  0
LINE
  8
ボルト／ビス
  6
CONTINUOUS
 62
    64
 10
55.143162
 20
-67.42546
 11
55.603338
 21
-67.465107
  0
CIRCLE
  8
ボルト／ビス
  6
CONTINUOUS
 62
    64
 10
55.407585
 20
-67.046763
 40
0.4
  0
LINE
  8
ボルト／ビス
  6
CONTINUOUS
 62
    64
 10
55.867763
 20
-67.086408
 11
55.603338
 21
-67.465107
  0
LINE
  8
ボルト／ビス
  6
CONTINUOUS
 62
    64
 10
55.211832
 20
-66.628415
 11
54.94741
 21
-67.007115
  0
LINE
  8
ボルト／ビス
  6
CONTINUOUS
 62
    64
 10
47.472905
 20
-60.943142
 11
47.01273
 21
-60.903495
  0
LINE
  8
ボルト／ビス
  6
CONTINUOUS
 62
    64
 10
47.472905
 20
-60.943142
 11
47.668657
 21
-61.36149
  0
LINE
  8
ボルト／ビス
  6
CONTINUOUS
 62
    64
 10
46.944062
 20
-61.700543
 11
46.74831
 21
-61.282195
  0
LINE
  8
ボルト／ビス
  6
CONTINUOUS
 62
    64
 10
46.944062
 20
-61.700543
 11
47.404238
 21
-61.740187
  0
CIRCLE
  8
ボルト／ビス
  6
CONTINUOUS
 62
    64
 10
47.208482
 20
-61.321843
 40
0.4
  0
LINE
  8
ボルト／ビス
  6
CONTINUOUS
 62
    64
 10
47.668657
 20
-61.36149
 11
47.404238
 21
-61.740187
  0
LINE
  8
ボルト／ビス
  6
CONTINUOUS
 62
    64
 10
47.01273
 20
-60.903495
 11
46.74831
 21
-61.282195
  0
ENDBLK
  0
BLOCK
  2
*GRP_0007
 70
    65
 10
0.0
 20
0.0
  0
LINE
  8
補助線
  6
BYBLOCK
 62
    64
 10
47.310975
 20
-72.700127
 11
47.106
 21
-72.843253
  0
LINE
  8
補助線
  6
BYBLOCK
 62
    64
 10
47.136925
 20
-72.669203
 11
47.28005
 21
-72.874178
  0
LINE
  8
補助線
  6
BYBLOCK
 62
    64
 10
55.305095
 20
-67.118325
 11
55.510073
 21
-66.9752
  0
LINE
  8
補助線
  6
BYBLOCK
 62
    64
 10
55.336023
 20
-66.944272
 11
55.479145
 21
-67.14925
  0
LINE
  8
補助線
  6
BYBLOCK
 62
    64
 10
63.504198
 20
-61.393402
 11
63.709175
 21
-61.25028
  0
LINE
  8
補助線
  6
BYBLOCK
 62
    64
 10
63.535125
 20
-61.219352
 11
63.678247
 21
-61.42433
  0
LINE
  8
型材断面
  6
CONTINUOUS
 10
46.082915
 20
-72.03305
 11
45.897355
 21
-73.07735
  0
LINE
  8
型材断面
  6
CONTINUOUS
 10
45.897355
 20
-73.07735
 11
46.469847
 21
-73.897263
  0
LINE
  8
型材断面
  6
CONTINUOUS
 10
46.469847
 20
-73.897263
 11
47.514148
 21
-74.082823
  0
LINE
  8
型材断面
  6
CONTINUOUS
 10
55.12134
 20
-66.636812
 11
55.693835
 21
-67.456722
  0
LINE
  8
型材断面
  6
CONTINUOUS
 10
63.301028
 20
-60.010707
 11
64.345327
 21
-60.19627
  0
LINE
  8
型材断面
  6
CONTINUOUS
 10
64.345327
 20
-60.19627
 11
64.91782
 21
-61.01618
  0
LINE
  8
型材断面
  6
CONTINUOUS
 10
64.91782
 20
-61.01618
 11
64.732255
 21
-62.060483
  0
LINE
  8
型材断面
  6
CONTINUOUS
 10
46.082915
 20
-72.03305
 11
63.301013
 21
-60.010705
  0
LINE
  8
型材断面
  6
CONTINUOUS
 10
47.514148
 20
-74.082823
 11
64.73226
 21
-62.060473
  0
LINE
  8
ボルト／ビス
  6
CONTINUOUS
 62
    64
 10
46.944065
 20
-72.39299
 11
46.748313
 21
-72.811337
  0
LINE
  8
ボルト／ビス
  6
CONTINUOUS
 62
    64
 10
46.944065
 20
-72.39299
 11
47.40424
 21
-72.353345
  0
LINE
  8
ボルト／ビス
  6
CONTINUOUS
 62
    64
 10
47.47291
 20
-73.15039
 11
47.012735
 21
-73.190035
  0
LINE
  8
ボルト／ビス
  6
CONTINUOUS
 62
    64
 10
47.47291
 20
-73.15039
 11
47.668663
 21
-72.732042
  0
CIRCLE
  8
ボルト／ビス
  6
CONTINUOUS
 62
    64
 10
47.208488
 20
-72.77169
 40
0.4
  0
LINE
  8
ボルト／ビス
  6
CONTINUOUS
 62
    64
 10
47.40424
 20
-72.353345
 11
47.668663
 21
-72.732042
  0
LINE
  8
ボルト／ビス
  6
CONTINUOUS
 62
    64
 10
46.748313
 20
-72.811337
 11
47.012735
 21
-73.190035
  0
LINE
  8
ボルト／ビス
  6
CONTINUOUS
 62
    64
 10
55.14316
 20
-66.668062
 11
55.603338
 21
-66.628415
  0
LINE
  8
ボルト／ビス
  6
CONTINUOUS
 62
    64
 10
55.14316
 20
-66.668062
 11
54.947408
 21
-67.086408
  0
LINE
  8
ボルト／ビス
  6
CONTINUOUS
 62
    64
 10
55.672007
 20
-67.42546
 11
55.86776
 21
-67.007115
  0
LINE
  8
ボルト／ビス
  6
CONTINUOUS
 62
    64
 10
55.672007
 20
-67.42546
 11
55.211832
 21
-67.465107
  0
CIRCLE
  8
ボルト／ビス
  6
CONTINUOUS
 62
    64
 10
55.407585
 20
-67.046763
 40
0.4
  0
LINE
  8
ボルト／ビス
  6
CONTINUOUS
 62
    64
 10
54.947408
 20
-67.086408
 11
55.211832
 21
-67.465107
  0
LINE
  8
ボルト／ビス
  6
CONTINUOUS
 62
    64
 10
55.603338
 20
-66.628415
 11
55.86776
 21
-67.007115
  0
LINE
  8
ボルト／ビス
  6
CONTINUOUS
 62
    64
 10
63.342265
 20
-60.943142
 11
63.80244
 21
-60.903495
  0
LINE
  8
ボルト／ビス
  6
CONTINUOUS
 62
    64
 10
63.342265
 20
-60.943142
 11
63.146513
 21
-61.36149
  0
LINE
  8
ボルト／ビス
  6
CONTINUOUS
 62
    64
 10
63.871107
 20
-61.700543
 11
64.06686
 21
-61.282195
  0
LINE
  8
ボルト／ビス
  6
CONTINUOUS
 62
    64
 10
63.871107
 20
-61.700543
 11
63.410932
 21
-61.740187
  0
CIRCLE
  8
ボルト／ビス
  6
CONTINUOUS
 62
    64
 10
63.606688
 20
-61.321843
 40
0.4
  0
LINE
  8
ボルト／ビス
  6
CONTINUOUS
 62
    64
 10
63.146513
 20
-61.36149
 11
63.410932
 21
-61.740187
  0
LINE
  8
ボルト／ビス
  6
CONTINUOUS
 62
    64
 10
63.80244
 20
-60.903495
 11
64.06686
 21
-61.282195
  0
ENDBLK
  0
BLOCK
  2
*DIM_0008
 70
    65
 10
0.0
 20
0.0
  0
LINE
  8
寸法
  6
BYBLOCK
 62
     0
 10
-59.900342
 20
-30.395367
 11
-59.900342
 21
-31.06104
  0
LINE
  8
寸法
  6
BYBLOCK
 62
     0
 10
-29.900342
 20
-30.395367
 11
-29.900342
 21
-31.06104
  0
LINE
  8
寸法
  6
BYBLOCK
 62
     0
 10
-59.900342
 20
-31.06104
 11
-29.900342
 21
-31.06104
  0
POINT
  8
寸法
 62
     0
 10
-59.900342
 20
-31.06104
  0
POINT
  8
寸法
 62
     0
 10
-29.900342
 20
-31.06104
  0
TEXT
  7
TextStyle03
  8
寸法
  6
CONTINUOUS
 62
     0
 10
-55.8
 20
-30.725
  1
呼称寸法　600
 40
3.0
 72
     5
 11
-34.05
 21
-30.725
  0
ENDBLK
  0
BLOCK
  2
*DIM_0009
 70
    65
 10
0.0
 20
0.0
  0
LINE
  8
寸法
  6
BYBLOCK
 62
     0
 10
-25.625342
 20
-65.425495
 11
-25.625342
 21
-31.06104
  0
LINE
  8
寸法
  6
BYBLOCK
 62
     0
 10
-29.900342
 20
-31.06104
 11
-25.625342
 21
-31.06104
  0
POINT
  8
寸法
 62
     0
 10
-25.625342
 20
-31.06104
  0
TEXT
  7
TextStyle03
  8
寸法
  6
CONTINUOUS
 62
     0
 10
-24.33125
 20
-30.725
  1
85.5
 40
3.0
 72
     5
 11
-17.76875
 21
-30.725
  0
ENDBLK
  0
BLOCK
  2
*DIM_0010
 70
    65
 10
0.0
 20
0.0
  0
LINE
  8
寸法
  6
BYBLOCK
 62
     0
 10
-64.175342
 20
-65.425495
 11
-64.175342
 21
-31.06104
  0
LINE
  8
寸法
  6
BYBLOCK
 62
     0
 10
-59.900342
 20
-31.06104
 11
-64.175342
 21
-31.06104
  0
POINT
  8
寸法
 62
     0
 10
-59.900342
 20
-31.06104
  0
POINT
  8
寸法
 62
     0
 10
-64.175342
 20
-31.06104
  0
TEXT
  7
TextStyle03
  8
寸法
  6
CONTINUOUS
 62
     0
 10
-72.10625
 20
-30.725
  1
85.5
 40
3.0
 72
     5
 11
-65.54375
 21
-30.725
  0
ENDBLK
  0
BLOCK
  2
*DIM_0011
 70
    65
 10
0.0
 20
0.0
  0
LINE
  8
寸法
  6
BYBLOCK
 62
     0
 10
-49.15034
 20
-50.29453
 11
-49.15034
 21
-39.844362
  0
LINE
  8
寸法
  6
BYBLOCK
 62
     0
 10
-40.650342
 20
-50.29453
 11
-40.650342
 21
-39.844362
  0
LINE
  8
寸法
  6
BYBLOCK
 62
     0
 10
-49.15034
 20
-39.844362
 11
-40.650342
 21
-39.844362
  0
POINT
  8
寸法
 62
     0
 10
-49.15034
 20
-39.844362
  0
POINT
  8
寸法
 62
     0
 10
-40.650342
 20
-39.844362
  0
TEXT
  7
TextStyle03
  8
寸法
  6
CONTINUOUS
 62
     0
 10
-47.3625
 20
-39.5
  1
170
 40
3.0
 72
     5
 11
-42.4875
 21
-39.5
  0
ENDBLK
  0
BLOCK
  2
*DIM_0012
 70
    65
 10
0.0
 20
0.0
  0
LINE
  8
寸法
  6
BYBLOCK
 62
     0
 10
-35.563565
 20
-47.04453
 11
-34.675007
 21
-47.04453
  0
LINE
  8
寸法
  6
BYBLOCK
 62
     0
 10
-39.650342
 20
-51.29453
 11
-34.675007
 21
-51.29453
  0
LINE
  8
寸法
  6
BYBLOCK
 62
     0
 10
-34.675007
 20
-47.04453
 11
-34.675007
 21
-51.29453
  0
POINT
  8
寸法
 62
     0
 10
-34.675007
 20
-47.04453
  0
POINT
  8
寸法
 62
     0
 10
-34.675007
 20
-51.29453
  0
TEXT
  7
TextStyle03
  8
寸法
  6
CONTINUOUS
 62
     0
 10
-35.075
 20
-50.79375
  1
85
 40
3.0
 50
90.0
 72
     5
 11
-35.075
 21
-47.60625
  0
ENDBLK
  0
BLOCK
  2
*DIM_0013
 70
    65
 10
0.0
 20
0.0
  0
LINE
  8
寸法
  6
BYBLOCK
 62
     0
 10
-25.950345
 20
-75.19669
 11
-8.229482
 21
-75.19669
  0
LINE
  8
寸法
  6
BYBLOCK
 62
     0
 10
-24.625342
 20
-66.425495
 11
-8.229482
 21
-66.425495
  0
LINE
  8
寸法
  6
BYBLOCK
 62
     0
 10
-8.229482
 20
-75.19669
 11
-8.229482
 21
-66.425495
  0
POINT
  8
寸法
 62
     0
 10
-8.229482
 20
-75.19669
  0
POINT
  8
寸法
 62
     0
 10
-8.229482
 20
-66.425495
  0
TEXT
  7
TextStyle03
  8
寸法
  6
CONTINUOUS
 62
     0
 10
-8.625
 20
-74.975
  1
175.4
 40
3.0
 50
90.0
 72
     5
 11
-8.625
 21
-66.725
  0
ENDBLK
  0
BLOCK
  2
*DIM_0014
 70
    65
 10
0.0
 20
0.0
  0
LINE
  8
寸法
  6
BYBLOCK
 62
     0
 10
-43.900342
 20
-47.04453
 11
-8.229482
 21
-47.04453
  0
LINE
  8
寸法
  6
BYBLOCK
 62
     0
 10
-8.229482
 20
-66.425495
 11
-8.229482
 21
-47.04453
  0
POINT
  8
寸法
 62
     0
 10
-8.229482
 20
-47.04453
  0
TEXT
  7
TextStyle03
  8
寸法
  6
CONTINUOUS
 62
     0
 10
-8.625
 20
-60.875
  1
387.6
 40
3.0
 50
90.0
 72
     5
 11
-8.625
 21
-52.625
  0
ENDBLK
  0
BLOCK
  2
*DIM_0015
 70
    65
 10
0.0
 20
0.0
  0
LINE
  8
寸法
  6
BYBLOCK
 62
     0
 10
123.130517
 20
-61.71755
 11
123.130517
 21
-69.368178
  0
LINE
  8
寸法
  6
BYBLOCK
 62
     0
 10
154.916098
 20
-61.71755
 11
154.916098
 21
-69.368178
  0
LINE
  8
寸法
  6
BYBLOCK
 62
     0
 10
123.130517
 20
-69.368178
 11
154.916098
 21
-69.368178
  0
POINT
  8
寸法
 62
     0
 10
123.130517
 20
-69.368178
  0
POINT
  8
寸法
 62
     0
 10
154.916098
 20
-69.368178
  0
TEXT
  7
TextStyle03
  8
寸法
  6
CONTINUOUS
 62
     0
 10
134.875
 20
-69.0
  1
635.7
 40
3.0
 72
     5
 11
143.125
 21
-69.0
  0
ENDBLK
  0
BLOCK
  2
*DIM_0016
 70
    65
 10
0.0
 20
0.0
  0
LINE
  8
寸法
  6
BYBLOCK
 62
     0
 10
157.916098
 20
-58.71755
 11
162.248015
 21
-58.71755
  0
LINE
  8
寸法
  6
BYBLOCK
 62
     0
 10
142.023308
 20
-36.24175
 11
162.248015
 21
-36.24175
  0
LINE
  8
寸法
  6
BYBLOCK
 62
     0
 10
162.248015
 20
-58.71755
 11
162.248015
 21
-36.24175
  0
POINT
  8
寸法
 62
     0
 10
162.248015
 20
-58.71755
  0
POINT
  8
寸法
 62
     0
 10
162.248015
 20
-36.24175
  0
TEXT
  7
TextStyle03
  8
寸法
  6
CONTINUOUS
 62
     0
 10
161.85
 20
-51.625
  1
449.5
 40
3.0
 50
90.0
 72
     5
 11
161.85
 21
-43.375
  0
ENDBLK
  0
BLOCK
  2
*DIM_0017
 70
    65
 10
0.0
 20
0.0
  0
LINE
  8
寸法
  6
BYBLOCK
 62
     0
 10
73.026683
 20
-63.755728
 11
81.262305
 21
-63.755728
  0
LINE
  8
寸法
  6
BYBLOCK
 62
     0
 10
73.026683
 20
-71.255728
 11
81.262305
 21
-71.255728
  0
LINE
  8
寸法
  6
BYBLOCK
 62
     0
 10
81.262305
 20
-63.755728
 11
81.262305
 21
-71.255728
  0
POINT
  8
寸法
 62
     0
 10
81.262305
 20
-63.755728
  0
POINT
  8
寸法
 62
     0
 10
81.262305
 20
-71.255728
  0
TEXT
  7
TextStyle03
  8
寸法
  6
CONTINUOUS
 62
     0
 10
85.55
 20
-75.875
  1
上昇87以上
 40
3.0
 50
90.0
 72
     5
 11
85.55
 21
-59.375
  0
ENDBLK
  0
ENDSEC
  0
SECTION
  2
ENTITIES
  0
POLYLINE
  8
通り芯
  6
CONTINUOUS
 66
     1
 70
     1
  0
VERTEX
  8
通り芯
 10
-210.0
 20
-148.5
  0
VERTEX
  8
通り芯
 10
210.0
 20
-148.5
  0
VERTEX
  8
通り芯
 10
210.0
 20
148.5
  0
VERTEX
  8
通り芯
 10
-210.0
 20
148.5
  0
SEQEND
  0
INSERT
  2
*GRP_0001
  8
型材断面
  6
CONTINUOUS
 10
0.0
 20
0.0
  0
LINE
  8
型材断面
  6
CONTINUOUS
 10
-58.910458
 20
29.78386
 11
-62.177517
 21
29.78386
  0
LINE
  8
型材断面
  6
CONTINUOUS
 10
-62.177517
 20
29.78386
 11
-62.177517
 21
26.5168
  0
LINE
  8
型材断面
  6
DASHDOT
 10
-44.900342
 20
27.506688
 11
-44.900342
 21
12.506688
  0
LINE
  8
型材断面
  6
DASHDOT
 10
-59.900342
 20
12.506688
 11
-44.900342
 21
12.506688
  0
LINE
  8
型材断面
  6
DASHDOT
 10
-59.900342
 20
27.506688
 11
-59.900342
 21
12.506688
  0
LINE
  8
型材断面
  6
CONTINUOUS
 10
-63.874572
 20
31.480918
 11
-63.874572
 21
12.506688
  0
LINE
  8
型材断面
  6
CONTINUOUS
 10
-64.175342
 20
31.781688
 11
-64.175342
 21
12.506688
  0
LINE
  8
型材断面
  6
CONTINUOUS
 10
-62.53107
 20
30.137413
 11
-62.53107
 21
12.506688
  0
LINE
  8
型材断面
  6
CONTINUOUS
 10
-62.248228
 20
29.85457
 11
-62.248228
 21
12.506688
  0
LINE
  8
型材断面
  6
CONTINUOUS
 10
-63.52102
 20
31.127362
 11
-63.52102
 21
12.506688
  0
LINE
  8
型材断面
  6
DASHDOT
 10
-59.900342
 20
27.506688
 11
-44.900342
 21
27.506688
  0
LINE
  8
型材断面
  6
CONTINUOUS
 10
-64.175342
 20
31.781688
 11
-44.900342
 21
31.781688
  0
LINE
  8
型材断面
  6
CONTINUOUS
 10
-63.874572
 20
31.480918
 11
-44.900342
 21
31.480918
  0
LINE
  8
型材断面
  6
CONTINUOUS
 10
-63.52102
 20
31.127362
 11
-44.900342
 21
31.127362
  0
LINE
  8
型材断面
  6
CONTINUOUS
 10
-62.53107
 20
30.137413
 11
-44.900342
 21
30.137413
  0
LINE
  8
型材断面
  6
CONTINUOUS
 10
-62.248228
 20
29.85457
 11
-44.900342
 21
29.85457
  0
LINE
  8
型材断面
  6
CONTINUOUS
 10
-44.900342
 20
16.756688
 11
-49.150342
 21
16.756688
  0
LINE
  8
型材断面
  6
CONTINUOUS
 10
-49.150342
 20
12.506688
 11
-49.150342
 21
16.756688
  0
LINE
  8
型材断面
  6
CONTINUOUS
 10
-49.150342
 20
16.756688
 11
-44.900342
 21
12.506688
  0
LINE
  8
型材断面
  6
CONTINUOUS
 10
-62.177517
 20
26.5168
 11
-49.150342
 21
13.489627
  0
LINE
  8
型材断面
  6
CONTINUOUS
 10
-62.177517
 20
29.430305
 11
-49.150342
 21
16.403132
  0
LINE
  8
型材断面
  6
CONTINUOUS
 10
-61.823965
 20
29.78386
 11
-48.79679
 21
16.756688
  0
LINE
  8
型材断面
  6
CONTINUOUS
 10
-58.910458
 20
29.78386
 11
-45.883283
 21
16.756688
  0
LINE
  8
型材断面
  6
DASHDOT
 10
-64.175342
 20
31.781688
 11
-44.900342
 21
12.506688
  0
LINE
  8
型材断面
  6
CONTINUOUS
 10
-58.910458
 20
-4.770488
 11
-62.177517
 21
-4.770488
  0
LINE
  8
型材断面
  6
CONTINUOUS
 10
-62.177517
 20
-4.770488
 11
-62.177517
 21
-1.503427
  0
LINE
  8
型材断面
  6
DASHDOT
 10
-59.900342
 20
-2.493312
 11
-59.900342
 21
12.506688
  0
LINE
  8
型材断面
  6
CONTINUOUS
 10
-63.874572
 20
-6.467543
 11
-63.874572
 21
12.506688
  0
LINE
  8
型材断面
  6
CONTINUOUS
 10
-64.175342
 20
-6.768312
 11
-64.175342
 21
12.506688
  0
LINE
  8
型材断面
  6
CONTINUOUS
 10
-62.53107
 20
-5.12404
 11
-62.53107
 21
12.506688
  0
LINE
  8
型材断面
  6
CONTINUOUS
 10
-62.248228
 20
-4.841197
 11
-62.248228
 21
12.506688
  0
LINE
  8
型材断面
  6
CONTINUOUS
 10
-63.52102
 20
-6.11399
 11
-63.52102
 21
12.506688
  0
LINE
  8
型材断面
  6
DASHDOT
 10
-59.900342
 20
-2.493312
 11
-44.900342
 21
-2.493312
  0
LINE
  8
型材断面
  6
CONTINUOUS
 10
-64.175342
 20
-6.768312
 11
-44.900342
 21
-6.768312
  0
LINE
  8
型材断面
  6
CONTINUOUS
 10
-63.874572
 20
-6.467543
 11
-44.900342
 21
-6.467543
  0
LINE
  8
型材断面
  6
CONTINUOUS
 10
-63.52102
 20
-6.11399
 11
-44.900342
 21
-6.11399
  0
LINE
  8
型材断面
  6
CONTINUOUS
 10
-62.53107
 20
-5.12404
 11
-44.900342
 21
-5.12404
  0
LINE
  8
型材断面
  6
CONTINUOUS
 10
-62.248228
 20
-4.841197
 11
-44.900342
 21
-4.841197
  0
LINE
  8
型材断面
  6
CONTINUOUS
 10
-44.900342
 20
8.256688
 11
-49.150342
 21
8.256688
  0
LINE
  8
型材断面
  6
CONTINUOUS
 10
-49.150342
 20
12.506688
 11
-49.150342
 21
8.256688
  0
LINE
  8
型材断面
  6
CONTINUOUS
 10
-49.150342
 20
8.256688
 11
-44.900342
 21
12.506688
  0
LINE
  8
型材断面
  6
CONTINUOUS
 10
-62.177517
 20
-1.503427
 11
-49.150342
 21
11.523747
  0
LINE
  8
型材断面
  6
CONTINUOUS
 10
-62.177517
 20
-4.416932
 11
-49.150342
 21
8.610242
  0
LINE
  8
型材断面
  6
CONTINUOUS
 10
-61.823965
 20
-4.770488
 11
-48.79679
 21
8.256688
  0
LINE
  8
型材断面
  6
CONTINUOUS
 10
-58.910458
 20
-4.770488
 11
-45.883283
 21
8.256688
  0
LINE
  8
型材断面
  6
DASHDOT
 10
-64.175342
 20
-6.768312
 11
-44.900342
 21
12.506688
  0
LINE
  8
型材断面
  6
CONTINUOUS
 10
-30.89023
 20
29.78386
 11
-27.62317
 21
29.78386
  0
LINE
  8
型材断面
  6
CONTINUOUS
 10
-27.62317
 20
29.78386
 11
-27.62317
 21
26.5168
  0
LINE
  8
型材断面
  6
DASHDOT
 10
-29.900342
 20
12.506688
 11
-44.900342
 21
12.506688
  0
LINE
  8
型材断面
  6
DASHDOT
 10
-29.900342
 20
27.506688
 11
-29.900342
 21
12.506688
  0
LINE
  8
型材断面
  6
CONTINUOUS
 10
-25.926112
 20
31.480918
 11
-25.926112
 21
12.506688
  0
LINE
  8
型材断面
  6
CONTINUOUS
 10
-25.625342
 20
31.781688
 11
-25.625342
 21
12.506688
  0
LINE
  8
型材断面
  6
CONTINUOUS
 10
-27.269618
 20
30.137413
 11
-27.269618
 21
12.506688
  0
LINE
  8
型材断面
  6
CONTINUOUS
 10
-27.55246
 20
29.85457
 11
-27.55246
 21
12.506688
  0
LINE
  8
型材断面
  6
CONTINUOUS
 10
-26.279667
 20
31.127362
 11
-26.279667
 21
12.506688
  0
LINE
  8
型材断面
  6
DASHDOT
 10
-29.900342
 20
27.506688
 11
-44.900342
 21
27.506688
  0
LINE
  8
型材断面
  6
CONTINUOUS
 10
-25.625342
 20
31.781688
 11
-44.900342
 21
31.781688
  0
LINE
  8
型材断面
  6
CONTINUOUS
 10
-25.926112
 20
31.480918
 11
-44.900342
 21
31.480918
  0
LINE
  8
型材断面
  6
CONTINUOUS
 10
-26.279667
 20
31.127362
 11
-44.900342
 21
31.127362
  0
LINE
  8
型材断面
  6
CONTINUOUS
 10
-27.269618
 20
30.137413
 11
-44.900342
 21
30.137413
  0
LINE
  8
型材断面
  6
CONTINUOUS
 10
-27.55246
 20
29.85457
 11
-44.900342
 21
29.85457
  0
LINE
  8
型材断面
  6
CONTINUOUS
 10
-44.900342
 20
16.756688
 11
-40.650342
 21
16.756688
  0
LINE
  8
型材断面
  6
CONTINUOUS
 10
-40.650342
 20
12.506688
 11
-40.650342
 21
16.756688
  0
LINE
  8
型材断面
  6
CONTINUOUS
 10
-40.650342
 20
16.756688
 11
-44.900342
 21
12.506688
  0
LINE
  8
型材断面
  6
CONTINUOUS
 10
-27.62317
 20
26.5168
 11
-40.650342
 21
13.489627
  0
LINE
  8
型材断面
  6
CONTINUOUS
 10
-27.62317
 20
29.430305
 11
-40.650342
 21
16.403132
  0
LINE
  8
型材断面
  6
CONTINUOUS
 10
-27.976722
 20
29.78386
 11
-41.003895
 21
16.756688
  0
LINE
  8
型材断面
  6
CONTINUOUS
 10
-30.89023
 20
29.78386
 11
-43.917403
 21
16.756688
  0
LINE
  8
型材断面
  6
DASHDOT
 10
-25.625342
 20
31.781688
 11
-44.900342
 21
12.506688
  0
LINE
  8
型材断面
  6
CONTINUOUS
 10
-30.89023
 20
-4.770488
 11
-27.62317
 21
-4.770488
  0
LINE
  8
型材断面
  6
CONTINUOUS
 10
-27.62317
 20
-4.770488
 11
-27.62317
 21
-1.503427
  0
LINE
  8
型材断面
  6
DASHDOT
 10
-29.900342
 20
-2.493312
 11
-29.900342
 21
12.506688
  0
LINE
  8
型材断面
  6
CONTINUOUS
 10
-25.926112
 20
-6.467543
 11
-25.926112
 21
12.506688
  0
LINE
  8
型材断面
  6
CONTINUOUS
 10
-25.625342
 20
-6.768312
 11
-25.625342
 21
12.506688
  0
LINE
  8
型材断面
  6
CONTINUOUS
 10
-27.269618
 20
-5.12404
 11
-27.269618
 21
12.506688
  0
LINE
  8
型材断面
  6
CONTINUOUS
 10
-27.55246
 20
-4.841197
 11
-27.55246
 21
12.506688
  0
LINE
  8
型材断面
  6
CONTINUOUS
 10
-26.279667
 20
-6.11399
 11
-26.279667
 21
12.506688
  0
LINE
  8
型材断面
  6
DASHDOT
 10
-29.900342
 20
-2.493312
 11
-44.900342
 21
-2.493312
  0
LINE
  8
型材断面
  6
CONTINUOUS
 10
-25.625342
 20
-6.768312
 11
-44.900342
 21
-6.768312
  0
LINE
  8
型材断面
  6
CONTINUOUS
 10
-25.926112
 20
-6.467543
 11
-44.900342
 21
-6.467543
  0
LINE
  8
型材断面
  6
CONTINUOUS
 10
-26.279667
 20
-6.11399
 11
-44.900342
 21
-6.11399
  0
LINE
  8
型材断面
  6
CONTINUOUS
 10
-27.269618
 20
-5.12404
 11
-44.900342
 21
-5.12404
  0
LINE
  8
型材断面
  6
CONTINUOUS
 10
-27.55246
 20
-4.841197
 11
-44.900342
 21
-4.841197
  0
LINE
  8
型材断面
  6
CONTINUOUS
 10
-44.900342
 20
8.256688
 11
-40.650342
 21
8.256688
  0
LINE
  8
型材断面
  6
CONTINUOUS
 10
-40.650342
 20
12.506688
 11
-40.650342
 21
8.256688
  0
LINE
  8
型材断面
  6
CONTINUOUS
 10
-40.650342
 20
8.256688
 11
-44.900342
 21
12.506688
  0
LINE
  8
型材断面
  6
CONTINUOUS
 10
-27.62317
 20
-1.503427
 11
-40.650342
 21
11.523747
  0
LINE
  8
型材断面
  6
CONTINUOUS
 10
-27.62317
 20
-4.416932
 11
-40.650342
 21
8.610242
  0
LINE
  8
型材断面
  6
CONTINUOUS
 10
-27.976722
 20
-4.770488
 11
-41.003895
 21
8.256688
  0
LINE
  8
型材断面
  6
CONTINUOUS
 10
-30.89023
 20
-4.770488
 11
-43.917403
 21
8.256688
  0
LINE
  8
型材断面
  6
DASHDOT
 10
-25.625342
 20
-6.768312
 11
-44.900342
 21
12.506688
  0
LINE
  8
型材断面
  6
CONTINUOUS
 10
-67.924215
 20
12.506688
 11
-71.809975
 21
10.263242
  0
LINE
  8
型材断面
  6
CONTINUOUS
 10
-67.924215
 20
12.506688
 11
-71.809975
 21
14.750132
  0
LINE
  8
型材断面
  6
CONTINUOUS
 10
-71.809975
 20
14.750132
 11
-71.809975
 21
10.263242
  0
LINE
  8
型材断面
  6
CONTINUOUS
 10
-21.876465
 20
12.506688
 11
-17.990705
 21
10.263242
  0
LINE
  8
型材断面
  6
CONTINUOUS
 10
-21.876465
 20
12.506688
 11
-17.990705
 21
14.750132
  0
LINE
  8
型材断面
  6
CONTINUOUS
 10
-17.990705
 20
14.750132
 11
-17.990705
 21
10.263242
  0
LINE
  8
型材断面
  6
CONTINUOUS
 10
-44.900342
 20
35.53056
 11
-47.143787
 21
39.41632
  0
LINE
  8
型材断面
  6
CONTINUOUS
 10
-44.900342
 20
35.53056
 11
-42.656898
 21
39.41632
  0
LINE
  8
型材断面
  6
CONTINUOUS
 10
-42.656898
 20
39.41632
 11
-47.143787
 21
39.41632
  0
LINE
  8
型材断面
  6
CONTINUOUS
 10
-44.900342
 20
-10.51719
 11
-47.143787
 21
-14.40295
  0
LINE
  8
型材断面
  6
CONTINUOUS
 10
-44.900342
 20
-10.51719
 11
-42.656898
 21
-14.40295
  0
LINE
  8
型材断面
  6
CONTINUOUS
 10
-42.656898
 20
-14.40295
 11
-47.143787
 21
-14.40295
  0
LINE
  8
型材断面
  6
DOT
 10
-34.236823
 20
-2.493312
 11
-34.236823
 21
27.50669
  0
LINE
  8
型材断面
  6
DOT
 10
-32.236823
 20
-2.493312
 11
-32.236823
 21
27.50669
  0
LINE
  8
型材断面
  6
CONTINUOUS
 10
-21.876465
 20
21.65669
 11
-17.990705
 21
20.762605
  0
LINE
  8
型材断面
  6
CONTINUOUS
 10
-21.876465
 20
21.65669
 11
-17.990705
 21
22.550775
  0
LINE
  8
型材断面
  6
CONTINUOUS
 10
-17.990705
 20
22.550775
 11
-17.990705
 21
20.762605
  0
LINE
  8
型材断面
  6
CONTINUOUS
 10
-21.876465
 20
3.356685
 11
-17.990705
 21
4.25077
  0
LINE
  8
型材断面
  6
CONTINUOUS
 10
-21.876465
 20
3.356685
 11
-17.990705
 21
2.4626
  0
LINE
  8
型材断面
  6
CONTINUOUS
 10
-17.990705
 20
2.4626
 11
-17.990705
 21
4.25077
  0
LINE
  8
型材断面
  6
CONTINUOUS
 10
-67.92422
 20
21.65669
 11
-71.80998
 21
20.762605
  0
LINE
  8
型材断面
  6
CONTINUOUS
 10
-67.92422
 20
21.65669
 11
-71.80998
 21
22.550775
  0
LINE
  8
型材断面
  6
CONTINUOUS
 10
-71.80998
 20
22.550775
 11
-71.80998
 21
20.762605
  0
LINE
  8
型材断面
  6
CONTINUOUS
 10
-67.92422
 20
3.356685
 11
-71.80998
 21
4.25077
  0
LINE
  8
型材断面
  6
CONTINUOUS
 10
-67.92422
 20
3.356685
 11
-71.80998
 21
2.4626
  0
LINE
  8
型材断面
  6
CONTINUOUS
 10
-71.80998
 20
2.4626
 11
-71.80998
 21
4.25077
  0
POLYLINE
  8
型材断面
  6
CONTINUOUS
 66
     1
 70
     1
  0
VERTEX
  8
型材断面
 10
-35.671353
 20
-15.180025
  0
VERTEX
  8
型材断面
 10
-54.226565
 20
-15.180025
  0
VERTEX
  8
型材断面
 10
-54.226565
 20
-19.97206
  0
VERTEX
  8
型材断面
 10
-35.671353
 20
-19.97206
  0
SEQEND
  0
LINE
  8
型材断面
  6
CONTINUOUS
 10
-63.874572
 20
-66.124723
 11
-64.175342
 21
-66.425495
  0
LINE
  8
型材断面
  6
CONTINUOUS
 10
-64.175342
 20
-67.77169
 11
-64.175342
 21
-66.425495
  0
LINE
  8
型材断面
  6
CONTINUOUS
 62
    47
 10
-64.175342
 20
-68.47169
 11
-64.175342
 21
-67.77169
  0
LINE
  8
型材断面
  6
CONTINUOUS
 62
    47
 10
-63.500342
 20
-68.47169
 11
-63.500342
 21
-68.97169
  0
LINE
  8
型材断面
  6
CONTINUOUS
 62
    47
 10
-62.53107
 20
-64.78122
 11
-63.874572
 21
-66.124723
  0
LINE
  8
型材断面
  6
CONTINUOUS
 10
-62.177517
 20
-64.427668
 11
-58.627613
 21
-64.427668
  0
LINE
  8
型材断面
  6
CONTINUOUS
 10
-62.531067
 20
-64.78122
 11
-44.900342
 21
-47.150495
  0
LINE
  8
型材断面
  6
CONTINUOUS
 10
-62.53107
 20
-64.78122
 11
-44.900342
 21
-64.78122
  0
LINE
  8
型材断面
  6
CONTINUOUS
 10
-63.874572
 20
-66.124723
 11
-44.900342
 21
-66.124723
  0
LINE
  8
型材断面
  6
CONTINUOUS
 10
-64.175342
 20
-68.47169
 11
-44.900342
 21
-68.47169
  0
LINE
  8
型材断面
  6
CONTINUOUS
 10
-64.175342
 20
-67.77169
 11
-44.900342
 21
-67.77169
  0
LINE
  8
型材断面
  6
CONTINUOUS
 10
-63.52102
 20
-65.77117
 11
-44.900342
 21
-65.77117
  0
LINE
  8
型材断面
  6
CONTINUOUS
 10
-64.175342
 20
-66.425495
 11
-44.900342
 21
-66.425495
  0
LINE
  8
型材断面
  6
CONTINUOUS
 10
-63.500342
 20
-68.97169
 11
-44.900342
 21
-68.97169
  0
LINE
  8
型材断面
  6
CONTINUOUS
 10
-25.926112
 20
-66.124723
 11
-25.625342
 21
-66.425495
  0
LINE
  8
型材断面
  6
CONTINUOUS
 10
-25.625342
 20
-67.77169
 11
-25.625342
 21
-66.425495
  0
LINE
  8
型材断面
  6
CONTINUOUS
 62
    47
 10
-25.625342
 20
-68.47169
 11
-25.625342
 21
-67.77169
  0
LINE
  8
型材断面
  6
CONTINUOUS
 62
    47
 10
-26.300342
 20
-68.47169
 11
-26.300342
 21
-68.97169
  0
LINE
  8
型材断面
  6
CONTINUOUS
 62
    47
 10
-27.269618
 20
-64.78122
 11
-25.926112
 21
-66.124723
  0
LINE
  8
型材断面
  6
CONTINUOUS
 10
-27.62317
 20
-64.427668
 11
-31.173075
 21
-64.427668
  0
LINE
  8
型材断面
  6
CONTINUOUS
 10
-27.269618
 20
-64.78122
 11
-44.900342
 21
-47.150495
  0
LINE
  8
型材断面
  6
CONTINUOUS
 10
-27.269618
 20
-64.78122
 11
-44.900342
 21
-64.78122
  0
LINE
  8
型材断面
  6
CONTINUOUS
 10
-25.926112
 20
-66.124723
 11
-44.900342
 21
-66.124723
  0
LINE
  8
型材断面
  6
CONTINUOUS
 10
-25.625342
 20
-68.47169
 11
-44.900342
 21
-68.47169
  0
LINE
  8
型材断面
  6
CONTINUOUS
 10
-25.625342
 20
-67.77169
 11
-44.900342
 21
-67.77169
  0
LINE
  8
型材断面
  6
CONTINUOUS
 10
-26.279667
 20
-65.77117
 11
-44.900342
 21
-65.77117
  0
LINE
  8
型材断面
  6
CONTINUOUS
 10
-25.625342
 20
-66.425495
 11
-44.900342
 21
-66.425495
  0
LINE
  8
型材断面
  6
CONTINUOUS
 10
-26.300342
 20
-68.97169
 11
-44.900342
 21
-68.97169
  0
LINE
  8
型材断面
  6
CONTINUOUS
 62
    47
 10
-63.320342
 20
-71.255728
 11
-63.320342
 21
-70.755728
  0
LINE
  8
型材断面
  6
CONTINUOUS
 62
    47
 10
-63.320342
 20
-70.755728
 11
-62.145342
 21
-70.605728
  0
LINE
  8
型材断面
  6
CONTINUOUS
 62
    47
 10
-62.145342
 20
-69.99669
 11
-62.145342
 21
-70.605728
  0
LINE
  8
型材断面
  6
CONTINUOUS
 62
    47
 10
-62.850342
 20
-69.99669
 11
-62.850342
 21
-68.97169
  0
LINE
  8
型材断面
  6
CONTINUOUS
 62
    47
 10
-62.850342
 20
-69.99669
 11
-44.900342
 21
-69.99669
  0
LINE
  8
型材断面
  6
CONTINUOUS
 10
-44.900342
 20
-70.755728
 11
-63.320342
 21
-70.755728
  0
LINE
  8
型材断面
  6
CONTINUOUS
 62
    47
 10
-63.320342
 20
-71.255728
 11
-44.900342
 21
-71.255728
  0
LINE
  8
型材断面
  6
CONTINUOUS
 62
    47
 10
-62.850342
 20
-75.19669
 11
-62.850342
 21
-71.255728
  0
LINE
  8
型材断面
  6
CONTINUOUS
 62
    47
 10
-62.000342
 20
-75.94669
 11
-62.000342
 21
-75.19669
  0
LINE
  8
型材断面
  6
CONTINUOUS
 62
    47
 10
-62.000342
 20
-75.94669
 11
-44.900342
 21
-75.94669
  0
LINE
  8
型材断面
  6
CONTINUOUS
 62
    47
 10
-62.850342
 20
-75.19669
 11
-44.900342
 21
-75.19669
  0
LINE
  8
型材断面
  6
CONTINUOUS
 10
-44.900342
 20
-70.605728
 11
-62.145342
 21
-70.605728
  0
LINE
  8
型材断面
  6
CONTINUOUS
 62
    47
 10
-26.480343
 20
-71.255728
 11
-26.480343
 21
-70.755728
  0
LINE
  8
型材断面
  6
CONTINUOUS
 62
    47
 10
-26.480343
 20
-70.755728
 11
-27.655343
 21
-70.605728
  0
LINE
  8
型材断面
  6
CONTINUOUS
 62
    47
 10
-27.655343
 20
-69.99669
 11
-27.655343
 21
-70.605728
  0
LINE
  8
型材断面
  6
CONTINUOUS
 62
    47
 10
-26.950345
 20
-69.99669
 11
-26.950345
 21
-68.97169
  0
LINE
  8
型材断面
  6
CONTINUOUS
 62
    47
 10
-26.950345
 20
-69.99669
 11
-44.900342
 21
-69.99669
  0
LINE
  8
型材断面
  6
CONTINUOUS
 10
-44.900342
 20
-70.755728
 11
-26.480343
 21
-70.755728
  0
LINE
  8
型材断面
  6
CONTINUOUS
 62
    47
 10
-26.480343
 20
-71.255728
 11
-44.900342
 21
-71.255728
  0
LINE
  8
型材断面
  6
CONTINUOUS
 62
    47
 10
-26.950345
 20
-75.19669
 11
-26.950345
 21
-71.255728
  0
LINE
  8
型材断面
  6
CONTINUOUS
 62
    47
 10
-27.800345
 20
-75.94669
 11
-27.800345
 21
-75.19669
  0
LINE
  8
型材断面
  6
CONTINUOUS
 62
    47
 10
-27.800345
 20
-75.94669
 11
-44.900342
 21
-75.94669
  0
LINE
  8
型材断面
  6
CONTINUOUS
 62
    47
 10
-26.950345
 20
-75.19669
 11
-44.900342
 21
-75.19669
  0
LINE
  8
型材断面
  6
CONTINUOUS
 10
-44.900342
 20
-70.605728
 11
-27.655343
 21
-70.605728
  0
LINE
  8
型材断面
  6
CONTINUOUS
 10
-40.650342
 20
-51.29453
 11
-44.900342
 21
-51.29453
  0
LINE
  8
型材断面
  6
CONTINUOUS
 10
-49.15034
 20
-51.29453
 11
-44.900342
 21
-51.29453
  0
LINE
  8
型材断面
  6
CONTINUOUS
 10
-49.097358
 20
-51.347512
 11
-44.900342
 21
-51.347512
  0
LINE
  8
型材断面
  6
CONTINUOUS
 10
-44.900342
 20
-47.04453
 11
-40.650342
 21
-51.29453
  0
LINE
  8
型材断面
  6
CONTINUOUS
 10
-44.900342
 20
-47.04453
 11
-49.15034
 21
-51.29453
  0
LINE
  8
型材断面
  6
CONTINUOUS
 10
-40.703327
 20
-51.347512
 11
-44.900342
 21
-51.347512
  0
LINE
  8
型材断面
  6
CONTINUOUS
 10
-49.15034
 20
-51.29453
 11
-49.097358
 21
-51.347512
  0
LINE
  8
型材断面
  6
CONTINUOUS
 10
-40.703327
 20
-51.347512
 11
-40.650342
 21
-51.29453
  0
LINE
  8
型材断面
  6
CONTINUOUS
 10
-58.910455
 20
-64.427668
 11
-45.8303
 21
-51.347512
  0
LINE
  8
型材断面
  6
CONTINUOUS
 10
-58.627613
 20
-64.427668
 11
-45.547458
 21
-51.347512
  0
LINE
  8
型材断面
  6
CONTINUOUS
 10
-30.890233
 20
-64.427668
 11
-43.970385
 21
-51.347512
  0
LINE
  8
型材断面
  6
CONTINUOUS
 10
-31.173075
 20
-64.427668
 11
-44.253227
 21
-51.347512
  0
LINE
  8
型材断面
  6
CONTINUOUS
 10
-27.976725
 20
-64.427668
 11
-41.05688
 21
-51.347512
  0
LINE
  8
型材断面
  6
CONTINUOUS
 10
-61.82396
 20
-64.427668
 11
-48.743808
 21
-51.347512
  0
LINE
  8
型材断面
  6
CONTINUOUS
 10
34.632452
 20
-66.124723
 11
34.331682
 21
-66.425495
  0
LINE
  8
型材断面
  6
CONTINUOUS
 10
34.331682
 20
-67.77169
 11
34.331682
 21
-66.425495
  0
LINE
  8
型材断面
  6
CONTINUOUS
 62
    47
 10
34.331682
 20
-68.47169
 11
34.331682
 21
-67.77169
  0
LINE
  8
型材断面
  6
CONTINUOUS
 62
    47
 10
35.006682
 20
-68.47169
 11
35.006682
 21
-68.97169
  0
LINE
  8
型材断面
  6
CONTINUOUS
 62
    47
 10
35.975955
 20
-64.78122
 11
34.632452
 21
-66.124723
  0
LINE
  8
型材断面
  6
CONTINUOUS
 10
36.329507
 20
-64.427668
 11
39.879413
 21
-64.427668
  0
LINE
  8
型材断面
  6
CONTINUOUS
 10
35.975958
 20
-64.78122
 11
53.606682
 21
-47.150495
  0
LINE
  8
型材断面
  6
CONTINUOUS
 10
35.975955
 20
-64.78122
 11
53.606682
 21
-64.78122
  0
LINE
  8
型材断面
  6
CONTINUOUS
 10
34.632452
 20
-66.124723
 11
53.606682
 21
-66.124723
  0
LINE
  8
型材断面
  6
CONTINUOUS
 10
34.331682
 20
-68.47169
 11
53.606682
 21
-68.47169
  0
LINE
  8
型材断面
  6
CONTINUOUS
 10
34.331682
 20
-67.77169
 11
53.606682
 21
-67.77169
  0
LINE
  8
型材断面
  6
CONTINUOUS
 10
34.986005
 20
-65.77117
 11
53.606682
 21
-65.77117
  0
LINE
  8
型材断面
  6
CONTINUOUS
 10
34.331682
 20
-66.425495
 11
53.606682
 21
-66.425495
  0
LINE
  8
型材断面
  6
CONTINUOUS
 10
35.006682
 20
-68.97169
 11
53.606682
 21
-68.97169
  0
LINE
  8
型材断面
  6
CONTINUOUS
 10
72.580912
 20
-66.124723
 11
72.881682
 21
-66.425495
  0
LINE
  8
型材断面
  6
CONTINUOUS
 10
72.881682
 20
-67.77169
 11
72.881682
 21
-66.425495
  0
LINE
  8
型材断面
  6
CONTINUOUS
 62
    47
 10
72.881682
 20
-68.47169
 11
72.881682
 21
-67.77169
  0
LINE
  8
型材断面
  6
CONTINUOUS
 62
    47
 10
72.206682
 20
-68.47169
 11
72.206682
 21
-68.97169
  0
LINE
  8
型材断面
  6
CONTINUOUS
 62
    47
 10
71.237407
 20
-64.78122
 11
72.580912
 21
-66.124723
  0
LINE
  8
型材断面
  6
CONTINUOUS
 10
70.883855
 20
-64.427668
 11
67.33395
 21
-64.427668
  0
LINE
  8
型材断面
  6
CONTINUOUS
 10
71.237407
 20
-64.78122
 11
53.606682
 21
-47.150495
  0
LINE
  8
型材断面
  6
CONTINUOUS
 10
71.237407
 20
-64.78122
 11
53.606682
 21
-64.78122
  0
LINE
  8
型材断面
  6
CONTINUOUS
 10
72.580912
 20
-66.124723
 11
53.606682
 21
-66.124723
  0
LINE
  8
型材断面
  6
CONTINUOUS
 10
72.881682
 20
-68.47169
 11
53.606682
 21
-68.47169
  0
LINE
  8
型材断面
  6
CONTINUOUS
 10
72.881682
 20
-67.77169
 11
53.606682
 21
-67.77169
  0
LINE
  8
型材断面
  6
CONTINUOUS
 10
72.227357
 20
-65.77117
 11
53.606682
 21
-65.77117
  0
LINE
  8
型材断面
  6
CONTINUOUS
 10
72.881682
 20
-66.425495
 11
53.606682
 21
-66.425495
  0
LINE
  8
型材断面
  6
CONTINUOUS
 10
72.206682
 20
-68.97169
 11
53.606682
 21
-68.97169
  0
LINE
  8
型材断面
  6
CONTINUOUS
 62
    47
 10
35.186682
 20
-71.255728
 11
35.186682
 21
-70.755728
  0
LINE
  8
型材断面
  6
CONTINUOUS
 62
    47
 10
35.186682
 20
-70.755728
 11
36.361682
 21
-70.605728
  0
LINE
  8
型材断面
  6
CONTINUOUS
 62
    47
 10
36.361682
 20
-69.99669
 11
36.361682
 21
-70.605728
  0
LINE
  8
型材断面
  6
CONTINUOUS
 62
    47
 10
35.656682
 20
-69.99669
 11
35.656682
 21
-68.97169
  0
LINE
  8
型材断面
  6
CONTINUOUS
 62
    47
 10
35.656682
 20
-69.99669
 11
53.606682
 21
-69.99669
  0
LINE
  8
型材断面
  6
CONTINUOUS
 10
53.606682
 20
-70.755728
 11
35.186682
 21
-70.755728
  0
LINE
  8
型材断面
  6
CONTINUOUS
 62
    47
 10
35.186682
 20
-71.255728
 11
53.606682
 21
-71.255728
  0
LINE
  8
型材断面
  6
CONTINUOUS
 62
    47
 10
35.656682
 20
-75.19669
 11
35.656682
 21
-71.255728
  0
LINE
  8
型材断面
  6
CONTINUOUS
 62
    47
 10
36.506682
 20
-75.94669
 11
36.506682
 21
-75.19669
  0
LINE
  8
型材断面
  6
CONTINUOUS
 62
    47
 10
36.506682
 20
-75.94669
 11
53.606682
 21
-75.94669
  0
LINE
  8
型材断面
  6
CONTINUOUS
 62
    47
 10
35.656682
 20
-75.19669
 11
53.606682
 21
-75.19669
  0
LINE
  8
型材断面
  6
CONTINUOUS
 10
53.606682
 20
-70.605728
 11
36.361682
 21
-70.605728
  0
LINE
  8
型材断面
  6
CONTINUOUS
 62
    47
 10
72.026683
 20
-71.255728
 11
72.026683
 21
-70.755728
  0
LINE
  8
型材断面
  6
CONTINUOUS
 62
    47
 10
72.026683
 20
-70.755728
 11
70.851683
 21
-70.605728
  0
LINE
  8
型材断面
  6
CONTINUOUS
 62
    47
 10
70.851683
 20
-69.99669
 11
70.851683
 21
-70.605728
  0
LINE
  8
型材断面
  6
CONTINUOUS
 62
    47
 10
71.55668
 20
-69.99669
 11
71.55668
 21
-68.97169
  0
LINE
  8
型材断面
  6
CONTINUOUS
 62
    47
 10
71.55668
 20
-69.99669
 11
53.606682
 21
-69.99669
  0
LINE
  8
型材断面
  6
CONTINUOUS
 10
53.606682
 20
-70.755728
 11
72.026683
 21
-70.755728
  0
LINE
  8
型材断面
  6
CONTINUOUS
 62
    47
 10
72.026683
 20
-71.255728
 11
53.606682
 21
-71.255728
  0
LINE
  8
型材断面
  6
CONTINUOUS
 62
    47
 10
71.55668
 20
-75.19669
 11
71.55668
 21
-71.255728
  0
LINE
  8
型材断面
  6
CONTINUOUS
 62
    47
 10
70.70668
 20
-75.94669
 11
70.70668
 21
-75.19669
  0
LINE
  8
型材断面
  6
CONTINUOUS
 62
    47
 10
70.70668
 20
-75.94669
 11
53.606682
 21
-75.94669
  0
LINE
  8
型材断面
  6
CONTINUOUS
 62
    47
 10
71.55668
 20
-75.19669
 11
53.606682
 21
-75.19669
  0
LINE
  8
型材断面
  6
CONTINUOUS
 10
53.606682
 20
-70.605728
 11
70.851683
 21
-70.605728
  0
LINE
  8
型材断面
  6
CONTINUOUS
 10
57.856682
 20
-51.29453
 11
53.606682
 21
-51.29453
  0
LINE
  8
型材断面
  6
CONTINUOUS
 10
49.356685
 20
-51.29453
 11
53.606682
 21
-51.29453
  0
LINE
  8
型材断面
  6
CONTINUOUS
 10
49.409668
 20
-51.347512
 11
53.606682
 21
-51.347512
  0
LINE
  8
型材断面
  6
CONTINUOUS
 10
53.606682
 20
-47.04453
 11
57.856682
 21
-51.29453
  0
LINE
  8
型材断面
  6
CONTINUOUS
 10
53.606682
 20
-47.04453
 11
49.356685
 21
-51.29453
  0
LINE
  8
型材断面
  6
CONTINUOUS
 10
57.803698
 20
-51.347512
 11
53.606682
 21
-51.347512
  0
LINE
  8
型材断面
  6
CONTINUOUS
 10
49.356685
 20
-51.29453
 11
49.409668
 21
-51.347512
  0
LINE
  8
型材断面
  6
CONTINUOUS
 10
57.803698
 20
-51.347512
 11
57.856682
 21
-51.29453
  0
LINE
  8
型材断面
  6
CONTINUOUS
 10
39.59657
 20
-64.427668
 11
52.676725
 21
-51.347512
  0
LINE
  8
型材断面
  6
CONTINUOUS
 10
39.879413
 20
-64.427668
 11
52.959568
 21
-51.347512
  0
LINE
  8
型材断面
  6
CONTINUOUS
 10
67.616792
 20
-64.427668
 11
54.53664
 21
-51.347512
  0
LINE
  8
型材断面
  6
CONTINUOUS
 10
67.33395
 20
-64.427668
 11
54.253797
 21
-51.347512
  0
LINE
  8
型材断面
  6
CONTINUOUS
 10
70.5303
 20
-64.427668
 11
57.450145
 21
-51.347512
  0
LINE
  8
型材断面
  6
CONTINUOUS
 10
36.683065
 20
-64.427668
 11
49.763218
 21
-51.347512
  0
LINE
  8
型材断面
  6
DOT
 10
34.632452
 20
-58.624723
 11
34.331682
 21
-58.925495
  0
LINE
  8
型材断面
  6
DOT
 10
34.331682
 20
-60.27169
 11
34.331682
 21
-58.925495
  0
LINE
  8
型材断面
  6
DOT
 62
    47
 10
34.331682
 20
-60.97169
 11
34.331682
 21
-60.27169
  0
LINE
  8
型材断面
  6
DOT
 62
    47
 10
35.006682
 20
-60.97169
 11
35.006682
 21
-61.47169
  0
LINE
  8
型材断面
  6
DOT
 62
    47
 10
35.975955
 20
-57.28122
 11
34.632452
 21
-58.624723
  0
LINE
  8
型材断面
  6
DOT
 10
36.329507
 20
-56.927668
 11
39.879413
 21
-56.927668
  0
LINE
  8
型材断面
  6
DOT
 10
35.975958
 20
-57.28122
 11
53.606682
 21
-39.650495
  0
LINE
  8
型材断面
  6
DOT
 10
35.975955
 20
-57.28122
 11
53.606682
 21
-57.28122
  0
LINE
  8
型材断面
  6
DOT
 10
34.632452
 20
-58.624723
 11
53.606682
 21
-58.624723
  0
LINE
  8
型材断面
  6
DOT
 10
34.331682
 20
-60.97169
 11
53.606682
 21
-60.97169
  0
LINE
  8
型材断面
  6
DOT
 10
34.331682
 20
-60.27169
 11
53.606682
 21
-60.27169
  0
LINE
  8
型材断面
  6
DOT
 10
34.986005
 20
-58.27117
 11
53.606682
 21
-58.27117
  0
LINE
  8
型材断面
  6
DOT
 10
34.331682
 20
-58.925495
 11
53.606682
 21
-58.925495
  0
LINE
  8
型材断面
  6
DOT
 10
35.006682
 20
-61.47169
 11
53.606682
 21
-61.47169
  0
LINE
  8
型材断面
  6
DOT
 10
72.580912
 20
-58.624723
 11
72.881682
 21
-58.925495
  0
LINE
  8
型材断面
  6
DOT
 10
72.881682
 20
-60.27169
 11
72.881682
 21
-58.925495
  0
LINE
  8
型材断面
  6
DOT
 62
    47
 10
72.881682
 20
-60.97169
 11
72.881682
 21
-60.27169
  0
LINE
  8
型材断面
  6
DOT
 62
    47
 10
72.206682
 20
-60.97169
 11
72.206682
 21
-61.47169
  0
LINE
  8
型材断面
  6
DOT
 62
    47
 10
71.237407
 20
-57.28122
 11
72.580912
 21
-58.624723
  0
LINE
  8
型材断面
  6
DOT
 10
70.883855
 20
-56.927668
 11
67.33395
 21
-56.927668
  0
LINE
  8
型材断面
  6
DOT
 10
71.237407
 20
-57.28122
 11
53.606682
 21
-39.650495
  0
LINE
  8
型材断面
  6
DOT
 10
71.237407
 20
-57.28122
 11
53.606682
 21
-57.28122
  0
LINE
  8
型材断面
  6
DOT
 10
72.580912
 20
-58.624723
 11
53.606682
 21
-58.624723
  0
LINE
  8
型材断面
  6
DOT
 10
72.881682
 20
-60.97169
 11
53.606682
 21
-60.97169
  0
LINE
  8
型材断面
  6
DOT
 10
72.881682
 20
-60.27169
 11
53.606682
 21
-60.27169
  0
LINE
  8
型材断面
  6
DOT
 10
72.227357
 20
-58.27117
 11
53.606682
 21
-58.27117
  0
LINE
  8
型材断面
  6
DOT
 10
72.881682
 20
-58.925495
 11
53.606682
 21
-58.925495
  0
LINE
  8
型材断面
  6
DOT
 10
72.206682
 20
-61.47169
 11
53.606682
 21
-61.47169
  0
LINE
  8
型材断面
  6
DOT
 62
    47
 10
35.186682
 20
-63.755728
 11
35.186682
 21
-63.255728
  0
LINE
  8
型材断面
  6
DOT
 62
    47
 10
35.186682
 20
-63.255728
 11
36.361682
 21
-63.105728
  0
LINE
  8
型材断面
  6
DOT
 62
    47
 10
36.361682
 20
-62.49669
 11
36.361682
 21
-63.105728
  0
LINE
  8
型材断面
  6
DOT
 62
    47
 10
35.656682
 20
-62.49669
 11
35.656682
 21
-61.47169
  0
LINE
  8
型材断面
  6
DOT
 62
    47
 10
35.656682
 20
-62.49669
 11
53.606682
 21
-62.49669
  0
LINE
  8
型材断面
  6
DOT
 10
53.606682
 20
-63.255728
 11
35.186682
 21
-63.255728
  0
LINE
  8
型材断面
  6
DOT
 62
    47
 10
35.186682
 20
-63.755728
 11
53.606682
 21
-63.755728
  0
LINE
  8
型材断面
  6
DOT
 10
53.606682
 20
-63.105728
 11
36.361682
 21
-63.105728
  0
LINE
  8
型材断面
  6
DOT
 62
    47
 10
72.026683
 20
-63.755728
 11
72.026683
 21
-63.255728
  0
LINE
  8
型材断面
  6
DOT
 62
    47
 10
72.026683
 20
-63.255728
 11
70.851683
 21
-63.105728
  0
LINE
  8
型材断面
  6
DOT
 62
    47
 10
70.851683
 20
-62.49669
 11
70.851683
 21
-63.105728
  0
LINE
  8
型材断面
  6
DOT
 62
    47
 10
71.55668
 20
-62.49669
 11
71.55668
 21
-61.47169
  0
LINE
  8
型材断面
  6
DOT
 62
    47
 10
71.55668
 20
-62.49669
 11
53.606682
 21
-62.49669
  0
LINE
  8
型材断面
  6
DOT
 10
53.606682
 20
-63.255728
 11
72.026683
 21
-63.255728
  0
LINE
  8
型材断面
  6
DOT
 62
    47
 10
72.026683
 20
-63.755728
 11
53.606682
 21
-63.755728
  0
LINE
  8
型材断面
  6
DOT
 10
53.606682
 20
-63.105728
 11
70.851683
 21
-63.105728
  0
LINE
  8
型材断面
  6
DOT
 10
57.856682
 20
-43.79453
 11
53.606682
 21
-43.79453
  0
LINE
  8
型材断面
  6
DOT
 10
49.356685
 20
-43.79453
 11
53.606682
 21
-43.79453
  0
LINE
  8
型材断面
  6
DOT
 10
49.409668
 20
-43.847512
 11
53.606682
 21
-43.847512
  0
LINE
  8
型材断面
  6
DOT
 10
53.606682
 20
-39.54453
 11
57.856682
 21
-43.79453
  0
LINE
  8
型材断面
  6
DOT
 10
53.606682
 20
-39.54453
 11
49.356685
 21
-43.79453
  0
LINE
  8
型材断面
  6
DOT
 10
57.803698
 20
-43.847512
 11
53.606682
 21
-43.847512
  0
LINE
  8
型材断面
  6
DOT
 10
49.356685
 20
-43.79453
 11
49.409668
 21
-43.847512
  0
LINE
  8
型材断面
  6
DOT
 10
57.803698
 20
-43.847512
 11
57.856682
 21
-43.79453
  0
LINE
  8
型材断面
  6
DOT
 10
39.59657
 20
-56.927668
 11
52.676725
 21
-43.847512
  0
LINE
  8
型材断面
  6
DOT
 10
39.879413
 20
-56.927668
 11
52.959568
 21
-43.847512
  0
LINE
  8
型材断面
  6
DOT
 10
67.616792
 20
-56.927668
 11
54.53664
 21
-43.847512
  0
LINE
  8
型材断面
  6
DOT
 10
67.33395
 20
-56.927668
 11
54.253797
 21
-43.847512
  0
LINE
  8
型材断面
  6
DOT
 10
70.5303
 20
-56.927668
 11
57.450145
 21
-43.847512
  0
LINE
  8
型材断面
  6
DOT
 10
36.683065
 20
-56.927668
 11
49.763218
 21
-43.847512
  0
INSERT
  2
*GRP_0006
  8
型材断面
  6
CONTINUOUS
 10
0.0
 20
0.0
  0
INSERT
  2
*GRP_0007
  8
型材断面
  6
CONTINUOUS
 10
0.0
 20
0.0
  0
LINE
  8
型材断面
  6
DASHDOT
 10
-29.900342
 20
-2.493312
 11
-29.900342
 21
-75.94669
  0
LINE
  8
型材断面
  6
DASHDOT
 10
-44.900342
 20
12.506688
 11
-44.900342
 21
-75.94669
  0
LINE
  8
型材断面
  6
DASHDOT
 10
-59.900342
 20
-2.493312
 11
-59.900342
 21
-75.94669
  0
LINE
  8
型材断面
  6
CONTINUOUS
 10
22.394622
 20
5.470845
 11
20.151178
 21
1.585085
  0
LINE
  8
型材断面
  6
CONTINUOUS
 10
22.394622
 20
5.470845
 11
24.638068
 21
1.585085
  0
LINE
  8
型材断面
  6
CONTINUOUS
 10
24.638068
 20
1.585085
 11
20.151178
 21
1.585085
  0
LINE
  8
型材断面
  6
CONTINUOUS
 10
22.394622
 20
-2.218703
 11
23.288708
 21
-6.104463
  0
LINE
  8
型材断面
  6
CONTINUOUS
 10
22.394622
 20
-2.218703
 11
21.500538
 21
-6.104463
  0
LINE
  8
型材断面
  6
CONTINUOUS
 10
21.500538
 20
-6.104463
 11
23.288708
 21
-6.104463
  0
LINE
  8
型材断面
  6
CONTINUOUS
 10
13.360743
 20
0.177192
 11
66.017423
 21
0.177192
  0
LINE
  8
型材断面
  6
CONTINUOUS
 10
13.360743
 20
-11.0228
 11
66.017423
 21
-11.0228
  0
LINE
  8
型材断面
  6
CONTINUOUS
 10
13.360743
 20
-17.862745
 11
66.017423
 21
-17.862745
  0
LINE
  8
型材断面
  6
CONTINUOUS
 10
13.360743
 20
-24.70269
 11
66.017423
 21
-24.70269
  0
LINE
  8
型材断面
  6
CONTINUOUS
 10
107.835625
 20
-38.973123
 11
131.767247
 21
-38.973123
  0
LINE
  8
ガラス
  6
CONTINUOUS
 10
-43.012637
 20
25.895655
 11
-46.885272
 21
22.02302
  0
LINE
  8
ガラス
  6
CONTINUOUS
 10
-43.89296
 20
24.297298
 11
-45.286915
 21
22.903342
  0
LINE
  8
ガラス
  6
CONTINUOUS
 10
-44.610995
 20
25.015332
 11
-46.00495
 21
23.621378
  0
LINE
  8
ガラス
  6
CONTINUOUS
 10
-43.012637
 20
1.810188
 11
-46.885272
 21
-2.062447
  0
LINE
  8
ガラス
  6
CONTINUOUS
 10
-43.89296
 20
0.21183
 11
-45.286915
 21
-1.182125
  0
LINE
  8
ガラス
  6
CONTINUOUS
 10
-44.610995
 20
0.929865
 11
-46.00495
 21
-0.46409
  0
LINE
  8
ガラス
  6
CONTINUOUS
 10
-30.5525
 20
14.462183
 11
-34.425135
 21
10.589547
  0
LINE
  8
ガラス
  6
CONTINUOUS
 10
-31.432823
 20
12.863825
 11
-32.826778
 21
11.46987
  0
LINE
  8
ガラス
  6
CONTINUOUS
 10
-32.150857
 20
13.58186
 11
-33.544812
 21
12.187905
  0
LINE
  8
ガラス
  6
CONTINUOUS
 10
-55.181337
 20
14.462183
 11
-59.053972
 21
10.589547
  0
LINE
  8
ガラス
  6
CONTINUOUS
 10
-56.06166
 20
12.863825
 11
-57.455615
 21
11.46987
  0
LINE
  8
ガラス
  6
CONTINUOUS
 10
-56.779695
 20
13.58186
 11
-58.17365
 21
12.187905
  0
LINE
  8
ガラス
  6
CONTINUOUS
 10
-43.012637
 20
-57.949333
 11
-46.885272
 21
-61.821968
  0
LINE
  8
ガラス
  6
CONTINUOUS
 10
-43.89296
 20
-59.54769
 11
-45.286915
 21
-60.941645
  0
LINE
  8
ガラス
  6
CONTINUOUS
 10
-44.610995
 20
-58.829655
 11
-46.00495
 21
-60.22361
  0
TEXT
  7
TextStyle03
  8
文字
  6
CONTINUOUS
 10
-66.325
 20
53.875
  1
アンカーピッチ
 40
3.0
 72
     5
 11
-43.075
 21
53.875
  0
TEXT
  7
TextStyle03
  8
文字
  6
CONTINUOUS
 10
-5.0
 20
4.875
  1
ﾊﾞﾗﾝｽｽﾃｰ
 40
3.0
 72
     5
 11
8.3125
 21
4.875
  0
TEXT
  7
TextStyle03
  8
文字
  6
CONTINUOUS
 10
-53.275
 20
-18.95
  1
可動装置側
 40
3.0
 72
     5
 11
-36.775
 21
-18.95
  0
TEXT
  7
TextStyle03
  8
文字
  6
CONTINUOUS
 10
66.675
 20
93.175
  1
ＮＳコード：ＮＳ４ＣＳ
 40
5.0
 72
     5
 11
127.925
 21
93.175
  0
TEXT
  7
TextStyle03
  8
文字
  6
CONTINUOUS
 10
26.675
 20
1.925
  1
は排水穴位置を示す
 40
3.0
 72
     5
 11
56.675
 21
1.925
  0
TEXT
  7
TextStyle03
  8
文字
  6
CONTINUOUS
 10
26.675
 20
-5.925
  1
はケーシング位置を示す
 40
3.0
 72
     5
 11
63.425
 21
-5.925
  0
TEXT
  7
TextStyle03
  8
文字
  6
CONTINUOUS
 10
26.675
 20
-9.3
  1
４ヶ所中1ヶ所に設定
 40
3.0
 72
     5
 11
58.3625
 21
-9.3
  0
TEXT
  7
TextStyle03
  8
文字
  6
CONTINUOUS
 10
21.075
 20
-16.45
  1
アンカー数量　４ヶ所
 40
3.0
 72
     5
 11
54.45
 21
-16.45
  0
TEXT
  7
TextStyle03
  8
文字
  6
CONTINUOUS
 10
21.05
 20
-23.275
  1
アームユニット数　２ヶ所
 40
3.0
 72
     5
 11
61.175
 21
-23.275
  0
TEXT
  7
TextStyle03
  8
文字
  6
CONTINUOUS
 10
139.4
 20
-57.6
  1
×４枚
 40
3.0
 72
     5
 11
149.15
 21
-57.6
  0
TEXT
  7
TextStyle03
  8
文字
  6
CONTINUOUS
 10
111.425
 20
-37.775
  1
ガラス寸法
 40
3.0
 72
     5
 11
127.925
 21
-37.775
  0
TEXT
  7
TextStyle03
  8
文字
  6
CONTINUOUS
 10
66.275
 20
119.025
  1
シリーズ：ＳＴＦ４
 40
5.0
 72
     5
 11
116.275
 21
119.025
  0
TEXT
  7
TextStyle03
  8
文字
  6
CONTINUOUS
 10
66.275
 20
113.4
  1
　　　　　四角錘（上下可動）600×600タイプ
 40
5.0
 72
     5
 11
183.775
 21
113.4
  0
TEXT
  7
TextStyle03
  8
文字
  6
CONTINUOUS
 10
66.275
 20
107.775
  1
　　　　　ペアガラス仕様
 40
5.0
 72
     5
 11
133.15
 21
107.775
  0
TEXT
  7
TextStyle03
  8
文字
  6
CONTINUOUS
 10
66.275
 20
102.15
  1
図面名　：外観姿図
 40
5.0
 72
     5
 11
116.275
 21
102.15
  0
TEXT
  7
TextStyle03
  8
文字
  6
CONTINUOUS
 10
66.275
 20
96.525
  1
　　　　　　
 40
5.0
 72
     5
 11
99.4
 21
96.525
  0
INSERT
  2
*DIM_0002
  8
寸法
  6
CONTINUOUS
 10
0.0
 20
0.0
  0
INSERT
  2
*GRP_0003
  8
寸法
  6
CONTINUOUS
 10
0.0
 20
0.0
  0
INSERT
  2
*DIM_0004
  8
寸法
  6
CONTINUOUS
 10
0.0
 20
0.0
  0
INSERT
  2
*DIM_0005
  8
寸法
  6
CONTINUOUS
 10
0.0
 20
0.0
  0
INSERT
  2
*DIM_0008
  8
寸法
  6
CONTINUOUS
 10
0.0
 20
0.0
  0
INSERT
  2
*DIM_0009
  8
寸法
  6
CONTINUOUS
 10
0.0
 20
0.0
  0
INSERT
  2
*DIM_0010
  8
寸法
  6
CONTINUOUS
 10
0.0
 20
0.0
  0
INSERT
  2
*DIM_0011
  8
寸法
  6
CONTINUOUS
 10
0.0
 20
0.0
  0
INSERT
  2
*DIM_0012
  8
寸法
  6
CONTINUOUS
 10
0.0
 20
0.0
  0
INSERT
  2
*DIM_0013
  8
寸法
  6
CONTINUOUS
 10
0.0
 20
0.0
  0
INSERT
  2
*DIM_0014
  8
寸法
  6
CONTINUOUS
 10
0.0
 20
0.0
  0
INSERT
  2
*DIM_0015
  8
寸法
  6
CONTINUOUS
 10
0.0
 20
0.0
  0
INSERT
  2
*DIM_0016
  8
寸法
  6
CONTINUOUS
 10
0.0
 20
0.0
  0
INSERT
  2
*DIM_0017
  8
寸法
  6
CONTINUOUS
 10
0.0
 20
0.0
  0
LINE
  8
曲げ物
  6
CONTINUOUS
 10
123.130517
 20
-58.71755
 11
139.023308
 21
-36.24175
  0
LINE
  8
曲げ物
  6
CONTINUOUS
 10
139.023308
 20
-36.24175
 11
154.916098
 21
-58.71755
  0
LINE
  8
曲げ物
  6
CONTINUOUS
 10
123.130517
 20
-58.71755
 11
154.916098
 21
-58.71755
  0
ENDSEC
  0
EOF
