  0
SECTION
  2
HEADER
  9
$EXTMIN
 10
-210.0
 20
-148.5
  9
$EXTMAX
 10
210.0
 20
148.5
  9
$PDMODE
 70
    32
  9
$PDSIZE
 40
1.5
  9
$LTSCALE
 40
10.0
  0
ENDSEC
  0
SECTION
  2
TABLES
  0
TABLE
  2
LTYPE
 70
    15
  0
LTYPE
  2
CONTINUOUS
 70
    64
  3
実線
 72
    65
 73
     0
 40
0.0
  0
LTYPE
  2
DASHED
 70
    64
  3
破線A
 72
    65
 73
     2
 40
0.6
 49
0.4
 49
-0.2
  0
LTYPE
  2
DASHEDX2
 70
    64
  3
破線B
 72
    65
 73
     2
 40
1.3
 49
0.9
 49
-0.4
  0
LTYPE
  2
DASHDOT
 70
    64
  3
１点鎖線A
 72
    65
 73
     4
 40
0.5375
 49
0.375
 49
-0.05
 49
0.0625
 49
-0.05
  0
LTYPE
  2
DASHDOTX2
 70
    64
  3
１点鎖線B
 72
    65
 73
     4
 40
1.075
 49
0.75
 49
-0.1
 49
0.125
 49
-0.1
  0
LTYPE
  2
DIVIDE2
 70
    64
  3
２点鎖線A
 72
    65
 73
     6
 40
0.5125
 49
0.3
 49
-0.0375
 49
0.05
 49
-0.0375
 49
0.05
 49
-0.0375
  0
LTYPE
  2
DIVIDE
 70
    64
  3
２点鎖線B
 72
    65
 73
     6
 40
1.05
 49
0.55
 49
-0.1
 49
0.1
 49
-0.1
 49
0.1
 49
-0.1
  0
LTYPE
  2
DOT
 70
    64
  3
点線A
 72
    65
 73
     2
 40
0.1125
 49
0.0625
 49
-0.05
  0
LTYPE
  2
DOTX2
 70
    64
  3
点線B
 72
    65
 73
     2
 40
0.275
 49
0.15
 49
-0.125
  0
LTYPE
  2
CONTINUOUS
 70
    64
  3
実線
 72
    65
 73
     0
 40
0.0
  0
LTYPE
  2
CONTINUOUS
 70
    64
  3
実線
 72
    65
 73
     0
 40
0.0
  0
LTYPE
  2
CONTINUOUS
 70
    64
  3
実線
 72
    65
 73
     0
 40
0.0
  0
LTYPE
  2
CONTINUOUS
 70
    64
  3
実線
 72
    65
 73
     0
 40
0.0
  0
LTYPE
  2
CONTINUOUS
 70
    64
  3
実線
 72
    65
 73
     0
 40
0.0
  0
LTYPE
  2
CONTINUOUS
 70
    64
  3
実線
 72
    65
 73
     0
 40
0.0
  0
ENDTAB
  0
TABLE
  2
LAYER
 70
    34
  0
LAYER
  2
通り芯
 70
     0
 62
    15
  6
CONTINUOUS
  0
LAYER
  2
補助線
 70
     0
 62
    16
  6
DOT
  0
LAYER
  2
躯体
 70
     0
 62
    31
  6
CONTINUOUS
  0
LAYER
  2
型材
 70
     0
 62
    32
  6
CONTINUOUS
  0
LAYER
  2
型材断面
 70
     0
 62
    47
  6
CONTINUOUS
  0
LAYER
  2
ガラス
 70
     0
 62
    48
  6
CONTINUOUS
  0
LAYER
  2
ゴム等
 70
     0
 62
    63
  6
CONTINUOUS
  0
LAYER
  2
ボルト／ビス
 70
     0
 62
    64
  6
CONTINUOUS
  0
LAYER
  2
文字
 70
     0
 62
    79
  6
CONTINUOUS
  0
LAYER
  2
寸法
 70
     0
 62
    80
  6
CONTINUOUS
  0
LAYER
  2
ﾊｯﾁﾝｸﾞ
 70
     0
 62
    95
  6
CONTINUOUS
  0
LAYER
  2
別途部材
 70
     0
 62
    96
  6
CONTINUOUS
  0
LAYER
  2
曲げ物
 70
     0
 62
   111
  6
CONTINUOUS
  0
LAYER
  2
鉄骨等
 70
     0
 62
   112
  6
CONTINUOUS
  0
LAYER
  2
St
 70
     0
 62
   127
  6
CONTINUOUS
  0
LAYER
  2
その他部品等
 70
     0
 62
   128
  6
CONTINUOUS
  0
LAYER
  2
ｶﾞｽｹｯﾄ
 70
     0
 62
   143
  6
CONTINUOUS
  0
LAYER
  2
ｽｹｯﾁ
 70
     0
 62
    14
  6
CONTINUOUS
  0
LAYER
  2
0
 70
     0
 62
    17
  6
CONTINUOUS
  0
LAYER
  2
1
 70
     0
 62
    30
  6
CONTINUOUS
  0
LAYER
  2
4
 70
     0
 62
    33
  6
CONTINUOUS
  0
LAYER
  2
ﾚｲﾔ3
 70
     0
 62
    46
  6
CONTINUOUS
  0
LAYER
  2
外形線
 70
     0
 62
    49
  6
CONTINUOUS
  0
LAYER
  2
部品
 70
     0
 62
    14
  6
CONTINUOUS
  0
LAYER
  2
サッシ芯
 70
     0
 62
    17
  6
DASHDOTX2
  0
LAYER
  2
寸法線
 70
     0
 62
    62
  6
CONTINUOUS
  0
LAYER
  2
姿図外形線
 70
     0
 62
    65
  6
CONTINUOUS
  0
LAYER
  2
姿補助線
 70
     0
 62
    30
  6
CONTINUOUS
  0
LAYER
  2
透視線
 70
     0
 62
    78
  6
DOT
  0
LAYER
  2
用紙
 70
     0
 62
    81
  6
CONTINUOUS
  0
LAYER
  2
実線図枠
 70
     0
 62
    94
  6
CONTINUOUS
  0
LAYER
  2
補助図枠
 70
     0
 62
    97
  6
CONTINUOUS
  0
LAYER
  2
建具記号
 70
     0
 62
   110
  6
CONTINUOUS
  0
LAYER
  2
補助文字
 70
     0
 62
   113
  6
CONTINUOUS
  0
ENDTAB
  0
TABLE
  2
STYLE
 70
    10
  0
STYLE
  2
STANDARD
 70
     0
 40
1.0
 41
1.0
 42
1.0
 50
0.0
 71
     0
  3
TXT
  4
BIGFONT
  0
STYLE
  2
TATE
 70
     4
 40
1.0
 41
1.0
 42
1.0
 50
0.0
 71
     0
  3
TXT
  4
BIGFONT
  0
STYLE
  2
TextStyle03
 70
     0
 40
1.0
 41
1.0
 42
1.0
 50
0.0
 71
     0
  3
MONOTXT
  4
BIGFONT
  0
STYLE
  2
TextStyle04
 70
     0
 40
1.0
 41
1.0
 42
1.0
 50
0.0
 71
     0
  3
MONOTXT
  4
BIGFONT
  0
STYLE
  2
TextStyle05
 70
     0
 40
1.0
 41
1.0
 42
1.0
 50
0.0
 71
     0
  3
MONOTXT
  4
BIGFONT
  0
STYLE
  2
TextStyle06
 70
     0
 40
1.0
 41
1.0
 42
1.0
 50
0.0
 71
     0
  3
MONOTXT
  4
BIGFONT
  0
STYLE
  2
TextStyle07
 70
     0
 40
1.0
 41
1.0
 42
1.0
 50
0.0
 71
     0
  3
MONOTXT
  4
BIGFONT
  0
STYLE
  2
TextStyle08
 70
     0
 40
1.0
 41
1.0
 42
1.0
 50
0.0
 71
     0
  3
MONOTXT
  4
BIGFONT
  0
STYLE
  2
TextStyle09
 70
     0
 40
1.0
 41
1.0
 42
1.0
 50
0.0
 71
     0
  3
MONOTXT
  4
BIGFONT
  0
STYLE
  2
TextStyle10
 70
     0
 40
1.0
 41
1.0
 42
1.0
 50
0.0
 71
     0
  3
MONOTXT
  4
BIGFONT
  0
ENDTAB
  0
ENDSEC
  0
SECTION
  2
BLOCKS
  0
BLOCK
  2
*GRP_0001
 70
    65
 10
0.0
 20
0.0
  0
LINE
  8
型材断面
  6
CONTINUOUS
 10
195.0
 20
133.5
 11
195.0
 21
-133.5
  0
LINE
  8
型材断面
  6
CONTINUOUS
 10
195.0
 20
-133.5
 11
-185.0
 21
-133.5
  0
LINE
  8
型材断面
  6
CONTINUOUS
 10
-185.0
 20
-133.5
 11
-185.0
 21
133.5
  0
LINE
  8
型材断面
  6
CONTINUOUS
 10
195.0
 20
133.5
 11
-185.0
 21
133.5
  0
LINE
  8
型材断面
  6
CONTINUOUS
 10
145.0
 20
-133.5
 11
145.0
 21
-118.5
  0
LINE
  8
型材断面
  6
CONTINUOUS
 10
195.0
 20
-118.5
 11
145.0
 21
-118.5
  0
ENDBLK
  0
BLOCK
  2
*GRP_0002
 70
    65
 10
0.0
 20
0.0
  0
POLYLINE
  8
寸法
  6
BYBLOCK
 62
     0
 66
     1
  0
VERTEX
  8
寸法
 10
-43.683315
 20
16.65622
  0
VERTEX
  8
寸法
 10
-37.266813
 20
10.239718
  0
VERTEX
  8
寸法
 10
-31.359685
 20
10.239718
  0
SEQEND
  0
ENDBLK
  0
BLOCK
  2
*DIM_0003
 70
    65
 10
0.0
 20
0.0
  0
LINE
  8
寸法
  6
BYBLOCK
 62
     0
 10
-39.443975
 20
90.372248
 11
-18.894545
 21
90.372248
  0
LINE
  8
寸法
  6
BYBLOCK
 62
     0
 10
-31.420097
 20
84.52225
 11
-18.894545
 21
84.52225
  0
LINE
  8
寸法
  6
BYBLOCK
 62
     0
 10
-18.894545
 20
90.372248
 11
-18.894545
 21
84.52225
  0
POINT
  8
寸法
 62
     0
 10
-18.894545
 20
90.372248
  0
POINT
  8
寸法
 62
     0
 10
-18.894545
 20
84.52225
  0
TEXT
  7
TextStyle03
  8
寸法
  6
CONTINUOUS
 62
     0
 10
-19.275
 20
84.9625
  1
117
 40
3.0
 50
90.0
 72
     5
 11
-19.275
 21
89.8375
  0
ENDBLK
  0
BLOCK
  2
*DIM_0004
 70
    65
 10
0.0
 20
0.0
  0
LINE
  8
寸法
  6
BYBLOCK
 62
     0
 10
-39.443975
 20
-9.627753
 11
-18.894545
 21
-9.627753
  0
LINE
  8
寸法
  6
BYBLOCK
 62
     0
 10
-31.420097
 20
-3.777755
 11
-18.894545
 21
-3.777755
  0
LINE
  8
寸法
  6
BYBLOCK
 62
     0
 10
-18.894545
 20
-9.627753
 11
-18.894545
 21
-3.777755
  0
POINT
  8
寸法
 62
     0
 10
-18.894545
 20
-9.627753
  0
POINT
  8
寸法
 62
     0
 10
-18.894545
 20
-3.777755
  0
TEXT
  7
TextStyle03
  8
寸法
  6
CONTINUOUS
 62
     0
 10
-19.3
 20
-9.1625
  1
117
 40
3.0
 50
90.0
 72
     5
 11
-19.3
 21
-4.2875
  0
ENDBLK
  0
BLOCK
  2
*GRP_0005
 70
    65
 10
0.0
 20
0.0
  0
POLYLINE
  8
寸法
  6
BYBLOCK
 62
     0
 66
     1
  0
VERTEX
  8
寸法
 10
-137.204635
 20
73.823275
  0
VERTEX
  8
寸法
 10
-143.621137
 20
80.239777
  0
VERTEX
  8
寸法
 10
-149.528265
 20
80.239777
  0
SEQEND
  0
ENDBLK
  0
BLOCK
  2
*DIM_0006
 70
    65
 10
0.0
 20
0.0
  0
LINE
  8
寸法
  6
BYBLOCK
 62
     0
 10
-125.443975
 20
115.627247
 11
-125.443975
 21
126.558002
  0
LINE
  8
寸法
  6
BYBLOCK
 62
     0
 10
-90.443975
 20
115.627247
 11
-90.443975
 21
126.558002
  0
LINE
  8
寸法
  6
BYBLOCK
 62
     0
 10
-125.443975
 20
126.558002
 11
-90.443975
 21
126.558002
  0
POINT
  8
寸法
 62
     0
 10
-125.443975
 20
126.558002
  0
POINT
  8
寸法
 62
     0
 10
-90.443975
 20
126.558002
  0
TEXT
  7
TextStyle03
  8
寸法
  6
CONTINUOUS
 62
     0
 10
-110.4125
 20
126.925
  1
700
 40
3.0
 72
     5
 11
-105.5375
 21
126.925
  0
ENDBLK
  0
BLOCK
  2
*DIM_0007
 70
    65
 10
0.0
 20
0.0
  0
LINE
  8
寸法
  6
BYBLOCK
 62
     0
 10
-55.443975
 20
115.627247
 11
-55.443975
 21
126.558002
  0
LINE
  8
寸法
  6
BYBLOCK
 62
     0
 10
-90.443975
 20
126.558002
 11
-55.443975
 21
126.558002
  0
POINT
  8
寸法
 62
     0
 10
-55.443975
 20
126.558002
  0
TEXT
  7
TextStyle03
  8
寸法
  6
CONTINUOUS
 62
     0
 10
-75.4125
 20
126.925
  1
700
 40
3.0
 72
     5
 11
-70.5375
 21
126.925
  0
ENDBLK
  0
BLOCK
  2
*DIM_0008
 70
    65
 10
0.0
 20
0.0
  0
LINE
  8
寸法
  6
BYBLOCK
 62
     0
 10
-165.698975
 20
75.372248
 11
-176.62973
 21
75.37225
  0
LINE
  8
寸法
  6
BYBLOCK
 62
     0
 10
-165.698978
 20
40.372248
 11
-176.629732
 21
40.37225
  0
LINE
  8
寸法
  6
BYBLOCK
 62
     0
 10
-176.62973
 20
75.37225
 11
-176.629732
 21
40.37225
  0
POINT
  8
寸法
 62
     0
 10
-176.62973
 20
75.37225
  0
POINT
  8
寸法
 62
     0
 10
-176.629732
 20
40.37225
  0
TEXT
  7
TextStyle03
  8
寸法
  6
CONTINUOUS
 62
     0
 10
-177.025
 20
55.4125
  1
700
 40
3.0
 50
90.0
 72
     5
 11
-177.025
 21
60.2875
  0
ENDBLK
  0
BLOCK
  2
*DIM_0009
 70
    65
 10
0.0
 20
0.0
  0
LINE
  8
寸法
  6
BYBLOCK
 62
     0
 10
-165.698978
 20
40.372248
 11
-176.629732
 21
40.372252
  0
LINE
  8
寸法
  6
BYBLOCK
 62
     0
 10
-165.69898
 20
5.372248
 11
-176.629735
 21
5.372252
  0
LINE
  8
寸法
  6
BYBLOCK
 62
     0
 10
-176.629732
 20
40.372252
 11
-176.629735
 21
5.372252
  0
POINT
  8
寸法
 62
     0
 10
-176.629735
 20
5.372252
  0
TEXT
  7
TextStyle03
  8
寸法
  6
CONTINUOUS
 62
     0
 10
-177.025
 20
20.4125
  1
700
 40
3.0
 50
90.0
 72
     5
 11
-177.025
 21
25.2875
  0
ENDBLK
  0
BLOCK
  2
*DIM_0010
 70
    65
 10
0.0
 20
0.0
  0
LINE
  8
寸法
  6
BYBLOCK
 62
     0
 10
-36.493977
 20
-112.8902
 11
-18.315088
 21
-112.8902
  0
LINE
  8
寸法
  6
BYBLOCK
 62
     0
 10
-35.168975
 20
-104.896822
 11
-18.315088
 21
-104.896822
  0
LINE
  8
寸法
  6
BYBLOCK
 62
     0
 10
-18.315088
 20
-112.8902
 11
-18.315088
 21
-104.896822
  0
POINT
  8
寸法
 62
     0
 10
-18.315088
 20
-112.8902
  0
POINT
  8
寸法
 62
     0
 10
-18.315088
 20
-104.896822
  0
TEXT
  7
TextStyle03
  8
寸法
  6
CONTINUOUS
 62
     0
 10
-15.325
 20
-113.05
  1
159.9
 40
3.0
 50
90.0
 72
     5
 11
-15.325
 21
-104.8
  0
ENDBLK
  0
BLOCK
  2
*DIM_0011
 70
    65
 10
0.0
 20
0.0
  0
LINE
  8
寸法
  6
BYBLOCK
 62
     0
 10
-89.443975
 20
-50.515858
 11
-18.315088
 21
-50.515858
  0
LINE
  8
寸法
  6
BYBLOCK
 62
     0
 10
-18.315088
 20
-104.896822
 11
-18.315088
 21
-50.515858
  0
POINT
  8
寸法
 62
     0
 10
-18.315088
 20
-104.896822
  0
POINT
  8
寸法
 62
     0
 10
-18.315088
 20
-50.515858
  0
TEXT
  7
TextStyle03
  8
寸法
  6
CONTINUOUS
 62
     0
 10
-18.725
 20
-82.66875
  1
1087.6
 40
3.0
 50
90.0
 72
     5
 11
-18.725
 21
-72.73125
  0
ENDBLK
  0
BLOCK
  2
*DIM_0012
 70
    65
 10
0.0
 20
0.0
  0
LINE
  8
寸法
  6
BYBLOCK
 62
     0
 10
-140.443975
 20
-34.723647
 11
-140.443975
 21
-34.39492
  0
LINE
  8
寸法
  6
BYBLOCK
 62
     0
 10
-40.443975
 20
-34.723647
 11
-40.443975
 21
-34.39492
  0
LINE
  8
寸法
  6
BYBLOCK
 62
     0
 10
-140.443975
 20
-34.39492
 11
-40.443975
 21
-34.39492
  0
POINT
  8
寸法
 62
     0
 10
-140.443975
 20
-34.39492
  0
POINT
  8
寸法
 62
     0
 10
-40.443975
 20
-34.39492
  0
TEXT
  7
TextStyle03
  8
寸法
  6
CONTINUOUS
 62
     0
 10
-102.19375
 20
-34.05
  1
呼称寸法　2000
 40
3.0
 72
     5
 11
-78.75625
 21
-34.05
  0
ENDBLK
  0
BLOCK
  2
*DIM_0013
 70
    65
 10
0.0
 20
0.0
  0
LINE
  8
寸法
  6
BYBLOCK
 62
     0
 10
-36.168975
 20
-103.896822
 11
-36.168975
 21
-34.39492
  0
LINE
  8
寸法
  6
BYBLOCK
 62
     0
 10
-40.443975
 20
-34.39492
 11
-36.168975
 21
-34.39492
  0
POINT
  8
寸法
 62
     0
 10
-36.168975
 20
-34.39492
  0
TEXT
  7
TextStyle03
  8
寸法
  6
CONTINUOUS
 62
     0
 10
-34.88125
 20
-34.05
  1
85.5
 40
3.0
 72
     5
 11
-28.31875
 21
-34.05
  0
ENDBLK
  0
BLOCK
  2
*DIM_0014
 70
    65
 10
0.0
 20
0.0
  0
LINE
  8
寸法
  6
BYBLOCK
 62
     0
 10
-144.718975
 20
-103.896822
 11
-144.718975
 21
-34.39492
  0
LINE
  8
寸法
  6
BYBLOCK
 62
     0
 10
-140.443975
 20
-34.39492
 11
-144.718975
 21
-34.39492
  0
POINT
  8
寸法
 62
     0
 10
-140.443975
 20
-34.39492
  0
POINT
  8
寸法
 62
     0
 10
-144.718975
 20
-34.39492
  0
TEXT
  7
TextStyle03
  8
寸法
  6
CONTINUOUS
 62
     0
 10
-152.65625
 20
-34.05
  1
85.5
 40
3.0
 72
     5
 11
-146.09375
 21
-34.05
  0
ENDBLK
  0
BLOCK
  2
*DIM_0015
 70
    65
 10
0.0
 20
0.0
  0
LINE
  8
寸法
  6
BYBLOCK
 62
     0
 10
-97.943975
 20
-57.015863
 11
-97.943975
 21
-41.545
  0
LINE
  8
寸法
  6
BYBLOCK
 62
     0
 10
-82.943975
 20
-57.015863
 11
-82.943975
 21
-41.545
  0
LINE
  8
寸法
  6
BYBLOCK
 62
     0
 10
-97.943975
 20
-41.545
 11
-82.943975
 21
-41.545
  0
POINT
  8
寸法
 62
     0
 10
-97.943975
 20
-41.545
  0
POINT
  8
寸法
 62
     0
 10
-82.943975
 20
-41.545
  0
TEXT
  7
TextStyle03
  8
寸法
  6
CONTINUOUS
 62
     0
 10
-93.725
 20
-41.2
  1
300
 40
4.0
 72
     5
 11
-87.225
 21
-41.2
  0
ENDBLK
  0
BLOCK
  2
*DIM_0016
 70
    65
 10
0.0
 20
0.0
  0
LINE
  8
寸法
  6
BYBLOCK
 62
     0
 10
-74.985
 20
-50.515858
 11
-74.04
 21
-50.515858
  0
LINE
  8
寸法
  6
BYBLOCK
 62
     0
 10
-81.943975
 20
-58.015863
 11
-74.04
 21
-58.015863
  0
LINE
  8
寸法
  6
BYBLOCK
 62
     0
 10
-74.04
 20
-50.515858
 11
-74.04
 21
-58.015863
  0
POINT
  8
寸法
 62
     0
 10
-74.04
 20
-50.515858
  0
POINT
  8
寸法
 62
     0
 10
-74.04
 20
-58.015863
  0
TEXT
  7
TextStyle03
  8
寸法
  6
CONTINUOUS
 62
     0
 10
-74.45
 20
-57.55
  1
150
 40
4.0
 50
90.0
 72
     5
 11
-74.45
 21
-51.05
  0
ENDBLK
  0
BLOCK
  2
*GRP_0017
 70
    65
 10
0.0
 20
0.0
  0
LINE
  8
補助線
  6
BYBLOCK
 62
    64
 10
102.264685
 20
-110.381548
 11
102.450445
 21
-110.548852
  0
LINE
  8
補助線
  6
BYBLOCK
 62
    64
 10
102.441217
 20
-110.37232
 11
102.273913
 21
-110.55808
  0
LINE
  8
補助線
  6
BYBLOCK
 62
    64
 10
86.377795
 20
-96.073818
 11
86.192028
 21
-95.906513
  0
LINE
  8
補助線
  6
BYBLOCK
 62
    64
 10
86.36856
 20
-95.89728
 11
86.201258
 21
-96.08305
  0
LINE
  8
補助線
  6
BYBLOCK
 62
    64
 10
70.304938
 20
-81.599
 11
70.119168
 21
-81.431705
  0
LINE
  8
補助線
  6
BYBLOCK
 62
    64
 10
70.2957
 20
-81.422468
 11
70.128407
 21
-81.608238
  0
LINE
  8
型材断面
  6
CONTINUOUS
 10
103.565618
 20
-109.870965
 11
103.62101
 21
-110.930175
  0
LINE
  8
型材断面
  6
CONTINUOUS
 10
103.62101
 20
-110.930175
 11
102.9518
 21
-111.673253
  0
LINE
  8
型材断面
  6
CONTINUOUS
 10
102.9518
 20
-111.673253
 11
101.89259
 21
-111.728645
  0
LINE
  8
型材断面
  6
CONTINUOUS
 10
70.677012
 20
-80.251897
 11
69.617802
 21
-80.307312
  0
LINE
  8
型材断面
  6
CONTINUOUS
 10
69.617802
 20
-80.307312
 11
68.9486
 21
-81.050393
  0
LINE
  8
型材断面
  6
CONTINUOUS
 10
68.9486
 20
-81.050393
 11
69.004012
 21
-82.109602
  0
LINE
  8
型材断面
  6
CONTINUOUS
 10
103.565618
 20
-109.870965
 11
70.677453
 21
-80.251875
  0
LINE
  8
型材断面
  6
CONTINUOUS
 10
101.89259
 20
-111.728645
 11
69.00399
 21
-82.109177
  0
LINE
  8
ボルト／ビス
  6
CONTINUOUS
 62
    64
 10
102.666657
 20
-110.121987
 11
102.80934
 21
-110.56128
  0
LINE
  8
ボルト／ビス
  6
CONTINUOUS
 62
    64
 10
102.666657
 20
-110.121987
 11
102.214885
 21
-110.025912
  0
LINE
  8
ボルト／ビス
  6
CONTINUOUS
 62
    64
 10
102.048473
 20
-110.808413
 11
102.500245
 21
-110.904487
  0
LINE
  8
ボルト／ビス
  6
CONTINUOUS
 62
    64
 10
102.048473
 20
-110.808413
 11
101.90579
 21
-110.36912
  0
CIRCLE
  8
ボルト／ビス
  6
CONTINUOUS
 62
    64
 10
102.357565
 20
-110.4652
 40
0.4
  0
LINE
  8
ボルト／ビス
  6
CONTINUOUS
 62
    64
 10
102.214885
 20
-110.025912
 11
101.90579
 21
-110.36912
  0
LINE
  8
ボルト／ビス
  6
CONTINUOUS
 62
    64
 10
102.80934
 20
-110.56128
 11
102.500245
 21
-110.904487
  0
LINE
  8
ボルト／ビス
  6
CONTINUOUS
 62
    64
 10
86.594008
 20
-95.646958
 11
86.142228
 21
-95.550875
  0
LINE
  8
ボルト／ビス
  6
CONTINUOUS
 62
    64
 10
86.594008
 20
-95.646958
 11
86.73669
 21
-96.086243
  0
LINE
  8
ボルト／ビス
  6
CONTINUOUS
 62
    64
 10
85.975815
 20
-96.333375
 11
85.833135
 21
-95.894085
  0
LINE
  8
ボルト／ビス
  6
CONTINUOUS
 62
    64
 10
85.975815
 20
-96.333375
 11
86.42759
 21
-96.429453
  0
CIRCLE
  8
ボルト／ビス
  6
CONTINUOUS
 62
    64
 10
86.284908
 20
-95.990165
 40
0.4
  0
LINE
  8
ボルト／ビス
  6
CONTINUOUS
 62
    64
 10
86.73669
 20
-96.086243
 11
86.42759
 21
-96.429453
  0
LINE
  8
ボルト／ビス
  6
CONTINUOUS
 62
    64
 10
86.142228
 20
-95.550875
 11
85.833135
 21
-95.894085
  0
LINE
  8
ボルト／ビス
  6
CONTINUOUS
 62
    64
 10
70.521145
 20
-81.17214
 11
70.069365
 21
-81.076065
  0
LINE
  8
ボルト／ビス
  6
CONTINUOUS
 62
    64
 10
70.521145
 20
-81.17214
 11
70.663825
 21
-81.611425
  0
LINE
  8
ボルト／ビス
  6
CONTINUOUS
 62
    64
 10
69.90296
 20
-81.858568
 11
69.760277
 21
-81.41928
  0
LINE
  8
ボルト／ビス
  6
CONTINUOUS
 62
    64
 10
69.90296
 20
-81.858568
 11
70.35474
 21
-81.95464
  0
CIRCLE
  8
ボルト／ビス
  6
CONTINUOUS
 62
    64
 10
70.212053
 20
-81.515352
 40
0.4
  0
LINE
  8
ボルト／ビス
  6
CONTINUOUS
 62
    64
 10
70.663825
 20
-81.611425
 11
70.35474
 21
-81.95464
  0
LINE
  8
ボルト／ビス
  6
CONTINUOUS
 62
    64
 10
70.069365
 20
-81.076065
 11
69.760277
 21
-81.41928
  0
ENDBLK
  0
BLOCK
  2
*GRP_0018
 70
    65
 10
0.0
 20
0.0
  0
LINE
  8
補助線
  6
BYBLOCK
 62
    64
 10
70.305135
 20
-110.381548
 11
70.119375
 21
-110.548852
  0
LINE
  8
補助線
  6
BYBLOCK
 62
    64
 10
70.128602
 20
-110.37232
 11
70.295908
 21
-110.55808
  0
LINE
  8
補助線
  6
BYBLOCK
 62
    64
 10
86.192025
 20
-96.073818
 11
86.377793
 21
-95.906513
  0
LINE
  8
補助線
  6
BYBLOCK
 62
    64
 10
86.20126
 20
-95.89728
 11
86.368563
 21
-96.08305
  0
LINE
  8
補助線
  6
BYBLOCK
 62
    64
 10
102.264883
 20
-81.599
 11
102.450653
 21
-81.431705
  0
LINE
  8
補助線
  6
BYBLOCK
 62
    64
 10
102.27412
 20
-81.422468
 11
102.441412
 21
-81.608238
  0
LINE
  8
型材断面
  6
CONTINUOUS
 10
69.004203
 20
-109.870965
 11
68.94881
 21
-110.930175
  0
LINE
  8
型材断面
  6
CONTINUOUS
 10
68.94881
 20
-110.930175
 11
69.61802
 21
-111.673253
  0
LINE
  8
型材断面
  6
CONTINUOUS
 10
69.61802
 20
-111.673253
 11
70.67723
 21
-111.728645
  0
LINE
  8
型材断面
  6
CONTINUOUS
 10
101.892807
 20
-80.251897
 11
102.952017
 21
-80.307312
  0
LINE
  8
型材断面
  6
CONTINUOUS
 10
102.952017
 20
-80.307312
 11
103.62122
 21
-81.050393
  0
LINE
  8
型材断面
  6
CONTINUOUS
 10
103.62122
 20
-81.050393
 11
103.565807
 21
-82.109602
  0
LINE
  8
型材断面
  6
CONTINUOUS
 10
69.004203
 20
-109.870965
 11
101.892368
 21
-80.251875
  0
LINE
  8
型材断面
  6
CONTINUOUS
 10
70.67723
 20
-111.728645
 11
103.56583
 21
-82.109177
  0
LINE
  8
ボルト／ビス
  6
CONTINUOUS
 62
    64
 10
69.903162
 20
-110.121987
 11
69.76048
 21
-110.56128
  0
LINE
  8
ボルト／ビス
  6
CONTINUOUS
 62
    64
 10
69.903162
 20
-110.121987
 11
70.354935
 21
-110.025912
  0
LINE
  8
ボルト／ビス
  6
CONTINUOUS
 62
    64
 10
70.521348
 20
-110.808413
 11
70.069575
 21
-110.904487
  0
LINE
  8
ボルト／ビス
  6
CONTINUOUS
 62
    64
 10
70.521348
 20
-110.808413
 11
70.66403
 21
-110.36912
  0
CIRCLE
  8
ボルト／ビス
  6
CONTINUOUS
 62
    64
 10
70.212255
 20
-110.4652
 40
0.4
  0
LINE
  8
ボルト／ビス
  6
CONTINUOUS
 62
    64
 10
70.354935
 20
-110.025912
 11
70.66403
 21
-110.36912
  0
LINE
  8
ボルト／ビス
  6
CONTINUOUS
 62
    64
 10
69.76048
 20
-110.56128
 11
70.069575
 21
-110.904487
  0
LINE
  8
ボルト／ビス
  6
CONTINUOUS
 62
    64
 10
85.975813
 20
-95.646958
 11
86.427592
 21
-95.550875
  0
LINE
  8
ボルト／ビス
  6
CONTINUOUS
 62
    64
 10
85.975813
 20
-95.646958
 11
85.83313
 21
-96.086243
  0
LINE
  8
ボルト／ビス
  6
CONTINUOUS
 62
    64
 10
86.594005
 20
-96.333375
 11
86.736685
 21
-95.894085
  0
LINE
  8
ボルト／ビス
  6
CONTINUOUS
 62
    64
 10
86.594005
 20
-96.333375
 11
86.14223
 21
-96.429453
  0
CIRCLE
  8
ボルト／ビス
  6
CONTINUOUS
 62
    64
 10
86.284913
 20
-95.990165
 40
0.4
  0
LINE
  8
ボルト／ビス
  6
CONTINUOUS
 62
    64
 10
85.83313
 20
-96.086243
 11
86.14223
 21
-96.429453
  0
LINE
  8
ボルト／ビス
  6
CONTINUOUS
 62
    64
 10
86.427592
 20
-95.550875
 11
86.736685
 21
-95.894085
  0
LINE
  8
ボルト／ビス
  6
CONTINUOUS
 62
    64
 10
102.048675
 20
-81.17214
 11
102.500455
 21
-81.076065
  0
LINE
  8
ボルト／ビス
  6
CONTINUOUS
 62
    64
 10
102.048675
 20
-81.17214
 11
101.905995
 21
-81.611425
  0
LINE
  8
ボルト／ビス
  6
CONTINUOUS
 62
    64
 10
102.66686
 20
-81.858568
 11
102.809542
 21
-81.41928
  0
LINE
  8
ボルト／ビス
  6
CONTINUOUS
 62
    64
 10
102.66686
 20
-81.858568
 11
102.21508
 21
-81.95464
  0
CIRCLE
  8
ボルト／ビス
  6
CONTINUOUS
 62
    64
 10
102.357768
 20
-81.515352
 40
0.4
  0
LINE
  8
ボルト／ビス
  6
CONTINUOUS
 62
    64
 10
101.905995
 20
-81.611425
 11
102.21508
 21
-81.95464
  0
LINE
  8
ボルト／ビス
  6
CONTINUOUS
 62
    64
 10
102.500455
 20
-81.076065
 11
102.809542
 21
-81.41928
  0
ENDBLK
  0
BLOCK
  2
*GRP_0019
 70
    65
 10
0.0
 20
0.0
  0
LINE
  8
補助線
  6
BYBLOCK
 62
    64
 10
6.450565
 20
-110.381548
 11
6.264805
 21
-110.548852
  0
LINE
  8
補助線
  6
BYBLOCK
 62
    64
 10
6.274033
 20
-110.37232
 11
6.441338
 21
-110.55808
  0
LINE
  8
補助線
  6
BYBLOCK
 62
    64
 10
22.337455
 20
-96.073818
 11
22.523222
 21
-95.906513
  0
LINE
  8
補助線
  6
BYBLOCK
 62
    64
 10
22.34669
 20
-95.89728
 11
22.513992
 21
-96.08305
  0
LINE
  8
補助線
  6
BYBLOCK
 62
    64
 10
38.410312
 20
-81.599
 11
38.596083
 21
-81.431705
  0
LINE
  8
補助線
  6
BYBLOCK
 62
    64
 10
38.41955
 20
-81.422468
 11
38.586843
 21
-81.608238
  0
LINE
  8
型材断面
  6
CONTINUOUS
 10
5.149633
 20
-109.870965
 11
5.09424
 21
-110.930175
  0
LINE
  8
型材断面
  6
CONTINUOUS
 10
5.09424
 20
-110.930175
 11
5.76345
 21
-111.673253
  0
LINE
  8
型材断面
  6
CONTINUOUS
 10
5.76345
 20
-111.673253
 11
6.82266
 21
-111.728645
  0
LINE
  8
型材断面
  6
CONTINUOUS
 10
38.038237
 20
-80.251897
 11
39.097448
 21
-80.307312
  0
LINE
  8
型材断面
  6
CONTINUOUS
 10
39.097448
 20
-80.307312
 11
39.76665
 21
-81.050393
  0
LINE
  8
型材断面
  6
CONTINUOUS
 10
39.76665
 20
-81.050393
 11
39.711238
 21
-82.109602
  0
LINE
  8
型材断面
  6
CONTINUOUS
 10
5.149633
 20
-109.870965
 11
38.037797
 21
-80.251875
  0
LINE
  8
型材断面
  6
CONTINUOUS
 10
6.82266
 20
-111.728645
 11
39.71126
 21
-82.109177
  0
LINE
  8
ボルト／ビス
  6
CONTINUOUS
 62
    64
 10
6.048593
 20
-110.121987
 11
5.90591
 21
-110.56128
  0
LINE
  8
ボルト／ビス
  6
CONTINUOUS
 62
    64
 10
6.048593
 20
-110.121987
 11
6.500365
 21
-110.025912
  0
LINE
  8
ボルト／ビス
  6
CONTINUOUS
 62
    64
 10
6.666777
 20
-110.808413
 11
6.215005
 21
-110.904487
  0
LINE
  8
ボルト／ビス
  6
CONTINUOUS
 62
    64
 10
6.666777
 20
-110.808413
 11
6.80946
 21
-110.36912
  0
CIRCLE
  8
ボルト／ビス
  6
CONTINUOUS
 62
    64
 10
6.357685
 20
-110.4652
 40
0.4
  0
LINE
  8
ボルト／ビス
  6
CONTINUOUS
 62
    64
 10
6.500365
 20
-110.025912
 11
6.80946
 21
-110.36912
  0
LINE
  8
ボルト／ビス
  6
CONTINUOUS
 62
    64
 10
5.90591
 20
-110.56128
 11
6.215005
 21
-110.904487
  0
LINE
  8
ボルト／ビス
  6
CONTINUOUS
 62
    64
 10
22.121242
 20
-95.646958
 11
22.573022
 21
-95.550875
  0
LINE
  8
ボルト／ビス
  6
CONTINUOUS
 62
    64
 10
22.121242
 20
-95.646958
 11
21.97856
 21
-96.086243
  0
LINE
  8
ボルト／ビス
  6
CONTINUOUS
 62
    64
 10
22.739435
 20
-96.333375
 11
22.882115
 21
-95.894085
  0
LINE
  8
ボルト／ビス
  6
CONTINUOUS
 62
    64
 10
22.739435
 20
-96.333375
 11
22.28766
 21
-96.429453
  0
CIRCLE
  8
ボルト／ビス
  6
CONTINUOUS
 62
    64
 10
22.430343
 20
-95.990165
 40
0.4
  0
LINE
  8
ボルト／ビス
  6
CONTINUOUS
 62
    64
 10
21.97856
 20
-96.086243
 11
22.28766
 21
-96.429453
  0
LINE
  8
ボルト／ビス
  6
CONTINUOUS
 62
    64
 10
22.573022
 20
-95.550875
 11
22.882115
 21
-95.894085
  0
LINE
  8
ボルト／ビス
  6
CONTINUOUS
 62
    64
 10
38.194105
 20
-81.17214
 11
38.645885
 21
-81.076065
  0
LINE
  8
ボルト／ビス
  6
CONTINUOUS
 62
    64
 10
38.194105
 20
-81.17214
 11
38.051425
 21
-81.611425
  0
LINE
  8
ボルト／ビス
  6
CONTINUOUS
 62
    64
 10
38.81229
 20
-81.858568
 11
38.954973
 21
-81.41928
  0
LINE
  8
ボルト／ビス
  6
CONTINUOUS
 62
    64
 10
38.81229
 20
-81.858568
 11
38.36051
 21
-81.95464
  0
CIRCLE
  8
ボルト／ビス
  6
CONTINUOUS
 62
    64
 10
38.503197
 20
-81.515352
 40
0.4
  0
LINE
  8
ボルト／ビス
  6
CONTINUOUS
 62
    64
 10
38.051425
 20
-81.611425
 11
38.36051
 21
-81.95464
  0
LINE
  8
ボルト／ビス
  6
CONTINUOUS
 62
    64
 10
38.645885
 20
-81.076065
 11
38.954973
 21
-81.41928
  0
ENDBLK
  0
BLOCK
  2
*GRP_0020
 70
    65
 10
0.0
 20
0.0
  0
LINE
  8
補助線
  6
BYBLOCK
 62
    64
 10
38.410115
 20
-110.381548
 11
38.595875
 21
-110.548852
  0
LINE
  8
補助線
  6
BYBLOCK
 62
    64
 10
38.586648
 20
-110.37232
 11
38.419342
 21
-110.55808
  0
LINE
  8
補助線
  6
BYBLOCK
 62
    64
 10
22.523225
 20
-96.073818
 11
22.337457
 21
-95.906513
  0
LINE
  8
補助線
  6
BYBLOCK
 62
    64
 10
22.51399
 20
-95.89728
 11
22.346688
 21
-96.08305
  0
LINE
  8
補助線
  6
BYBLOCK
 62
    64
 10
6.450367
 20
-81.599
 11
6.264597
 21
-81.431705
  0
LINE
  8
補助線
  6
BYBLOCK
 62
    64
 10
6.44113
 20
-81.422468
 11
6.273838
 21
-81.608238
  0
LINE
  8
型材断面
  6
CONTINUOUS
 10
39.711047
 20
-109.870965
 11
39.76644
 21
-110.930175
  0
LINE
  8
型材断面
  6
CONTINUOUS
 10
39.76644
 20
-110.930175
 11
39.09723
 21
-111.673253
  0
LINE
  8
型材断面
  6
CONTINUOUS
 10
39.09723
 20
-111.673253
 11
38.03802
 21
-111.728645
  0
LINE
  8
型材断面
  6
CONTINUOUS
 10
6.822443
 20
-80.251897
 11
5.763233
 21
-80.307312
  0
LINE
  8
型材断面
  6
CONTINUOUS
 10
5.763233
 20
-80.307312
 11
5.09403
 21
-81.050393
  0
LINE
  8
型材断面
  6
CONTINUOUS
 10
5.09403
 20
-81.050393
 11
5.149443
 21
-82.109602
  0
LINE
  8
型材断面
  6
CONTINUOUS
 10
39.711047
 20
-109.870965
 11
6.822883
 21
-80.251875
  0
LINE
  8
型材断面
  6
CONTINUOUS
 10
38.03802
 20
-111.728645
 11
5.14942
 21
-82.109177
  0
LINE
  8
ボルト／ビス
  6
CONTINUOUS
 62
    64
 10
38.812088
 20
-110.121987
 11
38.95477
 21
-110.56128
  0
LINE
  8
ボルト／ビス
  6
CONTINUOUS
 62
    64
 10
38.812088
 20
-110.121987
 11
38.360315
 21
-110.025912
  0
LINE
  8
ボルト／ビス
  6
CONTINUOUS
 62
    64
 10
38.193902
 20
-110.808413
 11
38.645675
 21
-110.904487
  0
LINE
  8
ボルト／ビス
  6
CONTINUOUS
 62
    64
 10
38.193902
 20
-110.808413
 11
38.05122
 21
-110.36912
  0
CIRCLE
  8
ボルト／ビス
  6
CONTINUOUS
 62
    64
 10
38.502995
 20
-110.4652
 40
0.4
  0
LINE
  8
ボルト／ビス
  6
CONTINUOUS
 62
    64
 10
38.360315
 20
-110.025912
 11
38.05122
 21
-110.36912
  0
LINE
  8
ボルト／ビス
  6
CONTINUOUS
 62
    64
 10
38.95477
 20
-110.56128
 11
38.645675
 21
-110.904487
  0
LINE
  8
ボルト／ビス
  6
CONTINUOUS
 62
    64
 10
22.739437
 20
-95.646958
 11
22.287658
 21
-95.550875
  0
LINE
  8
ボルト／ビス
  6
CONTINUOUS
 62
    64
 10
22.739437
 20
-95.646958
 11
22.88212
 21
-96.086243
  0
LINE
  8
ボルト／ビス
  6
CONTINUOUS
 62
    64
 10
22.121245
 20
-96.333375
 11
21.978565
 21
-95.894085
  0
LINE
  8
ボルト／ビス
  6
CONTINUOUS
 62
    64
 10
22.121245
 20
-96.333375
 11
22.57302
 21
-96.429453
  0
CIRCLE
  8
ボルト／ビス
  6
CONTINUOUS
 62
    64
 10
22.430337
 20
-95.990165
 40
0.4
  0
LINE
  8
ボルト／ビス
  6
CONTINUOUS
 62
    64
 10
22.88212
 20
-96.086243
 11
22.57302
 21
-96.429453
  0
LINE
  8
ボルト／ビス
  6
CONTINUOUS
 62
    64
 10
22.287658
 20
-95.550875
 11
21.978565
 21
-95.894085
  0
LINE
  8
ボルト／ビス
  6
CONTINUOUS
 62
    64
 10
6.666575
 20
-81.17214
 11
6.214795
 21
-81.076065
  0
LINE
  8
ボルト／ビス
  6
CONTINUOUS
 62
    64
 10
6.666575
 20
-81.17214
 11
6.809255
 21
-81.611425
  0
LINE
  8
ボルト／ビス
  6
CONTINUOUS
 62
    64
 10
6.04839
 20
-81.858568
 11
5.905708
 21
-81.41928
  0
LINE
  8
ボルト／ビス
  6
CONTINUOUS
 62
    64
 10
6.04839
 20
-81.858568
 11
6.50017
 21
-81.95464
  0
CIRCLE
  8
ボルト／ビス
  6
CONTINUOUS
 62
    64
 10
6.357482
 20
-81.515352
 40
0.4
  0
LINE
  8
ボルト／ビス
  6
CONTINUOUS
 62
    64
 10
6.809255
 20
-81.611425
 11
6.50017
 21
-81.95464
  0
LINE
  8
ボルト／ビス
  6
CONTINUOUS
 62
    64
 10
6.214795
 20
-81.076065
 11
5.905708
 21
-81.41928
  0
ENDBLK
  0
BLOCK
  2
*DIM_0021
 70
    65
 10
0.0
 20
0.0
  0
LINE
  8
寸法
  6
BYBLOCK
 62
     0
 10
116.930237
 20
-27.889055
 11
116.930237
 21
-40.31715
  0
LINE
  8
寸法
  6
BYBLOCK
 62
     0
 10
166.725235
 20
-27.889055
 11
166.725235
 21
-40.31715
  0
LINE
  8
寸法
  6
BYBLOCK
 62
     0
 10
116.930237
 20
-40.31715
 11
166.725235
 21
-40.31715
  0
POINT
  8
寸法
 62
     0
 10
116.930237
 20
-40.31715
  0
POINT
  8
寸法
 62
     0
 10
166.725235
 20
-40.31715
  0
TEXT
  7
TextStyle03
  8
寸法
  6
CONTINUOUS
 62
     0
 10
137.675
 20
-39.95
  1
995.9
 40
3.0
 72
     5
 11
145.925
 21
-39.95
  0
ENDBLK
  0
BLOCK
  2
*DIM_0022
 70
    65
 10
0.0
 20
0.0
  0
LINE
  8
寸法
  6
BYBLOCK
 62
     0
 10
169.725235
 20
-24.889055
 11
179.546885
 21
-24.889055
  0
LINE
  8
寸法
  6
BYBLOCK
 62
     0
 10
169.725235
 20
45.531402
 11
179.546885
 21
45.531402
  0
LINE
  8
寸法
  6
BYBLOCK
 62
     0
 10
179.546885
 20
-24.889055
 11
179.546885
 21
45.531402
  0
POINT
  8
寸法
 62
     0
 10
179.546885
 20
-24.889055
  0
POINT
  8
寸法
 62
     0
 10
179.546885
 20
45.531402
  0
TEXT
  7
TextStyle03
  8
寸法
  6
CONTINUOUS
 62
     0
 10
179.15
 20
5.33125
  1
1408.4
 40
3.0
 50
90.0
 72
     5
 11
179.15
 21
15.26875
  0
ENDBLK
  0
BLOCK
  2
*DIM_0023
 70
    65
 10
0.0
 20
0.0
  0
LINE
  8
寸法
  6
BYBLOCK
 62
     0
 10
108.777565
 20
-83.949237
 11
124.297135
 21
-83.949237
  0
LINE
  8
寸法
  6
BYBLOCK
 62
     0
 10
108.777565
 20
-108.949237
 11
124.297135
 21
-108.949237
  0
LINE
  8
寸法
  6
BYBLOCK
 62
     0
 10
124.297135
 20
-83.949237
 11
124.297135
 21
-108.949237
  0
POINT
  8
寸法
 62
     0
 10
124.297135
 20
-83.949237
  0
POINT
  8
寸法
 62
     0
 10
124.297135
 20
-108.949237
  0
TEXT
  7
TextStyle03
  8
寸法
  6
CONTINUOUS
 62
     0
 10
123.9
 20
-105.54375
  1
上昇436以上
 40
3.0
 50
90.0
 72
     5
 11
123.9
 21
-87.35625
  0
ENDBLK
  0
ENDSEC
  0
SECTION
  2
ENTITIES
  0
POLYLINE
  8
通り芯
  6
CONTINUOUS
 66
     1
 70
     1
  0
VERTEX
  8
通り芯
 10
-210.0
 20
-148.5
  0
VERTEX
  8
通り芯
 10
210.0
 20
-148.5
  0
VERTEX
  8
通り芯
 10
210.0
 20
148.5
  0
VERTEX
  8
通り芯
 10
-210.0
 20
148.5
  0
SEQEND
  0
INSERT
  2
*GRP_0001
  8
型材断面
  6
CONTINUOUS
 10
0.0
 20
0.0
  0
LINE
  8
型材断面
  6
CONTINUOUS
 10
-36.168975
 20
-13.902753
 11
-43.318975
 21
-6.752753
  0
LINE
  8
型材断面
  6
CONTINUOUS
 10
-41.062043
 20
-11.445305
 11
-38.626422
 21
-11.445305
  0
LINE
  8
型材断面
  6
CONTINUOUS
 10
-38.626422
 20
-9.009685
 11
-38.626422
 21
-11.445305
  0
LINE
  8
型材断面
  6
DASHDOT
 10
-40.443975
 20
-9.627753
 11
-40.443975
 21
5.372248
  0
LINE
  8
型材断面
  6
CONTINUOUS
 10
-37.212208
 20
-12.85952
 11
-90.443975
 21
-12.85952
  0
LINE
  8
型材断面
  6
CONTINUOUS
 10
-36.168975
 20
-13.902753
 11
-90.443975
 21
-13.902753
  0
LINE
  8
型材断面
  6
CONTINUOUS
 10
-38.27287
 20
-11.798858
 11
-90.443975
 21
-11.798858
  0
LINE
  8
型材断面
  6
CONTINUOUS
 10
-38.555713
 20
-11.516015
 11
-90.443975
 21
-11.516015
  0
LINE
  8
型材断面
  6
CONTINUOUS
 10
-37.565762
 20
-12.505965
 11
-90.443975
 21
-12.505965
  0
LINE
  8
型材断面
  6
DASHDOT
 10
-40.443975
 20
-9.627753
 11
-140.443975
 21
-9.627753
  0
LINE
  8
型材断面
  6
DASHDOT
 10
-40.443975
 20
40.372248
 11
-140.443975
 21
40.372248
  0
LINE
  8
型材断面
  6
DASHDOT
 10
-40.443975
 20
90.372248
 11
-140.443975
 21
90.372248
  0
LINE
  8
型材断面
  6
CONTINUOUS
 10
-38.555713
 20
-11.516015
 11
-38.555713
 21
40.372248
  0
LINE
  8
型材断面
  6
CONTINUOUS
 10
-38.27287
 20
-11.798858
 11
-38.27287
 21
40.372248
  0
LINE
  8
型材断面
  6
CONTINUOUS
 10
-37.565762
 20
-12.505965
 11
-37.565762
 21
40.372248
  0
LINE
  8
型材断面
  6
CONTINUOUS
 10
-37.212208
 20
-12.85952
 11
-37.212208
 21
40.372248
  0
LINE
  8
型材断面
  6
CONTINUOUS
 10
-36.168975
 20
-13.902753
 11
-36.168975
 21
40.372248
  0
LINE
  8
型材断面
  6
CONTINUOUS
 10
-144.718975
 20
-13.902753
 11
-137.568975
 21
-6.752753
  0
LINE
  8
型材断面
  6
CONTINUOUS
 10
-139.825908
 20
-11.445305
 11
-142.261528
 21
-11.445305
  0
LINE
  8
型材断面
  6
CONTINUOUS
 10
-142.261528
 20
-9.009685
 11
-142.261528
 21
-11.445305
  0
LINE
  8
型材断面
  6
DASHDOT
 10
-140.443975
 20
-9.627753
 11
-140.443975
 21
5.372248
  0
LINE
  8
型材断面
  6
CONTINUOUS
 10
-143.675742
 20
-12.85952
 11
-90.443975
 21
-12.85952
  0
LINE
  8
型材断面
  6
CONTINUOUS
 10
-144.718975
 20
-13.902753
 11
-90.443975
 21
-13.902753
  0
LINE
  8
型材断面
  6
CONTINUOUS
 10
-142.61508
 20
-11.798858
 11
-90.443975
 21
-11.798858
  0
LINE
  8
型材断面
  6
CONTINUOUS
 10
-142.332237
 20
-11.516015
 11
-90.443975
 21
-11.516015
  0
LINE
  8
型材断面
  6
CONTINUOUS
 10
-143.322188
 20
-12.505965
 11
-90.443975
 21
-12.505965
  0
LINE
  8
型材断面
  6
CONTINUOUS
 10
-142.332237
 20
-11.516015
 11
-142.332237
 21
40.372248
  0
LINE
  8
型材断面
  6
CONTINUOUS
 10
-142.61508
 20
-11.798858
 11
-142.61508
 21
40.372248
  0
LINE
  8
型材断面
  6
CONTINUOUS
 10
-143.322188
 20
-12.505965
 11
-143.322188
 21
40.372248
  0
LINE
  8
型材断面
  6
CONTINUOUS
 10
-143.675742
 20
-12.85952
 11
-143.675742
 21
40.372248
  0
LINE
  8
型材断面
  6
CONTINUOUS
 10
-144.718975
 20
-13.902753
 11
-144.718975
 21
40.372248
  0
LINE
  8
型材断面
  6
CONTINUOUS
 10
-144.718975
 20
94.647248
 11
-137.568975
 21
87.497248
  0
LINE
  8
型材断面
  6
CONTINUOUS
 10
-139.825908
 20
92.1898
 11
-142.261528
 21
92.1898
  0
LINE
  8
型材断面
  6
CONTINUOUS
 10
-142.261528
 20
89.75418
 11
-142.261528
 21
92.1898
  0
LINE
  8
型材断面
  6
DASHDOT
 10
-140.443975
 20
90.372248
 11
-140.443975
 21
75.372248
  0
LINE
  8
型材断面
  6
CONTINUOUS
 10
-143.675742
 20
93.604015
 11
-90.443975
 21
93.604015
  0
LINE
  8
型材断面
  6
CONTINUOUS
 10
-144.718975
 20
94.647248
 11
-90.443975
 21
94.647248
  0
LINE
  8
型材断面
  6
CONTINUOUS
 10
-142.61508
 20
92.543353
 11
-90.443975
 21
92.543353
  0
LINE
  8
型材断面
  6
CONTINUOUS
 10
-142.332237
 20
92.26051
 11
-90.443975
 21
92.26051
  0
LINE
  8
型材断面
  6
CONTINUOUS
 10
-143.322188
 20
93.25046
 11
-90.443975
 21
93.25046
  0
LINE
  8
型材断面
  6
CONTINUOUS
 10
-142.332237
 20
92.26051
 11
-142.332237
 21
40.372248
  0
LINE
  8
型材断面
  6
CONTINUOUS
 10
-142.61508
 20
92.543353
 11
-142.61508
 21
40.372248
  0
LINE
  8
型材断面
  6
CONTINUOUS
 10
-143.322188
 20
93.25046
 11
-143.322188
 21
40.372248
  0
LINE
  8
型材断面
  6
CONTINUOUS
 10
-143.675742
 20
93.604015
 11
-143.675742
 21
40.372248
  0
LINE
  8
型材断面
  6
CONTINUOUS
 10
-144.718975
 20
94.647248
 11
-144.718975
 21
40.372248
  0
LINE
  8
型材断面
  6
CONTINUOUS
 10
-36.168975
 20
94.647248
 11
-43.318975
 21
87.497248
  0
LINE
  8
型材断面
  6
CONTINUOUS
 10
-41.062043
 20
92.1898
 11
-38.626422
 21
92.1898
  0
LINE
  8
型材断面
  6
CONTINUOUS
 10
-38.626422
 20
89.75418
 11
-38.626422
 21
92.1898
  0
LINE
  8
型材断面
  6
DASHDOT
 10
-40.443975
 20
90.372248
 11
-40.443975
 21
75.372248
  0
LINE
  8
型材断面
  6
CONTINUOUS
 10
-37.212208
 20
93.604015
 11
-90.443975
 21
93.604015
  0
LINE
  8
型材断面
  6
CONTINUOUS
 10
-36.168975
 20
94.647248
 11
-90.443975
 21
94.647248
  0
LINE
  8
型材断面
  6
CONTINUOUS
 10
-38.27287
 20
92.543353
 11
-90.443975
 21
92.543353
  0
LINE
  8
型材断面
  6
CONTINUOUS
 10
-38.555713
 20
92.26051
 11
-90.443975
 21
92.26051
  0
LINE
  8
型材断面
  6
CONTINUOUS
 10
-37.565762
 20
93.25046
 11
-90.443975
 21
93.25046
  0
LINE
  8
型材断面
  6
CONTINUOUS
 10
-38.555713
 20
92.26051
 11
-38.555713
 21
40.372248
  0
LINE
  8
型材断面
  6
CONTINUOUS
 10
-38.27287
 20
92.543353
 11
-38.27287
 21
40.372248
  0
LINE
  8
型材断面
  6
CONTINUOUS
 10
-37.565762
 20
93.25046
 11
-37.565762
 21
40.372248
  0
LINE
  8
型材断面
  6
CONTINUOUS
 10
-37.212208
 20
93.604015
 11
-37.212208
 21
40.372248
  0
LINE
  8
型材断面
  6
CONTINUOUS
 10
-36.168975
 20
94.647248
 11
-36.168975
 21
40.372248
  0
LINE
  8
型材断面
  6
CONTINUOUS
 10
-89.218975
 20
-11.445305
 11
-91.668975
 21
-11.445305
  0
LINE
  8
型材断面
  6
CONTINUOUS
 10
-89.218975
 20
92.1898
 11
-91.668975
 21
92.1898
  0
LINE
  8
型材断面
  6
CONTINUOUS
 10
-38.626422
 20
41.597248
 11
-38.626422
 21
39.147248
  0
LINE
  8
型材断面
  6
CONTINUOUS
 10
-142.261528
 20
41.597248
 11
-142.261528
 21
39.147248
  0
LINE
  8
型材断面
  6
DASHDOT
 10
-40.443975
 20
90.372248
 11
-40.443975
 21
-121.5602
  0
LINE
  8
型材断面
  6
DASHDOT
 10
-90.443975
 20
90.372248
 11
-90.443975
 21
-121.5602
  0
LINE
  8
型材断面
  6
DASHDOT
 10
-140.443975
 20
90.372248
 11
-140.443975
 21
-121.5602
  0
LINE
  8
型材断面
  6
CONTINUOUS
 10
-90.443975
 20
-17.651627
 11
-92.68742
 21
-21.537388
  0
LINE
  8
型材断面
  6
CONTINUOUS
 10
-90.443975
 20
-17.651627
 11
-88.20053
 21
-21.537388
  0
LINE
  8
型材断面
  6
CONTINUOUS
 10
-88.20053
 20
-21.537388
 11
-92.68742
 21
-21.537388
  0
LINE
  8
型材断面
  6
CONTINUOUS
 10
-148.467853
 20
40.372248
 11
-152.353612
 21
38.128802
  0
LINE
  8
型材断面
  6
CONTINUOUS
 10
-148.467853
 20
40.372248
 11
-152.353612
 21
42.615692
  0
LINE
  8
型材断面
  6
CONTINUOUS
 10
-152.353612
 20
42.615692
 11
-152.353612
 21
38.128802
  0
LINE
  8
型材断面
  6
CONTINUOUS
 10
-90.443975
 20
98.396122
 11
-92.68742
 21
102.281883
  0
LINE
  8
型材断面
  6
CONTINUOUS
 10
-90.443975
 20
98.396122
 11
-88.20053
 21
102.281883
  0
LINE
  8
型材断面
  6
CONTINUOUS
 10
-88.20053
 20
102.281883
 11
-92.68742
 21
102.281883
  0
LINE
  8
型材断面
  6
CONTINUOUS
 10
-32.420097
 20
40.372248
 11
-28.534338
 21
38.128802
  0
LINE
  8
型材断面
  6
CONTINUOUS
 10
-32.420097
 20
40.372248
 11
-28.534338
 21
42.615692
  0
LINE
  8
型材断面
  6
CONTINUOUS
 10
-28.534338
 20
42.615692
 11
-28.534338
 21
38.128802
  0
LINE
  8
型材断面
  6
DOT
 10
-45.460213
 20
90.372248
 11
-45.460213
 21
-9.627753
  0
LINE
  8
型材断面
  6
DOT
 10
-43.460213
 20
90.372248
 11
-43.460213
 21
-9.627753
  0
LINE
  8
型材断面
  6
DOT
 10
-135.427737
 20
90.372248
 11
-135.427737
 21
-9.627753
  0
LINE
  8
型材断面
  6
DOT
 10
-137.427737
 20
90.372248
 11
-137.427737
 21
-9.627753
  0
LINE
  8
型材断面
  6
CONTINUOUS
 10
-32.420097
 20
84.52225
 11
-28.534338
 21
83.628165
  0
LINE
  8
型材断面
  6
CONTINUOUS
 10
-32.420097
 20
84.52225
 11
-28.534338
 21
85.416335
  0
LINE
  8
型材断面
  6
CONTINUOUS
 10
-28.534338
 20
85.416335
 11
-28.534338
 21
83.628165
  0
LINE
  8
型材断面
  6
CONTINUOUS
 10
-32.420097
 20
-3.777755
 11
-28.534338
 21
-2.88367
  0
LINE
  8
型材断面
  6
CONTINUOUS
 10
-32.420097
 20
-3.777755
 11
-28.534338
 21
-4.67184
  0
LINE
  8
型材断面
  6
CONTINUOUS
 10
-28.534338
 20
-4.67184
 11
-28.534338
 21
-2.88367
  0
LINE
  8
型材断面
  6
CONTINUOUS
 10
-148.467853
 20
84.52225
 11
-152.353612
 21
83.628165
  0
LINE
  8
型材断面
  6
CONTINUOUS
 10
-148.467853
 20
84.52225
 11
-152.353612
 21
85.416335
  0
LINE
  8
型材断面
  6
CONTINUOUS
 10
-152.353612
 20
85.416335
 11
-152.353612
 21
83.628165
  0
LINE
  8
型材断面
  6
CONTINUOUS
 10
-148.467853
 20
-3.777755
 11
-152.353612
 21
-2.88367
  0
LINE
  8
型材断面
  6
CONTINUOUS
 10
-148.467853
 20
-3.777755
 11
-152.353612
 21
-4.67184
  0
LINE
  8
型材断面
  6
CONTINUOUS
 10
-152.353612
 20
-4.67184
 11
-152.353612
 21
-2.88367
  0
POLYLINE
  8
型材断面
  6
CONTINUOUS
 66
     1
 70
     1
  0
VERTEX
  8
型材断面
 10
-80.802393
 20
-22.982107
  0
VERTEX
  8
型材断面
 10
-99.357605
 20
-22.982107
  0
VERTEX
  8
型材断面
 10
-99.357605
 20
-27.774143
  0
VERTEX
  8
型材断面
 10
-80.802393
 20
-27.774143
  0
SEQEND
  0
POLYLINE
  8
型材断面
  6
CONTINUOUS
 66
     1
 70
     1
  0
VERTEX
  8
型材断面
 10
-80.802393
 20
108.349143
  0
VERTEX
  8
型材断面
 10
-99.357605
 20
108.349143
  0
VERTEX
  8
型材断面
 10
-99.357605
 20
103.557107
  0
VERTEX
  8
型材断面
 10
-80.802393
 20
103.557107
  0
SEQEND
  0
LINE
  8
型材断面
  6
DASHDOT
 10
-40.443975
 20
90.372248
 11
-90.443975
 21
40.372248
  0
LINE
  8
型材断面
  6
DASHDOT
 10
-140.443975
 20
90.372248
 11
-90.443975
 21
40.372248
  0
LINE
  8
型材断面
  6
DASHDOT
 10
-140.443975
 20
-9.627753
 11
-90.443975
 21
40.372248
  0
LINE
  8
型材断面
  6
DASHDOT
 10
-40.443975
 20
-9.627753
 11
-90.443975
 21
40.372248
  0
LINE
  8
型材断面
  6
CONTINUOUS
 10
-97.943975
 20
47.872248
 11
-97.943975
 21
32.872248
  0
LINE
  8
型材断面
  6
CONTINUOUS
 10
-97.943975
 20
32.872248
 11
-82.943975
 21
32.872248
  0
LINE
  8
型材断面
  6
CONTINUOUS
 10
-82.943975
 20
32.872248
 11
-82.943975
 21
47.872248
  0
LINE
  8
型材断面
  6
CONTINUOUS
 10
-97.943975
 20
47.872248
 11
-82.943975
 21
47.872248
  0
LINE
  8
型材断面
  6
CONTINUOUS
 10
-82.943975
 20
47.872248
 11
-97.943975
 21
32.872248
  0
LINE
  8
型材断面
  6
CONTINUOUS
 10
-97.943975
 20
47.872248
 11
-82.943975
 21
32.872248
  0
LINE
  8
型材断面
  6
CONTINUOUS
 10
-139.825908
 20
92.1898
 11
-95.508355
 21
47.872248
  0
LINE
  8
型材断面
  6
CONTINUOUS
 10
-141.907975
 20
92.1898
 11
-97.59041
 21
47.872248
  0
LINE
  8
型材断面
  6
CONTINUOUS
 10
-91.668975
 20
92.1898
 11
-91.668975
 21
47.872248
  0
LINE
  8
型材断面
  6
CONTINUOUS
 10
-90.693975
 20
92.1898
 11
-90.693975
 21
47.872248
  0
LINE
  8
型材断面
  6
CONTINUOUS
 10
-90.193975
 20
92.1898
 11
-90.193975
 21
47.872248
  0
LINE
  8
型材断面
  6
CONTINUOUS
 10
-89.218975
 20
92.1898
 11
-89.218975
 21
47.872248
  0
LINE
  8
型材断面
  6
CONTINUOUS
 10
-41.062043
 20
92.1898
 11
-85.379595
 21
47.872248
  0
LINE
  8
型材断面
  6
CONTINUOUS
 10
-38.979975
 20
92.1898
 11
-83.29754
 21
47.872248
  0
LINE
  8
型材断面
  6
CONTINUOUS
 10
-38.626422
 20
91.836247
 11
-82.943975
 21
47.518695
  0
LINE
  8
型材断面
  6
CONTINUOUS
 10
-38.626422
 20
89.75418
 11
-82.943975
 21
45.436628
  0
LINE
  8
型材断面
  6
CONTINUOUS
 10
-38.626422
 20
41.597248
 11
-82.943975
 21
41.597248
  0
LINE
  8
型材断面
  6
CONTINUOUS
 10
-38.626422
 20
40.622248
 11
-82.943975
 21
40.622248
  0
LINE
  8
型材断面
  6
CONTINUOUS
 10
-38.626422
 20
40.122248
 11
-82.943975
 21
40.122248
  0
LINE
  8
型材断面
  6
CONTINUOUS
 10
-38.626422
 20
39.147248
 11
-82.943975
 21
39.147248
  0
LINE
  8
型材断面
  6
CONTINUOUS
 10
-38.626422
 20
-9.009685
 11
-82.943975
 21
35.307868
  0
LINE
  8
型材断面
  6
CONTINUOUS
 10
-38.626422
 20
-11.091752
 11
-82.943975
 21
33.2258
  0
LINE
  8
型材断面
  6
CONTINUOUS
 10
-38.979975
 20
-11.445305
 11
-83.29754
 21
32.872248
  0
LINE
  8
型材断面
  6
CONTINUOUS
 10
-41.062043
 20
-11.445305
 11
-85.379595
 21
32.872248
  0
LINE
  8
型材断面
  6
CONTINUOUS
 10
-89.218975
 20
-11.445305
 11
-89.218975
 21
32.872248
  0
LINE
  8
型材断面
  6
CONTINUOUS
 10
-91.668975
 20
-11.445305
 11
-91.668975
 21
32.872248
  0
LINE
  8
型材断面
  6
CONTINUOUS
 10
-90.693975
 20
-11.445305
 11
-90.693975
 21
32.872248
  0
LINE
  8
型材断面
  6
CONTINUOUS
 10
-90.193975
 20
-11.445305
 11
-90.193975
 21
32.872248
  0
LINE
  8
型材断面
  6
CONTINUOUS
 10
-139.825908
 20
-11.445305
 11
-95.508355
 21
32.872248
  0
LINE
  8
型材断面
  6
CONTINUOUS
 10
-141.907975
 20
-11.445305
 11
-97.59041
 21
32.872248
  0
LINE
  8
型材断面
  6
CONTINUOUS
 10
-142.261528
 20
-11.091752
 11
-97.943975
 21
33.2258
  0
LINE
  8
型材断面
  6
CONTINUOUS
 10
-142.261528
 20
-9.009685
 11
-97.943975
 21
35.307868
  0
LINE
  8
型材断面
  6
CONTINUOUS
 10
-142.261528
 20
39.147248
 11
-97.943975
 21
39.147248
  0
LINE
  8
型材断面
  6
CONTINUOUS
 10
-142.261528
 20
41.597248
 11
-97.943975
 21
41.597248
  0
LINE
  8
型材断面
  6
CONTINUOUS
 10
-142.261528
 20
40.622248
 11
-97.943975
 21
40.622248
  0
LINE
  8
型材断面
  6
CONTINUOUS
 10
-142.261528
 20
40.122248
 11
-97.943975
 21
40.122248
  0
LINE
  8
型材断面
  6
CONTINUOUS
 10
-142.261528
 20
89.75418
 11
-97.943975
 21
45.436628
  0
LINE
  8
型材断面
  6
CONTINUOUS
 10
-142.261528
 20
91.836247
 11
-97.943975
 21
47.518695
  0
LINE
  8
型材断面
  6
CONTINUOUS
 62
    47
 10
-36.168975
 20
-104.896822
 11
-36.168975
 21
-105.4652
  0
LINE
  8
型材断面
  6
CONTINUOUS
 62
    47
 10
-36.843975
 20
-106.1652
 11
-36.168975
 21
-106.1652
  0
LINE
  8
型材断面
  6
CONTINUOUS
 62
    47
 10
-36.168975
 20
-106.1652
 11
-36.168975
 21
-105.4652
  0
LINE
  8
型材断面
  6
CONTINUOUS
 62
    47
 10
-37.493977
 20
-105.4652
 11
-36.168975
 21
-105.4652
  0
LINE
  8
型材断面
  6
CONTINUOUS
 62
    47
 10
-36.843975
 20
-106.1652
 11
-36.843975
 21
-106.6652
  0
LINE
  8
型材断面
  6
CONTINUOUS
 10
-36.918975
 20
-106.6652
 11
-36.843975
 21
-106.6652
  0
LINE
  8
型材断面
  6
CONTINUOUS
 62
    47
 10
-38.27287
 20
-102.792928
 11
-37.212208
 21
-103.85359
  0
LINE
  8
型材断面
  6
CONTINUOUS
 10
-38.8032
 20
-102.262598
 11
-41.521642
 21
-102.262598
  0
LINE
  8
型材断面
  6
CONTINUOUS
 62
    47
 10
-37.023975
 20
-108.949237
 11
-37.023975
 21
-108.449237
  0
LINE
  8
型材断面
  6
CONTINUOUS
 62
    47
 10
-37.023975
 20
-108.449237
 11
-38.198975
 21
-108.299237
  0
LINE
  8
型材断面
  6
CONTINUOUS
 62
    47
 10
-38.198975
 20
-107.6902
 11
-38.198975
 21
-108.299237
  0
LINE
  8
型材断面
  6
CONTINUOUS
 62
    47
 10
-37.493977
 20
-112.8902
 11
-37.493977
 21
-108.949237
  0
LINE
  8
型材断面
  6
CONTINUOUS
 62
    47
 10
-38.343977
 20
-113.6402
 11
-38.343977
 21
-112.8902
  0
LINE
  8
型材断面
  6
CONTINUOUS
 62
    47
 10
-37.493977
 20
-107.6902
 11
-37.493977
 21
-106.6652
  0
LINE
  8
型材断面
  6
CONTINUOUS
 62
    47
 10
-36.168975
 20
-104.896822
 11
-90.443975
 21
-50.621822
  0
LINE
  8
型材断面
  6
CONTINUOUS
 62
    47
 10
-37.493977
 20
-112.8902
 11
-90.443975
 21
-112.8902
  0
LINE
  8
型材断面
  6
CONTINUOUS
 62
    47
 10
-38.343977
 20
-113.6402
 11
-90.443975
 21
-113.6402
  0
LINE
  8
型材断面
  6
CONTINUOUS
 10
-38.198975
 20
-108.299237
 11
-90.443975
 21
-108.299237
  0
LINE
  8
型材断面
  6
CONTINUOUS
 10
-36.843975
 20
-106.1652
 11
-90.443975
 21
-106.1652
  0
LINE
  8
型材断面
  6
CONTINUOUS
 10
-36.168975
 20
-105.4652
 11
-90.443975
 21
-105.4652
  0
LINE
  8
型材断面
  6
CONTINUOUS
 62
    47
 10
-37.493977
 20
-107.6902
 11
-90.443975
 21
-107.6902
  0
LINE
  8
型材断面
  6
CONTINUOUS
 10
-37.023975
 20
-108.449237
 11
-90.443975
 21
-108.449237
  0
LINE
  8
型材断面
  6
CONTINUOUS
 62
    47
 10
-37.023975
 20
-108.949237
 11
-90.443975
 21
-108.949237
  0
LINE
  8
型材断面
  6
CONTINUOUS
 10
-36.843975
 20
-106.6652
 11
-90.443975
 21
-106.6652
  0
LINE
  8
型材断面
  6
CONTINUOUS
 10
-36.168975
 20
-104.896822
 11
-90.443975
 21
-104.896822
  0
LINE
  8
型材断面
  6
CONTINUOUS
 10
-37.212208
 20
-103.85359
 11
-90.443975
 21
-103.85359
  0
LINE
  8
型材断面
  6
CONTINUOUS
 10
-38.27287
 20
-102.792928
 11
-90.443975
 21
-102.792928
  0
LINE
  8
型材断面
  6
CONTINUOUS
 10
-37.565762
 20
-103.500035
 11
-90.443975
 21
-103.500035
  0
LINE
  8
型材断面
  6
CONTINUOUS
 62
    47
 10
-144.718975
 20
-104.896822
 11
-144.718975
 21
-105.4652
  0
LINE
  8
型材断面
  6
CONTINUOUS
 62
    47
 10
-144.043975
 20
-106.1652
 11
-144.718975
 21
-106.1652
  0
LINE
  8
型材断面
  6
CONTINUOUS
 62
    47
 10
-144.718975
 20
-106.1652
 11
-144.718975
 21
-105.4652
  0
LINE
  8
型材断面
  6
CONTINUOUS
 62
    47
 10
-143.393973
 20
-105.4652
 11
-144.718975
 21
-105.4652
  0
LINE
  8
型材断面
  6
CONTINUOUS
 62
    47
 10
-144.043975
 20
-106.1652
 11
-144.043975
 21
-106.6652
  0
LINE
  8
型材断面
  6
CONTINUOUS
 10
-143.968975
 20
-106.6652
 11
-144.043975
 21
-106.6652
  0
LINE
  8
型材断面
  6
CONTINUOUS
 62
    47
 10
-142.61508
 20
-102.792928
 11
-143.675742
 21
-103.85359
  0
LINE
  8
型材断面
  6
CONTINUOUS
 10
-142.08475
 20
-102.262598
 11
-139.366308
 21
-102.262598
  0
LINE
  8
型材断面
  6
CONTINUOUS
 62
    47
 10
-143.863975
 20
-108.949237
 11
-143.863975
 21
-108.449237
  0
LINE
  8
型材断面
  6
CONTINUOUS
 62
    47
 10
-143.863975
 20
-108.449237
 11
-142.688975
 21
-108.299237
  0
LINE
  8
型材断面
  6
CONTINUOUS
 62
    47
 10
-142.688975
 20
-107.6902
 11
-142.688975
 21
-108.299237
  0
LINE
  8
型材断面
  6
CONTINUOUS
 62
    47
 10
-143.393973
 20
-112.8902
 11
-143.393973
 21
-108.949237
  0
LINE
  8
型材断面
  6
CONTINUOUS
 62
    47
 10
-142.543973
 20
-113.6402
 11
-142.543973
 21
-112.8902
  0
LINE
  8
型材断面
  6
CONTINUOUS
 62
    47
 10
-143.393973
 20
-107.6902
 11
-143.393973
 21
-106.6652
  0
LINE
  8
型材断面
  6
CONTINUOUS
 62
    47
 10
-144.718975
 20
-104.896822
 11
-90.443975
 21
-50.621822
  0
LINE
  8
型材断面
  6
CONTINUOUS
 62
    47
 10
-143.393973
 20
-112.8902
 11
-90.443975
 21
-112.8902
  0
LINE
  8
型材断面
  6
CONTINUOUS
 62
    47
 10
-142.543973
 20
-113.6402
 11
-90.443975
 21
-113.6402
  0
LINE
  8
型材断面
  6
CONTINUOUS
 10
-142.688975
 20
-108.299237
 11
-90.443975
 21
-108.299237
  0
LINE
  8
型材断面
  6
CONTINUOUS
 10
-144.043975
 20
-106.1652
 11
-90.443975
 21
-106.1652
  0
LINE
  8
型材断面
  6
CONTINUOUS
 10
-144.718975
 20
-105.4652
 11
-90.443975
 21
-105.4652
  0
LINE
  8
型材断面
  6
CONTINUOUS
 62
    47
 10
-143.393973
 20
-107.6902
 11
-90.443975
 21
-107.6902
  0
LINE
  8
型材断面
  6
CONTINUOUS
 10
-143.863975
 20
-108.449237
 11
-90.443975
 21
-108.449237
  0
LINE
  8
型材断面
  6
CONTINUOUS
 62
    47
 10
-143.863975
 20
-108.949237
 11
-90.443975
 21
-108.949237
  0
LINE
  8
型材断面
  6
CONTINUOUS
 10
-144.043975
 20
-106.6652
 11
-90.443975
 21
-106.6652
  0
LINE
  8
型材断面
  6
CONTINUOUS
 10
-144.718975
 20
-104.896822
 11
-90.443975
 21
-104.896822
  0
LINE
  8
型材断面
  6
CONTINUOUS
 10
-143.675742
 20
-103.85359
 11
-90.443975
 21
-103.85359
  0
LINE
  8
型材断面
  6
CONTINUOUS
 10
-142.61508
 20
-102.792928
 11
-90.443975
 21
-102.792928
  0
LINE
  8
型材断面
  6
CONTINUOUS
 10
-143.322188
 20
-103.500035
 11
-90.443975
 21
-103.500035
  0
LINE
  8
型材断面
  6
CONTINUOUS
 10
-91.668975
 20
-102.262598
 11
-89.218975
 21
-102.262598
  0
LINE
  8
型材断面
  6
CONTINUOUS
 10
-90.443975
 20
-50.515858
 11
-97.943975
 21
-58.015863
  0
LINE
  8
型材断面
  6
CONTINUOUS
 10
-97.943975
 20
-58.015863
 11
-97.890992
 21
-58.068845
  0
LINE
  8
型材断面
  6
CONTINUOUS
 10
-97.943977
 20
-58.015863
 11
-93.693977
 21
-58.015863
  0
LINE
  8
型材断面
  6
CONTINUOUS
 10
-97.890992
 20
-58.068845
 11
-93.693977
 21
-58.068845
  0
LINE
  8
型材断面
  6
CONTINUOUS
 10
-97.890992
 20
-58.068845
 11
-97.943977
 21
-58.015863
  0
LINE
  8
型材断面
  6
CONTINUOUS
 10
-97.943975
 20
-58.015863
 11
-90.443975
 21
-58.015863
  0
LINE
  8
型材断面
  6
CONTINUOUS
 10
-97.890992
 20
-58.068845
 11
-90.443975
 21
-58.068845
  0
LINE
  8
型材断面
  6
CONTINUOUS
 10
-139.366308
 20
-102.262598
 11
-95.172542
 21
-58.068845
  0
LINE
  8
型材断面
  6
CONTINUOUS
 10
-139.64915
 20
-102.262598
 11
-95.455397
 21
-58.068845
  0
LINE
  8
型材断面
  6
CONTINUOUS
 10
-91.668975
 20
-102.262598
 11
-91.668975
 21
-58.068845
  0
LINE
  8
型材断面
  6
CONTINUOUS
 10
-90.693975
 20
-102.262598
 11
-90.693975
 21
-58.068845
  0
LINE
  8
型材断面
  6
CONTINUOUS
 10
-90.193975
 20
-102.262598
 11
-90.193975
 21
-58.068845
  0
LINE
  8
型材断面
  6
CONTINUOUS
 10
-89.218975
 20
-102.262598
 11
-89.218975
 21
-58.068845
  0
LINE
  8
型材断面
  6
CONTINUOUS
 10
-41.2388
 20
-102.262598
 11
-85.432553
 21
-58.068845
  0
LINE
  8
型材断面
  6
CONTINUOUS
 10
-41.521642
 20
-102.262598
 11
-85.715408
 21
-58.068845
  0
LINE
  8
型材断面
  6
CONTINUOUS
 10
-82.943975
 20
-58.015863
 11
-82.996958
 21
-58.068845
  0
LINE
  8
型材断面
  6
CONTINUOUS
 10
-82.943973
 20
-58.015863
 11
-87.193973
 21
-58.015863
  0
LINE
  8
型材断面
  6
CONTINUOUS
 10
-82.996958
 20
-58.068845
 11
-87.193973
 21
-58.068845
  0
LINE
  8
型材断面
  6
CONTINUOUS
 10
-82.996958
 20
-58.068845
 11
-82.943973
 21
-58.015863
  0
LINE
  8
型材断面
  6
CONTINUOUS
 10
-82.943975
 20
-58.015863
 11
-90.443975
 21
-58.015863
  0
LINE
  8
型材断面
  6
CONTINUOUS
 10
-82.996958
 20
-58.068845
 11
-90.443975
 21
-58.068845
  0
LINE
  8
型材断面
  6
CONTINUOUS
 10
-90.443975
 20
-50.515858
 11
-82.94397
 21
-58.015863
  0
LINE
  8
型材断面
  6
CONTINUOUS
 10
-2.177442
 20
12.3793
 11
-4.420888
 21
8.49354
  0
LINE
  8
型材断面
  6
CONTINUOUS
 10
-2.177442
 20
12.3793
 11
0.066002
 21
8.49354
  0
LINE
  8
型材断面
  6
CONTINUOUS
 10
0.066002
 20
8.49354
 11
-4.420888
 21
8.49354
  0
LINE
  8
型材断面
  6
CONTINUOUS
 10
-2.177442
 20
4.689753
 11
-1.283357
 21
0.803992
  0
LINE
  8
型材断面
  6
CONTINUOUS
 10
-2.177442
 20
4.689753
 11
-3.071527
 21
0.803992
  0
LINE
  8
型材断面
  6
CONTINUOUS
 10
-3.071527
 20
0.803992
 11
-1.283357
 21
0.803992
  0
LINE
  8
型材断面
  6
CONTINUOUS
 10
-11.211323
 20
7.085648
 11
41.445357
 21
7.085648
  0
LINE
  8
型材断面
  6
CONTINUOUS
 10
-11.211323
 20
-4.114345
 11
41.445357
 21
-4.114345
  0
LINE
  8
型材断面
  6
CONTINUOUS
 10
-11.211323
 20
-10.95429
 11
41.445357
 21
-10.95429
  0
LINE
  8
型材断面
  6
CONTINUOUS
 62
    47
 10
108.632565
 20
-104.896822
 11
108.632565
 21
-105.4652
  0
LINE
  8
型材断面
  6
CONTINUOUS
 62
    47
 10
107.957565
 20
-106.1652
 11
108.632565
 21
-106.1652
  0
LINE
  8
型材断面
  6
CONTINUOUS
 62
    47
 10
108.632565
 20
-106.1652
 11
108.632565
 21
-105.4652
  0
LINE
  8
型材断面
  6
CONTINUOUS
 62
    47
 10
107.307562
 20
-105.4652
 11
108.632565
 21
-105.4652
  0
LINE
  8
型材断面
  6
CONTINUOUS
 62
    47
 10
107.957565
 20
-106.1652
 11
107.957565
 21
-106.6652
  0
LINE
  8
型材断面
  6
CONTINUOUS
 10
107.882565
 20
-106.6652
 11
107.957565
 21
-106.6652
  0
LINE
  8
型材断面
  6
CONTINUOUS
 62
    47
 10
106.52867
 20
-102.792928
 11
107.589332
 21
-103.85359
  0
LINE
  8
型材断面
  6
CONTINUOUS
 10
105.99834
 20
-102.262598
 11
103.279897
 21
-102.262598
  0
LINE
  8
型材断面
  6
CONTINUOUS
 62
    47
 10
107.777565
 20
-108.949237
 11
107.777565
 21
-108.449237
  0
LINE
  8
型材断面
  6
CONTINUOUS
 62
    47
 10
107.777565
 20
-108.449237
 11
106.602565
 21
-108.299237
  0
LINE
  8
型材断面
  6
CONTINUOUS
 62
    47
 10
106.602565
 20
-107.6902
 11
106.602565
 21
-108.299237
  0
LINE
  8
型材断面
  6
CONTINUOUS
 62
    47
 10
107.307562
 20
-112.8902
 11
107.307562
 21
-108.949237
  0
LINE
  8
型材断面
  6
CONTINUOUS
 62
    47
 10
106.457562
 20
-113.6402
 11
106.457562
 21
-112.8902
  0
LINE
  8
型材断面
  6
CONTINUOUS
 62
    47
 10
107.307562
 20
-107.6902
 11
107.307562
 21
-106.6652
  0
LINE
  8
型材断面
  6
CONTINUOUS
 62
    47
 10
108.632565
 20
-104.896822
 11
54.357565
 21
-50.621822
  0
LINE
  8
型材断面
  6
CONTINUOUS
 62
    47
 10
107.307562
 20
-112.8902
 11
54.357565
 21
-112.8902
  0
LINE
  8
型材断面
  6
CONTINUOUS
 62
    47
 10
106.457562
 20
-113.6402
 11
54.357565
 21
-113.6402
  0
LINE
  8
型材断面
  6
CONTINUOUS
 10
106.602565
 20
-108.299237
 11
54.357565
 21
-108.299237
  0
LINE
  8
型材断面
  6
CONTINUOUS
 10
107.957565
 20
-106.1652
 11
54.357565
 21
-106.1652
  0
LINE
  8
型材断面
  6
CONTINUOUS
 10
108.632565
 20
-105.4652
 11
54.357565
 21
-105.4652
  0
LINE
  8
型材断面
  6
CONTINUOUS
 62
    47
 10
107.307562
 20
-107.6902
 11
54.357565
 21
-107.6902
  0
LINE
  8
型材断面
  6
CONTINUOUS
 10
107.777565
 20
-108.449237
 11
54.357565
 21
-108.449237
  0
LINE
  8
型材断面
  6
CONTINUOUS
 62
    47
 10
107.777565
 20
-108.949237
 11
54.357565
 21
-108.949237
  0
LINE
  8
型材断面
  6
CONTINUOUS
 10
107.957565
 20
-106.6652
 11
54.357565
 21
-106.6652
  0
LINE
  8
型材断面
  6
CONTINUOUS
 10
108.632565
 20
-104.896822
 11
54.357565
 21
-104.896822
  0
LINE
  8
型材断面
  6
CONTINUOUS
 10
107.589332
 20
-103.85359
 11
54.357565
 21
-103.85359
  0
LINE
  8
型材断面
  6
CONTINUOUS
 10
106.52867
 20
-102.792928
 11
54.357565
 21
-102.792928
  0
LINE
  8
型材断面
  6
CONTINUOUS
 10
107.235778
 20
-103.500035
 11
54.357565
 21
-103.500035
  0
LINE
  8
型材断面
  6
CONTINUOUS
 62
    47
 10
0.082565
 20
-104.896822
 11
0.082565
 21
-105.4652
  0
LINE
  8
型材断面
  6
CONTINUOUS
 62
    47
 10
0.757565
 20
-106.1652
 11
0.082565
 21
-106.1652
  0
LINE
  8
型材断面
  6
CONTINUOUS
 62
    47
 10
0.082565
 20
-106.1652
 11
0.082565
 21
-105.4652
  0
LINE
  8
型材断面
  6
CONTINUOUS
 62
    47
 10
1.407568
 20
-105.4652
 11
0.082565
 21
-105.4652
  0
LINE
  8
型材断面
  6
CONTINUOUS
 62
    47
 10
0.757565
 20
-106.1652
 11
0.757565
 21
-106.6652
  0
LINE
  8
型材断面
  6
CONTINUOUS
 10
0.832565
 20
-106.6652
 11
0.757565
 21
-106.6652
  0
LINE
  8
型材断面
  6
CONTINUOUS
 62
    47
 10
2.18646
 20
-102.792928
 11
1.125798
 21
-103.85359
  0
LINE
  8
型材断面
  6
CONTINUOUS
 10
2.71679
 20
-102.262598
 11
5.435232
 21
-102.262598
  0
LINE
  8
型材断面
  6
CONTINUOUS
 62
    47
 10
0.937565
 20
-108.949237
 11
0.937565
 21
-108.449237
  0
LINE
  8
型材断面
  6
CONTINUOUS
 62
    47
 10
0.937565
 20
-108.449237
 11
2.112565
 21
-108.299237
  0
LINE
  8
型材断面
  6
CONTINUOUS
 62
    47
 10
2.112565
 20
-107.6902
 11
2.112565
 21
-108.299237
  0
LINE
  8
型材断面
  6
CONTINUOUS
 62
    47
 10
1.407568
 20
-112.8902
 11
1.407568
 21
-108.949237
  0
LINE
  8
型材断面
  6
CONTINUOUS
 62
    47
 10
2.257568
 20
-113.6402
 11
2.257568
 21
-112.8902
  0
LINE
  8
型材断面
  6
CONTINUOUS
 62
    47
 10
1.407568
 20
-107.6902
 11
1.407568
 21
-106.6652
  0
LINE
  8
型材断面
  6
CONTINUOUS
 62
    47
 10
0.082565
 20
-104.896822
 11
54.357565
 21
-50.621822
  0
LINE
  8
型材断面
  6
CONTINUOUS
 62
    47
 10
1.407568
 20
-112.8902
 11
54.357565
 21
-112.8902
  0
LINE
  8
型材断面
  6
CONTINUOUS
 62
    47
 10
2.257568
 20
-113.6402
 11
54.357565
 21
-113.6402
  0
LINE
  8
型材断面
  6
CONTINUOUS
 10
2.112565
 20
-108.299237
 11
54.357565
 21
-108.299237
  0
LINE
  8
型材断面
  6
CONTINUOUS
 10
0.757565
 20
-106.1652
 11
54.357565
 21
-106.1652
  0
LINE
  8
型材断面
  6
CONTINUOUS
 10
0.082565
 20
-105.4652
 11
54.357565
 21
-105.4652
  0
LINE
  8
型材断面
  6
CONTINUOUS
 62
    47
 10
1.407568
 20
-107.6902
 11
54.357565
 21
-107.6902
  0
LINE
  8
型材断面
  6
CONTINUOUS
 10
0.937565
 20
-108.449237
 11
54.357565
 21
-108.449237
  0
LINE
  8
型材断面
  6
CONTINUOUS
 62
    47
 10
0.937565
 20
-108.949237
 11
54.357565
 21
-108.949237
  0
LINE
  8
型材断面
  6
CONTINUOUS
 10
0.757565
 20
-106.6652
 11
54.357565
 21
-106.6652
  0
LINE
  8
型材断面
  6
CONTINUOUS
 10
0.082565
 20
-104.896822
 11
54.357565
 21
-104.896822
  0
LINE
  8
型材断面
  6
CONTINUOUS
 10
1.125798
 20
-103.85359
 11
54.357565
 21
-103.85359
  0
LINE
  8
型材断面
  6
CONTINUOUS
 10
2.18646
 20
-102.792928
 11
54.357565
 21
-102.792928
  0
LINE
  8
型材断面
  6
CONTINUOUS
 10
1.479352
 20
-103.500035
 11
54.357565
 21
-103.500035
  0
LINE
  8
型材断面
  6
CONTINUOUS
 10
53.132565
 20
-102.262598
 11
55.582565
 21
-102.262598
  0
LINE
  8
型材断面
  6
CONTINUOUS
 10
54.357565
 20
-50.515858
 11
46.857565
 21
-58.015863
  0
LINE
  8
型材断面
  6
CONTINUOUS
 10
46.857565
 20
-58.015863
 11
46.910548
 21
-58.068845
  0
LINE
  8
型材断面
  6
CONTINUOUS
 10
46.857562
 20
-58.015863
 11
51.107562
 21
-58.015863
  0
LINE
  8
型材断面
  6
CONTINUOUS
 10
46.910548
 20
-58.068845
 11
51.107562
 21
-58.068845
  0
LINE
  8
型材断面
  6
CONTINUOUS
 10
46.910548
 20
-58.068845
 11
46.857562
 21
-58.015863
  0
LINE
  8
型材断面
  6
CONTINUOUS
 10
46.857565
 20
-58.015863
 11
54.357565
 21
-58.015863
  0
LINE
  8
型材断面
  6
CONTINUOUS
 10
46.910548
 20
-58.068845
 11
54.357565
 21
-58.068845
  0
LINE
  8
型材断面
  6
CONTINUOUS
 10
5.435232
 20
-102.262598
 11
49.628997
 21
-58.068845
  0
LINE
  8
型材断面
  6
CONTINUOUS
 10
5.15239
 20
-102.262598
 11
49.346142
 21
-58.068845
  0
LINE
  8
型材断面
  6
CONTINUOUS
 10
53.132565
 20
-102.262598
 11
53.132565
 21
-58.068845
  0
LINE
  8
型材断面
  6
CONTINUOUS
 10
54.107565
 20
-102.262598
 11
54.107565
 21
-58.068845
  0
LINE
  8
型材断面
  6
CONTINUOUS
 10
54.607565
 20
-102.262598
 11
54.607565
 21
-58.068845
  0
LINE
  8
型材断面
  6
CONTINUOUS
 10
55.582565
 20
-102.262598
 11
55.582565
 21
-58.068845
  0
LINE
  8
型材断面
  6
CONTINUOUS
 10
103.56274
 20
-102.262598
 11
59.368988
 21
-58.068845
  0
LINE
  8
型材断面
  6
CONTINUOUS
 10
103.279897
 20
-102.262598
 11
59.086132
 21
-58.068845
  0
LINE
  8
型材断面
  6
CONTINUOUS
 10
61.857565
 20
-58.015863
 11
61.804582
 21
-58.068845
  0
LINE
  8
型材断面
  6
CONTINUOUS
 10
61.857568
 20
-58.015863
 11
57.607568
 21
-58.015863
  0
LINE
  8
型材断面
  6
CONTINUOUS
 10
61.804582
 20
-58.068845
 11
57.607568
 21
-58.068845
  0
LINE
  8
型材断面
  6
CONTINUOUS
 10
61.804582
 20
-58.068845
 11
61.857568
 21
-58.015863
  0
LINE
  8
型材断面
  6
CONTINUOUS
 10
61.857565
 20
-58.015863
 11
54.357565
 21
-58.015863
  0
LINE
  8
型材断面
  6
CONTINUOUS
 10
61.804582
 20
-58.068845
 11
54.357565
 21
-58.068845
  0
LINE
  8
型材断面
  6
CONTINUOUS
 10
54.357565
 20
-50.515858
 11
61.85757
 21
-58.015863
  0
LINE
  8
型材断面
  6
DOT
 62
    47
 10
108.632565
 20
-79.896822
 11
108.632565
 21
-80.4652
  0
LINE
  8
型材断面
  6
DOT
 62
    47
 10
107.957565
 20
-81.1652
 11
108.632565
 21
-81.1652
  0
LINE
  8
型材断面
  6
DOT
 62
    47
 10
108.632565
 20
-81.1652
 11
108.632565
 21
-80.4652
  0
LINE
  8
型材断面
  6
DOT
 62
    47
 10
107.307562
 20
-80.4652
 11
108.632565
 21
-80.4652
  0
LINE
  8
型材断面
  6
DOT
 62
    47
 10
107.957565
 20
-81.1652
 11
107.957565
 21
-81.6652
  0
LINE
  8
型材断面
  6
DOT
 10
107.882565
 20
-81.6652
 11
107.957565
 21
-81.6652
  0
LINE
  8
型材断面
  6
DOT
 62
    47
 10
106.52867
 20
-77.792928
 11
107.589332
 21
-78.85359
  0
LINE
  8
型材断面
  6
DOT
 10
105.99834
 20
-77.262597
 11
103.279897
 21
-77.262597
  0
LINE
  8
型材断面
  6
DOT
 62
    47
 10
107.777565
 20
-83.949237
 11
107.777565
 21
-83.449237
  0
LINE
  8
型材断面
  6
DOT
 62
    47
 10
107.777565
 20
-83.449237
 11
106.602565
 21
-83.299237
  0
LINE
  8
型材断面
  6
DOT
 62
    47
 10
106.602565
 20
-82.6902
 11
106.602565
 21
-83.299237
  0
LINE
  8
型材断面
  6
DOT
 62
    47
 10
107.307562
 20
-82.6902
 11
107.307562
 21
-81.6652
  0
LINE
  8
型材断面
  6
DOT
 62
    47
 10
108.632565
 20
-79.896822
 11
54.357565
 21
-25.621822
  0
LINE
  8
型材断面
  6
DOT
 10
106.602565
 20
-83.299237
 11
54.357565
 21
-83.299237
  0
LINE
  8
型材断面
  6
DOT
 10
107.957565
 20
-81.1652
 11
54.357565
 21
-81.1652
  0
LINE
  8
型材断面
  6
DOT
 10
108.632565
 20
-80.4652
 11
54.357565
 21
-80.4652
  0
LINE
  8
型材断面
  6
DOT
 62
    47
 10
107.307562
 20
-82.6902
 11
54.357565
 21
-82.6902
  0
LINE
  8
型材断面
  6
DOT
 10
107.777565
 20
-83.449237
 11
54.357565
 21
-83.449237
  0
LINE
  8
型材断面
  6
DOT
 62
    47
 10
107.777565
 20
-83.949237
 11
54.357565
 21
-83.949237
  0
LINE
  8
型材断面
  6
DOT
 10
107.957565
 20
-81.6652
 11
54.357565
 21
-81.6652
  0
LINE
  8
型材断面
  6
DOT
 10
108.632565
 20
-79.896822
 11
54.357565
 21
-79.896822
  0
LINE
  8
型材断面
  6
DOT
 10
107.589332
 20
-78.85359
 11
54.357565
 21
-78.85359
  0
LINE
  8
型材断面
  6
DOT
 10
106.52867
 20
-77.792928
 11
54.357565
 21
-77.792928
  0
LINE
  8
型材断面
  6
DOT
 10
107.235778
 20
-78.500035
 11
54.357565
 21
-78.500035
  0
LINE
  8
型材断面
  6
DOT
 62
    47
 10
0.082565
 20
-79.896822
 11
0.082565
 21
-80.4652
  0
LINE
  8
型材断面
  6
DOT
 62
    47
 10
0.757565
 20
-81.1652
 11
0.082565
 21
-81.1652
  0
LINE
  8
型材断面
  6
DOT
 62
    47
 10
0.082565
 20
-81.1652
 11
0.082565
 21
-80.4652
  0
LINE
  8
型材断面
  6
DOT
 62
    47
 10
1.407568
 20
-80.4652
 11
0.082565
 21
-80.4652
  0
LINE
  8
型材断面
  6
DOT
 62
    47
 10
0.757565
 20
-81.1652
 11
0.757565
 21
-81.6652
  0
LINE
  8
型材断面
  6
DOT
 10
0.832565
 20
-81.6652
 11
0.757565
 21
-81.6652
  0
LINE
  8
型材断面
  6
DOT
 62
    47
 10
2.18646
 20
-77.792928
 11
1.125798
 21
-78.85359
  0
LINE
  8
型材断面
  6
DOT
 10
2.71679
 20
-77.262597
 11
5.435232
 21
-77.262597
  0
LINE
  8
型材断面
  6
DOT
 62
    47
 10
0.937565
 20
-83.949237
 11
0.937565
 21
-83.449237
  0
LINE
  8
型材断面
  6
DOT
 62
    47
 10
0.937565
 20
-83.449237
 11
2.112565
 21
-83.299237
  0
LINE
  8
型材断面
  6
DOT
 62
    47
 10
2.112565
 20
-82.6902
 11
2.112565
 21
-83.299237
  0
LINE
  8
型材断面
  6
DOT
 62
    47
 10
1.407568
 20
-82.6902
 11
1.407568
 21
-81.6652
  0
LINE
  8
型材断面
  6
DOT
 62
    47
 10
0.082565
 20
-79.896822
 11
54.357565
 21
-25.621822
  0
LINE
  8
型材断面
  6
DOT
 10
2.112565
 20
-83.299237
 11
54.357565
 21
-83.299237
  0
LINE
  8
型材断面
  6
DOT
 10
0.757565
 20
-81.1652
 11
54.357565
 21
-81.1652
  0
LINE
  8
型材断面
  6
DOT
 10
0.082565
 20
-80.4652
 11
54.357565
 21
-80.4652
  0
LINE
  8
型材断面
  6
DOT
 62
    47
 10
1.407568
 20
-82.6902
 11
54.357565
 21
-82.6902
  0
LINE
  8
型材断面
  6
DOT
 10
0.937565
 20
-83.449237
 11
54.357565
 21
-83.449237
  0
LINE
  8
型材断面
  6
DOT
 62
    47
 10
0.937565
 20
-83.949237
 11
54.357565
 21
-83.949237
  0
LINE
  8
型材断面
  6
DOT
 10
0.757565
 20
-81.6652
 11
54.357565
 21
-81.6652
  0
LINE
  8
型材断面
  6
DOT
 10
0.082565
 20
-79.896822
 11
54.357565
 21
-79.896822
  0
LINE
  8
型材断面
  6
DOT
 10
1.125798
 20
-78.85359
 11
54.357565
 21
-78.85359
  0
LINE
  8
型材断面
  6
DOT
 10
2.18646
 20
-77.792928
 11
54.357565
 21
-77.792928
  0
LINE
  8
型材断面
  6
DOT
 10
1.479352
 20
-78.500035
 11
54.357565
 21
-78.500035
  0
LINE
  8
型材断面
  6
DOT
 10
53.132565
 20
-77.262597
 11
55.582565
 21
-77.262597
  0
LINE
  8
型材断面
  6
DOT
 10
54.357565
 20
-25.515858
 11
46.857565
 21
-33.015863
  0
LINE
  8
型材断面
  6
DOT
 10
46.857565
 20
-33.015863
 11
46.910548
 21
-33.068845
  0
LINE
  8
型材断面
  6
DOT
 10
46.857562
 20
-33.015863
 11
51.107562
 21
-33.015863
  0
LINE
  8
型材断面
  6
DOT
 10
46.910548
 20
-33.068845
 11
51.107562
 21
-33.068845
  0
LINE
  8
型材断面
  6
DOT
 10
46.910548
 20
-33.068845
 11
46.857562
 21
-33.015863
  0
LINE
  8
型材断面
  6
DOT
 10
46.857565
 20
-33.015863
 11
54.357565
 21
-33.015863
  0
LINE
  8
型材断面
  6
DOT
 10
46.910548
 20
-33.068845
 11
54.357565
 21
-33.068845
  0
LINE
  8
型材断面
  6
DOT
 10
5.435232
 20
-77.262597
 11
49.628997
 21
-33.068845
  0
LINE
  8
型材断面
  6
DOT
 10
5.15239
 20
-77.262597
 11
49.346142
 21
-33.068845
  0
LINE
  8
型材断面
  6
DOT
 10
53.132565
 20
-77.262597
 11
53.132565
 21
-33.068845
  0
LINE
  8
型材断面
  6
DOT
 10
54.107565
 20
-77.262597
 11
54.107565
 21
-33.068845
  0
LINE
  8
型材断面
  6
DOT
 10
54.607565
 20
-77.262597
 11
54.607565
 21
-33.068845
  0
LINE
  8
型材断面
  6
DOT
 10
55.582565
 20
-77.262597
 11
55.582565
 21
-33.068845
  0
LINE
  8
型材断面
  6
DOT
 10
103.56274
 20
-77.262597
 11
59.368988
 21
-33.068845
  0
LINE
  8
型材断面
  6
DOT
 10
103.279897
 20
-77.262597
 11
59.086132
 21
-33.068845
  0
LINE
  8
型材断面
  6
DOT
 10
61.857565
 20
-33.015863
 11
61.804582
 21
-33.068845
  0
LINE
  8
型材断面
  6
DOT
 10
61.857568
 20
-33.015863
 11
57.607568
 21
-33.015863
  0
LINE
  8
型材断面
  6
DOT
 10
61.804582
 20
-33.068845
 11
57.607568
 21
-33.068845
  0
LINE
  8
型材断面
  6
DOT
 10
61.804582
 20
-33.068845
 11
61.857568
 21
-33.015863
  0
LINE
  8
型材断面
  6
DOT
 10
61.857565
 20
-33.015863
 11
54.357565
 21
-33.015863
  0
LINE
  8
型材断面
  6
DOT
 10
61.804582
 20
-33.068845
 11
54.357565
 21
-33.068845
  0
LINE
  8
型材断面
  6
DOT
 10
54.357565
 20
-25.515858
 11
61.85757
 21
-33.015863
  0
INSERT
  2
*GRP_0017
  8
型材断面
  6
CONTINUOUS
 10
0.0
 20
0.0
  0
INSERT
  2
*GRP_0018
  8
型材断面
  6
CONTINUOUS
 10
0.0
 20
0.0
  0
INSERT
  2
*GRP_0019
  8
型材断面
  6
CONTINUOUS
 10
0.0
 20
0.0
  0
INSERT
  2
*GRP_0020
  8
型材断面
  6
CONTINUOUS
 10
0.0
 20
0.0
  0
LINE
  8
型材断面
  6
CONTINUOUS
 10
118.074592
 20
32.225562
 11
142.006215
 21
32.225562
  0
LINE
  8
型材断面
  6
CONTINUOUS
 10
-11.211323
 20
-17.794235
 11
41.445357
 21
-17.794235
  0
LINE
  8
ガラス
  6
CONTINUOUS
 10
-99.624115
 20
71.733195
 11
-103.49675
 21
67.86056
  0
LINE
  8
ガラス
  6
CONTINUOUS
 10
-101.222473
 20
70.852873
 11
-102.616428
 21
69.458917
  0
LINE
  8
ガラス
  6
CONTINUOUS
 10
-77.370513
 20
71.733195
 11
-81.243148
 21
67.86056
  0
LINE
  8
ガラス
  6
CONTINUOUS
 10
-78.96887
 20
70.852873
 11
-80.362825
 21
69.458917
  0
LINE
  8
ガラス
  6
CONTINUOUS
 10
-99.624115
 20
11.32301
 11
-103.49675
 21
7.450375
  0
LINE
  8
ガラス
  6
CONTINUOUS
 10
-101.222473
 20
10.442687
 11
-102.616428
 21
9.048733
  0
LINE
  8
ガラス
  6
CONTINUOUS
 10
-77.370513
 20
11.32301
 11
-81.243148
 21
7.450375
  0
LINE
  8
ガラス
  6
CONTINUOUS
 10
-78.96887
 20
10.442687
 11
-80.362825
 21
9.048733
  0
LINE
  8
ガラス
  6
CONTINUOUS
 10
-57.337715
 20
29.876017
 11
-61.21035
 21
26.003383
  0
LINE
  8
ガラス
  6
CONTINUOUS
 10
-58.936072
 20
28.995695
 11
-60.330027
 21
27.60174
  0
LINE
  8
ガラス
  6
CONTINUOUS
 10
-57.337715
 20
53.96847
 11
-61.21035
 21
50.095835
  0
LINE
  8
ガラス
  6
CONTINUOUS
 10
-58.936072
 20
53.088148
 11
-60.330027
 21
51.694192
  0
LINE
  8
ガラス
  6
CONTINUOUS
 10
-122.57988
 20
29.876017
 11
-126.452515
 21
26.003383
  0
LINE
  8
ガラス
  6
CONTINUOUS
 10
-124.178237
 20
28.995695
 11
-125.572192
 21
27.60174
  0
LINE
  8
ガラス
  6
CONTINUOUS
 10
-122.57988
 20
53.96847
 11
-126.452515
 21
50.095835
  0
LINE
  8
ガラス
  6
CONTINUOUS
 10
-124.178237
 20
53.088148
 11
-125.572192
 21
51.694192
  0
LINE
  8
ガラス
  6
CONTINUOUS
 10
-78.250835
 20
70.134837
 11
-79.64479
 21
68.740883
  0
LINE
  8
ガラス
  6
CONTINUOUS
 10
-100.504438
 20
70.134837
 11
-101.898393
 21
68.740883
  0
LINE
  8
ガラス
  6
CONTINUOUS
 10
-123.460203
 20
52.370112
 11
-124.854158
 21
50.976158
  0
LINE
  8
ガラス
  6
CONTINUOUS
 10
-123.460203
 20
28.27766
 11
-124.854158
 21
26.883705
  0
LINE
  8
ガラス
  6
CONTINUOUS
 10
-100.504438
 20
9.724653
 11
-101.898393
 21
8.330697
  0
LINE
  8
ガラス
  6
CONTINUOUS
 10
-78.250835
 20
9.724653
 11
-79.64479
 21
8.330697
  0
LINE
  8
ガラス
  6
CONTINUOUS
 10
-58.218037
 20
28.27766
 11
-59.611992
 21
26.883705
  0
LINE
  8
ガラス
  6
CONTINUOUS
 10
-58.218037
 20
52.370112
 11
-59.611992
 21
50.976158
  0
LINE
  8
ガラス
  6
CONTINUOUS
 10
-100.638815
 20
-82.50933
 11
-104.51145
 21
-86.381965
  0
LINE
  8
ガラス
  6
CONTINUOUS
 10
-101.519138
 20
-84.107687
 11
-102.913093
 21
-85.501642
  0
LINE
  8
ガラス
  6
CONTINUOUS
 10
-102.237173
 20
-83.389653
 11
-103.631128
 21
-84.783608
  0
LINE
  8
ガラス
  6
CONTINUOUS
 10
-75.564205
 20
-82.50933
 11
-79.43684
 21
-86.381965
  0
LINE
  8
ガラス
  6
CONTINUOUS
 10
-76.444528
 20
-84.107687
 11
-77.838483
 21
-85.501642
  0
LINE
  8
ガラス
  6
CONTINUOUS
 10
-77.162562
 20
-83.389653
 11
-78.556517
 21
-84.783608
  0
LINE
  8
ガラス
  6
CONTINUOUS
 10
44.162725
 20
-82.50933
 11
40.29009
 21
-86.381965
  0
LINE
  8
ガラス
  6
CONTINUOUS
 10
43.282402
 20
-84.107687
 11
41.888448
 21
-85.501642
  0
LINE
  8
ガラス
  6
CONTINUOUS
 10
42.564367
 20
-83.389653
 11
41.170413
 21
-84.783608
  0
LINE
  8
ガラス
  6
CONTINUOUS
 10
69.237335
 20
-82.50933
 11
65.3647
 21
-86.381965
  0
LINE
  8
ガラス
  6
CONTINUOUS
 10
68.357013
 20
-84.107687
 11
66.963057
 21
-85.501642
  0
LINE
  8
ガラス
  6
CONTINUOUS
 10
67.638977
 20
-83.389653
 11
66.245023
 21
-84.783608
  0
LINE
  8
ガラス
  6
DOT
 10
44.162725
 20
-57.50933
 11
40.29009
 21
-61.381965
  0
LINE
  8
ガラス
  6
DOT
 10
43.282402
 20
-59.107687
 11
41.888448
 21
-60.501642
  0
LINE
  8
ガラス
  6
DOT
 10
42.564367
 20
-58.389653
 11
41.170413
 21
-59.783608
  0
LINE
  8
ガラス
  6
DOT
 10
69.237335
 20
-57.50933
 11
65.3647
 21
-61.381965
  0
LINE
  8
ガラス
  6
DOT
 10
68.357013
 20
-59.107687
 11
66.963057
 21
-60.501642
  0
LINE
  8
ガラス
  6
DOT
 10
67.638977
 20
-58.389653
 11
66.245023
 21
-59.783608
  0
TEXT
  7
TextStyle03
  8
文字
  6
CONTINUOUS
 10
-30.85
 20
9.075
  1
ﾊﾞﾗﾝｽｽﾃｰ
 40
3.0
 72
     5
 11
-17.5375
 21
9.075
  0
TEXT
  7
TextStyle03
  8
文字
  6
CONTINUOUS
 10
-98.4
 20
-26.75
  1
可動装置側
 40
3.0
 72
     5
 11
-81.9
 21
-26.75
  0
TEXT
  7
TextStyle03
  8
文字
  6
CONTINUOUS
 10
-98.4
 20
104.575
  1
可動装置側
 40
3.0
 72
     5
 11
-81.9
 21
104.575
  0
TEXT
  7
TextStyle03
  8
文字
  6
CONTINUOUS
 10
-163.3625
 20
78.4
  1
ﾊﾞﾗﾝｽｽﾃｰ
 40
3.0
 72
     5
 11
-150.05
 21
78.4
  0
TEXT
  7
TextStyle03
  8
文字
  6
CONTINUOUS
 10
67.6
 20
91.075
  1
ＮＳコード：ＮＳ４ＣＳ
 40
5.0
 72
     5
 11
128.85
 21
91.075
  0
TEXT
  7
TextStyle03
  8
文字
  6
CONTINUOUS
 10
-152.7
 20
122.125
  1
アンカーピッチ
 40
3.0
 72
     5
 11
-129.45
 21
122.125
  0
TEXT
  7
TextStyle03
  8
文字
  6
CONTINUOUS
 10
-173.425
 20
-19.375
  1
アンカーピッチ
 40
3.0
 50
90.0
 72
     5
 11
-173.425
 21
3.875
  0
TEXT
  7
TextStyle03
  8
文字
  6
CONTINUOUS
 10
2.125
 20
8.8
  1
は排水穴位置を示す
 40
3.0
 72
     5
 11
32.125
 21
8.8
  0
TEXT
  7
TextStyle03
  8
文字
  6
CONTINUOUS
 10
2.125
 20
0.95
  1
はケーシング位置を示す
 40
3.0
 72
     5
 11
38.875
 21
0.95
  0
TEXT
  7
TextStyle03
  8
文字
  6
CONTINUOUS
 10
2.125
 20
-2.425
  1
４ヶ所中1ヶ所に設定
 40
3.0
 72
     5
 11
33.8125
 21
-2.425
  0
TEXT
  7
TextStyle03
  8
文字
  6
CONTINUOUS
 10
-3.475
 20
-9.575
  1
アンカー数量　１２ヶ所
 40
3.0
 72
     5
 11
33.275
 21
-9.575
  0
TEXT
  7
TextStyle03
  8
文字
  6
CONTINUOUS
 10
121.65
 20
33.425
  1
ガラス寸法
 40
3.0
 72
     5
 11
138.15
 21
33.425
  0
TEXT
  7
TextStyle03
  8
文字
  6
CONTINUOUS
 10
145.15
 20
-17.65
  1
本図×４枚
 40
3.0
 72
     5
 11
161.65
 21
-17.65
  0
TEXT
  7
TextStyle03
  8
文字
  6
CONTINUOUS
 10
145.15
 20
-21.025
  1
逆図×４枚
 40
3.0
 72
     5
 11
161.65
 21
-21.025
  0
TEXT
  7
TextStyle03
  8
文字
  6
CONTINUOUS
 10
-3.525
 20
-16.375
  1
アームユニット数　４ヶ所
 40
3.0
 72
     5
 11
36.6
 21
-16.375
  0
TEXT
  7
TextStyle03
  8
文字
  6
CONTINUOUS
 10
67.575
 20
118.825
  1
シリーズ：ＳＴＦ４
 40
5.0
 72
     5
 11
117.575
 21
118.825
  0
TEXT
  7
TextStyle03
  8
文字
  6
CONTINUOUS
 10
67.575
 20
113.2
  1
　　　　　四角錘（上下可動）2000×2000タイプ
 40
5.0
 72
     5
 11
190.7
 21
113.2
  0
TEXT
  7
TextStyle03
  8
文字
  6
CONTINUOUS
 10
67.575
 20
107.575
  1
　　　　　シングルガラス仕様
 40
5.0
 72
     5
 11
145.7
 21
107.575
  0
TEXT
  7
TextStyle03
  8
文字
  6
CONTINUOUS
 10
67.575
 20
101.95
  1
図面名　：外観姿図
 40
5.0
 72
     5
 11
117.575
 21
101.95
  0
TEXT
  7
TextStyle03
  8
文字
  6
CONTINUOUS
 10
67.575
 20
96.325
  1
　　　　　　
 40
5.0
 72
     5
 11
100.7
 21
96.325
  0
INSERT
  2
*GRP_0002
  8
寸法
  6
CONTINUOUS
 10
0.0
 20
0.0
  0
INSERT
  2
*DIM_0003
  8
寸法
  6
CONTINUOUS
 10
0.0
 20
0.0
  0
INSERT
  2
*DIM_0004
  8
寸法
  6
CONTINUOUS
 10
0.0
 20
0.0
  0
INSERT
  2
*GRP_0005
  8
寸法
  6
CONTINUOUS
 10
0.0
 20
0.0
  0
INSERT
  2
*DIM_0006
  8
寸法
  6
CONTINUOUS
 10
0.0
 20
0.0
  0
INSERT
  2
*DIM_0007
  8
寸法
  6
CONTINUOUS
 10
0.0
 20
0.0
  0
INSERT
  2
*DIM_0008
  8
寸法
  6
CONTINUOUS
 10
0.0
 20
0.0
  0
INSERT
  2
*DIM_0009
  8
寸法
  6
CONTINUOUS
 10
0.0
 20
0.0
  0
INSERT
  2
*DIM_0010
  8
寸法
  6
CONTINUOUS
 10
0.0
 20
0.0
  0
INSERT
  2
*DIM_0011
  8
寸法
  6
CONTINUOUS
 10
0.0
 20
0.0
  0
INSERT
  2
*DIM_0012
  8
寸法
  6
CONTINUOUS
 10
0.0
 20
0.0
  0
INSERT
  2
*DIM_0013
  8
寸法
  6
CONTINUOUS
 10
0.0
 20
0.0
  0
INSERT
  2
*DIM_0014
  8
寸法
  6
CONTINUOUS
 10
0.0
 20
0.0
  0
INSERT
  2
*DIM_0015
  8
寸法
  6
CONTINUOUS
 10
0.0
 20
0.0
  0
INSERT
  2
*DIM_0016
  8
寸法
  6
CONTINUOUS
 10
0.0
 20
0.0
  0
INSERT
  2
*DIM_0021
  8
寸法
  6
CONTINUOUS
 10
0.0
 20
0.0
  0
INSERT
  2
*DIM_0022
  8
寸法
  6
CONTINUOUS
 10
0.0
 20
0.0
  0
INSERT
  2
*DIM_0023
  8
寸法
  6
CONTINUOUS
 10
0.0
 20
0.0
  0
LINE
  8
曲げ物
  6
CONTINUOUS
 10
166.725235
 20
-24.889055
 11
116.930237
 21
-24.889055
  0
LINE
  8
曲げ物
  6
CONTINUOUS
 10
116.930237
 20
-24.889055
 11
166.725235
 21
45.531402
  0
LINE
  8
曲げ物
  6
CONTINUOUS
 10
166.725235
 20
-24.889055
 11
166.725235
 21
45.531402
  0
ENDSEC
  0
EOF
