  0
SECTION
  2
HEADER
  9
$EXTMIN
 10
-210.0
 20
-148.5
  9
$EXTMAX
 10
210.0
 20
148.5
  9
$PDMODE
 70
    32
  9
$PDSIZE
 40
1.5
  9
$LTSCALE
 40
10.0
  0
ENDSEC
  0
SECTION
  2
TABLES
  0
TABLE
  2
LTYPE
 70
    15
  0
LTYPE
  2
CONTINUOUS
 70
    64
  3
実線
 72
    65
 73
     0
 40
0.0
  0
LTYPE
  2
DASHED
 70
    64
  3
破線A
 72
    65
 73
     2
 40
0.6
 49
0.4
 49
-0.2
  0
LTYPE
  2
DASHEDX2
 70
    64
  3
破線B
 72
    65
 73
     2
 40
1.3
 49
0.9
 49
-0.4
  0
LTYPE
  2
DASHDOT
 70
    64
  3
１点鎖線A
 72
    65
 73
     4
 40
0.5375
 49
0.375
 49
-0.05
 49
0.0625
 49
-0.05
  0
LTYPE
  2
DASHDOTX2
 70
    64
  3
１点鎖線B
 72
    65
 73
     4
 40
1.075
 49
0.75
 49
-0.1
 49
0.125
 49
-0.1
  0
LTYPE
  2
DIVIDE2
 70
    64
  3
２点鎖線A
 72
    65
 73
     6
 40
0.5125
 49
0.3
 49
-0.0375
 49
0.05
 49
-0.0375
 49
0.05
 49
-0.0375
  0
LTYPE
  2
DIVIDE
 70
    64
  3
２点鎖線B
 72
    65
 73
     6
 40
1.05
 49
0.55
 49
-0.1
 49
0.1
 49
-0.1
 49
0.1
 49
-0.1
  0
LTYPE
  2
DOT
 70
    64
  3
点線A
 72
    65
 73
     2
 40
0.1125
 49
0.0625
 49
-0.05
  0
LTYPE
  2
DOTX2
 70
    64
  3
点線B
 72
    65
 73
     2
 40
0.275
 49
0.15
 49
-0.125
  0
LTYPE
  2
CONTINUOUS
 70
    64
  3
実線
 72
    65
 73
     0
 40
0.0
  0
LTYPE
  2
CONTINUOUS
 70
    64
  3
実線
 72
    65
 73
     0
 40
0.0
  0
LTYPE
  2
CONTINUOUS
 70
    64
  3
実線
 72
    65
 73
     0
 40
0.0
  0
LTYPE
  2
CONTINUOUS
 70
    64
  3
実線
 72
    65
 73
     0
 40
0.0
  0
LTYPE
  2
CONTINUOUS
 70
    64
  3
実線
 72
    65
 73
     0
 40
0.0
  0
LTYPE
  2
CONTINUOUS
 70
    64
  3
実線
 72
    65
 73
     0
 40
0.0
  0
ENDTAB
  0
TABLE
  2
LAYER
 70
    34
  0
LAYER
  2
通り芯
 70
     0
 62
    15
  6
CONTINUOUS
  0
LAYER
  2
補助線
 70
     0
 62
    16
  6
DOT
  0
LAYER
  2
躯体
 70
     0
 62
    31
  6
CONTINUOUS
  0
LAYER
  2
型材
 70
     0
 62
    32
  6
CONTINUOUS
  0
LAYER
  2
型材断面
 70
     0
 62
    47
  6
CONTINUOUS
  0
LAYER
  2
ガラス
 70
     0
 62
    48
  6
CONTINUOUS
  0
LAYER
  2
ゴム等
 70
     0
 62
    63
  6
CONTINUOUS
  0
LAYER
  2
ボルト／ビス
 70
     0
 62
    64
  6
CONTINUOUS
  0
LAYER
  2
文字
 70
     0
 62
    79
  6
CONTINUOUS
  0
LAYER
  2
寸法
 70
     0
 62
    80
  6
CONTINUOUS
  0
LAYER
  2
ﾊｯﾁﾝｸﾞ
 70
     0
 62
    95
  6
CONTINUOUS
  0
LAYER
  2
別途部材
 70
     0
 62
    96
  6
CONTINUOUS
  0
LAYER
  2
曲げ物
 70
     0
 62
   111
  6
CONTINUOUS
  0
LAYER
  2
鉄骨等
 70
     0
 62
   112
  6
CONTINUOUS
  0
LAYER
  2
St
 70
     0
 62
   127
  6
CONTINUOUS
  0
LAYER
  2
その他部品等
 70
     0
 62
   128
  6
CONTINUOUS
  0
LAYER
  2
ｶﾞｽｹｯﾄ
 70
     0
 62
   143
  6
CONTINUOUS
  0
LAYER
  2
ｽｹｯﾁ
 70
     0
 62
    14
  6
CONTINUOUS
  0
LAYER
  2
0
 70
     0
 62
    17
  6
CONTINUOUS
  0
LAYER
  2
1
 70
     0
 62
    30
  6
CONTINUOUS
  0
LAYER
  2
4
 70
     0
 62
    33
  6
CONTINUOUS
  0
LAYER
  2
ﾚｲﾔ3
 70
     0
 62
    46
  6
CONTINUOUS
  0
LAYER
  2
外形線
 70
     0
 62
    49
  6
CONTINUOUS
  0
LAYER
  2
部品
 70
     0
 62
    14
  6
CONTINUOUS
  0
LAYER
  2
サッシ芯
 70
     0
 62
    17
  6
DASHDOTX2
  0
LAYER
  2
寸法線
 70
     0
 62
    62
  6
CONTINUOUS
  0
LAYER
  2
姿図外形線
 70
     0
 62
    65
  6
CONTINUOUS
  0
LAYER
  2
姿補助線
 70
     0
 62
    30
  6
CONTINUOUS
  0
LAYER
  2
透視線
 70
     0
 62
    78
  6
DOT
  0
LAYER
  2
用紙
 70
     0
 62
    81
  6
CONTINUOUS
  0
LAYER
  2
実線図枠
 70
     0
 62
    94
  6
CONTINUOUS
  0
LAYER
  2
補助図枠
 70
     0
 62
    97
  6
CONTINUOUS
  0
LAYER
  2
建具記号
 70
     0
 62
   110
  6
CONTINUOUS
  0
LAYER
  2
補助文字
 70
     0
 62
   113
  6
CONTINUOUS
  0
ENDTAB
  0
TABLE
  2
STYLE
 70
    10
  0
STYLE
  2
STANDARD
 70
     0
 40
1.0
 41
1.0
 42
1.0
 50
0.0
 71
     0
  3
TXT
  4
BIGFONT
  0
STYLE
  2
TATE
 70
     4
 40
1.0
 41
1.0
 42
1.0
 50
0.0
 71
     0
  3
TXT
  4
BIGFONT
  0
STYLE
  2
TextStyle03
 70
     0
 40
1.0
 41
1.0
 42
1.0
 50
0.0
 71
     0
  3
MONOTXT
  4
BIGFONT
  0
STYLE
  2
TextStyle04
 70
     0
 40
1.0
 41
1.0
 42
1.0
 50
0.0
 71
     0
  3
MONOTXT
  4
BIGFONT
  0
STYLE
  2
TextStyle05
 70
     0
 40
1.0
 41
1.0
 42
1.0
 50
0.0
 71
     0
  3
MONOTXT
  4
BIGFONT
  0
STYLE
  2
TextStyle06
 70
     0
 40
1.0
 41
1.0
 42
1.0
 50
0.0
 71
     0
  3
MONOTXT
  4
BIGFONT
  0
STYLE
  2
TextStyle07
 70
     0
 40
1.0
 41
1.0
 42
1.0
 50
0.0
 71
     0
  3
MONOTXT
  4
BIGFONT
  0
STYLE
  2
TextStyle08
 70
     0
 40
1.0
 41
1.0
 42
1.0
 50
0.0
 71
     0
  3
MONOTXT
  4
BIGFONT
  0
STYLE
  2
TextStyle09
 70
     0
 40
1.0
 41
1.0
 42
1.0
 50
0.0
 71
     0
  3
MONOTXT
  4
BIGFONT
  0
STYLE
  2
TextStyle10
 70
     0
 40
1.0
 41
1.0
 42
1.0
 50
0.0
 71
     0
  3
MONOTXT
  4
BIGFONT
  0
ENDTAB
  0
ENDSEC
  0
SECTION
  2
BLOCKS
  0
BLOCK
  2
*GRP_0001
 70
    65
 10
0.0
 20
0.0
  0
LINE
  8
型材断面
  6
CONTINUOUS
 10
195.0
 20
133.5
 11
195.0
 21
-133.5
  0
LINE
  8
型材断面
  6
CONTINUOUS
 10
195.0
 20
-133.5
 11
-185.0
 21
-133.5
  0
LINE
  8
型材断面
  6
CONTINUOUS
 10
-185.0
 20
-133.5
 11
-185.0
 21
133.5
  0
LINE
  8
型材断面
  6
CONTINUOUS
 10
195.0
 20
133.5
 11
-185.0
 21
133.5
  0
LINE
  8
型材断面
  6
CONTINUOUS
 10
145.0
 20
-133.5
 11
145.0
 21
-118.5
  0
LINE
  8
型材断面
  6
CONTINUOUS
 10
195.0
 20
-118.5
 11
145.0
 21
-118.5
  0
ENDBLK
  0
BLOCK
  2
*GRP_0002
 70
    65
 10
0.0
 20
0.0
  0
POLYLINE
  8
寸法
  6
BYBLOCK
 62
     0
 66
     1
  0
VERTEX
  8
寸法
 10
-48.683315
 20
16.65622
  0
VERTEX
  8
寸法
 10
-42.266813
 20
10.239718
  0
VERTEX
  8
寸法
 10
-36.359685
 20
10.239718
  0
SEQEND
  0
ENDBLK
  0
BLOCK
  2
*DIM_0003
 70
    65
 10
0.0
 20
0.0
  0
LINE
  8
寸法
  6
CONTINUOUS
 10
-160.698975
 20
75.372248
 11
-171.62973
 21
75.37225
  0
LINE
  8
寸法
  6
CONTINUOUS
 10
-160.698978
 20
40.372248
 11
-171.629732
 21
40.37225
  0
LINE
  8
寸法
  6
CONTINUOUS
 10
-171.62973
 20
75.37225
 11
-171.629732
 21
40.37225
  0
POINT
  8
寸法
 10
-171.62973
 20
75.37225
  0
POINT
  8
寸法
 10
-171.629732
 20
40.37225
  0
TEXT
  7
TextStyle03
  8
寸法
  6
CONTINUOUS
 10
-172.025
 20
55.4125
  1
700
 40
3.0
 50
90.0
 72
     5
 11
-172.025
 21
60.2875
  0
ENDBLK
  0
BLOCK
  2
*DIM_0004
 70
    65
 10
0.0
 20
0.0
  0
LINE
  8
寸法
  6
CONTINUOUS
 10
-160.698978
 20
40.372248
 11
-171.629732
 21
40.372248
  0
LINE
  8
寸法
  6
CONTINUOUS
 10
-160.69898
 20
5.372248
 11
-171.629735
 21
5.372248
  0
LINE
  8
寸法
  6
CONTINUOUS
 10
-171.629732
 20
40.372248
 11
-171.629735
 21
5.372248
  0
POINT
  8
寸法
 10
-171.629735
 20
5.372248
  0
TEXT
  7
TextStyle03
  8
寸法
  6
CONTINUOUS
 10
-172.025
 20
20.4125
  1
700
 40
3.0
 50
90.0
 72
     5
 11
-172.025
 21
25.2875
  0
ENDBLK
  0
BLOCK
  2
*GRP_0005
 70
    65
 10
0.0
 20
0.0
  0
POLYLINE
  8
寸法
  6
BYBLOCK
 62
     0
 66
     1
  0
VERTEX
  8
寸法
 10
-132.204635
 20
73.823275
  0
VERTEX
  8
寸法
 10
-138.621137
 20
75.239777
  0
VERTEX
  8
寸法
 10
-144.528265
 20
75.239777
  0
SEQEND
  0
ENDBLK
  0
BLOCK
  2
*DIM_0006
 70
    65
 10
0.0
 20
0.0
  0
LINE
  8
寸法
  6
CONTINUOUS
 10
-125.443975
 20
110.627247
 11
-125.443975
 21
121.558002
  0
LINE
  8
寸法
  6
CONTINUOUS
 10
-90.443975
 20
110.627247
 11
-90.443975
 21
121.558002
  0
LINE
  8
寸法
  6
CONTINUOUS
 10
-125.443975
 20
121.558002
 11
-90.443975
 21
121.558002
  0
POINT
  8
寸法
 10
-125.443975
 20
121.558002
  0
POINT
  8
寸法
 10
-90.443975
 20
121.558002
  0
TEXT
  7
TextStyle03
  8
寸法
  6
CONTINUOUS
 10
-110.3875
 20
121.925
  1
700
 40
3.0
 72
     5
 11
-105.5125
 21
121.925
  0
ENDBLK
  0
BLOCK
  2
*DIM_0007
 70
    65
 10
0.0
 20
0.0
  0
LINE
  8
寸法
  6
CONTINUOUS
 10
-90.443975
 20
110.627247
 11
-90.443975
 21
121.558002
  0
LINE
  8
寸法
  6
CONTINUOUS
 10
-55.443975
 20
110.627247
 11
-55.443975
 21
121.558002
  0
LINE
  8
寸法
  6
CONTINUOUS
 10
-90.443975
 20
121.558002
 11
-55.443975
 21
121.558002
  0
POINT
  8
寸法
 10
-55.443975
 20
121.558002
  0
TEXT
  7
TextStyle03
  8
寸法
  6
CONTINUOUS
 10
-75.3875
 20
121.925
  1
700
 40
3.0
 72
     5
 11
-70.5125
 21
121.925
  0
ENDBLK
  0
BLOCK
  2
*DIM_0008
 70
    65
 10
0.0
 20
0.0
  0
LINE
  8
寸法
  6
CONTINUOUS
 10
-44.443975
 20
85.372248
 11
-23.894545
 21
85.372248
  0
LINE
  8
寸法
  6
CONTINUOUS
 10
-36.420097
 20
79.52225
 11
-23.894545
 21
79.52225
  0
LINE
  8
寸法
  6
CONTINUOUS
 10
-23.894545
 20
85.372248
 11
-23.894545
 21
79.52225
  0
POINT
  8
寸法
 10
-23.894545
 20
85.372248
  0
POINT
  8
寸法
 10
-23.894545
 20
79.52225
  0
TEXT
  7
TextStyle03
  8
寸法
  6
CONTINUOUS
 10
-24.275
 20
79.9875
  1
117
 40
3.0
 50
90.0
 72
     5
 11
-24.275
 21
84.8625
  0
ENDBLK
  0
BLOCK
  2
*DIM_0009
 70
    65
 10
0.0
 20
0.0
  0
LINE
  8
寸法
  6
CONTINUOUS
 10
-44.443975
 20
-4.627753
 11
-23.894545
 21
-4.627753
  0
LINE
  8
寸法
  6
CONTINUOUS
 10
-36.420097
 20
1.222245
 11
-23.894545
 21
1.222245
  0
LINE
  8
寸法
  6
CONTINUOUS
 10
-23.894545
 20
-4.627753
 11
-23.894545
 21
1.222245
  0
POINT
  8
寸法
 10
-23.894545
 20
-4.627753
  0
POINT
  8
寸法
 10
-23.894545
 20
1.222245
  0
TEXT
  7
TextStyle03
  8
寸法
  6
CONTINUOUS
 10
-24.275
 20
-4.1625
  1
117
 40
3.0
 50
90.0
 72
     5
 11
-24.275
 21
0.7125
  0
ENDBLK
  0
BLOCK
  2
*DIM_0010
 70
    65
 10
0.0
 20
0.0
  0
LINE
  8
寸法
  6
CONTINUOUS
 10
-97.943975
 20
-62.015863
 11
-97.943975
 21
-46.545
  0
LINE
  8
寸法
  6
CONTINUOUS
 10
-82.943975
 20
-62.015863
 11
-82.943975
 21
-46.545
  0
LINE
  8
寸法
  6
CONTINUOUS
 10
-97.943975
 20
-46.545
 11
-82.943975
 21
-46.545
  0
POINT
  8
寸法
 10
-97.943975
 20
-46.545
  0
POINT
  8
寸法
 10
-82.943975
 20
-46.545
  0
TEXT
  7
TextStyle03
  8
寸法
  6
CONTINUOUS
 10
-93.7
 20
-46.175
  1
300
 40
4.0
 72
     5
 11
-87.2
 21
-46.175
  0
ENDBLK
  0
BLOCK
  2
*DIM_0011
 70
    65
 10
0.0
 20
0.0
  0
LINE
  8
寸法
  6
CONTINUOUS
 10
-74.985
 20
-55.515858
 11
-74.04
 21
-55.515858
  0
LINE
  8
寸法
  6
CONTINUOUS
 10
-81.943975
 20
-63.015863
 11
-74.04
 21
-63.015863
  0
LINE
  8
寸法
  6
CONTINUOUS
 10
-74.04
 20
-55.515858
 11
-74.04
 21
-63.015863
  0
POINT
  8
寸法
 10
-74.04
 20
-55.515858
  0
POINT
  8
寸法
 10
-74.04
 20
-63.015863
  0
TEXT
  7
TextStyle03
  8
寸法
  6
CONTINUOUS
 10
-74.425
 20
-62.525
  1
150
 40
4.0
 50
90.0
 72
     5
 11
-74.425
 21
-56.025
  0
ENDBLK
  0
BLOCK
  2
*DIM_0012
 70
    65
 10
0.0
 20
0.0
  0
LINE
  8
寸法
  6
CONTINUOUS
 10
-45.443975
 20
-39.723647
 11
-45.443975
 21
-39.39492
  0
LINE
  8
寸法
  6
CONTINUOUS
 10
-41.168975
 20
-103.896822
 11
-41.168975
 21
-39.39492
  0
LINE
  8
寸法
  6
CONTINUOUS
 10
-45.443975
 20
-39.39492
 11
-41.168975
 21
-39.39492
  0
POINT
  8
寸法
 10
-41.168975
 20
-39.39492
  0
TEXT
  7
TextStyle03
  8
寸法
  6
CONTINUOUS
 10
-39.85625
 20
-39.025
  1
85.5
 40
3.0
 72
     5
 11
-33.29375
 21
-39.025
  0
ENDBLK
  0
BLOCK
  2
*DIM_0013
 70
    65
 10
0.0
 20
0.0
  0
LINE
  8
寸法
  6
CONTINUOUS
 10
-139.718975
 20
-103.896822
 11
-139.718975
 21
-39.39492
  0
LINE
  8
寸法
  6
CONTINUOUS
 10
-135.443975
 20
-39.39492
 11
-139.718975
 21
-39.39492
  0
POINT
  8
寸法
 10
-135.443975
 20
-39.39492
  0
POINT
  8
寸法
 10
-139.718975
 20
-39.39492
  0
TEXT
  7
TextStyle03
  8
寸法
  6
CONTINUOUS
 10
-147.63125
 20
-39.025
  1
85.5
 40
3.0
 72
     5
 11
-141.06875
 21
-39.025
  0
ENDBLK
  0
BLOCK
  2
*DIM_0014
 70
    65
 10
0.0
 20
0.0
  0
LINE
  8
寸法
  6
CONTINUOUS
 10
-89.443975
 20
-55.515858
 11
-23.315088
 21
-55.515858
  0
LINE
  8
寸法
  6
CONTINUOUS
 10
-23.315088
 20
-104.896822
 11
-23.315088
 21
-55.515858
  0
POINT
  8
寸法
 10
-23.315088
 20
-104.896822
  0
POINT
  8
寸法
 10
-23.315088
 20
-55.515858
  0
TEXT
  7
TextStyle03
  8
寸法
  6
CONTINUOUS
 10
-23.7
 20
-84.35
  1
987.6
 40
3.0
 50
90.0
 72
     5
 11
-23.7
 21
-76.1
  0
ENDBLK
  0
BLOCK
  2
*DIM_0015
 70
    65
 10
0.0
 20
0.0
  0
LINE
  8
寸法
  6
CONTINUOUS
 10
-41.493977
 20
-112.8902
 11
-23.315088
 21
-112.8902
  0
LINE
  8
寸法
  6
CONTINUOUS
 10
-40.168975
 20
-104.896822
 11
-23.315088
 21
-104.896822
  0
LINE
  8
寸法
  6
CONTINUOUS
 10
-23.315088
 20
-112.8902
 11
-23.315088
 21
-104.896822
  0
POINT
  8
寸法
 10
-23.315088
 20
-112.8902
  0
POINT
  8
寸法
 10
-23.315088
 20
-104.896822
  0
TEXT
  7
TextStyle03
  8
寸法
  6
CONTINUOUS
 10
-20.325
 20
-113.025
  1
159.9
 40
3.0
 50
90.0
 72
     5
 11
-20.325
 21
-104.775
  0
ENDBLK
  0
BLOCK
  2
*DIM_0016
 70
    65
 10
0.0
 20
0.0
  0
LINE
  8
寸法
  6
CONTINUOUS
 10
-135.443975
 20
-39.723647
 11
-135.443975
 21
-39.39492
  0
LINE
  8
寸法
  6
CONTINUOUS
 10
-45.443975
 20
-39.723647
 11
-45.443975
 21
-39.39492
  0
LINE
  8
寸法
  6
CONTINUOUS
 10
-135.443975
 20
-39.39492
 11
-45.443975
 21
-39.39492
  0
POINT
  8
寸法
 10
-135.443975
 20
-39.39492
  0
POINT
  8
寸法
 10
-45.443975
 20
-39.39492
  0
TEXT
  7
TextStyle03
  8
寸法
  6
CONTINUOUS
 10
-102.16875
 20
-39.025
  1
呼称寸法　1800
 40
3.0
 72
     5
 11
-78.73125
 21
-39.025
  0
ENDBLK
  0
BLOCK
  2
*GRP_0017
 70
    65
 10
0.0
 20
0.0
  0
LINE
  8
型材断面
  6
DOT
 10
98.264565
 20
-83.012597
 11
100.714565
 21
-83.012597
  0
LINE
  8
型材断面
  6
DOT
 62
    47
 10
148.764565
 20
-85.646822
 11
148.764565
 21
-86.2152
  0
LINE
  8
型材断面
  6
DOT
 62
    47
 10
148.089565
 20
-86.9152
 11
148.764565
 21
-86.9152
  0
LINE
  8
型材断面
  6
DOT
 62
    47
 10
148.764565
 20
-86.9152
 11
148.764565
 21
-86.2152
  0
LINE
  8
型材断面
  6
DOT
 62
    47
 10
147.439562
 20
-86.2152
 11
148.764565
 21
-86.2152
  0
LINE
  8
型材断面
  6
DOT
 62
    47
 10
148.089565
 20
-86.9152
 11
148.089565
 21
-87.4152
  0
LINE
  8
型材断面
  6
DOT
 10
148.014565
 20
-87.4152
 11
148.089565
 21
-87.4152
  0
LINE
  8
型材断面
  6
DOT
 62
    47
 10
146.66067
 20
-83.542928
 11
147.721333
 21
-84.60359
  0
LINE
  8
型材断面
  6
DOT
 10
146.13034
 20
-83.012597
 11
143.411897
 21
-83.012597
  0
LINE
  8
型材断面
  6
DOT
 62
    47
 10
147.909565
 20
-89.699237
 11
147.909565
 21
-89.199237
  0
LINE
  8
型材断面
  6
DOT
 62
    47
 10
147.909565
 20
-89.199237
 11
146.734565
 21
-89.049237
  0
LINE
  8
型材断面
  6
DOT
 62
    47
 10
146.734565
 20
-88.4402
 11
146.734565
 21
-89.049237
  0
LINE
  8
型材断面
  6
DOT
 62
    47
 10
147.439562
 20
-88.4402
 11
147.439562
 21
-87.4152
  0
LINE
  8
型材断面
  6
DOT
 10
146.734565
 20
-89.049237
 11
99.489565
 21
-89.049237
  0
LINE
  8
型材断面
  6
DOT
 10
148.089565
 20
-86.9152
 11
99.489565
 21
-86.9152
  0
LINE
  8
型材断面
  6
DOT
 10
148.764565
 20
-86.2152
 11
99.489565
 21
-86.2152
  0
LINE
  8
型材断面
  6
DOT
 62
    47
 10
147.439562
 20
-88.4402
 11
99.489565
 21
-88.4402
  0
LINE
  8
型材断面
  6
DOT
 10
147.909565
 20
-89.199237
 11
99.489565
 21
-89.199237
  0
LINE
  8
型材断面
  6
DOT
 62
    47
 10
147.909565
 20
-89.699237
 11
99.489565
 21
-89.699237
  0
LINE
  8
型材断面
  6
DOT
 10
148.089565
 20
-87.4152
 11
99.489565
 21
-87.4152
  0
LINE
  8
型材断面
  6
DOT
 10
148.764565
 20
-85.646822
 11
99.489565
 21
-85.646822
  0
LINE
  8
型材断面
  6
DOT
 10
147.721333
 20
-84.60359
 11
99.489565
 21
-84.60359
  0
LINE
  8
型材断面
  6
DOT
 10
146.66067
 20
-83.542928
 11
99.489565
 21
-83.542928
  0
LINE
  8
型材断面
  6
DOT
 10
147.367778
 20
-84.250035
 11
99.489565
 21
-84.250035
  0
LINE
  8
型材断面
  6
DOT
 62
    47
 10
50.214565
 20
-85.646822
 11
50.214565
 21
-86.2152
  0
LINE
  8
型材断面
  6
DOT
 62
    47
 10
50.889565
 20
-86.9152
 11
50.214565
 21
-86.9152
  0
LINE
  8
型材断面
  6
DOT
 62
    47
 10
50.214565
 20
-86.9152
 11
50.214565
 21
-86.2152
  0
LINE
  8
型材断面
  6
DOT
 62
    47
 10
51.539567
 20
-86.2152
 11
50.214565
 21
-86.2152
  0
LINE
  8
型材断面
  6
DOT
 62
    47
 10
50.889565
 20
-86.9152
 11
50.889565
 21
-87.4152
  0
LINE
  8
型材断面
  6
DOT
 10
50.964565
 20
-87.4152
 11
50.889565
 21
-87.4152
  0
LINE
  8
型材断面
  6
DOT
 62
    47
 10
52.31846
 20
-83.542928
 11
51.257798
 21
-84.60359
  0
LINE
  8
型材断面
  6
DOT
 10
52.84879
 20
-83.012597
 11
55.567232
 21
-83.012597
  0
LINE
  8
型材断面
  6
DOT
 62
    47
 10
51.069565
 20
-89.699237
 11
51.069565
 21
-89.199237
  0
LINE
  8
型材断面
  6
DOT
 62
    47
 10
51.069565
 20
-89.199237
 11
52.244565
 21
-89.049237
  0
LINE
  8
型材断面
  6
DOT
 62
    47
 10
52.244565
 20
-88.4402
 11
52.244565
 21
-89.049237
  0
LINE
  8
型材断面
  6
DOT
 62
    47
 10
51.539567
 20
-88.4402
 11
51.539567
 21
-87.4152
  0
LINE
  8
型材断面
  6
DOT
 10
52.244565
 20
-89.049237
 11
99.489565
 21
-89.049237
  0
LINE
  8
型材断面
  6
DOT
 10
50.889565
 20
-86.9152
 11
99.489565
 21
-86.9152
  0
LINE
  8
型材断面
  6
DOT
 10
50.214565
 20
-86.2152
 11
99.489565
 21
-86.2152
  0
LINE
  8
型材断面
  6
DOT
 62
    47
 10
51.539567
 20
-88.4402
 11
99.489565
 21
-88.4402
  0
LINE
  8
型材断面
  6
DOT
 10
51.069565
 20
-89.199237
 11
99.489565
 21
-89.199237
  0
LINE
  8
型材断面
  6
DOT
 62
    47
 10
51.069565
 20
-89.699237
 11
99.489565
 21
-89.699237
  0
LINE
  8
型材断面
  6
DOT
 10
50.889565
 20
-87.4152
 11
99.489565
 21
-87.4152
  0
LINE
  8
型材断面
  6
DOT
 10
50.214565
 20
-85.646822
 11
99.489565
 21
-85.646822
  0
LINE
  8
型材断面
  6
DOT
 10
51.257798
 20
-84.60359
 11
99.489565
 21
-84.60359
  0
LINE
  8
型材断面
  6
DOT
 10
52.31846
 20
-83.542928
 11
99.489565
 21
-83.542928
  0
LINE
  8
型材断面
  6
DOT
 10
51.611353
 20
-84.250035
 11
99.489565
 21
-84.250035
  0
LINE
  8
型材断面
  6
DOT
 10
99.489565
 20
-36.265858
 11
91.989565
 21
-43.765863
  0
LINE
  8
型材断面
  6
DOT
 10
91.989565
 20
-43.765863
 11
92.042547
 21
-43.818845
  0
LINE
  8
型材断面
  6
DOT
 10
91.989562
 20
-43.765863
 11
96.239562
 21
-43.765863
  0
LINE
  8
型材断面
  6
DOT
 10
92.042547
 20
-43.818845
 11
96.239562
 21
-43.818845
  0
LINE
  8
型材断面
  6
DOT
 10
92.042547
 20
-43.818845
 11
91.989562
 21
-43.765863
  0
LINE
  8
型材断面
  6
DOT
 10
91.989565
 20
-43.765863
 11
99.489565
 21
-43.765863
  0
LINE
  8
型材断面
  6
DOT
 10
92.042547
 20
-43.818845
 11
99.489565
 21
-43.818845
  0
LINE
  8
型材断面
  6
DOT
 10
98.264565
 20
-83.012597
 11
98.264565
 21
-43.818845
  0
LINE
  8
型材断面
  6
DOT
 10
99.239565
 20
-83.012597
 11
99.239565
 21
-43.818845
  0
LINE
  8
型材断面
  6
DOT
 10
99.739565
 20
-83.012597
 11
99.739565
 21
-43.818845
  0
LINE
  8
型材断面
  6
DOT
 10
100.714565
 20
-83.012597
 11
100.714565
 21
-43.818845
  0
LINE
  8
型材断面
  6
DOT
 10
106.989565
 20
-43.765863
 11
106.936583
 21
-43.818845
  0
LINE
  8
型材断面
  6
DOT
 10
106.989567
 20
-43.765863
 11
102.739567
 21
-43.765863
  0
LINE
  8
型材断面
  6
DOT
 10
106.936583
 20
-43.818845
 11
102.739567
 21
-43.818845
  0
LINE
  8
型材断面
  6
DOT
 10
106.936583
 20
-43.818845
 11
106.989567
 21
-43.765863
  0
LINE
  8
型材断面
  6
DOT
 10
106.989565
 20
-43.765863
 11
99.489565
 21
-43.765863
  0
LINE
  8
型材断面
  6
DOT
 10
106.936583
 20
-43.818845
 11
99.489565
 21
-43.818845
  0
LINE
  8
型材断面
  6
DOT
 10
99.489565
 20
-36.265858
 11
106.98957
 21
-43.765863
  0
LINE
  8
型材断面
  6
DOT
 62
    47
 10
148.764565
 20
-85.646822
 11
99.489565
 21
-36.371822
  0
LINE
  8
型材断面
  6
DOT
 10
143.69474
 20
-83.012597
 11
104.500987
 21
-43.818845
  0
LINE
  8
型材断面
  6
DOT
 10
143.411897
 20
-83.012597
 11
104.218132
 21
-43.818845
  0
LINE
  8
型材断面
  6
DOT
 62
    47
 10
50.214565
 20
-85.646822
 11
99.489565
 21
-36.371822
  0
LINE
  8
型材断面
  6
DOT
 10
55.567232
 20
-83.012597
 11
94.760997
 21
-43.818845
  0
LINE
  8
型材断面
  6
DOT
 10
55.28439
 20
-83.012597
 11
94.478142
 21
-43.818845
  0
LINE
  8
ガラス
  6
DOT
 10
89.294725
 20
-63.25933
 11
85.42209
 21
-67.131965
  0
LINE
  8
ガラス
  6
DOT
 10
88.414402
 20
-64.857687
 11
87.020448
 21
-66.251642
  0
LINE
  8
ガラス
  6
DOT
 10
87.696368
 20
-64.139653
 11
86.302412
 21
-65.533608
  0
LINE
  8
ガラス
  6
DOT
 10
114.369335
 20
-63.25933
 11
110.4967
 21
-67.131965
  0
LINE
  8
ガラス
  6
DOT
 10
113.489012
 20
-64.857687
 11
112.095058
 21
-66.251642
  0
LINE
  8
ガラス
  6
DOT
 10
112.770977
 20
-64.139653
 11
111.377023
 21
-65.533608
  0
ENDBLK
  0
BLOCK
  2
*DIM_0018
 70
    65
 10
0.0
 20
0.0
  0
LINE
  8
寸法
  6
CONTINUOUS
 10
152.909565
 20
-89.699237
 11
170.56775
 21
-89.699237
  0
LINE
  8
寸法
  6
CONTINUOUS
 10
152.909565
 20
-108.949237
 11
170.56775
 21
-108.949237
  0
LINE
  8
寸法
  6
CONTINUOUS
 10
170.56775
 20
-89.699237
 11
170.56775
 21
-108.949237
  0
POINT
  8
寸法
 10
170.56775
 20
-89.699237
  0
POINT
  8
寸法
 10
170.56775
 20
-108.949237
  0
TEXT
  7
TextStyle03
  8
寸法
  6
CONTINUOUS
 10
170.175
 20
-108.41875
  1
上昇385以上
 40
3.0
 50
90.0
 72
     5
 11
170.175
 21
-90.23125
  0
ENDBLK
  0
BLOCK
  2
*GRP_0019
 70
    65
 10
0.0
 20
0.0
  0
LINE
  8
補助線
  6
BYBLOCK
 62
    64
 10
137.40266
 20
-110.375298
 11
137.57635
 21
-110.555102
  0
LINE
  8
補助線
  6
BYBLOCK
 62
    64
 10
137.579407
 20
-110.378355
 11
137.399603
 21
-110.552045
  0
LINE
  8
補助線
  6
BYBLOCK
 62
    64
 10
126.008165
 20
-98.580152
 11
125.834468
 21
-98.400345
  0
LINE
  8
補助線
  6
BYBLOCK
 62
    64
 10
126.011215
 20
-98.4034
 11
125.831413
 21
-98.577098
  0
LINE
  8
補助線
  6
BYBLOCK
 62
    64
 10
114.439912
 20
-86.605255
 11
114.266215
 21
-86.425455
  0
LINE
  8
補助線
  6
BYBLOCK
 62
    64
 10
114.442965
 20
-86.428507
 11
114.263162
 21
-86.602205
  0
LINE
  8
型材断面
  6
CONTINUOUS
 10
138.73592
 20
-109.956325
 11
138.717595
 21
-111.016825
  0
LINE
  8
型材断面
  6
CONTINUOUS
 10
138.717595
 20
-111.016825
 11
137.99838
 21
-111.711615
  0
LINE
  8
型材断面
  6
CONTINUOUS
 10
137.99838
 20
-111.711615
 11
136.93788
 21
-111.69329
  0
LINE
  8
型材断面
  6
CONTINUOUS
 10
114.904685
 20
-85.28726
 11
113.844185
 21
-85.268945
  0
LINE
  8
型材断面
  6
CONTINUOUS
 10
113.844185
 20
-85.268945
 11
113.124967
 21
-85.963735
  0
LINE
  8
型材断面
  6
CONTINUOUS
 10
113.124967
 20
-85.963735
 11
113.106653
 21
-87.024235
  0
LINE
  8
型材断面
  6
CONTINUOUS
 10
138.73592
 20
-109.956325
 11
114.904805
 21
-85.287262
  0
LINE
  8
型材断面
  6
CONTINUOUS
 10
136.93788
 20
-111.69329
 11
113.106655
 21
-87.024125
  0
LINE
  8
ボルト／ビス
  6
CONTINUOUS
 62
    64
 10
137.821695
 20
-110.14429
 11
137.933515
 21
-110.592433
  0
LINE
  8
ボルト／ビス
  6
CONTINUOUS
 62
    64
 10
137.821695
 20
-110.14429
 11
137.377687
 21
-110.017062
  0
LINE
  8
ボルト／ビス
  6
CONTINUOUS
 62
    64
 10
137.157315
 20
-110.78611
 11
137.601323
 21
-110.913338
  0
LINE
  8
ボルト／ビス
  6
CONTINUOUS
 62
    64
 10
137.157315
 20
-110.78611
 11
137.045495
 21
-110.337968
  0
CIRCLE
  8
ボルト／ビス
  6
CONTINUOUS
 62
    64
 10
137.489505
 20
-110.4652
 40
0.4
  0
LINE
  8
ボルト／ビス
  6
CONTINUOUS
 62
    64
 10
137.377687
 20
-110.017062
 11
137.045495
 21
-110.337968
  0
LINE
  8
ボルト／ビス
  6
CONTINUOUS
 62
    64
 10
137.933515
 20
-110.592433
 11
137.601323
 21
-110.913338
  0
LINE
  8
ボルト／ビス
  6
CONTINUOUS
 62
    64
 10
126.253507
 20
-98.169343
 11
125.809495
 21
-98.042108
  0
LINE
  8
ボルト／ビス
  6
CONTINUOUS
 62
    64
 10
126.253507
 20
-98.169343
 11
126.365328
 21
-98.61748
  0
LINE
  8
ボルト／ビス
  6
CONTINUOUS
 62
    64
 10
125.589122
 20
-98.811155
 11
125.477305
 21
-98.363015
  0
LINE
  8
ボルト／ビス
  6
CONTINUOUS
 62
    64
 10
125.589122
 20
-98.811155
 11
126.033132
 21
-98.938388
  0
CIRCLE
  8
ボルト／ビス
  6
CONTINUOUS
 62
    64
 10
125.921313
 20
-98.490247
 40
0.4
  0
LINE
  8
ボルト／ビス
  6
CONTINUOUS
 62
    64
 10
126.365328
 20
-98.61748
 11
126.033132
 21
-98.938388
  0
LINE
  8
ボルト／ビス
  6
CONTINUOUS
 62
    64
 10
125.809495
 20
-98.042108
 11
125.477305
 21
-98.363015
  0
LINE
  8
ボルト／ビス
  6
CONTINUOUS
 62
    64
 10
114.685255
 20
-86.194445
 11
114.241243
 21
-86.067215
  0
LINE
  8
ボルト／ビス
  6
CONTINUOUS
 62
    64
 10
114.685255
 20
-86.194445
 11
114.797072
 21
-86.642585
  0
LINE
  8
ボルト／ビス
  6
CONTINUOUS
 62
    64
 10
114.020873
 20
-86.836265
 11
113.909055
 21
-86.388123
  0
LINE
  8
ボルト／ビス
  6
CONTINUOUS
 62
    64
 10
114.020873
 20
-86.836265
 11
114.464888
 21
-86.963495
  0
CIRCLE
  8
ボルト／ビス
  6
CONTINUOUS
 62
    64
 10
114.353065
 20
-86.515355
 40
0.4
  0
LINE
  8
ボルト／ビス
  6
CONTINUOUS
 62
    64
 10
114.797072
 20
-86.642585
 11
114.464888
 21
-86.963495
  0
LINE
  8
ボルト／ビス
  6
CONTINUOUS
 62
    64
 10
114.241243
 20
-86.067215
 11
113.909055
 21
-86.388123
  0
ENDBLK
  0
BLOCK
  2
*GRP_0020
 70
    65
 10
0.0
 20
0.0
  0
LINE
  8
補助線
  6
BYBLOCK
 62
    64
 10
114.43997
 20
-110.375298
 11
114.26628
 21
-110.555102
  0
LINE
  8
補助線
  6
BYBLOCK
 62
    64
 10
114.263222
 20
-110.378355
 11
114.443028
 21
-110.552045
  0
LINE
  8
補助線
  6
BYBLOCK
 62
    64
 10
125.834465
 20
-98.580152
 11
126.008163
 21
-98.400345
  0
LINE
  8
補助線
  6
BYBLOCK
 62
    64
 10
125.831415
 20
-98.4034
 11
126.011218
 21
-98.577098
  0
LINE
  8
補助線
  6
BYBLOCK
 62
    64
 10
137.402717
 20
-86.605255
 11
137.576415
 21
-86.425455
  0
LINE
  8
補助線
  6
BYBLOCK
 62
    64
 10
137.399665
 20
-86.428507
 11
137.579467
 21
-86.602205
  0
LINE
  8
型材断面
  6
CONTINUOUS
 10
113.10671
 20
-109.956325
 11
113.125035
 21
-111.016825
  0
LINE
  8
型材断面
  6
CONTINUOUS
 10
113.125035
 20
-111.016825
 11
113.84425
 21
-111.711615
  0
LINE
  8
型材断面
  6
CONTINUOUS
 10
113.84425
 20
-111.711615
 11
114.90475
 21
-111.69329
  0
LINE
  8
型材断面
  6
CONTINUOUS
 10
136.937945
 20
-85.28726
 11
137.998445
 21
-85.268945
  0
LINE
  8
型材断面
  6
CONTINUOUS
 10
137.998445
 20
-85.268945
 11
138.717663
 21
-85.963735
  0
LINE
  8
型材断面
  6
CONTINUOUS
 10
138.717663
 20
-85.963735
 11
138.735978
 21
-87.024235
  0
LINE
  8
型材断面
  6
CONTINUOUS
 10
113.10671
 20
-109.956325
 11
136.937825
 21
-85.287262
  0
LINE
  8
型材断面
  6
CONTINUOUS
 10
114.90475
 20
-111.69329
 11
138.735975
 21
-87.024125
  0
LINE
  8
ボルト／ビス
  6
CONTINUOUS
 62
    64
 10
114.020935
 20
-110.14429
 11
113.909115
 21
-110.592433
  0
LINE
  8
ボルト／ビス
  6
CONTINUOUS
 62
    64
 10
114.020935
 20
-110.14429
 11
114.464942
 21
-110.017062
  0
LINE
  8
ボルト／ビス
  6
CONTINUOUS
 62
    64
 10
114.685315
 20
-110.78611
 11
114.241308
 21
-110.913338
  0
LINE
  8
ボルト／ビス
  6
CONTINUOUS
 62
    64
 10
114.685315
 20
-110.78611
 11
114.797135
 21
-110.337968
  0
CIRCLE
  8
ボルト／ビス
  6
CONTINUOUS
 62
    64
 10
114.353125
 20
-110.4652
 40
0.4
  0
LINE
  8
ボルト／ビス
  6
CONTINUOUS
 62
    64
 10
114.464942
 20
-110.017062
 11
114.797135
 21
-110.337968
  0
LINE
  8
ボルト／ビス
  6
CONTINUOUS
 62
    64
 10
113.909115
 20
-110.592433
 11
114.241308
 21
-110.913338
  0
LINE
  8
ボルト／ビス
  6
CONTINUOUS
 62
    64
 10
125.589122
 20
-98.169343
 11
126.033135
 21
-98.042108
  0
LINE
  8
ボルト／ビス
  6
CONTINUOUS
 62
    64
 10
125.589122
 20
-98.169343
 11
125.477303
 21
-98.61748
  0
LINE
  8
ボルト／ビス
  6
CONTINUOUS
 62
    64
 10
126.253507
 20
-98.811155
 11
126.365325
 21
-98.363015
  0
LINE
  8
ボルト／ビス
  6
CONTINUOUS
 62
    64
 10
126.253507
 20
-98.811155
 11
125.809497
 21
-98.938388
  0
CIRCLE
  8
ボルト／ビス
  6
CONTINUOUS
 62
    64
 10
125.921318
 20
-98.490247
 40
0.4
  0
LINE
  8
ボルト／ビス
  6
CONTINUOUS
 62
    64
 10
125.477303
 20
-98.61748
 11
125.809497
 21
-98.938388
  0
LINE
  8
ボルト／ビス
  6
CONTINUOUS
 62
    64
 10
126.033135
 20
-98.042108
 11
126.365325
 21
-98.363015
  0
LINE
  8
ボルト／ビス
  6
CONTINUOUS
 62
    64
 10
137.157375
 20
-86.194445
 11
137.601388
 21
-86.067215
  0
LINE
  8
ボルト／ビス
  6
CONTINUOUS
 62
    64
 10
137.157375
 20
-86.194445
 11
137.045558
 21
-86.642585
  0
LINE
  8
ボルト／ビス
  6
CONTINUOUS
 62
    64
 10
137.821758
 20
-86.836265
 11
137.933575
 21
-86.388123
  0
LINE
  8
ボルト／ビス
  6
CONTINUOUS
 62
    64
 10
137.821758
 20
-86.836265
 11
137.377743
 21
-86.963495
  0
CIRCLE
  8
ボルト／ビス
  6
CONTINUOUS
 62
    64
 10
137.489565
 20
-86.515355
 40
0.4
  0
LINE
  8
ボルト／ビス
  6
CONTINUOUS
 62
    64
 10
137.045558
 20
-86.642585
 11
137.377743
 21
-86.963495
  0
LINE
  8
ボルト／ビス
  6
CONTINUOUS
 62
    64
 10
137.601388
 20
-86.067215
 11
137.933575
 21
-86.388123
  0
ENDBLK
  0
BLOCK
  2
*GRP_0021
 70
    65
 10
0.0
 20
0.0
  0
LINE
  8
補助線
  6
BYBLOCK
 62
    64
 10
61.54647
 20
-110.375298
 11
61.37278
 21
-110.555102
  0
LINE
  8
補助線
  6
BYBLOCK
 62
    64
 10
61.369722
 20
-110.378355
 11
61.549527
 21
-110.552045
  0
LINE
  8
補助線
  6
BYBLOCK
 62
    64
 10
72.940965
 20
-98.580152
 11
73.114662
 21
-98.400345
  0
LINE
  8
補助線
  6
BYBLOCK
 62
    64
 10
72.937915
 20
-98.4034
 11
73.117718
 21
-98.577098
  0
LINE
  8
補助線
  6
BYBLOCK
 62
    64
 10
84.509217
 20
-86.605255
 11
84.682915
 21
-86.425455
  0
LINE
  8
補助線
  6
BYBLOCK
 62
    64
 10
84.506165
 20
-86.428507
 11
84.685967
 21
-86.602205
  0
LINE
  8
型材断面
  6
CONTINUOUS
 10
60.21321
 20
-109.956325
 11
60.231535
 21
-111.016825
  0
LINE
  8
型材断面
  6
CONTINUOUS
 10
60.231535
 20
-111.016825
 11
60.95075
 21
-111.711615
  0
LINE
  8
型材断面
  6
CONTINUOUS
 10
60.95075
 20
-111.711615
 11
62.01125
 21
-111.69329
  0
LINE
  8
型材断面
  6
CONTINUOUS
 10
84.044445
 20
-85.28726
 11
85.104945
 21
-85.268945
  0
LINE
  8
型材断面
  6
CONTINUOUS
 10
85.104945
 20
-85.268945
 11
85.824163
 21
-85.963735
  0
LINE
  8
型材断面
  6
CONTINUOUS
 10
85.824163
 20
-85.963735
 11
85.842477
 21
-87.024235
  0
LINE
  8
型材断面
  6
CONTINUOUS
 10
60.21321
 20
-109.956325
 11
84.044325
 21
-85.287262
  0
LINE
  8
型材断面
  6
CONTINUOUS
 10
62.01125
 20
-111.69329
 11
85.842475
 21
-87.024125
  0
LINE
  8
ボルト／ビス
  6
CONTINUOUS
 62
    64
 10
61.127435
 20
-110.14429
 11
61.015615
 21
-110.592433
  0
LINE
  8
ボルト／ビス
  6
CONTINUOUS
 62
    64
 10
61.127435
 20
-110.14429
 11
61.571443
 21
-110.017062
  0
LINE
  8
ボルト／ビス
  6
CONTINUOUS
 62
    64
 10
61.791815
 20
-110.78611
 11
61.347808
 21
-110.913338
  0
LINE
  8
ボルト／ビス
  6
CONTINUOUS
 62
    64
 10
61.791815
 20
-110.78611
 11
61.903635
 21
-110.337968
  0
CIRCLE
  8
ボルト／ビス
  6
CONTINUOUS
 62
    64
 10
61.459625
 20
-110.4652
 40
0.4
  0
LINE
  8
ボルト／ビス
  6
CONTINUOUS
 62
    64
 10
61.571443
 20
-110.017062
 11
61.903635
 21
-110.337968
  0
LINE
  8
ボルト／ビス
  6
CONTINUOUS
 62
    64
 10
61.015615
 20
-110.592433
 11
61.347808
 21
-110.913338
  0
LINE
  8
ボルト／ビス
  6
CONTINUOUS
 62
    64
 10
72.695622
 20
-98.169343
 11
73.139635
 21
-98.042108
  0
LINE
  8
ボルト／ビス
  6
CONTINUOUS
 62
    64
 10
72.695622
 20
-98.169343
 11
72.583802
 21
-98.61748
  0
LINE
  8
ボルト／ビス
  6
CONTINUOUS
 62
    64
 10
73.360008
 20
-98.811155
 11
73.471825
 21
-98.363015
  0
LINE
  8
ボルト／ビス
  6
CONTINUOUS
 62
    64
 10
73.360008
 20
-98.811155
 11
72.915998
 21
-98.938388
  0
CIRCLE
  8
ボルト／ビス
  6
CONTINUOUS
 62
    64
 10
73.027817
 20
-98.490247
 40
0.4
  0
LINE
  8
ボルト／ビス
  6
CONTINUOUS
 62
    64
 10
72.583802
 20
-98.61748
 11
72.915998
 21
-98.938388
  0
LINE
  8
ボルト／ビス
  6
CONTINUOUS
 62
    64
 10
73.139635
 20
-98.042108
 11
73.471825
 21
-98.363015
  0
LINE
  8
ボルト／ビス
  6
CONTINUOUS
 62
    64
 10
84.263875
 20
-86.194445
 11
84.707887
 21
-86.067215
  0
LINE
  8
ボルト／ビス
  6
CONTINUOUS
 62
    64
 10
84.263875
 20
-86.194445
 11
84.152058
 21
-86.642585
  0
LINE
  8
ボルト／ビス
  6
CONTINUOUS
 62
    64
 10
84.928257
 20
-86.836265
 11
85.040075
 21
-86.388123
  0
LINE
  8
ボルト／ビス
  6
CONTINUOUS
 62
    64
 10
84.928257
 20
-86.836265
 11
84.484243
 21
-86.963495
  0
CIRCLE
  8
ボルト／ビス
  6
CONTINUOUS
 62
    64
 10
84.596065
 20
-86.515355
 40
0.4
  0
LINE
  8
ボルト／ビス
  6
CONTINUOUS
 62
    64
 10
84.152058
 20
-86.642585
 11
84.484243
 21
-86.963495
  0
LINE
  8
ボルト／ビス
  6
CONTINUOUS
 62
    64
 10
84.707887
 20
-86.067215
 11
85.040075
 21
-86.388123
  0
ENDBLK
  0
BLOCK
  2
*GRP_0022
 70
    65
 10
0.0
 20
0.0
  0
LINE
  8
補助線
  6
BYBLOCK
 62
    64
 10
84.50916
 20
-110.375298
 11
84.68285
 21
-110.555102
  0
LINE
  8
補助線
  6
BYBLOCK
 62
    64
 10
84.685908
 20
-110.378355
 11
84.506103
 21
-110.552045
  0
LINE
  8
補助線
  6
BYBLOCK
 62
    64
 10
73.114665
 20
-98.580152
 11
72.940968
 21
-98.400345
  0
LINE
  8
補助線
  6
BYBLOCK
 62
    64
 10
73.117715
 20
-98.4034
 11
72.937912
 21
-98.577098
  0
LINE
  8
補助線
  6
BYBLOCK
 62
    64
 10
61.546413
 20
-86.605255
 11
61.372715
 21
-86.425455
  0
LINE
  8
補助線
  6
BYBLOCK
 62
    64
 10
61.549465
 20
-86.428507
 11
61.369663
 21
-86.602205
  0
LINE
  8
型材断面
  6
CONTINUOUS
 10
85.84242
 20
-109.956325
 11
85.824095
 21
-111.016825
  0
LINE
  8
型材断面
  6
CONTINUOUS
 10
85.824095
 20
-111.016825
 11
85.10488
 21
-111.711615
  0
LINE
  8
型材断面
  6
CONTINUOUS
 10
85.10488
 20
-111.711615
 11
84.04438
 21
-111.69329
  0
LINE
  8
型材断面
  6
CONTINUOUS
 10
62.011185
 20
-85.28726
 11
60.950685
 21
-85.268945
  0
LINE
  8
型材断面
  6
CONTINUOUS
 10
60.950685
 20
-85.268945
 11
60.231467
 21
-85.963735
  0
LINE
  8
型材断面
  6
CONTINUOUS
 10
60.231467
 20
-85.963735
 11
60.213153
 21
-87.024235
  0
LINE
  8
型材断面
  6
CONTINUOUS
 10
85.84242
 20
-109.956325
 11
62.011305
 21
-85.287262
  0
LINE
  8
型材断面
  6
CONTINUOUS
 10
84.04438
 20
-111.69329
 11
60.213155
 21
-87.024125
  0
LINE
  8
ボルト／ビス
  6
CONTINUOUS
 62
    64
 10
84.928195
 20
-110.14429
 11
85.040015
 21
-110.592433
  0
LINE
  8
ボルト／ビス
  6
CONTINUOUS
 62
    64
 10
84.928195
 20
-110.14429
 11
84.484188
 21
-110.017062
  0
LINE
  8
ボルト／ビス
  6
CONTINUOUS
 62
    64
 10
84.263815
 20
-110.78611
 11
84.707822
 21
-110.913338
  0
LINE
  8
ボルト／ビス
  6
CONTINUOUS
 62
    64
 10
84.263815
 20
-110.78611
 11
84.151995
 21
-110.337968
  0
CIRCLE
  8
ボルト／ビス
  6
CONTINUOUS
 62
    64
 10
84.596005
 20
-110.4652
 40
0.4
  0
LINE
  8
ボルト／ビス
  6
CONTINUOUS
 62
    64
 10
84.484188
 20
-110.017062
 11
84.151995
 21
-110.337968
  0
LINE
  8
ボルト／ビス
  6
CONTINUOUS
 62
    64
 10
85.040015
 20
-110.592433
 11
84.707822
 21
-110.913338
  0
LINE
  8
ボルト／ビス
  6
CONTINUOUS
 62
    64
 10
73.360008
 20
-98.169343
 11
72.915995
 21
-98.042108
  0
LINE
  8
ボルト／ビス
  6
CONTINUOUS
 62
    64
 10
73.360008
 20
-98.169343
 11
73.471827
 21
-98.61748
  0
LINE
  8
ボルト／ビス
  6
CONTINUOUS
 62
    64
 10
72.695622
 20
-98.811155
 11
72.583805
 21
-98.363015
  0
LINE
  8
ボルト／ビス
  6
CONTINUOUS
 62
    64
 10
72.695622
 20
-98.811155
 11
73.139632
 21
-98.938388
  0
CIRCLE
  8
ボルト／ビス
  6
CONTINUOUS
 62
    64
 10
73.027813
 20
-98.490247
 40
0.4
  0
LINE
  8
ボルト／ビス
  6
CONTINUOUS
 62
    64
 10
73.471827
 20
-98.61748
 11
73.139632
 21
-98.938388
  0
LINE
  8
ボルト／ビス
  6
CONTINUOUS
 62
    64
 10
72.915995
 20
-98.042108
 11
72.583805
 21
-98.363015
  0
LINE
  8
ボルト／ビス
  6
CONTINUOUS
 62
    64
 10
61.791755
 20
-86.194445
 11
61.347742
 21
-86.067215
  0
LINE
  8
ボルト／ビス
  6
CONTINUOUS
 62
    64
 10
61.791755
 20
-86.194445
 11
61.903572
 21
-86.642585
  0
LINE
  8
ボルト／ビス
  6
CONTINUOUS
 62
    64
 10
61.127372
 20
-86.836265
 11
61.015555
 21
-86.388123
  0
LINE
  8
ボルト／ビス
  6
CONTINUOUS
 62
    64
 10
61.127372
 20
-86.836265
 11
61.571387
 21
-86.963495
  0
CIRCLE
  8
ボルト／ビス
  6
CONTINUOUS
 62
    64
 10
61.459565
 20
-86.515355
 40
0.4
  0
LINE
  8
ボルト／ビス
  6
CONTINUOUS
 62
    64
 10
61.903572
 20
-86.642585
 11
61.571387
 21
-86.963495
  0
LINE
  8
ボルト／ビス
  6
CONTINUOUS
 62
    64
 10
61.347742
 20
-86.067215
 11
61.015555
 21
-86.388123
  0
ENDBLK
  0
BLOCK
  2
*DIM_0023
 70
    65
 10
0.0
 20
0.0
  0
LINE
  8
寸法
  6
CONTINUOUS
 10
148.10834
 20
-6.398145
 11
148.10834
 21
-18.529545
  0
LINE
  8
寸法
  6
CONTINUOUS
 10
103.313343
 20
-6.398145
 11
103.313343
 21
-18.529545
  0
LINE
  8
寸法
  6
CONTINUOUS
 10
148.10834
 20
-18.529545
 11
103.313343
 21
-18.529545
  0
POINT
  8
寸法
 10
148.10834
 20
-18.529545
  0
POINT
  8
寸法
 10
103.313343
 20
-18.529545
  0
TEXT
  7
TextStyle03
  8
寸法
  6
CONTINUOUS
 10
121.575
 20
-18.175
  1
895.9
 40
3.0
 72
     5
 11
129.825
 21
-18.175
  0
ENDBLK
  0
BLOCK
  2
*DIM_0024
 70
    65
 10
0.0
 20
0.0
  0
LINE
  8
寸法
  6
CONTINUOUS
 10
153.10834
 20
61.951275
 11
165.14091
 21
61.951275
  0
LINE
  8
寸法
  6
CONTINUOUS
 10
153.10834
 20
-1.398145
 11
165.14091
 21
-1.398145
  0
LINE
  8
寸法
  6
CONTINUOUS
 10
165.14091
 20
61.951275
 11
165.14091
 21
-1.398145
  0
POINT
  8
寸法
 10
165.14091
 20
61.951275
  0
POINT
  8
寸法
 10
165.14091
 20
-1.398145
  0
TEXT
  7
TextStyle03
  8
寸法
  6
CONTINUOUS
 10
164.75
 20
26.99375
  1
1267
 40
3.0
 50
90.0
 72
     5
 11
164.75
 21
33.55625
  0
ENDBLK
  0
ENDSEC
  0
SECTION
  2
ENTITIES
  0
POLYLINE
  8
通り芯
  6
CONTINUOUS
 66
     1
 70
     1
  0
VERTEX
  8
通り芯
 10
-210.0
 20
-148.5
  0
VERTEX
  8
通り芯
 10
210.0
 20
-148.5
  0
VERTEX
  8
通り芯
 10
210.0
 20
148.5
  0
VERTEX
  8
通り芯
 10
-210.0
 20
148.5
  0
SEQEND
  0
INSERT
  2
*GRP_0001
  8
型材断面
  6
CONTINUOUS
 10
0.0
 20
0.0
  0
LINE
  8
型材断面
  6
CONTINUOUS
 10
-97.943975
 20
47.872248
 11
-97.943975
 21
32.872248
  0
LINE
  8
型材断面
  6
CONTINUOUS
 10
-97.943975
 20
32.872248
 11
-82.943975
 21
32.872248
  0
LINE
  8
型材断面
  6
CONTINUOUS
 10
-82.943975
 20
32.872248
 11
-82.943975
 21
47.872248
  0
LINE
  8
型材断面
  6
CONTINUOUS
 10
-97.943975
 20
47.872248
 11
-82.943975
 21
47.872248
  0
LINE
  8
型材断面
  6
CONTINUOUS
 10
-82.943975
 20
47.872248
 11
-97.943975
 21
32.872248
  0
LINE
  8
型材断面
  6
CONTINUOUS
 10
-97.943975
 20
47.872248
 11
-82.943975
 21
32.872248
  0
LINE
  8
型材断面
  6
CONTINUOUS
 10
-91.668975
 20
-102.262598
 11
-89.218975
 21
-102.262598
  0
LINE
  8
型材断面
  6
CONTINUOUS
 10
-2.177442
 20
12.3793
 11
-4.420888
 21
8.49354
  0
LINE
  8
型材断面
  6
CONTINUOUS
 10
-2.177442
 20
12.3793
 11
0.066002
 21
8.49354
  0
LINE
  8
型材断面
  6
CONTINUOUS
 10
0.066002
 20
8.49354
 11
-4.420888
 21
8.49354
  0
LINE
  8
型材断面
  6
CONTINUOUS
 10
-2.177442
 20
4.689753
 11
-1.283357
 21
0.803992
  0
LINE
  8
型材断面
  6
CONTINUOUS
 10
-2.177442
 20
4.689753
 11
-3.071527
 21
0.803992
  0
LINE
  8
型材断面
  6
CONTINUOUS
 10
-3.071527
 20
0.803992
 11
-1.283357
 21
0.803992
  0
LINE
  8
型材断面
  6
CONTINUOUS
 10
-11.211323
 20
7.085648
 11
41.445357
 21
7.085648
  0
LINE
  8
型材断面
  6
CONTINUOUS
 10
-11.211323
 20
-4.114345
 11
41.445357
 21
-4.114345
  0
LINE
  8
型材断面
  6
CONTINUOUS
 10
-11.211323
 20
-10.95429
 11
41.445357
 21
-10.95429
  0
LINE
  8
型材断面
  6
CONTINUOUS
 10
-11.211323
 20
-17.794235
 11
41.445357
 21
-17.794235
  0
LINE
  8
型材断面
  6
CONTINUOUS
 10
-43.626422
 20
41.597248
 11
-43.626422
 21
39.147248
  0
LINE
  8
型材断面
  6
CONTINUOUS
 10
-37.420097
 20
40.372248
 11
-33.534338
 21
38.128802
  0
LINE
  8
型材断面
  6
CONTINUOUS
 10
-37.420097
 20
40.372248
 11
-33.534338
 21
42.615692
  0
LINE
  8
型材断面
  6
CONTINUOUS
 10
-33.534338
 20
42.615692
 11
-33.534338
 21
38.128802
  0
LINE
  8
型材断面
  6
CONTINUOUS
 10
-43.626422
 20
41.597248
 11
-82.943975
 21
41.597248
  0
LINE
  8
型材断面
  6
CONTINUOUS
 10
-43.626422
 20
40.622248
 11
-82.943975
 21
40.622248
  0
LINE
  8
型材断面
  6
CONTINUOUS
 10
-43.626422
 20
40.122248
 11
-82.943975
 21
40.122248
  0
LINE
  8
型材断面
  6
CONTINUOUS
 10
-43.626422
 20
39.147248
 11
-82.943975
 21
39.147248
  0
LINE
  8
型材断面
  6
CONTINUOUS
 62
    47
 10
-41.168975
 20
-104.896822
 11
-41.168975
 21
-105.4652
  0
LINE
  8
型材断面
  6
CONTINUOUS
 62
    47
 10
-41.843975
 20
-106.1652
 11
-41.168975
 21
-106.1652
  0
LINE
  8
型材断面
  6
CONTINUOUS
 62
    47
 10
-41.168975
 20
-106.1652
 11
-41.168975
 21
-105.4652
  0
LINE
  8
型材断面
  6
CONTINUOUS
 62
    47
 10
-42.493977
 20
-105.4652
 11
-41.168975
 21
-105.4652
  0
LINE
  8
型材断面
  6
CONTINUOUS
 62
    47
 10
-41.843975
 20
-106.1652
 11
-41.843975
 21
-106.6652
  0
LINE
  8
型材断面
  6
CONTINUOUS
 10
-41.918975
 20
-106.6652
 11
-41.843975
 21
-106.6652
  0
LINE
  8
型材断面
  6
CONTINUOUS
 62
    47
 10
-43.27287
 20
-102.792928
 11
-42.212208
 21
-103.85359
  0
LINE
  8
型材断面
  6
CONTINUOUS
 10
-43.8032
 20
-102.262598
 11
-46.521642
 21
-102.262598
  0
LINE
  8
型材断面
  6
CONTINUOUS
 62
    47
 10
-42.023975
 20
-108.949237
 11
-42.023975
 21
-108.449237
  0
LINE
  8
型材断面
  6
CONTINUOUS
 62
    47
 10
-42.023975
 20
-108.449237
 11
-43.198975
 21
-108.299237
  0
LINE
  8
型材断面
  6
CONTINUOUS
 62
    47
 10
-43.198975
 20
-107.6902
 11
-43.198975
 21
-108.299237
  0
LINE
  8
型材断面
  6
CONTINUOUS
 62
    47
 10
-42.493977
 20
-112.8902
 11
-42.493977
 21
-108.949237
  0
LINE
  8
型材断面
  6
CONTINUOUS
 62
    47
 10
-43.343977
 20
-113.6402
 11
-43.343977
 21
-112.8902
  0
LINE
  8
型材断面
  6
CONTINUOUS
 62
    47
 10
-42.493977
 20
-107.6902
 11
-42.493977
 21
-106.6652
  0
LINE
  8
型材断面
  6
CONTINUOUS
 62
    47
 10
-42.493977
 20
-112.8902
 11
-90.443975
 21
-112.8902
  0
LINE
  8
型材断面
  6
CONTINUOUS
 62
    47
 10
-43.343977
 20
-113.6402
 11
-90.443975
 21
-113.6402
  0
LINE
  8
型材断面
  6
CONTINUOUS
 10
-43.198975
 20
-108.299237
 11
-90.443975
 21
-108.299237
  0
LINE
  8
型材断面
  6
CONTINUOUS
 10
-41.843975
 20
-106.1652
 11
-90.443975
 21
-106.1652
  0
LINE
  8
型材断面
  6
CONTINUOUS
 10
-41.168975
 20
-105.4652
 11
-90.443975
 21
-105.4652
  0
LINE
  8
型材断面
  6
CONTINUOUS
 62
    47
 10
-42.493977
 20
-107.6902
 11
-90.443975
 21
-107.6902
  0
LINE
  8
型材断面
  6
CONTINUOUS
 10
-42.023975
 20
-108.449237
 11
-90.443975
 21
-108.449237
  0
LINE
  8
型材断面
  6
CONTINUOUS
 62
    47
 10
-42.023975
 20
-108.949237
 11
-90.443975
 21
-108.949237
  0
LINE
  8
型材断面
  6
CONTINUOUS
 10
-41.843975
 20
-106.6652
 11
-90.443975
 21
-106.6652
  0
LINE
  8
型材断面
  6
CONTINUOUS
 10
-41.168975
 20
-104.896822
 11
-90.443975
 21
-104.896822
  0
LINE
  8
型材断面
  6
CONTINUOUS
 10
-42.212208
 20
-103.85359
 11
-90.443975
 21
-103.85359
  0
LINE
  8
型材断面
  6
CONTINUOUS
 10
-43.27287
 20
-102.792928
 11
-90.443975
 21
-102.792928
  0
LINE
  8
型材断面
  6
CONTINUOUS
 10
-42.565762
 20
-103.500035
 11
-90.443975
 21
-103.500035
  0
LINE
  8
型材断面
  6
CONTINUOUS
 10
-137.261528
 20
41.597248
 11
-137.261528
 21
39.147248
  0
LINE
  8
型材断面
  6
CONTINUOUS
 10
-143.467853
 20
40.372248
 11
-147.353612
 21
38.128802
  0
LINE
  8
型材断面
  6
CONTINUOUS
 10
-143.467853
 20
40.372248
 11
-147.353612
 21
42.615692
  0
LINE
  8
型材断面
  6
CONTINUOUS
 10
-147.353612
 20
42.615692
 11
-147.353612
 21
38.128802
  0
LINE
  8
型材断面
  6
CONTINUOUS
 10
-137.261528
 20
39.147248
 11
-97.943975
 21
39.147248
  0
LINE
  8
型材断面
  6
CONTINUOUS
 10
-137.261528
 20
41.597248
 11
-97.943975
 21
41.597248
  0
LINE
  8
型材断面
  6
CONTINUOUS
 10
-137.261528
 20
40.622248
 11
-97.943975
 21
40.622248
  0
LINE
  8
型材断面
  6
CONTINUOUS
 10
-137.261528
 20
40.122248
 11
-97.943975
 21
40.122248
  0
LINE
  8
型材断面
  6
CONTINUOUS
 62
    47
 10
-139.718975
 20
-104.896822
 11
-139.718975
 21
-105.4652
  0
LINE
  8
型材断面
  6
CONTINUOUS
 62
    47
 10
-139.043975
 20
-106.1652
 11
-139.718975
 21
-106.1652
  0
LINE
  8
型材断面
  6
CONTINUOUS
 62
    47
 10
-139.718975
 20
-106.1652
 11
-139.718975
 21
-105.4652
  0
LINE
  8
型材断面
  6
CONTINUOUS
 62
    47
 10
-138.393973
 20
-105.4652
 11
-139.718975
 21
-105.4652
  0
LINE
  8
型材断面
  6
CONTINUOUS
 62
    47
 10
-139.043975
 20
-106.1652
 11
-139.043975
 21
-106.6652
  0
LINE
  8
型材断面
  6
CONTINUOUS
 10
-138.968975
 20
-106.6652
 11
-139.043975
 21
-106.6652
  0
LINE
  8
型材断面
  6
CONTINUOUS
 62
    47
 10
-137.61508
 20
-102.792928
 11
-138.675742
 21
-103.85359
  0
LINE
  8
型材断面
  6
CONTINUOUS
 10
-137.08475
 20
-102.262598
 11
-134.366308
 21
-102.262598
  0
LINE
  8
型材断面
  6
CONTINUOUS
 62
    47
 10
-138.863975
 20
-108.949237
 11
-138.863975
 21
-108.449237
  0
LINE
  8
型材断面
  6
CONTINUOUS
 62
    47
 10
-138.863975
 20
-108.449237
 11
-137.688975
 21
-108.299237
  0
LINE
  8
型材断面
  6
CONTINUOUS
 62
    47
 10
-137.688975
 20
-107.6902
 11
-137.688975
 21
-108.299237
  0
LINE
  8
型材断面
  6
CONTINUOUS
 62
    47
 10
-138.393973
 20
-112.8902
 11
-138.393973
 21
-108.949237
  0
LINE
  8
型材断面
  6
CONTINUOUS
 62
    47
 10
-137.543973
 20
-113.6402
 11
-137.543973
 21
-112.8902
  0
LINE
  8
型材断面
  6
CONTINUOUS
 62
    47
 10
-138.393973
 20
-107.6902
 11
-138.393973
 21
-106.6652
  0
LINE
  8
型材断面
  6
CONTINUOUS
 62
    47
 10
-138.393973
 20
-112.8902
 11
-90.443975
 21
-112.8902
  0
LINE
  8
型材断面
  6
CONTINUOUS
 62
    47
 10
-137.543973
 20
-113.6402
 11
-90.443975
 21
-113.6402
  0
LINE
  8
型材断面
  6
CONTINUOUS
 10
-137.688975
 20
-108.299237
 11
-90.443975
 21
-108.299237
  0
LINE
  8
型材断面
  6
CONTINUOUS
 10
-139.043975
 20
-106.1652
 11
-90.443975
 21
-106.1652
  0
LINE
  8
型材断面
  6
CONTINUOUS
 10
-139.718975
 20
-105.4652
 11
-90.443975
 21
-105.4652
  0
LINE
  8
型材断面
  6
CONTINUOUS
 62
    47
 10
-138.393973
 20
-107.6902
 11
-90.443975
 21
-107.6902
  0
LINE
  8
型材断面
  6
CONTINUOUS
 10
-138.863975
 20
-108.449237
 11
-90.443975
 21
-108.449237
  0
LINE
  8
型材断面
  6
CONTINUOUS
 62
    47
 10
-138.863975
 20
-108.949237
 11
-90.443975
 21
-108.949237
  0
LINE
  8
型材断面
  6
CONTINUOUS
 10
-139.043975
 20
-106.6652
 11
-90.443975
 21
-106.6652
  0
LINE
  8
型材断面
  6
CONTINUOUS
 10
-139.718975
 20
-104.896822
 11
-90.443975
 21
-104.896822
  0
LINE
  8
型材断面
  6
CONTINUOUS
 10
-138.675742
 20
-103.85359
 11
-90.443975
 21
-103.85359
  0
LINE
  8
型材断面
  6
CONTINUOUS
 10
-137.61508
 20
-102.792928
 11
-90.443975
 21
-102.792928
  0
LINE
  8
型材断面
  6
CONTINUOUS
 10
-138.322188
 20
-103.500035
 11
-90.443975
 21
-103.500035
  0
LINE
  8
型材断面
  6
DASHDOT
 10
-45.443975
 20
40.372248
 11
-135.443975
 21
40.372248
  0
LINE
  8
型材断面
  6
CONTINUOUS
 10
-89.218975
 20
87.1898
 11
-91.668975
 21
87.1898
  0
LINE
  8
型材断面
  6
DASHDOT
 10
-90.443975
 20
85.372248
 11
-90.443975
 21
-121.5602
  0
LINE
  8
型材断面
  6
CONTINUOUS
 10
-90.443975
 20
93.396122
 11
-92.68742
 21
97.281883
  0
LINE
  8
型材断面
  6
CONTINUOUS
 10
-90.443975
 20
93.396122
 11
-88.20053
 21
97.281883
  0
LINE
  8
型材断面
  6
CONTINUOUS
 10
-88.20053
 20
97.281883
 11
-92.68742
 21
97.281883
  0
POLYLINE
  8
型材断面
  6
CONTINUOUS
 66
     1
 70
     1
  0
VERTEX
  8
型材断面
 10
-80.802393
 20
103.349143
  0
VERTEX
  8
型材断面
 10
-99.357605
 20
103.349143
  0
VERTEX
  8
型材断面
 10
-99.357605
 20
98.557107
  0
VERTEX
  8
型材断面
 10
-80.802393
 20
98.557107
  0
SEQEND
  0
LINE
  8
型材断面
  6
CONTINUOUS
 10
-91.668975
 20
87.1898
 11
-91.668975
 21
47.872248
  0
LINE
  8
型材断面
  6
CONTINUOUS
 10
-90.693975
 20
87.1898
 11
-90.693975
 21
47.872248
  0
LINE
  8
型材断面
  6
CONTINUOUS
 10
-90.193975
 20
87.1898
 11
-90.193975
 21
47.872248
  0
LINE
  8
型材断面
  6
CONTINUOUS
 10
-89.218975
 20
87.1898
 11
-89.218975
 21
47.872248
  0
LINE
  8
型材断面
  6
CONTINUOUS
 10
-41.168975
 20
89.647248
 11
-48.318975
 21
82.497248
  0
LINE
  8
型材断面
  6
CONTINUOUS
 10
-46.062043
 20
87.1898
 11
-43.626422
 21
87.1898
  0
LINE
  8
型材断面
  6
CONTINUOUS
 10
-43.626422
 20
84.75418
 11
-43.626422
 21
87.1898
  0
LINE
  8
型材断面
  6
DASHDOT
 10
-45.443975
 20
85.372248
 11
-45.443975
 21
75.372248
  0
LINE
  8
型材断面
  6
CONTINUOUS
 10
-42.212208
 20
88.604015
 11
-90.443975
 21
88.604015
  0
LINE
  8
型材断面
  6
CONTINUOUS
 10
-41.168975
 20
89.647248
 11
-90.443975
 21
89.647248
  0
LINE
  8
型材断面
  6
CONTINUOUS
 10
-43.27287
 20
87.543353
 11
-90.443975
 21
87.543353
  0
LINE
  8
型材断面
  6
CONTINUOUS
 10
-43.555713
 20
87.26051
 11
-90.443975
 21
87.26051
  0
LINE
  8
型材断面
  6
CONTINUOUS
 10
-42.565762
 20
88.25046
 11
-90.443975
 21
88.25046
  0
LINE
  8
型材断面
  6
CONTINUOUS
 10
-43.555713
 20
87.26051
 11
-43.555713
 21
40.372248
  0
LINE
  8
型材断面
  6
CONTINUOUS
 10
-43.27287
 20
87.543353
 11
-43.27287
 21
40.372248
  0
LINE
  8
型材断面
  6
CONTINUOUS
 10
-42.565762
 20
88.25046
 11
-42.565762
 21
40.372248
  0
LINE
  8
型材断面
  6
CONTINUOUS
 10
-42.212208
 20
88.604015
 11
-42.212208
 21
40.372248
  0
LINE
  8
型材断面
  6
CONTINUOUS
 10
-41.168975
 20
89.647248
 11
-41.168975
 21
40.372248
  0
LINE
  8
型材断面
  6
DASHDOT
 10
-45.443975
 20
85.372248
 11
-45.443975
 21
-121.5602
  0
LINE
  8
型材断面
  6
CONTINUOUS
 10
-37.420097
 20
79.52225
 11
-33.534338
 21
78.628165
  0
LINE
  8
型材断面
  6
CONTINUOUS
 10
-37.420097
 20
79.52225
 11
-33.534338
 21
80.416335
  0
LINE
  8
型材断面
  6
CONTINUOUS
 10
-33.534338
 20
80.416335
 11
-33.534338
 21
78.628165
  0
LINE
  8
型材断面
  6
DASHDOT
 10
-45.443975
 20
85.372248
 11
-90.443975
 21
40.372248
  0
LINE
  8
型材断面
  6
CONTINUOUS
 10
-46.062043
 20
87.1898
 11
-85.379595
 21
47.872248
  0
LINE
  8
型材断面
  6
CONTINUOUS
 10
-43.979975
 20
87.1898
 11
-83.29754
 21
47.872248
  0
LINE
  8
型材断面
  6
CONTINUOUS
 10
-43.626422
 20
86.836247
 11
-82.943975
 21
47.518695
  0
LINE
  8
型材断面
  6
CONTINUOUS
 10
-43.626422
 20
84.75418
 11
-82.943975
 21
45.436628
  0
LINE
  8
型材断面
  6
CONTINUOUS
 10
-139.718975
 20
89.647248
 11
-132.568975
 21
82.497248
  0
LINE
  8
型材断面
  6
CONTINUOUS
 10
-134.825908
 20
87.1898
 11
-137.261528
 21
87.1898
  0
LINE
  8
型材断面
  6
CONTINUOUS
 10
-137.261528
 20
84.75418
 11
-137.261528
 21
87.1898
  0
LINE
  8
型材断面
  6
DASHDOT
 10
-135.443975
 20
85.372248
 11
-135.443975
 21
75.372248
  0
LINE
  8
型材断面
  6
CONTINUOUS
 10
-138.675742
 20
88.604015
 11
-90.443975
 21
88.604015
  0
LINE
  8
型材断面
  6
CONTINUOUS
 10
-139.718975
 20
89.647248
 11
-90.443975
 21
89.647248
  0
LINE
  8
型材断面
  6
CONTINUOUS
 10
-137.61508
 20
87.543353
 11
-90.443975
 21
87.543353
  0
LINE
  8
型材断面
  6
CONTINUOUS
 10
-137.332237
 20
87.26051
 11
-90.443975
 21
87.26051
  0
LINE
  8
型材断面
  6
CONTINUOUS
 10
-138.322188
 20
88.25046
 11
-90.443975
 21
88.25046
  0
LINE
  8
型材断面
  6
CONTINUOUS
 10
-137.332237
 20
87.26051
 11
-137.332237
 21
40.372248
  0
LINE
  8
型材断面
  6
CONTINUOUS
 10
-137.61508
 20
87.543353
 11
-137.61508
 21
40.372248
  0
LINE
  8
型材断面
  6
CONTINUOUS
 10
-138.322188
 20
88.25046
 11
-138.322188
 21
40.372248
  0
LINE
  8
型材断面
  6
CONTINUOUS
 10
-138.675742
 20
88.604015
 11
-138.675742
 21
40.372248
  0
LINE
  8
型材断面
  6
CONTINUOUS
 10
-139.718975
 20
89.647248
 11
-139.718975
 21
40.372248
  0
LINE
  8
型材断面
  6
DASHDOT
 10
-135.443975
 20
85.372248
 11
-135.443975
 21
-121.5602
  0
LINE
  8
型材断面
  6
CONTINUOUS
 10
-143.467853
 20
79.52225
 11
-147.353612
 21
78.628165
  0
LINE
  8
型材断面
  6
CONTINUOUS
 10
-143.467853
 20
79.52225
 11
-147.353612
 21
80.416335
  0
LINE
  8
型材断面
  6
CONTINUOUS
 10
-147.353612
 20
80.416335
 11
-147.353612
 21
78.628165
  0
LINE
  8
型材断面
  6
DASHDOT
 10
-135.443975
 20
85.372248
 11
-90.443975
 21
40.372248
  0
LINE
  8
型材断面
  6
CONTINUOUS
 10
-134.825908
 20
87.1898
 11
-95.508355
 21
47.872248
  0
LINE
  8
型材断面
  6
CONTINUOUS
 10
-136.907975
 20
87.1898
 11
-97.59041
 21
47.872248
  0
LINE
  8
型材断面
  6
CONTINUOUS
 10
-137.261528
 20
84.75418
 11
-97.943975
 21
45.436628
  0
LINE
  8
型材断面
  6
CONTINUOUS
 10
-137.261528
 20
86.836247
 11
-97.943975
 21
47.518695
  0
LINE
  8
型材断面
  6
DASHDOT
 10
-45.443975
 20
85.372248
 11
-135.443975
 21
85.372248
  0
LINE
  8
型材断面
  6
CONTINUOUS
 10
-89.218975
 20
-6.445305
 11
-91.668975
 21
-6.445305
  0
LINE
  8
型材断面
  6
CONTINUOUS
 10
-90.443975
 20
-12.651627
 11
-92.68742
 21
-16.537388
  0
LINE
  8
型材断面
  6
CONTINUOUS
 10
-90.443975
 20
-12.651627
 11
-88.20053
 21
-16.537388
  0
LINE
  8
型材断面
  6
CONTINUOUS
 10
-88.20053
 20
-16.537388
 11
-92.68742
 21
-16.537388
  0
POLYLINE
  8
型材断面
  6
CONTINUOUS
 66
     1
 70
     1
  0
VERTEX
  8
型材断面
 10
-80.802393
 20
-17.982107
  0
VERTEX
  8
型材断面
 10
-99.357605
 20
-17.982107
  0
VERTEX
  8
型材断面
 10
-99.357605
 20
-22.774143
  0
VERTEX
  8
型材断面
 10
-80.802393
 20
-22.774143
  0
SEQEND
  0
LINE
  8
型材断面
  6
CONTINUOUS
 10
-89.218975
 20
-6.445305
 11
-89.218975
 21
32.872248
  0
LINE
  8
型材断面
  6
CONTINUOUS
 10
-91.668975
 20
-6.445305
 11
-91.668975
 21
32.872248
  0
LINE
  8
型材断面
  6
CONTINUOUS
 10
-90.693975
 20
-6.445305
 11
-90.693975
 21
32.872248
  0
LINE
  8
型材断面
  6
CONTINUOUS
 10
-90.193975
 20
-6.445305
 11
-90.193975
 21
32.872248
  0
LINE
  8
型材断面
  6
CONTINUOUS
 10
-41.168975
 20
-8.902753
 11
-48.318975
 21
-1.752753
  0
LINE
  8
型材断面
  6
CONTINUOUS
 10
-46.062043
 20
-6.445305
 11
-43.626422
 21
-6.445305
  0
LINE
  8
型材断面
  6
CONTINUOUS
 10
-43.626422
 20
-4.009685
 11
-43.626422
 21
-6.445305
  0
LINE
  8
型材断面
  6
DASHDOT
 10
-45.443975
 20
-4.627753
 11
-45.443975
 21
5.372248
  0
LINE
  8
型材断面
  6
CONTINUOUS
 10
-42.212208
 20
-7.85952
 11
-90.443975
 21
-7.85952
  0
LINE
  8
型材断面
  6
CONTINUOUS
 10
-41.168975
 20
-8.902753
 11
-90.443975
 21
-8.902753
  0
LINE
  8
型材断面
  6
CONTINUOUS
 10
-43.27287
 20
-6.798858
 11
-90.443975
 21
-6.798858
  0
LINE
  8
型材断面
  6
CONTINUOUS
 10
-43.555713
 20
-6.516015
 11
-90.443975
 21
-6.516015
  0
LINE
  8
型材断面
  6
CONTINUOUS
 10
-42.565762
 20
-7.505965
 11
-90.443975
 21
-7.505965
  0
LINE
  8
型材断面
  6
CONTINUOUS
 10
-43.555713
 20
-6.516015
 11
-43.555713
 21
40.372248
  0
LINE
  8
型材断面
  6
CONTINUOUS
 10
-43.27287
 20
-6.798858
 11
-43.27287
 21
40.372248
  0
LINE
  8
型材断面
  6
CONTINUOUS
 10
-42.565762
 20
-7.505965
 11
-42.565762
 21
40.372248
  0
LINE
  8
型材断面
  6
CONTINUOUS
 10
-42.212208
 20
-7.85952
 11
-42.212208
 21
40.372248
  0
LINE
  8
型材断面
  6
CONTINUOUS
 10
-41.168975
 20
-8.902753
 11
-41.168975
 21
40.372248
  0
LINE
  8
型材断面
  6
CONTINUOUS
 10
-37.420097
 20
1.222245
 11
-33.534338
 21
2.11633
  0
LINE
  8
型材断面
  6
CONTINUOUS
 10
-37.420097
 20
1.222245
 11
-33.534338
 21
0.32816
  0
LINE
  8
型材断面
  6
CONTINUOUS
 10
-33.534338
 20
0.32816
 11
-33.534338
 21
2.11633
  0
LINE
  8
型材断面
  6
DASHDOT
 10
-45.443975
 20
-4.627753
 11
-90.443975
 21
40.372248
  0
LINE
  8
型材断面
  6
CONTINUOUS
 10
-43.626422
 20
-4.009685
 11
-82.943975
 21
35.307868
  0
LINE
  8
型材断面
  6
CONTINUOUS
 10
-43.626422
 20
-6.091752
 11
-82.943975
 21
33.2258
  0
LINE
  8
型材断面
  6
CONTINUOUS
 10
-43.979975
 20
-6.445305
 11
-83.29754
 21
32.872248
  0
LINE
  8
型材断面
  6
CONTINUOUS
 10
-46.062043
 20
-6.445305
 11
-85.379595
 21
32.872248
  0
LINE
  8
型材断面
  6
CONTINUOUS
 10
-139.718975
 20
-8.902753
 11
-132.568975
 21
-1.752753
  0
LINE
  8
型材断面
  6
CONTINUOUS
 10
-134.825908
 20
-6.445305
 11
-137.261528
 21
-6.445305
  0
LINE
  8
型材断面
  6
CONTINUOUS
 10
-137.261528
 20
-4.009685
 11
-137.261528
 21
-6.445305
  0
LINE
  8
型材断面
  6
DASHDOT
 10
-135.443975
 20
-4.627753
 11
-135.443975
 21
5.372248
  0
LINE
  8
型材断面
  6
CONTINUOUS
 10
-138.675742
 20
-7.85952
 11
-90.443975
 21
-7.85952
  0
LINE
  8
型材断面
  6
CONTINUOUS
 10
-139.718975
 20
-8.902753
 11
-90.443975
 21
-8.902753
  0
LINE
  8
型材断面
  6
CONTINUOUS
 10
-137.61508
 20
-6.798858
 11
-90.443975
 21
-6.798858
  0
LINE
  8
型材断面
  6
CONTINUOUS
 10
-137.332237
 20
-6.516015
 11
-90.443975
 21
-6.516015
  0
LINE
  8
型材断面
  6
CONTINUOUS
 10
-138.322188
 20
-7.505965
 11
-90.443975
 21
-7.505965
  0
LINE
  8
型材断面
  6
CONTINUOUS
 10
-137.332237
 20
-6.516015
 11
-137.332237
 21
40.372248
  0
LINE
  8
型材断面
  6
CONTINUOUS
 10
-137.61508
 20
-6.798858
 11
-137.61508
 21
40.372248
  0
LINE
  8
型材断面
  6
CONTINUOUS
 10
-138.322188
 20
-7.505965
 11
-138.322188
 21
40.372248
  0
LINE
  8
型材断面
  6
CONTINUOUS
 10
-138.675742
 20
-7.85952
 11
-138.675742
 21
40.372248
  0
LINE
  8
型材断面
  6
CONTINUOUS
 10
-139.718975
 20
-8.902753
 11
-139.718975
 21
40.372248
  0
LINE
  8
型材断面
  6
CONTINUOUS
 10
-143.467853
 20
1.222245
 11
-147.353612
 21
2.11633
  0
LINE
  8
型材断面
  6
CONTINUOUS
 10
-143.467853
 20
1.222245
 11
-147.353612
 21
0.32816
  0
LINE
  8
型材断面
  6
CONTINUOUS
 10
-147.353612
 20
0.32816
 11
-147.353612
 21
2.11633
  0
LINE
  8
型材断面
  6
DASHDOT
 10
-135.443975
 20
-4.627753
 11
-90.443975
 21
40.372248
  0
LINE
  8
型材断面
  6
CONTINUOUS
 10
-134.825908
 20
-6.445305
 11
-95.508355
 21
32.872248
  0
LINE
  8
型材断面
  6
CONTINUOUS
 10
-136.907975
 20
-6.445305
 11
-97.59041
 21
32.872248
  0
LINE
  8
型材断面
  6
CONTINUOUS
 10
-137.261528
 20
-6.091752
 11
-97.943975
 21
33.2258
  0
LINE
  8
型材断面
  6
CONTINUOUS
 10
-137.261528
 20
-4.009685
 11
-97.943975
 21
35.307868
  0
LINE
  8
型材断面
  6
DASHDOT
 10
-45.443975
 20
-4.627753
 11
-135.443975
 21
-4.627753
  0
LINE
  8
型材断面
  6
DOT
 10
-50.460213
 20
85.372248
 11
-50.460213
 21
-4.627753
  0
LINE
  8
型材断面
  6
DOT
 10
-48.460213
 20
85.372248
 11
-48.460213
 21
-4.627753
  0
LINE
  8
型材断面
  6
DOT
 10
-130.427737
 20
85.372248
 11
-130.427737
 21
-4.627753
  0
LINE
  8
型材断面
  6
DOT
 10
-132.427737
 20
85.372248
 11
-132.427737
 21
-4.627753
  0
LINE
  8
型材断面
  6
CONTINUOUS
 10
-90.443975
 20
-55.515858
 11
-97.943975
 21
-63.015863
  0
LINE
  8
型材断面
  6
CONTINUOUS
 10
-97.943975
 20
-63.015863
 11
-97.890992
 21
-63.068845
  0
LINE
  8
型材断面
  6
CONTINUOUS
 10
-97.943977
 20
-63.015863
 11
-93.693977
 21
-63.015863
  0
LINE
  8
型材断面
  6
CONTINUOUS
 10
-97.890992
 20
-63.068845
 11
-93.693977
 21
-63.068845
  0
LINE
  8
型材断面
  6
CONTINUOUS
 10
-97.890992
 20
-63.068845
 11
-97.943977
 21
-63.015863
  0
LINE
  8
型材断面
  6
CONTINUOUS
 10
-97.943975
 20
-63.015863
 11
-90.443975
 21
-63.015863
  0
LINE
  8
型材断面
  6
CONTINUOUS
 10
-97.890992
 20
-63.068845
 11
-90.443975
 21
-63.068845
  0
LINE
  8
型材断面
  6
CONTINUOUS
 10
-91.668975
 20
-102.262598
 11
-91.668975
 21
-63.068845
  0
LINE
  8
型材断面
  6
CONTINUOUS
 10
-90.693975
 20
-102.262598
 11
-90.693975
 21
-63.068845
  0
LINE
  8
型材断面
  6
CONTINUOUS
 10
-90.193975
 20
-102.262598
 11
-90.193975
 21
-63.068845
  0
LINE
  8
型材断面
  6
CONTINUOUS
 10
-89.218975
 20
-102.262598
 11
-89.218975
 21
-63.068845
  0
LINE
  8
型材断面
  6
CONTINUOUS
 10
-82.943975
 20
-63.015863
 11
-82.996958
 21
-63.068845
  0
LINE
  8
型材断面
  6
CONTINUOUS
 10
-82.943973
 20
-63.015863
 11
-87.193973
 21
-63.015863
  0
LINE
  8
型材断面
  6
CONTINUOUS
 10
-82.996958
 20
-63.068845
 11
-87.193973
 21
-63.068845
  0
LINE
  8
型材断面
  6
CONTINUOUS
 10
-82.996958
 20
-63.068845
 11
-82.943973
 21
-63.015863
  0
LINE
  8
型材断面
  6
CONTINUOUS
 10
-82.943975
 20
-63.015863
 11
-90.443975
 21
-63.015863
  0
LINE
  8
型材断面
  6
CONTINUOUS
 10
-82.996958
 20
-63.068845
 11
-90.443975
 21
-63.068845
  0
LINE
  8
型材断面
  6
CONTINUOUS
 10
-90.443975
 20
-55.515858
 11
-82.94397
 21
-63.015863
  0
LINE
  8
型材断面
  6
CONTINUOUS
 62
    47
 10
-41.168975
 20
-104.896822
 11
-90.443975
 21
-55.621822
  0
LINE
  8
型材断面
  6
CONTINUOUS
 10
-46.2388
 20
-102.262598
 11
-85.432553
 21
-63.068845
  0
LINE
  8
型材断面
  6
CONTINUOUS
 10
-46.521642
 20
-102.262598
 11
-85.715408
 21
-63.068845
  0
LINE
  8
型材断面
  6
CONTINUOUS
 62
    47
 10
-139.718975
 20
-104.896822
 11
-90.443975
 21
-55.621822
  0
LINE
  8
型材断面
  6
CONTINUOUS
 10
-134.366308
 20
-102.262598
 11
-95.172542
 21
-63.068845
  0
LINE
  8
型材断面
  6
CONTINUOUS
 10
-134.64915
 20
-102.262598
 11
-95.455397
 21
-63.068845
  0
LINE
  8
型材断面
  6
CONTINUOUS
 10
98.264565
 20
-102.262598
 11
100.714565
 21
-102.262598
  0
LINE
  8
型材断面
  6
CONTINUOUS
 62
    47
 10
148.764565
 20
-104.896822
 11
148.764565
 21
-105.4652
  0
LINE
  8
型材断面
  6
CONTINUOUS
 62
    47
 10
148.089565
 20
-106.1652
 11
148.764565
 21
-106.1652
  0
LINE
  8
型材断面
  6
CONTINUOUS
 62
    47
 10
148.764565
 20
-106.1652
 11
148.764565
 21
-105.4652
  0
LINE
  8
型材断面
  6
CONTINUOUS
 62
    47
 10
147.439562
 20
-105.4652
 11
148.764565
 21
-105.4652
  0
LINE
  8
型材断面
  6
CONTINUOUS
 62
    47
 10
148.089565
 20
-106.1652
 11
148.089565
 21
-106.6652
  0
LINE
  8
型材断面
  6
CONTINUOUS
 10
148.014565
 20
-106.6652
 11
148.089565
 21
-106.6652
  0
LINE
  8
型材断面
  6
CONTINUOUS
 62
    47
 10
146.66067
 20
-102.792928
 11
147.721333
 21
-103.85359
  0
LINE
  8
型材断面
  6
CONTINUOUS
 10
146.13034
 20
-102.262598
 11
143.411897
 21
-102.262598
  0
LINE
  8
型材断面
  6
CONTINUOUS
 62
    47
 10
147.909565
 20
-108.949237
 11
147.909565
 21
-108.449237
  0
LINE
  8
型材断面
  6
CONTINUOUS
 62
    47
 10
147.909565
 20
-108.449237
 11
146.734565
 21
-108.299237
  0
LINE
  8
型材断面
  6
CONTINUOUS
 62
    47
 10
146.734565
 20
-107.6902
 11
146.734565
 21
-108.299237
  0
LINE
  8
型材断面
  6
CONTINUOUS
 62
    47
 10
147.439562
 20
-112.8902
 11
147.439562
 21
-108.949237
  0
LINE
  8
型材断面
  6
CONTINUOUS
 62
    47
 10
146.589562
 20
-113.6402
 11
146.589562
 21
-112.8902
  0
LINE
  8
型材断面
  6
CONTINUOUS
 62
    47
 10
147.439562
 20
-107.6902
 11
147.439562
 21
-106.6652
  0
LINE
  8
型材断面
  6
CONTINUOUS
 62
    47
 10
147.439562
 20
-112.8902
 11
99.489565
 21
-112.8902
  0
LINE
  8
型材断面
  6
CONTINUOUS
 62
    47
 10
146.589562
 20
-113.6402
 11
99.489565
 21
-113.6402
  0
LINE
  8
型材断面
  6
CONTINUOUS
 10
146.734565
 20
-108.299237
 11
99.489565
 21
-108.299237
  0
LINE
  8
型材断面
  6
CONTINUOUS
 10
148.089565
 20
-106.1652
 11
99.489565
 21
-106.1652
  0
LINE
  8
型材断面
  6
CONTINUOUS
 10
148.764565
 20
-105.4652
 11
99.489565
 21
-105.4652
  0
LINE
  8
型材断面
  6
CONTINUOUS
 62
    47
 10
147.439562
 20
-107.6902
 11
99.489565
 21
-107.6902
  0
LINE
  8
型材断面
  6
CONTINUOUS
 10
147.909565
 20
-108.449237
 11
99.489565
 21
-108.449237
  0
LINE
  8
型材断面
  6
CONTINUOUS
 62
    47
 10
147.909565
 20
-108.949237
 11
99.489565
 21
-108.949237
  0
LINE
  8
型材断面
  6
CONTINUOUS
 10
148.089565
 20
-106.6652
 11
99.489565
 21
-106.6652
  0
LINE
  8
型材断面
  6
CONTINUOUS
 10
148.764565
 20
-104.896822
 11
99.489565
 21
-104.896822
  0
LINE
  8
型材断面
  6
CONTINUOUS
 10
147.721333
 20
-103.85359
 11
99.489565
 21
-103.85359
  0
LINE
  8
型材断面
  6
CONTINUOUS
 10
146.66067
 20
-102.792928
 11
99.489565
 21
-102.792928
  0
LINE
  8
型材断面
  6
CONTINUOUS
 10
147.367778
 20
-103.500035
 11
99.489565
 21
-103.500035
  0
LINE
  8
型材断面
  6
CONTINUOUS
 62
    47
 10
50.214565
 20
-104.896822
 11
50.214565
 21
-105.4652
  0
LINE
  8
型材断面
  6
CONTINUOUS
 62
    47
 10
50.889565
 20
-106.1652
 11
50.214565
 21
-106.1652
  0
LINE
  8
型材断面
  6
CONTINUOUS
 62
    47
 10
50.214565
 20
-106.1652
 11
50.214565
 21
-105.4652
  0
LINE
  8
型材断面
  6
CONTINUOUS
 62
    47
 10
51.539567
 20
-105.4652
 11
50.214565
 21
-105.4652
  0
LINE
  8
型材断面
  6
CONTINUOUS
 62
    47
 10
50.889565
 20
-106.1652
 11
50.889565
 21
-106.6652
  0
LINE
  8
型材断面
  6
CONTINUOUS
 10
50.964565
 20
-106.6652
 11
50.889565
 21
-106.6652
  0
LINE
  8
型材断面
  6
CONTINUOUS
 62
    47
 10
52.31846
 20
-102.792928
 11
51.257798
 21
-103.85359
  0
LINE
  8
型材断面
  6
CONTINUOUS
 10
52.84879
 20
-102.262598
 11
55.567232
 21
-102.262598
  0
LINE
  8
型材断面
  6
CONTINUOUS
 62
    47
 10
51.069565
 20
-108.949237
 11
51.069565
 21
-108.449237
  0
LINE
  8
型材断面
  6
CONTINUOUS
 62
    47
 10
51.069565
 20
-108.449237
 11
52.244565
 21
-108.299237
  0
LINE
  8
型材断面
  6
CONTINUOUS
 62
    47
 10
52.244565
 20
-107.6902
 11
52.244565
 21
-108.299237
  0
LINE
  8
型材断面
  6
CONTINUOUS
 62
    47
 10
51.539567
 20
-112.8902
 11
51.539567
 21
-108.949237
  0
LINE
  8
型材断面
  6
CONTINUOUS
 62
    47
 10
52.389567
 20
-113.6402
 11
52.389567
 21
-112.8902
  0
LINE
  8
型材断面
  6
CONTINUOUS
 62
    47
 10
51.539567
 20
-107.6902
 11
51.539567
 21
-106.6652
  0
LINE
  8
型材断面
  6
CONTINUOUS
 62
    47
 10
51.539567
 20
-112.8902
 11
99.489565
 21
-112.8902
  0
LINE
  8
型材断面
  6
CONTINUOUS
 62
    47
 10
52.389567
 20
-113.6402
 11
99.489565
 21
-113.6402
  0
LINE
  8
型材断面
  6
CONTINUOUS
 10
52.244565
 20
-108.299237
 11
99.489565
 21
-108.299237
  0
LINE
  8
型材断面
  6
CONTINUOUS
 10
50.889565
 20
-106.1652
 11
99.489565
 21
-106.1652
  0
LINE
  8
型材断面
  6
CONTINUOUS
 10
50.214565
 20
-105.4652
 11
99.489565
 21
-105.4652
  0
LINE
  8
型材断面
  6
CONTINUOUS
 62
    47
 10
51.539567
 20
-107.6902
 11
99.489565
 21
-107.6902
  0
LINE
  8
型材断面
  6
CONTINUOUS
 10
51.069565
 20
-108.449237
 11
99.489565
 21
-108.449237
  0
LINE
  8
型材断面
  6
CONTINUOUS
 62
    47
 10
51.069565
 20
-108.949237
 11
99.489565
 21
-108.949237
  0
LINE
  8
型材断面
  6
CONTINUOUS
 10
50.889565
 20
-106.6652
 11
99.489565
 21
-106.6652
  0
LINE
  8
型材断面
  6
CONTINUOUS
 10
50.214565
 20
-104.896822
 11
99.489565
 21
-104.896822
  0
LINE
  8
型材断面
  6
CONTINUOUS
 10
51.257798
 20
-103.85359
 11
99.489565
 21
-103.85359
  0
LINE
  8
型材断面
  6
CONTINUOUS
 10
52.31846
 20
-102.792928
 11
99.489565
 21
-102.792928
  0
LINE
  8
型材断面
  6
CONTINUOUS
 10
51.611353
 20
-103.500035
 11
99.489565
 21
-103.500035
  0
LINE
  8
型材断面
  6
CONTINUOUS
 10
99.489565
 20
-55.515858
 11
91.989565
 21
-63.015863
  0
LINE
  8
型材断面
  6
CONTINUOUS
 10
91.989565
 20
-63.015863
 11
92.042547
 21
-63.068845
  0
LINE
  8
型材断面
  6
CONTINUOUS
 10
91.989562
 20
-63.015863
 11
96.239562
 21
-63.015863
  0
LINE
  8
型材断面
  6
CONTINUOUS
 10
92.042547
 20
-63.068845
 11
96.239562
 21
-63.068845
  0
LINE
  8
型材断面
  6
CONTINUOUS
 10
92.042547
 20
-63.068845
 11
91.989562
 21
-63.015863
  0
LINE
  8
型材断面
  6
CONTINUOUS
 10
91.989565
 20
-63.015863
 11
99.489565
 21
-63.015863
  0
LINE
  8
型材断面
  6
CONTINUOUS
 10
92.042547
 20
-63.068845
 11
99.489565
 21
-63.068845
  0
LINE
  8
型材断面
  6
CONTINUOUS
 10
98.264565
 20
-102.262598
 11
98.264565
 21
-63.068845
  0
LINE
  8
型材断面
  6
CONTINUOUS
 10
99.239565
 20
-102.262598
 11
99.239565
 21
-63.068845
  0
LINE
  8
型材断面
  6
CONTINUOUS
 10
99.739565
 20
-102.262598
 11
99.739565
 21
-63.068845
  0
LINE
  8
型材断面
  6
CONTINUOUS
 10
100.714565
 20
-102.262598
 11
100.714565
 21
-63.068845
  0
LINE
  8
型材断面
  6
CONTINUOUS
 10
106.989565
 20
-63.015863
 11
106.936583
 21
-63.068845
  0
LINE
  8
型材断面
  6
CONTINUOUS
 10
106.989567
 20
-63.015863
 11
102.739567
 21
-63.015863
  0
LINE
  8
型材断面
  6
CONTINUOUS
 10
106.936583
 20
-63.068845
 11
102.739567
 21
-63.068845
  0
LINE
  8
型材断面
  6
CONTINUOUS
 10
106.936583
 20
-63.068845
 11
106.989567
 21
-63.015863
  0
LINE
  8
型材断面
  6
CONTINUOUS
 10
106.989565
 20
-63.015863
 11
99.489565
 21
-63.015863
  0
LINE
  8
型材断面
  6
CONTINUOUS
 10
106.936583
 20
-63.068845
 11
99.489565
 21
-63.068845
  0
LINE
  8
型材断面
  6
CONTINUOUS
 10
99.489565
 20
-55.515858
 11
106.98957
 21
-63.015863
  0
LINE
  8
型材断面
  6
CONTINUOUS
 62
    47
 10
148.764565
 20
-104.896822
 11
99.489565
 21
-55.621822
  0
LINE
  8
型材断面
  6
CONTINUOUS
 10
143.69474
 20
-102.262598
 11
104.500987
 21
-63.068845
  0
LINE
  8
型材断面
  6
CONTINUOUS
 10
143.411897
 20
-102.262598
 11
104.218132
 21
-63.068845
  0
LINE
  8
型材断面
  6
CONTINUOUS
 62
    47
 10
50.214565
 20
-104.896822
 11
99.489565
 21
-55.621822
  0
LINE
  8
型材断面
  6
CONTINUOUS
 10
55.567232
 20
-102.262598
 11
94.760997
 21
-63.068845
  0
LINE
  8
型材断面
  6
CONTINUOUS
 10
55.28439
 20
-102.262598
 11
94.478142
 21
-63.068845
  0
INSERT
  2
*GRP_0019
  8
型材断面
  6
CONTINUOUS
 10
0.0
 20
0.0
  0
INSERT
  2
*GRP_0020
  8
型材断面
  6
CONTINUOUS
 10
0.0
 20
0.0
  0
INSERT
  2
*GRP_0021
  8
型材断面
  6
CONTINUOUS
 10
0.0
 20
0.0
  0
INSERT
  2
*GRP_0022
  8
型材断面
  6
CONTINUOUS
 10
0.0
 20
0.0
  0
LINE
  8
型材断面
  6
CONTINUOUS
 10
104.457697
 20
55.716473
 11
128.38932
 21
55.716473
  0
LINE
  8
ガラス
  6
CONTINUOUS
 10
-99.624115
 20
71.733195
 11
-103.49675
 21
67.86056
  0
LINE
  8
ガラス
  6
CONTINUOUS
 10
-101.222473
 20
70.852873
 11
-102.616428
 21
69.458917
  0
LINE
  8
ガラス
  6
CONTINUOUS
 10
-77.370513
 20
71.733195
 11
-81.243148
 21
67.86056
  0
LINE
  8
ガラス
  6
CONTINUOUS
 10
-78.96887
 20
70.852873
 11
-80.362825
 21
69.458917
  0
LINE
  8
ガラス
  6
CONTINUOUS
 10
-99.624115
 20
11.32301
 11
-103.49675
 21
7.450375
  0
LINE
  8
ガラス
  6
CONTINUOUS
 10
-101.222473
 20
10.442687
 11
-102.616428
 21
9.048733
  0
LINE
  8
ガラス
  6
CONTINUOUS
 10
-77.370513
 20
11.32301
 11
-81.243148
 21
7.450375
  0
LINE
  8
ガラス
  6
CONTINUOUS
 10
-78.96887
 20
10.442687
 11
-80.362825
 21
9.048733
  0
LINE
  8
ガラス
  6
CONTINUOUS
 10
-57.337715
 20
29.876017
 11
-61.21035
 21
26.003383
  0
LINE
  8
ガラス
  6
CONTINUOUS
 10
-58.936072
 20
28.995695
 11
-60.330027
 21
27.60174
  0
LINE
  8
ガラス
  6
CONTINUOUS
 10
-57.337715
 20
53.96847
 11
-61.21035
 21
50.095835
  0
LINE
  8
ガラス
  6
CONTINUOUS
 10
-58.936072
 20
53.088148
 11
-60.330027
 21
51.694192
  0
LINE
  8
ガラス
  6
CONTINUOUS
 10
-122.57988
 20
29.876017
 11
-126.452515
 21
26.003383
  0
LINE
  8
ガラス
  6
CONTINUOUS
 10
-124.178237
 20
28.995695
 11
-125.572192
 21
27.60174
  0
LINE
  8
ガラス
  6
CONTINUOUS
 10
-122.57988
 20
53.96847
 11
-126.452515
 21
50.095835
  0
LINE
  8
ガラス
  6
CONTINUOUS
 10
-124.178237
 20
53.088148
 11
-125.572192
 21
51.694192
  0
LINE
  8
ガラス
  6
CONTINUOUS
 10
-78.250835
 20
70.134837
 11
-79.64479
 21
68.740883
  0
LINE
  8
ガラス
  6
CONTINUOUS
 10
-100.504438
 20
70.134837
 11
-101.898393
 21
68.740883
  0
LINE
  8
ガラス
  6
CONTINUOUS
 10
-123.460203
 20
52.370112
 11
-124.854158
 21
50.976158
  0
LINE
  8
ガラス
  6
CONTINUOUS
 10
-123.460203
 20
28.27766
 11
-124.854158
 21
26.883705
  0
LINE
  8
ガラス
  6
CONTINUOUS
 10
-100.504438
 20
9.724653
 11
-101.898393
 21
8.330697
  0
LINE
  8
ガラス
  6
CONTINUOUS
 10
-78.250835
 20
9.724653
 11
-79.64479
 21
8.330697
  0
LINE
  8
ガラス
  6
CONTINUOUS
 10
-58.218037
 20
28.27766
 11
-59.611992
 21
26.883705
  0
LINE
  8
ガラス
  6
CONTINUOUS
 10
-58.218037
 20
52.370112
 11
-59.611992
 21
50.976158
  0
LINE
  8
ガラス
  6
CONTINUOUS
 10
-100.638815
 20
-82.50933
 11
-104.51145
 21
-86.381965
  0
LINE
  8
ガラス
  6
CONTINUOUS
 10
-101.519138
 20
-84.107687
 11
-102.913093
 21
-85.501642
  0
LINE
  8
ガラス
  6
CONTINUOUS
 10
-102.237173
 20
-83.389653
 11
-103.631128
 21
-84.783608
  0
LINE
  8
ガラス
  6
CONTINUOUS
 10
-75.564205
 20
-82.50933
 11
-79.43684
 21
-86.381965
  0
LINE
  8
ガラス
  6
CONTINUOUS
 10
-76.444528
 20
-84.107687
 11
-77.838483
 21
-85.501642
  0
LINE
  8
ガラス
  6
CONTINUOUS
 10
-77.162562
 20
-83.389653
 11
-78.556517
 21
-84.783608
  0
LINE
  8
ガラス
  6
CONTINUOUS
 10
89.294725
 20
-82.50933
 11
85.42209
 21
-86.381965
  0
LINE
  8
ガラス
  6
CONTINUOUS
 10
88.414402
 20
-84.107687
 11
87.020448
 21
-85.501642
  0
LINE
  8
ガラス
  6
CONTINUOUS
 10
87.696368
 20
-83.389653
 11
86.302412
 21
-84.783608
  0
LINE
  8
ガラス
  6
CONTINUOUS
 10
114.369335
 20
-82.50933
 11
110.4967
 21
-86.381965
  0
LINE
  8
ガラス
  6
CONTINUOUS
 10
113.489012
 20
-84.107687
 11
112.095058
 21
-85.501642
  0
LINE
  8
ガラス
  6
CONTINUOUS
 10
112.770977
 20
-83.389653
 11
111.377023
 21
-84.783608
  0
INSERT
  2
*GRP_0017
  8
ガラス
  6
DOT
 10
0.0
 20
0.0
  0
TEXT
  7
TextStyle03
  8
文字
  6
CONTINUOUS
 10
67.6
 20
91.075
  1
ＮＳコード：ＮＳ４ＣＳ
 40
5.0
 72
     5
 11
128.85
 21
91.075
  0
TEXT
  7
TextStyle03
  8
文字
  6
CONTINUOUS
 10
2.125
 20
8.8
  1
は排水穴位置を示す
 40
3.0
 72
     5
 11
32.125
 21
8.8
  0
TEXT
  7
TextStyle03
  8
文字
  6
CONTINUOUS
 10
2.125
 20
0.95
  1
はケーシング位置を示す
 40
3.0
 72
     5
 11
38.875
 21
0.95
  0
TEXT
  7
TextStyle03
  8
文字
  6
CONTINUOUS
 10
2.125
 20
-2.425
  1
４ヶ所中1ヶ所に設定
 40
3.0
 72
     5
 11
33.8125
 21
-2.425
  0
TEXT
  7
TextStyle03
  8
文字
  6
CONTINUOUS
 10
-3.475
 20
-9.575
  1
アンカー数量　１２ヶ所
 40
3.0
 72
     5
 11
33.275
 21
-9.575
  0
TEXT
  7
TextStyle03
  8
文字
  6
CONTINUOUS
 10
-3.525
 20
-16.375
  1
アームユニット数　４ヶ所
 40
3.0
 72
     5
 11
36.6
 21
-16.375
  0
TEXT
  7
TextStyle03
  8
文字
  6
CONTINUOUS
 10
-35.85
 20
9.075
  1
ﾊﾞﾗﾝｽｽﾃｰ
 40
3.0
 72
     5
 11
-22.5375
 21
9.075
  0
TEXT
  7
TextStyle03
  8
文字
  6
CONTINUOUS
 10
-168.425
 20
-19.375
  1
アンカーピッチ
 40
3.0
 50
90.0
 72
     5
 11
-168.425
 21
3.875
  0
TEXT
  7
TextStyle03
  8
文字
  6
CONTINUOUS
 10
-98.4
 20
99.575
  1
可動装置側
 40
3.0
 72
     5
 11
-81.9
 21
99.575
  0
TEXT
  7
TextStyle03
  8
文字
  6
CONTINUOUS
 10
-152.7
 20
117.125
  1
アンカーピッチ
 40
3.0
 72
     5
 11
-129.45
 21
117.125
  0
TEXT
  7
TextStyle03
  8
文字
  6
CONTINUOUS
 10
-158.3625
 20
73.4
  1
ﾊﾞﾗﾝｽｽﾃｰ
 40
3.0
 72
     5
 11
-145.05
 21
73.4
  0
TEXT
  7
TextStyle03
  8
文字
  6
CONTINUOUS
 10
-98.4
 20
-21.75
  1
可動装置側
 40
3.0
 72
     5
 11
-81.9
 21
-21.75
  0
TEXT
  7
TextStyle03
  8
文字
  6
CONTINUOUS
 10
67.575
 20
118.825
  1
シリーズ：ＳＴＦ４
 40
5.0
 72
     5
 11
117.575
 21
118.825
  0
TEXT
  7
TextStyle03
  8
文字
  6
CONTINUOUS
 10
67.575
 20
113.2
  1
　　　　　四角錘（上下可動）1800×1800タイプ
 40
5.0
 72
     5
 11
190.7
 21
113.2
  0
TEXT
  7
TextStyle03
  8
文字
  6
CONTINUOUS
 10
67.575
 20
107.575
  1
　　　　　シングルガラス仕様
 40
5.0
 72
     5
 11
145.7
 21
107.575
  0
TEXT
  7
TextStyle03
  8
文字
  6
CONTINUOUS
 10
67.575
 20
101.95
  1
図面名　：外観姿図
 40
5.0
 72
     5
 11
117.575
 21
101.95
  0
TEXT
  7
TextStyle03
  8
文字
  6
CONTINUOUS
 10
67.575
 20
96.325
  1
　　　　　　
 40
5.0
 72
     5
 11
100.7
 21
96.325
  0
TEXT
  7
TextStyle03
  8
文字
  6
CONTINUOUS
 10
108.025
 20
56.9
  1
ガラス寸法
 40
3.0
 72
     5
 11
124.525
 21
56.9
  0
TEXT
  7
TextStyle03
  8
文字
  6
CONTINUOUS
 10
126.525
 20
5.825
  1
本図×４枚
 40
3.0
 72
     5
 11
143.025
 21
5.825
  0
TEXT
  7
TextStyle03
  8
文字
  6
CONTINUOUS
 10
126.525
 20
2.45
  1
逆図×４枚
 40
3.0
 72
     5
 11
143.025
 21
2.45
  0
INSERT
  2
*GRP_0002
  8
寸法
  6
CONTINUOUS
 10
0.0
 20
0.0
  0
INSERT
  2
*DIM_0003
  8
寸法
  6
CONTINUOUS
 10
0.0
 20
0.0
  0
INSERT
  2
*DIM_0004
  8
寸法
  6
CONTINUOUS
 10
0.0
 20
0.0
  0
INSERT
  2
*DIM_0006
  8
寸法
  6
CONTINUOUS
 10
0.0
 20
0.0
  0
INSERT
  2
*DIM_0007
  8
寸法
  6
CONTINUOUS
 10
0.0
 20
0.0
  0
INSERT
  2
*DIM_0008
  8
寸法
  6
CONTINUOUS
 10
0.0
 20
0.0
  0
INSERT
  2
*GRP_0005
  8
寸法
  6
CONTINUOUS
 10
0.0
 20
0.0
  0
INSERT
  2
*DIM_0009
  8
寸法
  6
CONTINUOUS
 10
0.0
 20
0.0
  0
INSERT
  2
*DIM_0010
  8
寸法
  6
CONTINUOUS
 10
0.0
 20
0.0
  0
INSERT
  2
*DIM_0011
  8
寸法
  6
CONTINUOUS
 10
0.0
 20
0.0
  0
INSERT
  2
*DIM_0012
  8
寸法
  6
CONTINUOUS
 10
0.0
 20
0.0
  0
INSERT
  2
*DIM_0013
  8
寸法
  6
CONTINUOUS
 10
0.0
 20
0.0
  0
INSERT
  2
*DIM_0014
  8
寸法
  6
CONTINUOUS
 10
0.0
 20
0.0
  0
INSERT
  2
*DIM_0015
  8
寸法
  6
CONTINUOUS
 10
0.0
 20
0.0
  0
INSERT
  2
*DIM_0016
  8
寸法
  6
CONTINUOUS
 10
0.0
 20
0.0
  0
INSERT
  2
*DIM_0018
  8
寸法
  6
CONTINUOUS
 10
0.0
 20
0.0
  0
INSERT
  2
*DIM_0023
  8
寸法
  6
CONTINUOUS
 10
0.0
 20
0.0
  0
INSERT
  2
*DIM_0024
  8
寸法
  6
CONTINUOUS
 10
0.0
 20
0.0
  0
LINE
  8
曲げ物
  6
CONTINUOUS
 10
103.313343
 20
-1.398145
 11
148.10834
 21
-1.398145
  0
LINE
  8
曲げ物
  6
CONTINUOUS
 10
148.10834
 20
-1.398145
 11
148.10834
 21
61.951275
  0
LINE
  8
曲げ物
  6
CONTINUOUS
 10
103.313343
 20
-1.398145
 11
148.10834
 21
61.951275
  0
ENDSEC
  0
EOF
