  0
SECTION
  2
HEADER
  9
$EXTMIN
 10
-210.0
 20
-148.5
  9
$EXTMAX
 10
210.0
 20
148.5
  9
$PDMODE
 70
    32
  9
$PDSIZE
 40
1.5
  9
$LTSCALE
 40
10.0
  0
ENDSEC
  0
SECTION
  2
TABLES
  0
TABLE
  2
LTYPE
 70
    15
  0
LTYPE
  2
CONTINUOUS
 70
    64
  3
実線
 72
    65
 73
     0
 40
0.0
  0
LTYPE
  2
DASHED
 70
    64
  3
破線A
 72
    65
 73
     2
 40
0.6
 49
0.4
 49
-0.2
  0
LTYPE
  2
DASHEDX2
 70
    64
  3
破線B
 72
    65
 73
     2
 40
1.3
 49
0.9
 49
-0.4
  0
LTYPE
  2
DASHDOT
 70
    64
  3
１点鎖線A
 72
    65
 73
     4
 40
0.5375
 49
0.375
 49
-0.05
 49
0.0625
 49
-0.05
  0
LTYPE
  2
DASHDOTX2
 70
    64
  3
１点鎖線B
 72
    65
 73
     4
 40
1.075
 49
0.75
 49
-0.1
 49
0.125
 49
-0.1
  0
LTYPE
  2
DIVIDE2
 70
    64
  3
２点鎖線A
 72
    65
 73
     6
 40
0.5125
 49
0.3
 49
-0.0375
 49
0.05
 49
-0.0375
 49
0.05
 49
-0.0375
  0
LTYPE
  2
DIVIDE
 70
    64
  3
２点鎖線B
 72
    65
 73
     6
 40
1.05
 49
0.55
 49
-0.1
 49
0.1
 49
-0.1
 49
0.1
 49
-0.1
  0
LTYPE
  2
DOT
 70
    64
  3
点線A
 72
    65
 73
     2
 40
0.1125
 49
0.0625
 49
-0.05
  0
LTYPE
  2
DOTX2
 70
    64
  3
点線B
 72
    65
 73
     2
 40
0.275
 49
0.15
 49
-0.125
  0
LTYPE
  2
CONTINUOUS
 70
    64
  3
実線
 72
    65
 73
     0
 40
0.0
  0
LTYPE
  2
CONTINUOUS
 70
    64
  3
実線
 72
    65
 73
     0
 40
0.0
  0
LTYPE
  2
CONTINUOUS
 70
    64
  3
実線
 72
    65
 73
     0
 40
0.0
  0
LTYPE
  2
CONTINUOUS
 70
    64
  3
実線
 72
    65
 73
     0
 40
0.0
  0
LTYPE
  2
CONTINUOUS
 70
    64
  3
実線
 72
    65
 73
     0
 40
0.0
  0
LTYPE
  2
CONTINUOUS
 70
    64
  3
実線
 72
    65
 73
     0
 40
0.0
  0
ENDTAB
  0
TABLE
  2
LAYER
 70
    34
  0
LAYER
  2
通り芯
 70
     0
 62
    15
  6
CONTINUOUS
  0
LAYER
  2
補助線
 70
     0
 62
    16
  6
DOT
  0
LAYER
  2
躯体
 70
     0
 62
    31
  6
CONTINUOUS
  0
LAYER
  2
型材
 70
     0
 62
    32
  6
CONTINUOUS
  0
LAYER
  2
型材断面
 70
     0
 62
    47
  6
CONTINUOUS
  0
LAYER
  2
ガラス
 70
     0
 62
    48
  6
CONTINUOUS
  0
LAYER
  2
ゴム等
 70
     0
 62
    63
  6
CONTINUOUS
  0
LAYER
  2
ボルト／ビス
 70
     0
 62
    64
  6
CONTINUOUS
  0
LAYER
  2
文字
 70
     0
 62
    79
  6
CONTINUOUS
  0
LAYER
  2
寸法
 70
     0
 62
    80
  6
CONTINUOUS
  0
LAYER
  2
ﾊｯﾁﾝｸﾞ
 70
     0
 62
    95
  6
CONTINUOUS
  0
LAYER
  2
別途部材
 70
     0
 62
    96
  6
CONTINUOUS
  0
LAYER
  2
曲げ物
 70
     0
 62
   111
  6
CONTINUOUS
  0
LAYER
  2
鉄骨等
 70
     0
 62
   112
  6
CONTINUOUS
  0
LAYER
  2
St
 70
     0
 62
   127
  6
CONTINUOUS
  0
LAYER
  2
その他部品等
 70
     0
 62
   128
  6
CONTINUOUS
  0
LAYER
  2
ｶﾞｽｹｯﾄ
 70
     0
 62
   143
  6
CONTINUOUS
  0
LAYER
  2
ｽｹｯﾁ
 70
     0
 62
    14
  6
CONTINUOUS
  0
LAYER
  2
0
 70
     0
 62
    17
  6
CONTINUOUS
  0
LAYER
  2
1
 70
     0
 62
    30
  6
CONTINUOUS
  0
LAYER
  2
4
 70
     0
 62
    33
  6
CONTINUOUS
  0
LAYER
  2
ﾚｲﾔ3
 70
     0
 62
    46
  6
CONTINUOUS
  0
LAYER
  2
外形線
 70
     0
 62
    49
  6
CONTINUOUS
  0
LAYER
  2
部品
 70
     0
 62
    14
  6
CONTINUOUS
  0
LAYER
  2
サッシ芯
 70
     0
 62
    17
  6
DASHDOTX2
  0
LAYER
  2
寸法線
 70
     0
 62
    62
  6
CONTINUOUS
  0
LAYER
  2
姿図外形線
 70
     0
 62
    65
  6
CONTINUOUS
  0
LAYER
  2
姿補助線
 70
     0
 62
    30
  6
CONTINUOUS
  0
LAYER
  2
透視線
 70
     0
 62
    78
  6
DOT
  0
LAYER
  2
用紙
 70
     0
 62
    81
  6
CONTINUOUS
  0
LAYER
  2
実線図枠
 70
     0
 62
    94
  6
CONTINUOUS
  0
LAYER
  2
補助図枠
 70
     0
 62
    97
  6
CONTINUOUS
  0
LAYER
  2
建具記号
 70
     0
 62
   110
  6
CONTINUOUS
  0
LAYER
  2
補助文字
 70
     0
 62
   113
  6
CONTINUOUS
  0
ENDTAB
  0
TABLE
  2
STYLE
 70
    10
  0
STYLE
  2
STANDARD
 70
     0
 40
1.0
 41
1.0
 42
1.0
 50
0.0
 71
     0
  3
TXT
  4
BIGFONT
  0
STYLE
  2
TATE
 70
     4
 40
1.0
 41
1.0
 42
1.0
 50
0.0
 71
     0
  3
TXT
  4
BIGFONT
  0
STYLE
  2
TextStyle03
 70
     0
 40
1.0
 41
1.0
 42
1.0
 50
0.0
 71
     0
  3
MONOTXT
  4
BIGFONT
  0
STYLE
  2
TextStyle04
 70
     0
 40
1.0
 41
1.0
 42
1.0
 50
0.0
 71
     0
  3
MONOTXT
  4
BIGFONT
  0
STYLE
  2
TextStyle05
 70
     0
 40
1.0
 41
1.0
 42
1.0
 50
0.0
 71
     0
  3
MONOTXT
  4
BIGFONT
  0
STYLE
  2
TextStyle06
 70
     0
 40
1.0
 41
1.0
 42
1.0
 50
0.0
 71
     0
  3
MONOTXT
  4
BIGFONT
  0
STYLE
  2
TextStyle07
 70
     0
 40
1.0
 41
1.0
 42
1.0
 50
0.0
 71
     0
  3
MONOTXT
  4
BIGFONT
  0
STYLE
  2
TextStyle08
 70
     0
 40
1.0
 41
1.0
 42
1.0
 50
0.0
 71
     0
  3
MONOTXT
  4
BIGFONT
  0
STYLE
  2
TextStyle09
 70
     0
 40
1.0
 41
1.0
 42
1.0
 50
0.0
 71
     0
  3
MONOTXT
  4
BIGFONT
  0
STYLE
  2
TextStyle10
 70
     0
 40
1.0
 41
1.0
 42
1.0
 50
0.0
 71
     0
  3
MONOTXT
  4
BIGFONT
  0
ENDTAB
  0
ENDSEC
  0
SECTION
  2
BLOCKS
  0
BLOCK
  2
*GRP_0001
 70
    65
 10
0.0
 20
0.0
  0
LINE
  8
型材断面
  6
CONTINUOUS
 10
195.0
 20
133.5
 11
195.0
 21
-133.5
  0
LINE
  8
型材断面
  6
CONTINUOUS
 10
195.0
 20
-133.5
 11
-185.0
 21
-133.5
  0
LINE
  8
型材断面
  6
CONTINUOUS
 10
-185.0
 20
-133.5
 11
-185.0
 21
133.5
  0
LINE
  8
型材断面
  6
CONTINUOUS
 10
195.0
 20
133.5
 11
-185.0
 21
133.5
  0
LINE
  8
型材断面
  6
CONTINUOUS
 10
145.0
 20
-133.5
 11
145.0
 21
-118.5
  0
LINE
  8
型材断面
  6
CONTINUOUS
 10
195.0
 20
-118.5
 11
145.0
 21
-118.5
  0
ENDBLK
  0
BLOCK
  2
*GRP_0002
 70
    65
 10
0.0
 20
0.0
  0
LINE
  8
補助線
  6
BYBLOCK
 62
    64
 10
61.493345
 20
-85.326657
 11
61.667035
 21
-85.506462
  0
LINE
  8
補助線
  6
BYBLOCK
 62
    64
 10
61.670092
 20
-85.329715
 11
61.490287
 21
-85.503405
  0
LINE
  8
補助線
  6
BYBLOCK
 62
    64
 10
50.09885
 20
-73.531513
 11
49.925152
 21
-73.351705
  0
LINE
  8
補助線
  6
BYBLOCK
 62
    64
 10
50.1019
 20
-73.35476
 11
49.922098
 21
-73.528457
  0
LINE
  8
補助線
  6
BYBLOCK
 62
    64
 10
38.530597
 20
-61.556615
 11
38.3569
 21
-61.376815
  0
LINE
  8
補助線
  6
BYBLOCK
 62
    64
 10
38.53365
 20
-61.379868
 11
38.353847
 21
-61.553565
  0
LINE
  8
型材断面
  6
CONTINUOUS
 10
62.826605
 20
-84.907685
 11
62.80828
 21
-85.968185
  0
LINE
  8
型材断面
  6
CONTINUOUS
 10
62.80828
 20
-85.968185
 11
62.089065
 21
-86.662975
  0
LINE
  8
型材断面
  6
CONTINUOUS
 10
62.089065
 20
-86.662975
 11
61.028565
 21
-86.64465
  0
LINE
  8
型材断面
  6
CONTINUOUS
 10
38.99537
 20
-60.23862
 11
37.93487
 21
-60.220305
  0
LINE
  8
型材断面
  6
CONTINUOUS
 10
37.93487
 20
-60.220305
 11
37.215653
 21
-60.915095
  0
LINE
  8
型材断面
  6
CONTINUOUS
 10
37.215653
 20
-60.915095
 11
37.197337
 21
-61.975595
  0
LINE
  8
型材断面
  6
CONTINUOUS
 10
62.826605
 20
-84.907685
 11
38.99549
 21
-60.238623
  0
LINE
  8
型材断面
  6
CONTINUOUS
 10
61.028565
 20
-86.64465
 11
37.19734
 21
-61.975485
  0
LINE
  8
ボルト／ビス
  6
CONTINUOUS
 62
    64
 10
61.91238
 20
-85.09565
 11
62.0242
 21
-85.543793
  0
LINE
  8
ボルト／ビス
  6
CONTINUOUS
 62
    64
 10
61.91238
 20
-85.09565
 11
61.468373
 21
-84.968423
  0
LINE
  8
ボルト／ビス
  6
CONTINUOUS
 62
    64
 10
61.248
 20
-85.73747
 11
61.692008
 21
-85.864697
  0
LINE
  8
ボルト／ビス
  6
CONTINUOUS
 62
    64
 10
61.248
 20
-85.73747
 11
61.13618
 21
-85.289328
  0
CIRCLE
  8
ボルト／ビス
  6
CONTINUOUS
 62
    64
 10
61.58019
 20
-85.41656
 40
0.4
  0
LINE
  8
ボルト／ビス
  6
CONTINUOUS
 62
    64
 10
61.468373
 20
-84.968423
 11
61.13618
 21
-85.289328
  0
LINE
  8
ボルト／ビス
  6
CONTINUOUS
 62
    64
 10
62.0242
 20
-85.543793
 11
61.692008
 21
-85.864697
  0
LINE
  8
ボルト／ビス
  6
CONTINUOUS
 62
    64
 10
50.344192
 20
-73.120702
 11
49.90018
 21
-72.993468
  0
LINE
  8
ボルト／ビス
  6
CONTINUOUS
 62
    64
 10
50.344192
 20
-73.120702
 11
50.456013
 21
-73.56884
  0
LINE
  8
ボルト／ビス
  6
CONTINUOUS
 62
    64
 10
49.679808
 20
-73.762515
 11
49.56799
 21
-73.314375
  0
LINE
  8
ボルト／ビス
  6
CONTINUOUS
 62
    64
 10
49.679808
 20
-73.762515
 11
50.123818
 21
-73.889747
  0
CIRCLE
  8
ボルト／ビス
  6
CONTINUOUS
 62
    64
 10
50.011997
 20
-73.441608
 40
0.4
  0
LINE
  8
ボルト／ビス
  6
CONTINUOUS
 62
    64
 10
50.456013
 20
-73.56884
 11
50.123818
 21
-73.889747
  0
LINE
  8
ボルト／ビス
  6
CONTINUOUS
 62
    64
 10
49.90018
 20
-72.993468
 11
49.56799
 21
-73.314375
  0
LINE
  8
ボルト／ビス
  6
CONTINUOUS
 62
    64
 10
38.77594
 20
-61.145805
 11
38.331927
 21
-61.018575
  0
LINE
  8
ボルト／ビス
  6
CONTINUOUS
 62
    64
 10
38.77594
 20
-61.145805
 11
38.887758
 21
-61.593945
  0
LINE
  8
ボルト／ビス
  6
CONTINUOUS
 62
    64
 10
38.111557
 20
-61.787625
 11
37.99974
 21
-61.339483
  0
LINE
  8
ボルト／ビス
  6
CONTINUOUS
 62
    64
 10
38.111557
 20
-61.787625
 11
38.555573
 21
-61.914855
  0
CIRCLE
  8
ボルト／ビス
  6
CONTINUOUS
 62
    64
 10
38.44375
 20
-61.466715
 40
0.4
  0
LINE
  8
ボルト／ビス
  6
CONTINUOUS
 62
    64
 10
38.887758
 20
-61.593945
 11
38.555573
 21
-61.914855
  0
LINE
  8
ボルト／ビス
  6
CONTINUOUS
 62
    64
 10
38.331927
 20
-61.018575
 11
37.99974
 21
-61.339483
  0
ENDBLK
  0
BLOCK
  2
*GRP_0003
 70
    65
 10
0.0
 20
0.0
  0
LINE
  8
補助線
  6
BYBLOCK
 62
    64
 10
38.530655
 20
-85.326657
 11
38.356965
 21
-85.506462
  0
LINE
  8
補助線
  6
BYBLOCK
 62
    64
 10
38.353908
 20
-85.329715
 11
38.533713
 21
-85.503405
  0
LINE
  8
補助線
  6
BYBLOCK
 62
    64
 10
49.92515
 20
-73.531513
 11
50.098848
 21
-73.351705
  0
LINE
  8
補助線
  6
BYBLOCK
 62
    64
 10
49.9221
 20
-73.35476
 11
50.101902
 21
-73.528457
  0
LINE
  8
補助線
  6
BYBLOCK
 62
    64
 10
61.493403
 20
-61.556615
 11
61.6671
 21
-61.376815
  0
LINE
  8
補助線
  6
BYBLOCK
 62
    64
 10
61.49035
 20
-61.379868
 11
61.670153
 21
-61.553565
  0
LINE
  8
型材断面
  6
CONTINUOUS
 10
37.197395
 20
-84.907685
 11
37.21572
 21
-85.968185
  0
LINE
  8
型材断面
  6
CONTINUOUS
 10
37.21572
 20
-85.968185
 11
37.934935
 21
-86.662975
  0
LINE
  8
型材断面
  6
CONTINUOUS
 10
37.934935
 20
-86.662975
 11
38.995435
 21
-86.64465
  0
LINE
  8
型材断面
  6
CONTINUOUS
 10
61.02863
 20
-60.23862
 11
62.08913
 21
-60.220305
  0
LINE
  8
型材断面
  6
CONTINUOUS
 10
62.08913
 20
-60.220305
 11
62.808347
 21
-60.915095
  0
LINE
  8
型材断面
  6
CONTINUOUS
 10
62.808347
 20
-60.915095
 11
62.826663
 21
-61.975595
  0
LINE
  8
型材断面
  6
CONTINUOUS
 10
37.197395
 20
-84.907685
 11
61.02851
 21
-60.238623
  0
LINE
  8
型材断面
  6
CONTINUOUS
 10
38.995435
 20
-86.64465
 11
62.82666
 21
-61.975485
  0
LINE
  8
ボルト／ビス
  6
CONTINUOUS
 62
    64
 10
38.11162
 20
-85.09565
 11
37.9998
 21
-85.543793
  0
LINE
  8
ボルト／ビス
  6
CONTINUOUS
 62
    64
 10
38.11162
 20
-85.09565
 11
38.555628
 21
-84.968423
  0
LINE
  8
ボルト／ビス
  6
CONTINUOUS
 62
    64
 10
38.776
 20
-85.73747
 11
38.331992
 21
-85.864697
  0
LINE
  8
ボルト／ビス
  6
CONTINUOUS
 62
    64
 10
38.776
 20
-85.73747
 11
38.88782
 21
-85.289328
  0
CIRCLE
  8
ボルト／ビス
  6
CONTINUOUS
 62
    64
 10
38.44381
 20
-85.41656
 40
0.4
  0
LINE
  8
ボルト／ビス
  6
CONTINUOUS
 62
    64
 10
38.555628
 20
-84.968423
 11
38.88782
 21
-85.289328
  0
LINE
  8
ボルト／ビス
  6
CONTINUOUS
 62
    64
 10
37.9998
 20
-85.543793
 11
38.331992
 21
-85.864697
  0
LINE
  8
ボルト／ビス
  6
CONTINUOUS
 62
    64
 10
49.679808
 20
-73.120702
 11
50.12382
 21
-72.993468
  0
LINE
  8
ボルト／ビス
  6
CONTINUOUS
 62
    64
 10
49.679808
 20
-73.120702
 11
49.567987
 21
-73.56884
  0
LINE
  8
ボルト／ビス
  6
CONTINUOUS
 62
    64
 10
50.344192
 20
-73.762515
 11
50.45601
 21
-73.314375
  0
LINE
  8
ボルト／ビス
  6
CONTINUOUS
 62
    64
 10
50.344192
 20
-73.762515
 11
49.900182
 21
-73.889747
  0
CIRCLE
  8
ボルト／ビス
  6
CONTINUOUS
 62
    64
 10
50.012003
 20
-73.441608
 40
0.4
  0
LINE
  8
ボルト／ビス
  6
CONTINUOUS
 62
    64
 10
49.567987
 20
-73.56884
 11
49.900182
 21
-73.889747
  0
LINE
  8
ボルト／ビス
  6
CONTINUOUS
 62
    64
 10
50.12382
 20
-72.993468
 11
50.45601
 21
-73.314375
  0
LINE
  8
ボルト／ビス
  6
CONTINUOUS
 62
    64
 10
61.24806
 20
-61.145805
 11
61.692072
 21
-61.018575
  0
LINE
  8
ボルト／ビス
  6
CONTINUOUS
 62
    64
 10
61.24806
 20
-61.145805
 11
61.136242
 21
-61.593945
  0
LINE
  8
ボルト／ビス
  6
CONTINUOUS
 62
    64
 10
61.912442
 20
-61.787625
 11
62.02426
 21
-61.339483
  0
LINE
  8
ボルト／ビス
  6
CONTINUOUS
 62
    64
 10
61.912442
 20
-61.787625
 11
61.468427
 21
-61.914855
  0
CIRCLE
  8
ボルト／ビス
  6
CONTINUOUS
 62
    64
 10
61.58025
 20
-61.466715
 40
0.4
  0
LINE
  8
ボルト／ビス
  6
CONTINUOUS
 62
    64
 10
61.136242
 20
-61.593945
 11
61.468427
 21
-61.914855
  0
LINE
  8
ボルト／ビス
  6
CONTINUOUS
 62
    64
 10
61.692072
 20
-61.018575
 11
62.02426
 21
-61.339483
  0
ENDBLK
  0
BLOCK
  2
*GRP_0004
 70
    65
 10
0.0
 20
0.0
  0
LINE
  8
補助線
  6
BYBLOCK
 62
    64
 10
-14.332965
 20
-85.326657
 11
-14.506655
 21
-85.506462
  0
LINE
  8
補助線
  6
BYBLOCK
 62
    64
 10
-14.509713
 20
-85.329715
 11
-14.329907
 21
-85.503405
  0
LINE
  8
補助線
  6
BYBLOCK
 62
    64
 10
-2.93847
 20
-73.531513
 11
-2.764772
 21
-73.351705
  0
LINE
  8
補助線
  6
BYBLOCK
 62
    64
 10
-2.94152
 20
-73.35476
 11
-2.761718
 21
-73.528457
  0
LINE
  8
補助線
  6
BYBLOCK
 62
    64
 10
8.629782
 20
-61.556615
 11
8.80348
 21
-61.376815
  0
LINE
  8
補助線
  6
BYBLOCK
 62
    64
 10
8.62673
 20
-61.379868
 11
8.806532
 21
-61.553565
  0
LINE
  8
型材断面
  6
CONTINUOUS
 10
-15.666225
 20
-84.907685
 11
-15.6479
 21
-85.968185
  0
LINE
  8
型材断面
  6
CONTINUOUS
 10
-15.6479
 20
-85.968185
 11
-14.928685
 21
-86.662975
  0
LINE
  8
型材断面
  6
CONTINUOUS
 10
-14.928685
 20
-86.662975
 11
-13.868185
 21
-86.64465
  0
LINE
  8
型材断面
  6
CONTINUOUS
 10
8.16501
 20
-60.23862
 11
9.22551
 21
-60.220305
  0
LINE
  8
型材断面
  6
CONTINUOUS
 10
9.22551
 20
-60.220305
 11
9.944728
 21
-60.915095
  0
LINE
  8
型材断面
  6
CONTINUOUS
 10
9.944728
 20
-60.915095
 11
9.963042
 21
-61.975595
  0
LINE
  8
型材断面
  6
CONTINUOUS
 10
-15.666225
 20
-84.907685
 11
8.16489
 21
-60.238623
  0
LINE
  8
型材断面
  6
CONTINUOUS
 10
-13.868185
 20
-86.64465
 11
9.96304
 21
-61.975485
  0
LINE
  8
ボルト／ビス
  6
CONTINUOUS
 62
    64
 10
-14.752
 20
-85.09565
 11
-14.86382
 21
-85.543793
  0
LINE
  8
ボルト／ビス
  6
CONTINUOUS
 62
    64
 10
-14.752
 20
-85.09565
 11
-14.307993
 21
-84.968423
  0
LINE
  8
ボルト／ビス
  6
CONTINUOUS
 62
    64
 10
-14.08762
 20
-85.73747
 11
-14.531628
 21
-85.864697
  0
LINE
  8
ボルト／ビス
  6
CONTINUOUS
 62
    64
 10
-14.08762
 20
-85.73747
 11
-13.9758
 21
-85.289328
  0
CIRCLE
  8
ボルト／ビス
  6
CONTINUOUS
 62
    64
 10
-14.41981
 20
-85.41656
 40
0.4
  0
LINE
  8
ボルト／ビス
  6
CONTINUOUS
 62
    64
 10
-14.307993
 20
-84.968423
 11
-13.9758
 21
-85.289328
  0
LINE
  8
ボルト／ビス
  6
CONTINUOUS
 62
    64
 10
-14.86382
 20
-85.543793
 11
-14.531628
 21
-85.864697
  0
LINE
  8
ボルト／ビス
  6
CONTINUOUS
 62
    64
 10
-3.183813
 20
-73.120702
 11
-2.7398
 21
-72.993468
  0
LINE
  8
ボルト／ビス
  6
CONTINUOUS
 62
    64
 10
-3.183813
 20
-73.120702
 11
-3.295633
 21
-73.56884
  0
LINE
  8
ボルト／ビス
  6
CONTINUOUS
 62
    64
 10
-2.519427
 20
-73.762515
 11
-2.40761
 21
-73.314375
  0
LINE
  8
ボルト／ビス
  6
CONTINUOUS
 62
    64
 10
-2.519427
 20
-73.762515
 11
-2.963437
 21
-73.889747
  0
CIRCLE
  8
ボルト／ビス
  6
CONTINUOUS
 62
    64
 10
-2.851617
 20
-73.441608
 40
0.4
  0
LINE
  8
ボルト／ビス
  6
CONTINUOUS
 62
    64
 10
-3.295633
 20
-73.56884
 11
-2.963437
 21
-73.889747
  0
LINE
  8
ボルト／ビス
  6
CONTINUOUS
 62
    64
 10
-2.7398
 20
-72.993468
 11
-2.40761
 21
-73.314375
  0
LINE
  8
ボルト／ビス
  6
CONTINUOUS
 62
    64
 10
8.38444
 20
-61.145805
 11
8.828452
 21
-61.018575
  0
LINE
  8
ボルト／ビス
  6
CONTINUOUS
 62
    64
 10
8.38444
 20
-61.145805
 11
8.272623
 21
-61.593945
  0
LINE
  8
ボルト／ビス
  6
CONTINUOUS
 62
    64
 10
9.048822
 20
-61.787625
 11
9.16064
 21
-61.339483
  0
LINE
  8
ボルト／ビス
  6
CONTINUOUS
 62
    64
 10
9.048822
 20
-61.787625
 11
8.604808
 21
-61.914855
  0
CIRCLE
  8
ボルト／ビス
  6
CONTINUOUS
 62
    64
 10
8.71663
 20
-61.466715
 40
0.4
  0
LINE
  8
ボルト／ビス
  6
CONTINUOUS
 62
    64
 10
8.272623
 20
-61.593945
 11
8.604808
 21
-61.914855
  0
LINE
  8
ボルト／ビス
  6
CONTINUOUS
 62
    64
 10
8.828452
 20
-61.018575
 11
9.16064
 21
-61.339483
  0
ENDBLK
  0
BLOCK
  2
*GRP_0005
 70
    65
 10
0.0
 20
0.0
  0
LINE
  8
補助線
  6
BYBLOCK
 62
    64
 10
8.629725
 20
-85.326657
 11
8.803415
 21
-85.506462
  0
LINE
  8
補助線
  6
BYBLOCK
 62
    64
 10
8.806473
 20
-85.329715
 11
8.626668
 21
-85.503405
  0
LINE
  8
補助線
  6
BYBLOCK
 62
    64
 10
-2.76477
 20
-73.531513
 11
-2.938468
 21
-73.351705
  0
LINE
  8
補助線
  6
BYBLOCK
 62
    64
 10
-2.76172
 20
-73.35476
 11
-2.941522
 21
-73.528457
  0
LINE
  8
補助線
  6
BYBLOCK
 62
    64
 10
-14.333022
 20
-61.556615
 11
-14.50672
 21
-61.376815
  0
LINE
  8
補助線
  6
BYBLOCK
 62
    64
 10
-14.32997
 20
-61.379868
 11
-14.509772
 21
-61.553565
  0
LINE
  8
型材断面
  6
CONTINUOUS
 10
9.962985
 20
-84.907685
 11
9.94466
 21
-85.968185
  0
LINE
  8
型材断面
  6
CONTINUOUS
 10
9.94466
 20
-85.968185
 11
9.225445
 21
-86.662975
  0
LINE
  8
型材断面
  6
CONTINUOUS
 10
9.225445
 20
-86.662975
 11
8.164945
 21
-86.64465
  0
LINE
  8
型材断面
  6
CONTINUOUS
 10
-13.86825
 20
-60.23862
 11
-14.92875
 21
-60.220305
  0
LINE
  8
型材断面
  6
CONTINUOUS
 10
-14.92875
 20
-60.220305
 11
-15.647967
 21
-60.915095
  0
LINE
  8
型材断面
  6
CONTINUOUS
 10
-15.647967
 20
-60.915095
 11
-15.666283
 21
-61.975595
  0
LINE
  8
型材断面
  6
CONTINUOUS
 10
9.962985
 20
-84.907685
 11
-13.86813
 21
-60.238623
  0
LINE
  8
型材断面
  6
CONTINUOUS
 10
8.164945
 20
-86.64465
 11
-15.66628
 21
-61.975485
  0
LINE
  8
ボルト／ビス
  6
CONTINUOUS
 62
    64
 10
9.04876
 20
-85.09565
 11
9.16058
 21
-85.543793
  0
LINE
  8
ボルト／ビス
  6
CONTINUOUS
 62
    64
 10
9.04876
 20
-85.09565
 11
8.604752
 21
-84.968423
  0
LINE
  8
ボルト／ビス
  6
CONTINUOUS
 62
    64
 10
8.38438
 20
-85.73747
 11
8.828387
 21
-85.864697
  0
LINE
  8
ボルト／ビス
  6
CONTINUOUS
 62
    64
 10
8.38438
 20
-85.73747
 11
8.27256
 21
-85.289328
  0
CIRCLE
  8
ボルト／ビス
  6
CONTINUOUS
 62
    64
 10
8.71657
 20
-85.41656
 40
0.4
  0
LINE
  8
ボルト／ビス
  6
CONTINUOUS
 62
    64
 10
8.604752
 20
-84.968423
 11
8.27256
 21
-85.289328
  0
LINE
  8
ボルト／ビス
  6
CONTINUOUS
 62
    64
 10
9.16058
 20
-85.543793
 11
8.828387
 21
-85.864697
  0
LINE
  8
ボルト／ビス
  6
CONTINUOUS
 62
    64
 10
-2.519427
 20
-73.120702
 11
-2.96344
 21
-72.993468
  0
LINE
  8
ボルト／ビス
  6
CONTINUOUS
 62
    64
 10
-2.519427
 20
-73.120702
 11
-2.407607
 21
-73.56884
  0
LINE
  8
ボルト／ビス
  6
CONTINUOUS
 62
    64
 10
-3.183813
 20
-73.762515
 11
-3.29563
 21
-73.314375
  0
LINE
  8
ボルト／ビス
  6
CONTINUOUS
 62
    64
 10
-3.183813
 20
-73.762515
 11
-2.739803
 21
-73.889747
  0
CIRCLE
  8
ボルト／ビス
  6
CONTINUOUS
 62
    64
 10
-2.851623
 20
-73.441608
 40
0.4
  0
LINE
  8
ボルト／ビス
  6
CONTINUOUS
 62
    64
 10
-2.407607
 20
-73.56884
 11
-2.739803
 21
-73.889747
  0
LINE
  8
ボルト／ビス
  6
CONTINUOUS
 62
    64
 10
-2.96344
 20
-72.993468
 11
-3.29563
 21
-73.314375
  0
LINE
  8
ボルト／ビス
  6
CONTINUOUS
 62
    64
 10
-14.08768
 20
-61.145805
 11
-14.531693
 21
-61.018575
  0
LINE
  8
ボルト／ビス
  6
CONTINUOUS
 62
    64
 10
-14.08768
 20
-61.145805
 11
-13.975863
 21
-61.593945
  0
LINE
  8
ボルト／ビス
  6
CONTINUOUS
 62
    64
 10
-14.752063
 20
-61.787625
 11
-14.86388
 21
-61.339483
  0
LINE
  8
ボルト／ビス
  6
CONTINUOUS
 62
    64
 10
-14.752063
 20
-61.787625
 11
-14.308047
 21
-61.914855
  0
CIRCLE
  8
ボルト／ビス
  6
CONTINUOUS
 62
    64
 10
-14.41987
 20
-61.466715
 40
0.4
  0
LINE
  8
ボルト／ビス
  6
CONTINUOUS
 62
    64
 10
-13.975863
 20
-61.593945
 11
-14.308047
 21
-61.914855
  0
LINE
  8
ボルト／ビス
  6
CONTINUOUS
 62
    64
 10
-14.531693
 20
-61.018575
 11
-14.86388
 21
-61.339483
  0
ENDBLK
  0
BLOCK
  2
*GRP_0006
 70
    65
 10
0.0
 20
0.0
  0
POLYLINE
  8
寸法
  6
BYBLOCK
 62
     0
 66
     1
  0
VERTEX
  8
寸法
 10
-59.65965
 20
37.589045
  0
VERTEX
  8
寸法
 10
-53.243148
 20
31.172543
  0
VERTEX
  8
寸法
 10
-47.33602
 20
31.172543
  0
SEQEND
  0
ENDBLK
  0
BLOCK
  2
*DIM_0007
 70
    65
 10
0.0
 20
0.0
  0
LINE
  8
寸法
  6
BYBLOCK
 62
     0
 10
-55.42031
 20
91.305075
 11
-37.841038
 21
91.305075
  0
LINE
  8
寸法
  6
BYBLOCK
 62
     0
 10
-47.396435
 20
85.455077
 11
-37.841038
 21
85.455077
  0
LINE
  8
寸法
  6
BYBLOCK
 62
     0
 10
-37.841038
 20
91.305075
 11
-37.841038
 21
85.455077
  0
POINT
  8
寸法
 62
     0
 10
-37.841038
 20
91.305075
  0
POINT
  8
寸法
 62
     0
 10
-37.841038
 20
85.455077
  0
TEXT
  7
TextStyle03
  8
寸法
  6
CONTINUOUS
 62
     0
 10
-38.225
 20
85.9125
  1
117
 40
3.0
 50
90.0
 72
     5
 11
-38.225
 21
90.7875
  0
ENDBLK
  0
BLOCK
  2
*DIM_0008
 70
    65
 10
0.0
 20
0.0
  0
LINE
  8
寸法
  6
BYBLOCK
 62
     0
 10
-55.42031
 20
11.305075
 11
-37.841038
 21
11.305075
  0
LINE
  8
寸法
  6
BYBLOCK
 62
     0
 10
-47.396435
 20
17.155072
 11
-37.841038
 21
17.155072
  0
LINE
  8
寸法
  6
BYBLOCK
 62
     0
 10
-37.841038
 20
11.305075
 11
-37.841038
 21
17.155072
  0
POINT
  8
寸法
 62
     0
 10
-37.841038
 20
11.305075
  0
POINT
  8
寸法
 62
     0
 10
-37.841038
 20
17.155072
  0
TEXT
  7
TextStyle03
  8
寸法
  6
CONTINUOUS
 62
     0
 10
-38.225
 20
11.7875
  1
117
 40
3.0
 50
90.0
 72
     5
 11
-38.225
 21
16.6625
  0
ENDBLK
  0
BLOCK
  2
*DIM_0009
 70
    65
 10
0.0
 20
0.0
  0
LINE
  8
寸法
  6
BYBLOCK
 62
     0
 10
-52.470312
 20
-87.84156
 11
-34.291423
 21
-87.84156
  0
LINE
  8
寸法
  6
BYBLOCK
 62
     0
 10
-51.14531
 20
-79.848182
 11
-34.291423
 21
-79.848182
  0
LINE
  8
寸法
  6
BYBLOCK
 62
     0
 10
-34.291423
 20
-87.84156
 11
-34.291423
 21
-79.848182
  0
POINT
  8
寸法
 62
     0
 10
-34.291423
 20
-87.84156
  0
POINT
  8
寸法
 62
     0
 10
-34.291423
 20
-79.848182
  0
TEXT
  7
TextStyle03
  8
寸法
  6
CONTINUOUS
 62
     0
 10
-31.275
 20
-88.0
  1
159.9
 40
3.0
 50
90.0
 72
     5
 11
-31.275
 21
-79.75
  0
ENDBLK
  0
BLOCK
  2
*DIM_0010
 70
    65
 10
0.0
 20
0.0
  0
LINE
  8
寸法
  6
BYBLOCK
 62
     0
 10
-100.670308
 20
-38.717217
 11
-100.670308
 21
-28.86804
  0
LINE
  8
寸法
  6
BYBLOCK
 62
     0
 10
-92.17031
 20
-38.717217
 11
-92.17031
 21
-28.86804
  0
LINE
  8
寸法
  6
BYBLOCK
 62
     0
 10
-100.670308
 20
-28.86804
 11
-92.17031
 21
-28.86804
  0
POINT
  8
寸法
 62
     0
 10
-100.670308
 20
-28.86804
  0
POINT
  8
寸法
 62
     0
 10
-92.17031
 20
-28.86804
  0
TEXT
  7
TextStyle03
  8
寸法
  6
CONTINUOUS
 62
     0
 10
-98.8375
 20
-28.525
  1
170
 40
3.0
 72
     5
 11
-93.9625
 21
-28.525
  0
ENDBLK
  0
BLOCK
  2
*DIM_0011
 70
    65
 10
0.0
 20
0.0
  0
LINE
  8
寸法
  6
BYBLOCK
 62
     0
 10
-85.38184
 20
-35.467217
 11
-86.326117
 21
-35.467217
  0
LINE
  8
寸法
  6
BYBLOCK
 62
     0
 10
-91.17031
 20
-39.717217
 11
-86.326117
 21
-39.717217
  0
LINE
  8
寸法
  6
BYBLOCK
 62
     0
 10
-86.326117
 20
-35.467217
 11
-86.326117
 21
-39.717217
  0
POINT
  8
寸法
 62
     0
 10
-86.326117
 20
-35.467217
  0
POINT
  8
寸法
 62
     0
 10
-86.326117
 20
-39.717217
  0
TEXT
  7
TextStyle03
  8
寸法
  6
CONTINUOUS
 62
     0
 10
-86.675
 20
-39.21875
  1
85
 40
3.0
 50
90.0
 72
     5
 11
-86.675
 21
-36.03125
  0
ENDBLK
  0
BLOCK
  2
*DIM_0012
 70
    65
 10
0.0
 20
0.0
  0
LINE
  8
寸法
  6
BYBLOCK
 62
     0
 10
-95.42031
 20
-35.467217
 11
-34.291423
 21
-35.467217
  0
LINE
  8
寸法
  6
BYBLOCK
 62
     0
 10
-34.291423
 20
-79.848182
 11
-34.291423
 21
-35.467217
  0
POINT
  8
寸法
 62
     0
 10
-34.291423
 20
-79.848182
  0
POINT
  8
寸法
 62
     0
 10
-34.291423
 20
-35.467217
  0
TEXT
  7
TextStyle03
  8
寸法
  6
CONTINUOUS
 62
     0
 10
-34.675
 20
-61.775
  1
887.6
 40
3.0
 50
90.0
 72
     5
 11
-34.675
 21
-53.525
  0
ENDBLK
  0
BLOCK
  2
*DIM_0013
 70
    65
 10
0.0
 20
0.0
  0
LINE
  8
寸法
  6
BYBLOCK
 62
     0
 10
-136.42031
 20
-21.906335
 11
-56.42031
 21
-21.906335
  0
POINT
  8
寸法
 62
     0
 10
-136.42031
 20
-21.906335
  0
POINT
  8
寸法
 62
     0
 10
-56.42031
 20
-21.906335
  0
TEXT
  7
TextStyle03
  8
寸法
  6
CONTINUOUS
 62
     0
 10
-108.14375
 20
-21.525
  1
呼称寸法　1600
 40
3.0
 72
     5
 11
-84.70625
 21
-21.525
  0
ENDBLK
  0
BLOCK
  2
*DIM_0014
 70
    65
 10
0.0
 20
0.0
  0
LINE
  8
寸法
  6
BYBLOCK
 62
     0
 10
-52.14531
 20
-78.848182
 11
-52.14531
 21
-21.906335
  0
LINE
  8
寸法
  6
BYBLOCK
 62
     0
 10
-56.42031
 20
-21.906335
 11
-52.14531
 21
-21.906335
  0
POINT
  8
寸法
 62
     0
 10
-52.14531
 20
-21.906335
  0
TEXT
  7
TextStyle03
  8
寸法
  6
CONTINUOUS
 62
     0
 10
-50.83125
 20
-21.525
  1
85.5
 40
3.0
 72
     5
 11
-44.26875
 21
-21.525
  0
ENDBLK
  0
BLOCK
  2
*DIM_0015
 70
    65
 10
0.0
 20
0.0
  0
LINE
  8
寸法
  6
BYBLOCK
 62
     0
 10
-140.69531
 20
-78.848182
 11
-140.69531
 21
-21.906335
  0
LINE
  8
寸法
  6
BYBLOCK
 62
     0
 10
-136.42031
 20
-21.906335
 11
-140.69531
 21
-21.906335
  0
POINT
  8
寸法
 62
     0
 10
-136.42031
 20
-21.906335
  0
POINT
  8
寸法
 62
     0
 10
-140.69531
 20
-21.906335
  0
TEXT
  7
TextStyle03
  8
寸法
  6
CONTINUOUS
 62
     0
 10
-148.60625
 20
-21.525
  1
85.5
 40
3.0
 72
     5
 11
-142.04375
 21
-21.525
  0
ENDBLK
  0
BLOCK
  2
*GRP_0016
 70
    65
 10
0.0
 20
0.0
  0
POLYLINE
  8
寸法
  6
BYBLOCK
 62
     0
 66
     1
  0
VERTEX
  8
寸法
 10
-133.18097
 20
71.456105
  0
VERTEX
  8
寸法
 10
-139.597473
 20
77.872608
  0
VERTEX
  8
寸法
 10
-145.5046
 20
77.872608
  0
SEQEND
  0
ENDBLK
  0
BLOCK
  2
*DIM_0017
 70
    65
 10
0.0
 20
0.0
  0
LINE
  8
寸法
  6
BYBLOCK
 62
     0
 10
-161.01531
 20
68.805075
 11
-171.83861
 21
68.805075
  0
LINE
  8
寸法
  6
BYBLOCK
 62
     0
 10
-161.01531
 20
33.805075
 11
-171.83861
 21
33.805075
  0
LINE
  8
寸法
  6
BYBLOCK
 62
     0
 10
-171.83861
 20
68.805075
 11
-171.83861
 21
33.805075
  0
POINT
  8
寸法
 62
     0
 10
-171.83861
 20
68.805075
  0
POINT
  8
寸法
 62
     0
 10
-171.83861
 20
33.805075
  0
TEXT
  7
TextStyle03
  8
寸法
  6
CONTINUOUS
 62
     0
 10
-172.15
 20
48.8375
  1
700
 40
3.0
 50
90.0
 72
     5
 11
-172.15
 21
53.7125
  0
ENDBLK
  0
BLOCK
  2
*DIM_0018
 70
    65
 10
0.0
 20
0.0
  0
LINE
  8
寸法
  6
BYBLOCK
 62
     0
 10
-126.42031
 20
120.4069
 11
-126.42031
 21
128.18241
  0
LINE
  8
寸法
  6
BYBLOCK
 62
     0
 10
-96.42031
 20
120.4069
 11
-96.42031
 21
128.18241
  0
LINE
  8
寸法
  6
BYBLOCK
 62
     0
 10
-126.42031
 20
128.18241
 11
-96.42031
 21
128.18241
  0
POINT
  8
寸法
 62
     0
 10
-126.42031
 20
128.18241
  0
POINT
  8
寸法
 62
     0
 10
-96.42031
 20
128.18241
  0
TEXT
  7
TextStyle03
  8
寸法
  6
CONTINUOUS
 62
     0
 10
-113.8625
 20
128.525
  1
600
 40
3.0
 72
     5
 11
-108.9875
 21
128.525
  0
ENDBLK
  0
BLOCK
  2
*DIM_0019
 70
    65
 10
0.0
 20
0.0
  0
LINE
  8
寸法
  6
BYBLOCK
 62
     0
 10
-66.42031
 20
120.4069
 11
-66.42031
 21
128.18241
  0
LINE
  8
寸法
  6
BYBLOCK
 62
     0
 10
-96.42031
 20
128.18241
 11
-66.42031
 21
128.18241
  0
POINT
  8
寸法
 62
     0
 10
-66.42031
 20
128.18241
  0
TEXT
  7
TextStyle03
  8
寸法
  6
CONTINUOUS
 62
     0
 10
-83.8625
 20
128.525
  1
600
 40
3.0
 72
     5
 11
-78.9875
 21
128.525
  0
ENDBLK
  0
BLOCK
  2
*DIM_0020
 70
    65
 10
0.0
 20
0.0
  0
LINE
  8
寸法
  6
BYBLOCK
 62
     0
 10
83.309235
 20
-7.42106
 11
83.309235
 21
-21.58731
  0
LINE
  8
寸法
  6
BYBLOCK
 62
     0
 10
164.444235
 20
-7.42106
 11
164.444235
 21
-21.58731
  0
LINE
  8
寸法
  6
BYBLOCK
 62
     0
 10
83.309235
 20
-21.58731
 11
164.444235
 21
-21.58731
  0
POINT
  8
寸法
 62
     0
 10
83.309235
 20
-21.58731
  0
POINT
  8
寸法
 62
     0
 10
164.444235
 20
-21.58731
  0
TEXT
  7
TextStyle03
  8
寸法
  6
CONTINUOUS
 62
     0
 10
118.88125
 20
-21.225
  1
1622.7
 40
3.0
 72
     5
 11
128.81875
 21
-21.225
  0
ENDBLK
  0
BLOCK
  2
*DIM_0021
 70
    65
 10
0.0
 20
0.0
  0
LINE
  8
寸法
  6
BYBLOCK
 62
     0
 10
167.444235
 20
-4.42106
 11
177.551188
 21
-4.42106
  0
LINE
  8
寸法
  6
BYBLOCK
 62
     0
 10
126.876735
 20
52.949807
 11
177.551188
 21
52.949807
  0
LINE
  8
寸法
  6
BYBLOCK
 62
     0
 10
177.551188
 20
-4.42106
 11
177.551188
 21
52.949807
  0
POINT
  8
寸法
 62
     0
 10
177.551188
 20
-4.42106
  0
POINT
  8
寸法
 62
     0
 10
177.551188
 20
52.949807
  0
TEXT
  7
TextStyle03
  8
寸法
  6
CONTINUOUS
 62
     0
 10
177.15
 20
19.28125
  1
1147.4
 40
3.0
 50
90.0
 72
     5
 11
177.15
 21
29.21875
  0
ENDBLK
  0
BLOCK
  2
*DIM_0022
 70
    65
 10
0.0
 20
0.0
  0
LINE
  8
寸法
  6
BYBLOCK
 62
     0
 10
68.00019
 20
-63.900598
 11
81.54965
 21
-63.900598
  0
LINE
  8
寸法
  6
BYBLOCK
 62
     0
 10
68.00019
 20
-83.900598
 11
81.54965
 21
-83.900598
  0
LINE
  8
寸法
  6
BYBLOCK
 62
     0
 10
81.54965
 20
-63.900598
 11
81.54965
 21
-83.900598
  0
POINT
  8
寸法
 62
     0
 10
81.54965
 20
-63.900598
  0
POINT
  8
寸法
 62
     0
 10
81.54965
 20
-83.900598
  0
TEXT
  7
TextStyle03
  8
寸法
  6
CONTINUOUS
 62
     0
 10
81.15
 20
-83.01875
  1
上昇335以上
 40
3.0
 50
90.0
 72
     5
 11
81.15
 21
-64.83125
  0
ENDBLK
  0
ENDSEC
  0
SECTION
  2
ENTITIES
  0
POLYLINE
  8
通り芯
  6
CONTINUOUS
 66
     1
 70
     1
  0
VERTEX
  8
通り芯
 10
-210.0
 20
-148.5
  0
VERTEX
  8
通り芯
 10
210.0
 20
-148.5
  0
VERTEX
  8
通り芯
 10
210.0
 20
148.5
  0
VERTEX
  8
通り芯
 10
-210.0
 20
148.5
  0
SEQEND
  0
INSERT
  2
*GRP_0001
  8
型材断面
  6
CONTINUOUS
 10
0.0
 20
0.0
  0
LINE
  8
型材断面
  6
CONTINUOUS
 10
-52.14531
 20
7.030075
 11
-59.29531
 21
14.180075
  0
LINE
  8
型材断面
  6
CONTINUOUS
 10
-57.038378
 20
9.487522
 11
-54.602758
 21
9.487522
  0
LINE
  8
型材断面
  6
CONTINUOUS
 10
-54.602758
 20
11.923142
 11
-54.602758
 21
9.487522
  0
LINE
  8
型材断面
  6
DASHDOT
 10
-56.42031
 20
11.305075
 11
-56.42031
 21
26.305075
  0
LINE
  8
型材断面
  6
DASHDOT
 10
-56.42031
 20
11.305075
 11
-136.42031
 21
11.305075
  0
LINE
  8
型材断面
  6
DASHDOT
 10
-56.42031
 20
51.305075
 11
-136.42031
 21
51.305075
  0
LINE
  8
型材断面
  6
DASHDOT
 10
-56.42031
 20
91.305075
 11
-136.42031
 21
91.305075
  0
LINE
  8
型材断面
  6
CONTINUOUS
 10
-96.42031
 20
47.055075
 11
-92.17031
 21
47.055075
  0
LINE
  8
型材断面
  6
CONTINUOUS
 10
-92.17031
 20
51.305075
 11
-92.17031
 21
47.055075
  0
LINE
  8
型材断面
  6
CONTINUOUS
 10
-96.42031
 20
51.305075
 11
-92.17031
 21
47.055075
  0
LINE
  8
型材断面
  6
CONTINUOUS
 10
-57.038378
 20
9.487522
 11
-94.60593
 21
47.055075
  0
LINE
  8
型材断面
  6
CONTINUOUS
 10
-54.95631
 20
9.487522
 11
-92.523873
 21
47.055075
  0
LINE
  8
型材断面
  6
DASHDOT
 10
-56.42031
 20
11.305075
 11
-92.17031
 21
47.055075
  0
LINE
  8
型材断面
  6
CONTINUOUS
 10
-54.602758
 20
9.841075
 11
-92.17031
 21
47.408627
  0
LINE
  8
型材断面
  6
CONTINUOUS
 10
-54.602758
 20
11.923142
 11
-92.17031
 21
49.490695
  0
LINE
  8
型材断面
  6
CONTINUOUS
 10
-54.532048
 20
9.416813
 11
-54.532048
 21
51.305075
  0
LINE
  8
型材断面
  6
CONTINUOUS
 10
-53.542097
 20
8.426863
 11
-53.542097
 21
51.305075
  0
LINE
  8
型材断面
  6
CONTINUOUS
 10
-54.249205
 20
9.13397
 11
-54.249205
 21
51.305075
  0
LINE
  8
型材断面
  6
CONTINUOUS
 10
-53.188543
 20
8.073308
 11
-53.188543
 21
51.305075
  0
LINE
  8
型材断面
  6
CONTINUOUS
 10
-52.14531
 20
7.030075
 11
-52.14531
 21
51.305075
  0
LINE
  8
型材断面
  6
CONTINUOUS
 10
-54.249205
 20
9.13397
 11
-96.42031
 21
9.13397
  0
LINE
  8
型材断面
  6
CONTINUOUS
 10
-54.532048
 20
9.416813
 11
-96.42031
 21
9.416813
  0
LINE
  8
型材断面
  6
CONTINUOUS
 10
-53.188543
 20
8.073308
 11
-96.42031
 21
8.073308
  0
LINE
  8
型材断面
  6
CONTINUOUS
 10
-52.14531
 20
7.030075
 11
-96.42031
 21
7.030075
  0
LINE
  8
型材断面
  6
CONTINUOUS
 10
-53.542097
 20
8.426863
 11
-96.42031
 21
8.426863
  0
LINE
  8
型材断面
  6
CONTINUOUS
 10
-52.14531
 20
95.580075
 11
-59.29531
 21
88.430075
  0
LINE
  8
型材断面
  6
CONTINUOUS
 10
-57.038378
 20
93.122628
 11
-54.602758
 21
93.122628
  0
LINE
  8
型材断面
  6
CONTINUOUS
 10
-54.602758
 20
90.687008
 11
-54.602758
 21
93.122628
  0
LINE
  8
型材断面
  6
DASHDOT
 10
-56.42031
 20
91.305075
 11
-56.42031
 21
76.305075
  0
LINE
  8
型材断面
  6
CONTINUOUS
 10
-96.42031
 20
55.555075
 11
-92.17031
 21
55.555075
  0
LINE
  8
型材断面
  6
CONTINUOUS
 10
-92.17031
 20
51.305075
 11
-92.17031
 21
55.555075
  0
LINE
  8
型材断面
  6
CONTINUOUS
 10
-96.42031
 20
51.305075
 11
-92.17031
 21
55.555075
  0
LINE
  8
型材断面
  6
CONTINUOUS
 10
-57.038378
 20
93.122628
 11
-94.60593
 21
55.555075
  0
LINE
  8
型材断面
  6
CONTINUOUS
 10
-54.95631
 20
93.122628
 11
-92.523873
 21
55.555075
  0
LINE
  8
型材断面
  6
DASHDOT
 10
-56.42031
 20
91.305075
 11
-92.17031
 21
55.555075
  0
LINE
  8
型材断面
  6
CONTINUOUS
 10
-54.602758
 20
92.769075
 11
-92.17031
 21
55.201522
  0
LINE
  8
型材断面
  6
CONTINUOUS
 10
-54.602758
 20
90.687008
 11
-92.17031
 21
53.119455
  0
LINE
  8
型材断面
  6
CONTINUOUS
 10
-54.532048
 20
93.193338
 11
-54.532048
 21
51.305075
  0
LINE
  8
型材断面
  6
CONTINUOUS
 10
-53.542097
 20
94.183288
 11
-53.542097
 21
51.305075
  0
LINE
  8
型材断面
  6
CONTINUOUS
 10
-54.249205
 20
93.47618
 11
-54.249205
 21
51.305075
  0
LINE
  8
型材断面
  6
CONTINUOUS
 10
-53.188543
 20
94.536843
 11
-53.188543
 21
51.305075
  0
LINE
  8
型材断面
  6
CONTINUOUS
 10
-52.14531
 20
95.580075
 11
-52.14531
 21
51.305075
  0
LINE
  8
型材断面
  6
CONTINUOUS
 10
-54.249205
 20
93.47618
 11
-96.42031
 21
93.47618
  0
LINE
  8
型材断面
  6
CONTINUOUS
 10
-54.532048
 20
93.193338
 11
-96.42031
 21
93.193338
  0
LINE
  8
型材断面
  6
CONTINUOUS
 10
-53.188543
 20
94.536843
 11
-96.42031
 21
94.536843
  0
LINE
  8
型材断面
  6
CONTINUOUS
 10
-52.14531
 20
95.580075
 11
-96.42031
 21
95.580075
  0
LINE
  8
型材断面
  6
CONTINUOUS
 10
-53.542097
 20
94.183288
 11
-96.42031
 21
94.183288
  0
LINE
  8
型材断面
  6
CONTINUOUS
 10
-140.69531
 20
95.580075
 11
-133.54531
 21
88.430075
  0
LINE
  8
型材断面
  6
CONTINUOUS
 10
-135.802243
 20
93.122628
 11
-138.237863
 21
93.122628
  0
LINE
  8
型材断面
  6
CONTINUOUS
 10
-138.237863
 20
90.687008
 11
-138.237863
 21
93.122628
  0
LINE
  8
型材断面
  6
DASHDOT
 10
-136.42031
 20
91.305075
 11
-136.42031
 21
76.305075
  0
LINE
  8
型材断面
  6
CONTINUOUS
 10
-96.42031
 20
55.555075
 11
-100.67031
 21
55.555075
  0
LINE
  8
型材断面
  6
CONTINUOUS
 10
-100.67031
 20
51.305075
 11
-100.67031
 21
55.555075
  0
LINE
  8
型材断面
  6
CONTINUOUS
 10
-96.42031
 20
51.305075
 11
-100.67031
 21
55.555075
  0
LINE
  8
型材断面
  6
CONTINUOUS
 10
-135.802243
 20
93.122628
 11
-98.23469
 21
55.555075
  0
LINE
  8
型材断面
  6
CONTINUOUS
 10
-137.88431
 20
93.122628
 11
-100.316748
 21
55.555075
  0
LINE
  8
型材断面
  6
DASHDOT
 10
-136.42031
 20
91.305075
 11
-100.67031
 21
55.555075
  0
LINE
  8
型材断面
  6
CONTINUOUS
 10
-138.237863
 20
92.769075
 11
-100.67031
 21
55.201522
  0
LINE
  8
型材断面
  6
CONTINUOUS
 10
-138.237863
 20
90.687008
 11
-100.67031
 21
53.119455
  0
LINE
  8
型材断面
  6
CONTINUOUS
 10
-138.308573
 20
93.193338
 11
-138.308573
 21
51.305075
  0
LINE
  8
型材断面
  6
CONTINUOUS
 10
-139.298523
 20
94.183288
 11
-139.298523
 21
51.305075
  0
LINE
  8
型材断面
  6
CONTINUOUS
 10
-138.591415
 20
93.47618
 11
-138.591415
 21
51.305075
  0
LINE
  8
型材断面
  6
CONTINUOUS
 10
-139.652077
 20
94.536843
 11
-139.652077
 21
51.305075
  0
LINE
  8
型材断面
  6
CONTINUOUS
 10
-140.69531
 20
95.580075
 11
-140.69531
 21
51.305075
  0
LINE
  8
型材断面
  6
CONTINUOUS
 10
-138.591415
 20
93.47618
 11
-96.42031
 21
93.47618
  0
LINE
  8
型材断面
  6
CONTINUOUS
 10
-138.308573
 20
93.193338
 11
-96.42031
 21
93.193338
  0
LINE
  8
型材断面
  6
CONTINUOUS
 10
-139.652077
 20
94.536843
 11
-96.42031
 21
94.536843
  0
LINE
  8
型材断面
  6
CONTINUOUS
 10
-140.69531
 20
95.580075
 11
-96.42031
 21
95.580075
  0
LINE
  8
型材断面
  6
CONTINUOUS
 10
-139.298523
 20
94.183288
 11
-96.42031
 21
94.183288
  0
LINE
  8
型材断面
  6
CONTINUOUS
 10
-140.69531
 20
7.030075
 11
-133.54531
 21
14.180075
  0
LINE
  8
型材断面
  6
CONTINUOUS
 10
-135.802243
 20
9.487522
 11
-138.237863
 21
9.487522
  0
LINE
  8
型材断面
  6
CONTINUOUS
 10
-138.237863
 20
11.923142
 11
-138.237863
 21
9.487522
  0
LINE
  8
型材断面
  6
DASHDOT
 10
-136.42031
 20
11.305075
 11
-136.42031
 21
26.305075
  0
LINE
  8
型材断面
  6
CONTINUOUS
 10
-96.42031
 20
47.055075
 11
-100.67031
 21
47.055075
  0
LINE
  8
型材断面
  6
CONTINUOUS
 10
-100.67031
 20
51.305075
 11
-100.67031
 21
47.055075
  0
LINE
  8
型材断面
  6
CONTINUOUS
 10
-96.42031
 20
51.305075
 11
-100.67031
 21
47.055075
  0
LINE
  8
型材断面
  6
CONTINUOUS
 10
-135.802243
 20
9.487522
 11
-98.23469
 21
47.055075
  0
LINE
  8
型材断面
  6
CONTINUOUS
 10
-137.88431
 20
9.487522
 11
-100.316748
 21
47.055075
  0
LINE
  8
型材断面
  6
DASHDOT
 10
-136.42031
 20
11.305075
 11
-100.67031
 21
47.055075
  0
LINE
  8
型材断面
  6
CONTINUOUS
 10
-138.237863
 20
9.841075
 11
-100.67031
 21
47.408627
  0
LINE
  8
型材断面
  6
CONTINUOUS
 10
-138.237863
 20
11.923142
 11
-100.67031
 21
49.490695
  0
LINE
  8
型材断面
  6
CONTINUOUS
 10
-138.308573
 20
9.416813
 11
-138.308573
 21
51.305075
  0
LINE
  8
型材断面
  6
CONTINUOUS
 10
-139.298523
 20
8.426863
 11
-139.298523
 21
51.305075
  0
LINE
  8
型材断面
  6
CONTINUOUS
 10
-138.591415
 20
9.13397
 11
-138.591415
 21
51.305075
  0
LINE
  8
型材断面
  6
CONTINUOUS
 10
-139.652077
 20
8.073308
 11
-139.652077
 21
51.305075
  0
LINE
  8
型材断面
  6
CONTINUOUS
 10
-140.69531
 20
7.030075
 11
-140.69531
 21
51.305075
  0
LINE
  8
型材断面
  6
CONTINUOUS
 10
-138.591415
 20
9.13397
 11
-96.42031
 21
9.13397
  0
LINE
  8
型材断面
  6
CONTINUOUS
 10
-138.308573
 20
9.416813
 11
-96.42031
 21
9.416813
  0
LINE
  8
型材断面
  6
CONTINUOUS
 10
-139.652077
 20
8.073308
 11
-96.42031
 21
8.073308
  0
LINE
  8
型材断面
  6
CONTINUOUS
 10
-140.69531
 20
7.030075
 11
-96.42031
 21
7.030075
  0
LINE
  8
型材断面
  6
CONTINUOUS
 10
-139.298523
 20
8.426863
 11
-96.42031
 21
8.426863
  0
LINE
  8
型材断面
  6
CONTINUOUS
 10
-96.42031
 20
3.281198
 11
-98.663755
 21
-0.604562
  0
LINE
  8
型材断面
  6
CONTINUOUS
 10
-96.42031
 20
3.281198
 11
-94.176865
 21
-0.604562
  0
LINE
  8
型材断面
  6
CONTINUOUS
 10
-94.176865
 20
-0.604562
 11
-98.663755
 21
-0.604562
  0
LINE
  8
型材断面
  6
CONTINUOUS
 10
-96.42031
 20
99.328953
 11
-98.663755
 21
103.214712
  0
LINE
  8
型材断面
  6
CONTINUOUS
 10
-96.42031
 20
99.328953
 11
-94.176865
 21
103.214712
  0
LINE
  8
型材断面
  6
CONTINUOUS
 10
-94.176865
 20
103.214712
 11
-98.663755
 21
103.214712
  0
LINE
  8
型材断面
  6
CONTINUOUS
 10
-48.396432
 20
51.305077
 11
-44.510672
 21
49.061633
  0
LINE
  8
型材断面
  6
CONTINUOUS
 10
-48.396432
 20
51.305077
 11
-44.510672
 21
53.548523
  0
LINE
  8
型材断面
  6
CONTINUOUS
 10
-44.510672
 20
53.548523
 11
-44.510672
 21
49.061633
  0
LINE
  8
型材断面
  6
CONTINUOUS
 10
-144.444188
 20
51.305077
 11
-148.329947
 21
49.061633
  0
LINE
  8
型材断面
  6
CONTINUOUS
 10
-144.444188
 20
51.305077
 11
-148.329947
 21
53.548523
  0
LINE
  8
型材断面
  6
CONTINUOUS
 10
-148.329947
 20
53.548523
 11
-148.329947
 21
49.061633
  0
LINE
  8
型材断面
  6
DOT
 10
-61.65965
 20
91.305077
 11
-61.65965
 21
11.305072
  0
LINE
  8
型材断面
  6
DOT
 10
-59.65965
 20
91.305077
 11
-59.65965
 21
11.305072
  0
LINE
  8
型材断面
  6
DOT
 10
-131.18097
 20
91.305077
 11
-131.18097
 21
11.305072
  0
LINE
  8
型材断面
  6
DOT
 10
-133.18097
 20
91.305077
 11
-133.18097
 21
11.305072
  0
LINE
  8
型材断面
  6
CONTINUOUS
 10
-48.396435
 20
85.455077
 11
-44.510675
 21
84.560993
  0
LINE
  8
型材断面
  6
CONTINUOUS
 10
-48.396435
 20
85.455077
 11
-44.510675
 21
86.349163
  0
LINE
  8
型材断面
  6
CONTINUOUS
 10
-44.510675
 20
86.349163
 11
-44.510675
 21
84.560993
  0
LINE
  8
型材断面
  6
CONTINUOUS
 10
-48.396435
 20
17.155072
 11
-44.510675
 21
18.049158
  0
LINE
  8
型材断面
  6
CONTINUOUS
 10
-48.396435
 20
17.155072
 11
-44.510675
 21
16.260988
  0
LINE
  8
型材断面
  6
CONTINUOUS
 10
-44.510675
 20
16.260988
 11
-44.510675
 21
18.049158
  0
LINE
  8
型材断面
  6
CONTINUOUS
 10
-144.444185
 20
17.155072
 11
-148.329945
 21
18.049158
  0
LINE
  8
型材断面
  6
CONTINUOUS
 10
-144.444185
 20
17.155072
 11
-148.329945
 21
16.260988
  0
LINE
  8
型材断面
  6
CONTINUOUS
 10
-148.329945
 20
16.260988
 11
-148.329945
 21
18.049158
  0
LINE
  8
型材断面
  6
CONTINUOUS
 10
-144.444185
 20
85.455077
 11
-148.329945
 21
84.560993
  0
LINE
  8
型材断面
  6
CONTINUOUS
 10
-144.444185
 20
85.455077
 11
-148.329945
 21
86.349163
  0
LINE
  8
型材断面
  6
CONTINUOUS
 10
-148.329945
 20
86.349163
 11
-148.329945
 21
84.560993
  0
POLYLINE
  8
型材断面
  6
CONTINUOUS
 66
     1
 70
     1
  0
VERTEX
  8
型材断面
 10
-87.127485
 20
-1.575857
  0
VERTEX
  8
型材断面
 10
-105.682697
 20
-1.575857
  0
VERTEX
  8
型材断面
 10
-105.682697
 20
-6.367893
  0
VERTEX
  8
型材断面
 10
-87.127485
 20
-6.367893
  0
SEQEND
  0
LINE
  8
型材断面
  6
CONTINUOUS
 62
    47
 10
-52.14531
 20
-79.848182
 11
-52.14531
 21
-80.41656
  0
LINE
  8
型材断面
  6
CONTINUOUS
 62
    47
 10
-52.82031
 20
-81.11656
 11
-52.14531
 21
-81.11656
  0
LINE
  8
型材断面
  6
CONTINUOUS
 62
    47
 10
-52.14531
 20
-81.11656
 11
-52.14531
 21
-80.41656
  0
LINE
  8
型材断面
  6
CONTINUOUS
 62
    47
 10
-53.470312
 20
-80.41656
 11
-52.14531
 21
-80.41656
  0
LINE
  8
型材断面
  6
CONTINUOUS
 62
    47
 10
-52.82031
 20
-81.11656
 11
-52.82031
 21
-81.61656
  0
LINE
  8
型材断面
  6
CONTINUOUS
 10
-52.89531
 20
-81.61656
 11
-52.82031
 21
-81.61656
  0
LINE
  8
型材断面
  6
CONTINUOUS
 62
    47
 10
-54.249205
 20
-77.744287
 11
-53.188543
 21
-78.80495
  0
LINE
  8
型材断面
  6
CONTINUOUS
 10
-54.779535
 20
-77.213958
 11
-57.497977
 21
-77.213958
  0
LINE
  8
型材断面
  6
CONTINUOUS
 62
    47
 10
-53.00031
 20
-83.900598
 11
-53.00031
 21
-83.400598
  0
LINE
  8
型材断面
  6
CONTINUOUS
 62
    47
 10
-53.00031
 20
-83.400598
 11
-54.17531
 21
-83.250597
  0
LINE
  8
型材断面
  6
CONTINUOUS
 62
    47
 10
-54.17531
 20
-82.64156
 11
-54.17531
 21
-83.250597
  0
LINE
  8
型材断面
  6
CONTINUOUS
 62
    47
 10
-53.470312
 20
-87.84156
 11
-53.470312
 21
-83.900598
  0
LINE
  8
型材断面
  6
CONTINUOUS
 62
    47
 10
-54.320313
 20
-88.59156
 11
-54.320313
 21
-87.84156
  0
LINE
  8
型材断面
  6
CONTINUOUS
 62
    47
 10
-53.470312
 20
-82.64156
 11
-53.470312
 21
-81.61656
  0
LINE
  8
型材断面
  6
CONTINUOUS
 62
    47
 10
-52.14531
 20
-79.848182
 11
-96.42031
 21
-35.573182
  0
LINE
  8
型材断面
  6
CONTINUOUS
 10
-92.17031
 20
-39.717217
 11
-96.42031
 21
-39.717217
  0
LINE
  8
型材断面
  6
CONTINUOUS
 10
-100.670308
 20
-39.717217
 11
-96.42031
 21
-39.717217
  0
LINE
  8
型材断面
  6
CONTINUOUS
 10
-100.617325
 20
-39.7702
 11
-96.42031
 21
-39.7702
  0
LINE
  8
型材断面
  6
CONTINUOUS
 10
-96.42031
 20
-35.467217
 11
-92.17031
 21
-39.717217
  0
LINE
  8
型材断面
  6
CONTINUOUS
 10
-96.42031
 20
-35.467217
 11
-100.670308
 21
-39.717217
  0
LINE
  8
型材断面
  6
CONTINUOUS
 10
-92.223295
 20
-39.7702
 11
-96.42031
 21
-39.7702
  0
LINE
  8
型材断面
  6
CONTINUOUS
 10
-100.670308
 20
-39.717217
 11
-100.617325
 21
-39.7702
  0
LINE
  8
型材断面
  6
CONTINUOUS
 10
-92.223295
 20
-39.7702
 11
-92.17031
 21
-39.717217
  0
LINE
  8
型材断面
  6
CONTINUOUS
 10
-100.67031
 20
-39.717217
 11
-96.42031
 21
-39.717217
  0
LINE
  8
型材断面
  6
CONTINUOUS
 10
-100.617325
 20
-39.7702
 11
-96.42031
 21
-39.7702
  0
LINE
  8
型材断面
  6
CONTINUOUS
 10
-100.617325
 20
-39.7702
 11
-100.67031
 21
-39.717217
  0
LINE
  8
型材断面
  6
CONTINUOUS
 10
-57.215135
 20
-77.213958
 11
-94.658893
 21
-39.7702
  0
LINE
  8
型材断面
  6
CONTINUOUS
 10
-57.497977
 20
-77.213958
 11
-94.941745
 21
-39.7702
  0
LINE
  8
型材断面
  6
CONTINUOUS
 62
    47
 10
-53.470312
 20
-87.84156
 11
-96.42031
 21
-87.84156
  0
LINE
  8
型材断面
  6
CONTINUOUS
 62
    47
 10
-54.320313
 20
-88.59156
 11
-96.42031
 21
-88.59156
  0
LINE
  8
型材断面
  6
CONTINUOUS
 10
-54.17531
 20
-83.250597
 11
-96.42031
 21
-83.250597
  0
LINE
  8
型材断面
  6
CONTINUOUS
 10
-52.82031
 20
-81.61656
 11
-96.42031
 21
-81.61656
  0
LINE
  8
型材断面
  6
CONTINUOUS
 10
-52.14531
 20
-80.41656
 11
-96.42031
 21
-80.41656
  0
LINE
  8
型材断面
  6
CONTINUOUS
 10
-52.14531
 20
-79.848182
 11
-96.42031
 21
-79.848182
  0
LINE
  8
型材断面
  6
CONTINUOUS
 10
-53.188543
 20
-78.80495
 11
-96.42031
 21
-78.80495
  0
LINE
  8
型材断面
  6
CONTINUOUS
 10
-54.249205
 20
-77.744287
 11
-96.42031
 21
-77.744287
  0
LINE
  8
型材断面
  6
CONTINUOUS
 10
-53.542097
 20
-78.451395
 11
-96.42031
 21
-78.451395
  0
LINE
  8
型材断面
  6
CONTINUOUS
 10
-52.82031
 20
-81.11656
 11
-96.42031
 21
-81.11656
  0
LINE
  8
型材断面
  6
CONTINUOUS
 62
    47
 10
-53.470312
 20
-82.64156
 11
-96.42031
 21
-82.64156
  0
LINE
  8
型材断面
  6
CONTINUOUS
 62
    47
 10
-53.00031
 20
-83.900598
 11
-96.42031
 21
-83.900598
  0
LINE
  8
型材断面
  6
CONTINUOUS
 10
-53.00031
 20
-83.400598
 11
-96.42031
 21
-83.400598
  0
LINE
  8
型材断面
  6
CONTINUOUS
 62
    47
 10
-140.69531
 20
-79.848182
 11
-140.69531
 21
-80.41656
  0
LINE
  8
型材断面
  6
CONTINUOUS
 62
    47
 10
-140.02031
 20
-81.11656
 11
-140.69531
 21
-81.11656
  0
LINE
  8
型材断面
  6
CONTINUOUS
 62
    47
 10
-140.69531
 20
-81.11656
 11
-140.69531
 21
-80.41656
  0
LINE
  8
型材断面
  6
CONTINUOUS
 62
    47
 10
-139.370308
 20
-80.41656
 11
-140.69531
 21
-80.41656
  0
LINE
  8
型材断面
  6
CONTINUOUS
 62
    47
 10
-140.02031
 20
-81.11656
 11
-140.02031
 21
-81.61656
  0
LINE
  8
型材断面
  6
CONTINUOUS
 10
-139.94531
 20
-81.61656
 11
-140.02031
 21
-81.61656
  0
LINE
  8
型材断面
  6
CONTINUOUS
 62
    47
 10
-138.591415
 20
-77.744287
 11
-139.652077
 21
-78.80495
  0
LINE
  8
型材断面
  6
CONTINUOUS
 10
-138.061085
 20
-77.213958
 11
-135.342642
 21
-77.213958
  0
LINE
  8
型材断面
  6
CONTINUOUS
 62
    47
 10
-139.84031
 20
-83.900598
 11
-139.84031
 21
-83.400598
  0
LINE
  8
型材断面
  6
CONTINUOUS
 62
    47
 10
-139.84031
 20
-83.400598
 11
-138.66531
 21
-83.250597
  0
LINE
  8
型材断面
  6
CONTINUOUS
 62
    47
 10
-138.66531
 20
-82.64156
 11
-138.66531
 21
-83.250597
  0
LINE
  8
型材断面
  6
CONTINUOUS
 62
    47
 10
-139.370308
 20
-87.84156
 11
-139.370308
 21
-83.900598
  0
LINE
  8
型材断面
  6
CONTINUOUS
 62
    47
 10
-138.520308
 20
-88.59156
 11
-138.520308
 21
-87.84156
  0
LINE
  8
型材断面
  6
CONTINUOUS
 62
    47
 10
-139.370308
 20
-82.64156
 11
-139.370308
 21
-81.61656
  0
LINE
  8
型材断面
  6
CONTINUOUS
 62
    47
 10
-140.69531
 20
-79.848182
 11
-96.42031
 21
-35.573182
  0
LINE
  8
型材断面
  6
CONTINUOUS
 10
-135.625485
 20
-77.213958
 11
-98.181728
 21
-39.7702
  0
LINE
  8
型材断面
  6
CONTINUOUS
 10
-135.342642
 20
-77.213958
 11
-97.898875
 21
-39.7702
  0
LINE
  8
型材断面
  6
CONTINUOUS
 62
    47
 10
-139.370308
 20
-87.84156
 11
-96.42031
 21
-87.84156
  0
LINE
  8
型材断面
  6
CONTINUOUS
 62
    47
 10
-138.520308
 20
-88.59156
 11
-96.42031
 21
-88.59156
  0
LINE
  8
型材断面
  6
CONTINUOUS
 10
-138.66531
 20
-83.250597
 11
-96.42031
 21
-83.250597
  0
LINE
  8
型材断面
  6
CONTINUOUS
 10
-140.02031
 20
-81.61656
 11
-96.42031
 21
-81.61656
  0
LINE
  8
型材断面
  6
CONTINUOUS
 10
-140.69531
 20
-80.41656
 11
-96.42031
 21
-80.41656
  0
LINE
  8
型材断面
  6
CONTINUOUS
 10
-140.69531
 20
-79.848182
 11
-96.42031
 21
-79.848182
  0
LINE
  8
型材断面
  6
CONTINUOUS
 10
-139.652077
 20
-78.80495
 11
-96.42031
 21
-78.80495
  0
LINE
  8
型材断面
  6
CONTINUOUS
 10
-138.591415
 20
-77.744287
 11
-96.42031
 21
-77.744287
  0
LINE
  8
型材断面
  6
CONTINUOUS
 10
-139.298523
 20
-78.451395
 11
-96.42031
 21
-78.451395
  0
LINE
  8
型材断面
  6
CONTINUOUS
 10
-140.02031
 20
-81.11656
 11
-96.42031
 21
-81.11656
  0
LINE
  8
型材断面
  6
CONTINUOUS
 62
    47
 10
-139.370308
 20
-82.64156
 11
-96.42031
 21
-82.64156
  0
LINE
  8
型材断面
  6
CONTINUOUS
 62
    47
 10
-139.84031
 20
-83.900598
 11
-96.42031
 21
-83.900598
  0
LINE
  8
型材断面
  6
CONTINUOUS
 10
-139.84031
 20
-83.400598
 11
-96.42031
 21
-83.400598
  0
LINE
  8
型材断面
  6
DASHDOT
 10
-136.42031
 20
91.305075
 11
-136.42031
 21
-87.84156
  0
LINE
  8
型材断面
  6
DASHDOT
 10
-96.42031
 20
91.305075
 11
-96.42031
 21
-87.84156
  0
LINE
  8
型材断面
  6
DASHDOT
 10
-56.42031
 20
91.305075
 11
-56.42031
 21
-87.84156
  0
POLYLINE
  8
型材断面
  6
CONTINUOUS
 66
     1
 70
     1
  0
VERTEX
  8
型材断面
 10
-87.127485
 20
108.951613
  0
VERTEX
  8
型材断面
 10
-105.682697
 20
108.951613
  0
VERTEX
  8
型材断面
 10
-105.682697
 20
104.159577
  0
VERTEX
  8
型材断面
 10
-87.127485
 20
104.159577
  0
SEQEND
  0
LINE
  8
型材断面
  6
CONTINUOUS
 10
-22.486233
 20
30.717895
 11
-24.729677
 21
26.832135
  0
LINE
  8
型材断面
  6
CONTINUOUS
 10
-22.486233
 20
30.717895
 11
-20.242788
 21
26.832135
  0
LINE
  8
型材断面
  6
CONTINUOUS
 10
-20.242788
 20
26.832135
 11
-24.729677
 21
26.832135
  0
LINE
  8
型材断面
  6
CONTINUOUS
 10
-22.486233
 20
23.028348
 11
-21.592148
 21
19.142588
  0
LINE
  8
型材断面
  6
CONTINUOUS
 10
-22.486233
 20
23.028348
 11
-23.380318
 21
19.142588
  0
LINE
  8
型材断面
  6
CONTINUOUS
 10
-23.380318
 20
19.142588
 11
-21.592148
 21
19.142588
  0
LINE
  8
型材断面
  6
CONTINUOUS
 10
-31.520112
 20
25.424243
 11
21.136567
 21
25.424243
  0
LINE
  8
型材断面
  6
CONTINUOUS
 10
-31.520112
 20
14.22425
 11
21.136567
 21
14.22425
  0
LINE
  8
型材断面
  6
CONTINUOUS
 10
-31.520112
 20
7.384305
 11
21.136567
 21
7.384305
  0
LINE
  8
型材断面
  6
CONTINUOUS
 62
    47
 10
67.85519
 20
-79.848182
 11
67.85519
 21
-80.41656
  0
LINE
  8
型材断面
  6
CONTINUOUS
 62
    47
 10
67.18019
 20
-81.11656
 11
67.85519
 21
-81.11656
  0
LINE
  8
型材断面
  6
CONTINUOUS
 62
    47
 10
67.85519
 20
-81.11656
 11
67.85519
 21
-80.41656
  0
LINE
  8
型材断面
  6
CONTINUOUS
 62
    47
 10
66.530187
 20
-80.41656
 11
67.85519
 21
-80.41656
  0
LINE
  8
型材断面
  6
CONTINUOUS
 62
    47
 10
67.18019
 20
-81.11656
 11
67.18019
 21
-81.61656
  0
LINE
  8
型材断面
  6
CONTINUOUS
 10
67.10519
 20
-81.61656
 11
67.18019
 21
-81.61656
  0
LINE
  8
型材断面
  6
CONTINUOUS
 62
    47
 10
65.751295
 20
-77.744287
 11
66.811958
 21
-78.80495
  0
LINE
  8
型材断面
  6
CONTINUOUS
 10
65.220965
 20
-77.213958
 11
62.502522
 21
-77.213958
  0
LINE
  8
型材断面
  6
CONTINUOUS
 62
    47
 10
67.00019
 20
-83.900598
 11
67.00019
 21
-83.400598
  0
LINE
  8
型材断面
  6
CONTINUOUS
 62
    47
 10
67.00019
 20
-83.400598
 11
65.82519
 21
-83.250597
  0
LINE
  8
型材断面
  6
CONTINUOUS
 62
    47
 10
65.82519
 20
-82.64156
 11
65.82519
 21
-83.250597
  0
LINE
  8
型材断面
  6
CONTINUOUS
 62
    47
 10
66.530187
 20
-87.84156
 11
66.530187
 21
-83.900598
  0
LINE
  8
型材断面
  6
CONTINUOUS
 62
    47
 10
65.680187
 20
-88.59156
 11
65.680187
 21
-87.84156
  0
LINE
  8
型材断面
  6
CONTINUOUS
 62
    47
 10
66.530187
 20
-82.64156
 11
66.530187
 21
-81.61656
  0
LINE
  8
型材断面
  6
CONTINUOUS
 62
    47
 10
67.85519
 20
-79.848182
 11
23.58019
 21
-35.573182
  0
LINE
  8
型材断面
  6
CONTINUOUS
 10
27.83019
 20
-39.717217
 11
23.58019
 21
-39.717217
  0
LINE
  8
型材断面
  6
CONTINUOUS
 10
19.330192
 20
-39.717217
 11
23.58019
 21
-39.717217
  0
LINE
  8
型材断面
  6
CONTINUOUS
 10
19.383175
 20
-39.7702
 11
23.58019
 21
-39.7702
  0
LINE
  8
型材断面
  6
CONTINUOUS
 10
23.58019
 20
-35.467217
 11
27.83019
 21
-39.717217
  0
LINE
  8
型材断面
  6
CONTINUOUS
 10
23.58019
 20
-35.467217
 11
19.330192
 21
-39.717217
  0
LINE
  8
型材断面
  6
CONTINUOUS
 10
27.777205
 20
-39.7702
 11
23.58019
 21
-39.7702
  0
LINE
  8
型材断面
  6
CONTINUOUS
 10
19.330192
 20
-39.717217
 11
19.383175
 21
-39.7702
  0
LINE
  8
型材断面
  6
CONTINUOUS
 10
27.777205
 20
-39.7702
 11
27.83019
 21
-39.717217
  0
LINE
  8
型材断面
  6
CONTINUOUS
 10
19.33019
 20
-39.717217
 11
23.58019
 21
-39.717217
  0
LINE
  8
型材断面
  6
CONTINUOUS
 10
19.383175
 20
-39.7702
 11
23.58019
 21
-39.7702
  0
LINE
  8
型材断面
  6
CONTINUOUS
 10
19.383175
 20
-39.7702
 11
19.33019
 21
-39.717217
  0
LINE
  8
型材断面
  6
CONTINUOUS
 10
62.785365
 20
-77.213958
 11
25.341607
 21
-39.7702
  0
LINE
  8
型材断面
  6
CONTINUOUS
 10
62.502522
 20
-77.213958
 11
25.058755
 21
-39.7702
  0
LINE
  8
型材断面
  6
CONTINUOUS
 62
    47
 10
66.530187
 20
-87.84156
 11
23.58019
 21
-87.84156
  0
LINE
  8
型材断面
  6
CONTINUOUS
 62
    47
 10
65.680187
 20
-88.59156
 11
23.58019
 21
-88.59156
  0
LINE
  8
型材断面
  6
CONTINUOUS
 10
65.82519
 20
-83.250597
 11
23.58019
 21
-83.250597
  0
LINE
  8
型材断面
  6
CONTINUOUS
 10
67.18019
 20
-81.61656
 11
23.58019
 21
-81.61656
  0
LINE
  8
型材断面
  6
CONTINUOUS
 10
67.85519
 20
-80.41656
 11
23.58019
 21
-80.41656
  0
LINE
  8
型材断面
  6
CONTINUOUS
 10
67.85519
 20
-79.848182
 11
23.58019
 21
-79.848182
  0
LINE
  8
型材断面
  6
CONTINUOUS
 10
66.811958
 20
-78.80495
 11
23.58019
 21
-78.80495
  0
LINE
  8
型材断面
  6
CONTINUOUS
 10
65.751295
 20
-77.744287
 11
23.58019
 21
-77.744287
  0
LINE
  8
型材断面
  6
CONTINUOUS
 10
66.458403
 20
-78.451395
 11
23.58019
 21
-78.451395
  0
LINE
  8
型材断面
  6
CONTINUOUS
 10
67.18019
 20
-81.11656
 11
23.58019
 21
-81.11656
  0
LINE
  8
型材断面
  6
CONTINUOUS
 62
    47
 10
66.530187
 20
-82.64156
 11
23.58019
 21
-82.64156
  0
LINE
  8
型材断面
  6
CONTINUOUS
 62
    47
 10
67.00019
 20
-83.900598
 11
23.58019
 21
-83.900598
  0
LINE
  8
型材断面
  6
CONTINUOUS
 10
67.00019
 20
-83.400598
 11
23.58019
 21
-83.400598
  0
LINE
  8
型材断面
  6
CONTINUOUS
 62
    47
 10
-20.69481
 20
-79.848182
 11
-20.69481
 21
-80.41656
  0
LINE
  8
型材断面
  6
CONTINUOUS
 62
    47
 10
-20.01981
 20
-81.11656
 11
-20.69481
 21
-81.11656
  0
LINE
  8
型材断面
  6
CONTINUOUS
 62
    47
 10
-20.69481
 20
-81.11656
 11
-20.69481
 21
-80.41656
  0
LINE
  8
型材断面
  6
CONTINUOUS
 62
    47
 10
-19.369808
 20
-80.41656
 11
-20.69481
 21
-80.41656
  0
LINE
  8
型材断面
  6
CONTINUOUS
 62
    47
 10
-20.01981
 20
-81.11656
 11
-20.01981
 21
-81.61656
  0
LINE
  8
型材断面
  6
CONTINUOUS
 10
-19.94481
 20
-81.61656
 11
-20.01981
 21
-81.61656
  0
LINE
  8
型材断面
  6
CONTINUOUS
 62
    47
 10
-18.590915
 20
-77.744287
 11
-19.651577
 21
-78.80495
  0
LINE
  8
型材断面
  6
CONTINUOUS
 10
-18.060585
 20
-77.213958
 11
-15.342143
 21
-77.213958
  0
LINE
  8
型材断面
  6
CONTINUOUS
 62
    47
 10
-19.83981
 20
-83.900598
 11
-19.83981
 21
-83.400598
  0
LINE
  8
型材断面
  6
CONTINUOUS
 62
    47
 10
-19.83981
 20
-83.400598
 11
-18.66481
 21
-83.250597
  0
LINE
  8
型材断面
  6
CONTINUOUS
 62
    47
 10
-18.66481
 20
-82.64156
 11
-18.66481
 21
-83.250597
  0
LINE
  8
型材断面
  6
CONTINUOUS
 62
    47
 10
-19.369808
 20
-87.84156
 11
-19.369808
 21
-83.900598
  0
LINE
  8
型材断面
  6
CONTINUOUS
 62
    47
 10
-18.519808
 20
-88.59156
 11
-18.519808
 21
-87.84156
  0
LINE
  8
型材断面
  6
CONTINUOUS
 62
    47
 10
-19.369808
 20
-82.64156
 11
-19.369808
 21
-81.61656
  0
LINE
  8
型材断面
  6
CONTINUOUS
 62
    47
 10
-20.69481
 20
-79.848182
 11
23.58019
 21
-35.573182
  0
LINE
  8
型材断面
  6
CONTINUOUS
 10
-15.624985
 20
-77.213958
 11
21.818772
 21
-39.7702
  0
LINE
  8
型材断面
  6
CONTINUOUS
 10
-15.342143
 20
-77.213958
 11
22.101625
 21
-39.7702
  0
LINE
  8
型材断面
  6
CONTINUOUS
 62
    47
 10
-19.369808
 20
-87.84156
 11
23.58019
 21
-87.84156
  0
LINE
  8
型材断面
  6
CONTINUOUS
 62
    47
 10
-18.519808
 20
-88.59156
 11
23.58019
 21
-88.59156
  0
LINE
  8
型材断面
  6
CONTINUOUS
 10
-18.66481
 20
-83.250597
 11
23.58019
 21
-83.250597
  0
LINE
  8
型材断面
  6
CONTINUOUS
 10
-20.01981
 20
-81.61656
 11
23.58019
 21
-81.61656
  0
LINE
  8
型材断面
  6
CONTINUOUS
 10
-20.69481
 20
-80.41656
 11
23.58019
 21
-80.41656
  0
LINE
  8
型材断面
  6
CONTINUOUS
 10
-20.69481
 20
-79.848182
 11
23.58019
 21
-79.848182
  0
LINE
  8
型材断面
  6
CONTINUOUS
 10
-19.651577
 20
-78.80495
 11
23.58019
 21
-78.80495
  0
LINE
  8
型材断面
  6
CONTINUOUS
 10
-18.590915
 20
-77.744287
 11
23.58019
 21
-77.744287
  0
LINE
  8
型材断面
  6
CONTINUOUS
 10
-19.298023
 20
-78.451395
 11
23.58019
 21
-78.451395
  0
LINE
  8
型材断面
  6
CONTINUOUS
 10
-20.01981
 20
-81.11656
 11
23.58019
 21
-81.11656
  0
LINE
  8
型材断面
  6
CONTINUOUS
 62
    47
 10
-19.369808
 20
-82.64156
 11
23.58019
 21
-82.64156
  0
LINE
  8
型材断面
  6
CONTINUOUS
 62
    47
 10
-19.83981
 20
-83.900598
 11
23.58019
 21
-83.900598
  0
LINE
  8
型材断面
  6
CONTINUOUS
 10
-19.83981
 20
-83.400598
 11
23.58019
 21
-83.400598
  0
LINE
  8
型材断面
  6
DOT
 62
    47
 10
67.85519
 20
-59.848182
 11
67.85519
 21
-60.41656
  0
LINE
  8
型材断面
  6
DOT
 62
    47
 10
67.18019
 20
-61.11656
 11
67.85519
 21
-61.11656
  0
LINE
  8
型材断面
  6
DOT
 62
    47
 10
67.85519
 20
-61.11656
 11
67.85519
 21
-60.41656
  0
LINE
  8
型材断面
  6
DOT
 62
    47
 10
66.530187
 20
-60.41656
 11
67.85519
 21
-60.41656
  0
LINE
  8
型材断面
  6
DOT
 62
    47
 10
67.18019
 20
-61.11656
 11
67.18019
 21
-61.61656
  0
LINE
  8
型材断面
  6
DOT
 10
67.10519
 20
-61.61656
 11
67.18019
 21
-61.61656
  0
LINE
  8
型材断面
  6
DOT
 62
    47
 10
65.751295
 20
-57.744287
 11
66.811958
 21
-58.80495
  0
LINE
  8
型材断面
  6
DOT
 10
65.220965
 20
-57.213958
 11
62.502522
 21
-57.213958
  0
LINE
  8
型材断面
  6
DOT
 62
    47
 10
67.00019
 20
-63.900598
 11
67.00019
 21
-63.400598
  0
LINE
  8
型材断面
  6
DOT
 62
    47
 10
67.00019
 20
-63.400598
 11
65.82519
 21
-63.250598
  0
LINE
  8
型材断面
  6
DOT
 62
    47
 10
65.82519
 20
-62.64156
 11
65.82519
 21
-63.250598
  0
LINE
  8
型材断面
  6
DOT
 62
    47
 10
66.530187
 20
-62.64156
 11
66.530187
 21
-61.61656
  0
LINE
  8
型材断面
  6
DOT
 62
    47
 10
67.85519
 20
-59.848182
 11
23.58019
 21
-15.573182
  0
LINE
  8
型材断面
  6
DOT
 10
27.83019
 20
-19.717217
 11
23.58019
 21
-19.717217
  0
LINE
  8
型材断面
  6
DOT
 10
19.330192
 20
-19.717217
 11
23.58019
 21
-19.717217
  0
LINE
  8
型材断面
  6
DOT
 10
19.383175
 20
-19.7702
 11
23.58019
 21
-19.7702
  0
LINE
  8
型材断面
  6
DOT
 10
23.58019
 20
-15.467217
 11
27.83019
 21
-19.717217
  0
LINE
  8
型材断面
  6
DOT
 10
23.58019
 20
-15.467217
 11
19.330192
 21
-19.717217
  0
LINE
  8
型材断面
  6
DOT
 10
27.777205
 20
-19.7702
 11
23.58019
 21
-19.7702
  0
LINE
  8
型材断面
  6
DOT
 10
19.330192
 20
-19.717217
 11
19.383175
 21
-19.7702
  0
LINE
  8
型材断面
  6
DOT
 10
27.777205
 20
-19.7702
 11
27.83019
 21
-19.717217
  0
LINE
  8
型材断面
  6
DOT
 10
19.33019
 20
-19.717217
 11
23.58019
 21
-19.717217
  0
LINE
  8
型材断面
  6
DOT
 10
19.383175
 20
-19.7702
 11
23.58019
 21
-19.7702
  0
LINE
  8
型材断面
  6
DOT
 10
19.383175
 20
-19.7702
 11
19.33019
 21
-19.717217
  0
LINE
  8
型材断面
  6
DOT
 10
62.785365
 20
-57.213958
 11
25.341607
 21
-19.7702
  0
LINE
  8
型材断面
  6
DOT
 10
62.502522
 20
-57.213958
 11
25.058755
 21
-19.7702
  0
LINE
  8
型材断面
  6
DOT
 10
65.82519
 20
-63.250598
 11
23.58019
 21
-63.250598
  0
LINE
  8
型材断面
  6
DOT
 10
67.18019
 20
-61.61656
 11
23.58019
 21
-61.61656
  0
LINE
  8
型材断面
  6
DOT
 10
67.85519
 20
-60.41656
 11
23.58019
 21
-60.41656
  0
LINE
  8
型材断面
  6
DOT
 10
67.85519
 20
-59.848182
 11
23.58019
 21
-59.848182
  0
LINE
  8
型材断面
  6
DOT
 10
66.811958
 20
-58.80495
 11
23.58019
 21
-58.80495
  0
LINE
  8
型材断面
  6
DOT
 10
65.751295
 20
-57.744287
 11
23.58019
 21
-57.744287
  0
LINE
  8
型材断面
  6
DOT
 10
66.458403
 20
-58.451395
 11
23.58019
 21
-58.451395
  0
LINE
  8
型材断面
  6
DOT
 10
67.18019
 20
-61.11656
 11
23.58019
 21
-61.11656
  0
LINE
  8
型材断面
  6
DOT
 62
    47
 10
66.530187
 20
-62.64156
 11
23.58019
 21
-62.64156
  0
LINE
  8
型材断面
  6
DOT
 62
    47
 10
67.00019
 20
-63.900598
 11
23.58019
 21
-63.900598
  0
LINE
  8
型材断面
  6
DOT
 10
67.00019
 20
-63.400598
 11
23.58019
 21
-63.400598
  0
LINE
  8
型材断面
  6
DOT
 62
    47
 10
-20.69481
 20
-59.848182
 11
-20.69481
 21
-60.41656
  0
LINE
  8
型材断面
  6
DOT
 62
    47
 10
-20.01981
 20
-61.11656
 11
-20.69481
 21
-61.11656
  0
LINE
  8
型材断面
  6
DOT
 62
    47
 10
-20.69481
 20
-61.11656
 11
-20.69481
 21
-60.41656
  0
LINE
  8
型材断面
  6
DOT
 62
    47
 10
-19.369808
 20
-60.41656
 11
-20.69481
 21
-60.41656
  0
LINE
  8
型材断面
  6
DOT
 62
    47
 10
-20.01981
 20
-61.11656
 11
-20.01981
 21
-61.61656
  0
LINE
  8
型材断面
  6
DOT
 10
-19.94481
 20
-61.61656
 11
-20.01981
 21
-61.61656
  0
LINE
  8
型材断面
  6
DOT
 62
    47
 10
-18.590915
 20
-57.744287
 11
-19.651577
 21
-58.80495
  0
LINE
  8
型材断面
  6
DOT
 10
-18.060585
 20
-57.213958
 11
-15.342143
 21
-57.213958
  0
LINE
  8
型材断面
  6
DOT
 62
    47
 10
-19.83981
 20
-63.900598
 11
-19.83981
 21
-63.400598
  0
LINE
  8
型材断面
  6
DOT
 62
    47
 10
-19.83981
 20
-63.400598
 11
-18.66481
 21
-63.250598
  0
LINE
  8
型材断面
  6
DOT
 62
    47
 10
-18.66481
 20
-62.64156
 11
-18.66481
 21
-63.250598
  0
LINE
  8
型材断面
  6
DOT
 62
    47
 10
-19.369808
 20
-62.64156
 11
-19.369808
 21
-61.61656
  0
LINE
  8
型材断面
  6
DOT
 62
    47
 10
-20.69481
 20
-59.848182
 11
23.58019
 21
-15.573182
  0
LINE
  8
型材断面
  6
DOT
 10
-15.624985
 20
-57.213958
 11
21.818772
 21
-19.7702
  0
LINE
  8
型材断面
  6
DOT
 10
-15.342143
 20
-57.213958
 11
22.101625
 21
-19.7702
  0
LINE
  8
型材断面
  6
DOT
 10
-18.66481
 20
-63.250598
 11
23.58019
 21
-63.250598
  0
LINE
  8
型材断面
  6
DOT
 10
-20.01981
 20
-61.61656
 11
23.58019
 21
-61.61656
  0
LINE
  8
型材断面
  6
DOT
 10
-20.69481
 20
-60.41656
 11
23.58019
 21
-60.41656
  0
LINE
  8
型材断面
  6
DOT
 10
-20.69481
 20
-59.848182
 11
23.58019
 21
-59.848182
  0
LINE
  8
型材断面
  6
DOT
 10
-19.651577
 20
-58.80495
 11
23.58019
 21
-58.80495
  0
LINE
  8
型材断面
  6
DOT
 10
-18.590915
 20
-57.744287
 11
23.58019
 21
-57.744287
  0
LINE
  8
型材断面
  6
DOT
 10
-19.298023
 20
-58.451395
 11
23.58019
 21
-58.451395
  0
LINE
  8
型材断面
  6
DOT
 10
-20.01981
 20
-61.11656
 11
23.58019
 21
-61.11656
  0
LINE
  8
型材断面
  6
DOT
 62
    47
 10
-19.369808
 20
-62.64156
 11
23.58019
 21
-62.64156
  0
LINE
  8
型材断面
  6
DOT
 62
    47
 10
-19.83981
 20
-63.900598
 11
23.58019
 21
-63.900598
  0
LINE
  8
型材断面
  6
DOT
 10
-19.83981
 20
-63.400598
 11
23.58019
 21
-63.400598
  0
INSERT
  2
*GRP_0002
  8
型材断面
  6
CONTINUOUS
 10
0.0
 20
0.0
  0
INSERT
  2
*GRP_0003
  8
型材断面
  6
CONTINUOUS
 10
0.0
 20
0.0
  0
INSERT
  2
*GRP_0004
  8
型材断面
  6
CONTINUOUS
 10
0.0
 20
0.0
  0
INSERT
  2
*GRP_0005
  8
型材断面
  6
CONTINUOUS
 10
0.0
 20
0.0
  0
LINE
  8
型材断面
  6
CONTINUOUS
 10
98.549145
 20
58.735292
 11
122.480768
 21
58.735292
  0
LINE
  8
型材断面
  6
CONTINUOUS
 10
-31.520112
 20
0.54436
 11
21.136567
 21
0.54436
  0
LINE
  8
ガラス
  6
CONTINUOUS
 10
-94.08321
 20
25.01752
 11
-97.955845
 21
21.144885
  0
LINE
  8
ガラス
  6
CONTINUOUS
 10
-95.681567
 20
24.137198
 11
-97.075522
 21
22.743243
  0
LINE
  8
ガラス
  6
CONTINUOUS
 10
-94.08321
 20
78.114543
 11
-97.955845
 21
74.241907
  0
LINE
  8
ガラス
  6
CONTINUOUS
 10
-95.681567
 20
77.23422
 11
-97.075522
 21
75.840265
  0
LINE
  8
ガラス
  6
CONTINUOUS
 10
-118.503168
 20
53.37426
 11
-122.375803
 21
49.501625
  0
LINE
  8
ガラス
  6
CONTINUOUS
 10
-120.101525
 20
52.493937
 11
-121.49548
 21
51.099983
  0
LINE
  8
ガラス
  6
CONTINUOUS
 10
-68.353947
 20
53.37426
 11
-72.226583
 21
49.501625
  0
LINE
  8
ガラス
  6
CONTINUOUS
 10
-69.952305
 20
52.493937
 11
-71.34626
 21
51.099983
  0
LINE
  8
ガラス
  6
CONTINUOUS
 10
-94.963533
 20
23.419162
 11
-96.357488
 21
22.025208
  0
LINE
  8
ガラス
  6
CONTINUOUS
 10
-69.23427
 20
51.775902
 11
-70.628225
 21
50.381948
  0
LINE
  8
ガラス
  6
CONTINUOUS
 10
-119.38349
 20
51.775902
 11
-120.777445
 21
50.381948
  0
LINE
  8
ガラス
  6
CONTINUOUS
 10
-94.963533
 20
76.516185
 11
-96.357488
 21
75.12223
  0
LINE
  8
ガラス
  6
CONTINUOUS
 10
-94.109062
 20
-62.739672
 11
-97.981697
 21
-66.612308
  0
LINE
  8
ガラス
  6
CONTINUOUS
 10
-94.989385
 20
-64.33803
 11
-96.38334
 21
-65.731985
  0
LINE
  8
ガラス
  6
CONTINUOUS
 10
-95.70742
 20
-63.619995
 11
-97.101375
 21
-65.01395
  0
TEXT
  7
TextStyle03
  8
文字
  6
CONTINUOUS
 10
65.925
 20
92.05
  1
ＮＳコード：ＮＳ４ＣＳ
 40
5.0
 72
     5
 11
127.175
 21
92.05
  0
TEXT
  7
TextStyle03
  8
文字
  6
CONTINUOUS
 10
-46.775
 20
30.0
  1
ﾊﾞﾗﾝｽｽﾃｰ
 40
3.0
 72
     5
 11
-33.4625
 21
30.0
  0
TEXT
  7
TextStyle03
  8
文字
  6
CONTINUOUS
 10
-104.675
 20
-5.375
  1
可動装置側
 40
3.0
 72
     5
 11
-88.175
 21
-5.375
  0
TEXT
  7
TextStyle03
  8
文字
  6
CONTINUOUS
 10
-104.675
 20
105.15
  1
可動装置側
 40
3.0
 72
     5
 11
-88.175
 21
105.15
  0
TEXT
  7
TextStyle03
  8
文字
  6
CONTINUOUS
 10
-159.3375
 20
76.025
  1
ﾊﾞﾗﾝｽｽﾃｰ
 40
3.0
 72
     5
 11
-146.025
 21
76.025
  0
TEXT
  7
TextStyle03
  8
文字
  6
CONTINUOUS
 10
-168.65
 20
8.2
  1
アンカーピッチ
 40
3.0
 50
90.0
 72
     5
 11
-168.65
 21
31.45
  0
TEXT
  7
TextStyle03
  8
文字
  6
CONTINUOUS
 10
-156.65
 20
124.225
  1
アンカーピッチ
 40
3.0
 72
     5
 11
-133.4
 21
124.225
  0
TEXT
  7
TextStyle03
  8
文字
  6
CONTINUOUS
 10
-18.2
 20
27.15
  1
は排水穴位置を示す
 40
3.0
 72
     5
 11
11.8
 21
27.15
  0
TEXT
  7
TextStyle03
  8
文字
  6
CONTINUOUS
 10
-18.2
 20
19.3
  1
はケーシング位置を示す
 40
3.0
 72
     5
 11
18.55
 21
19.3
  0
TEXT
  7
TextStyle03
  8
文字
  6
CONTINUOUS
 10
-18.2
 20
15.925
  1
４ヶ所中1ヶ所に設定
 40
3.0
 72
     5
 11
13.4875
 21
15.925
  0
TEXT
  7
TextStyle03
  8
文字
  6
CONTINUOUS
 10
-23.8
 20
8.775
  1
アンカー数量　１０ヶ所
 40
3.0
 72
     5
 11
12.95
 21
8.775
  0
TEXT
  7
TextStyle03
  8
文字
  6
CONTINUOUS
 10
142.4
 20
-1.35
  1
×４枚
 40
3.0
 72
     5
 11
152.15
 21
-1.35
  0
TEXT
  7
TextStyle03
  8
文字
  6
CONTINUOUS
 10
102.125
 20
59.925
  1
ガラス寸法
 40
3.0
 72
     5
 11
118.625
 21
59.925
  0
TEXT
  7
TextStyle03
  8
文字
  6
CONTINUOUS
 10
-23.825
 20
1.95
  1
アームユニット数　４ヶ所
 40
3.0
 72
     5
 11
16.3
 21
1.95
  0
TEXT
  7
TextStyle03
  8
文字
  6
CONTINUOUS
 10
65.5
 20
119.35
  1
シリーズ：ＳＴＦ４
 40
5.0
 72
     5
 11
115.5
 21
119.35
  0
TEXT
  7
TextStyle03
  8
文字
  6
CONTINUOUS
 10
65.5
 20
113.725
  1
　　　　　四角錘（上下可動）1600×1600タイプ
 40
5.0
 72
     5
 11
188.625
 21
113.725
  0
TEXT
  7
TextStyle03
  8
文字
  6
CONTINUOUS
 10
65.5
 20
108.1
  1
　　　　　シングルガラス仕様
 40
5.0
 72
     5
 11
143.625
 21
108.1
  0
TEXT
  7
TextStyle03
  8
文字
  6
CONTINUOUS
 10
65.5
 20
102.475
  1
図面名　：外観姿図
 40
5.0
 72
     5
 11
115.5
 21
102.475
  0
TEXT
  7
TextStyle03
  8
文字
  6
CONTINUOUS
 10
65.5
 20
96.85
  1
　　　　　　
 40
5.0
 72
     5
 11
98.625
 21
96.85
  0
INSERT
  2
*GRP_0006
  8
寸法
  6
CONTINUOUS
 10
0.0
 20
0.0
  0
INSERT
  2
*DIM_0007
  8
寸法
  6
CONTINUOUS
 10
0.0
 20
0.0
  0
INSERT
  2
*DIM_0008
  8
寸法
  6
CONTINUOUS
 10
0.0
 20
0.0
  0
INSERT
  2
*DIM_0009
  8
寸法
  6
CONTINUOUS
 10
0.0
 20
0.0
  0
INSERT
  2
*DIM_0010
  8
寸法
  6
CONTINUOUS
 10
0.0
 20
0.0
  0
INSERT
  2
*DIM_0011
  8
寸法
  6
CONTINUOUS
 10
0.0
 20
0.0
  0
INSERT
  2
*DIM_0012
  8
寸法
  6
CONTINUOUS
 10
0.0
 20
0.0
  0
INSERT
  2
*DIM_0013
  8
寸法
  6
CONTINUOUS
 10
0.0
 20
0.0
  0
INSERT
  2
*DIM_0014
  8
寸法
  6
CONTINUOUS
 10
0.0
 20
0.0
  0
INSERT
  2
*DIM_0015
  8
寸法
  6
CONTINUOUS
 10
0.0
 20
0.0
  0
INSERT
  2
*GRP_0016
  8
寸法
  6
CONTINUOUS
 10
0.0
 20
0.0
  0
INSERT
  2
*DIM_0017
  8
寸法
  6
CONTINUOUS
 10
0.0
 20
0.0
  0
INSERT
  2
*DIM_0018
  8
寸法
  6
CONTINUOUS
 10
0.0
 20
0.0
  0
INSERT
  2
*DIM_0019
  8
寸法
  6
CONTINUOUS
 10
0.0
 20
0.0
  0
INSERT
  2
*DIM_0020
  8
寸法
  6
CONTINUOUS
 10
0.0
 20
0.0
  0
INSERT
  2
*DIM_0021
  8
寸法
  6
CONTINUOUS
 10
0.0
 20
0.0
  0
INSERT
  2
*DIM_0022
  8
寸法
  6
CONTINUOUS
 10
0.0
 20
0.0
  0
LINE
  8
曲げ物
  6
CONTINUOUS
 10
164.444235
 20
-4.42106
 11
83.309235
 21
-4.42106
  0
LINE
  8
曲げ物
  6
CONTINUOUS
 10
83.309235
 20
-4.42106
 11
123.876735
 21
52.949807
  0
LINE
  8
曲げ物
  6
CONTINUOUS
 10
164.444235
 20
-4.42106
 11
123.876735
 21
52.949807
  0
ENDSEC
  0
EOF
