  0
SECTION
  2
HEADER
  9
$EXTMIN
 10
-210.0
 20
-148.5
  9
$EXTMAX
 10
210.0
 20
148.5
  9
$PDMODE
 70
    32
  9
$PDSIZE
 40
1.5
  9
$LTSCALE
 40
10.0
  0
ENDSEC
  0
SECTION
  2
TABLES
  0
TABLE
  2
LTYPE
 70
    15
  0
LTYPE
  2
CONTINUOUS
 70
    64
  3
実線
 72
    65
 73
     0
 40
0.0
  0
LTYPE
  2
DASHED
 70
    64
  3
破線A
 72
    65
 73
     2
 40
0.6
 49
0.4
 49
-0.2
  0
LTYPE
  2
DASHEDX2
 70
    64
  3
破線B
 72
    65
 73
     2
 40
1.3
 49
0.9
 49
-0.4
  0
LTYPE
  2
DASHDOT
 70
    64
  3
１点鎖線A
 72
    65
 73
     4
 40
0.5375
 49
0.375
 49
-0.05
 49
0.0625
 49
-0.05
  0
LTYPE
  2
DASHDOTX2
 70
    64
  3
１点鎖線B
 72
    65
 73
     4
 40
1.075
 49
0.75
 49
-0.1
 49
0.125
 49
-0.1
  0
LTYPE
  2
DIVIDE2
 70
    64
  3
２点鎖線A
 72
    65
 73
     6
 40
0.5125
 49
0.3
 49
-0.0375
 49
0.05
 49
-0.0375
 49
0.05
 49
-0.0375
  0
LTYPE
  2
DIVIDE
 70
    64
  3
２点鎖線B
 72
    65
 73
     6
 40
1.05
 49
0.55
 49
-0.1
 49
0.1
 49
-0.1
 49
0.1
 49
-0.1
  0
LTYPE
  2
DOT
 70
    64
  3
点線A
 72
    65
 73
     2
 40
0.1125
 49
0.0625
 49
-0.05
  0
LTYPE
  2
DOTX2
 70
    64
  3
点線B
 72
    65
 73
     2
 40
0.275
 49
0.15
 49
-0.125
  0
LTYPE
  2
CONTINUOUS
 70
    64
  3
実線
 72
    65
 73
     0
 40
0.0
  0
LTYPE
  2
CONTINUOUS
 70
    64
  3
実線
 72
    65
 73
     0
 40
0.0
  0
LTYPE
  2
CONTINUOUS
 70
    64
  3
実線
 72
    65
 73
     0
 40
0.0
  0
LTYPE
  2
CONTINUOUS
 70
    64
  3
実線
 72
    65
 73
     0
 40
0.0
  0
LTYPE
  2
CONTINUOUS
 70
    64
  3
実線
 72
    65
 73
     0
 40
0.0
  0
LTYPE
  2
CONTINUOUS
 70
    64
  3
実線
 72
    65
 73
     0
 40
0.0
  0
ENDTAB
  0
TABLE
  2
LAYER
 70
    34
  0
LAYER
  2
通り芯
 70
     0
 62
    15
  6
CONTINUOUS
  0
LAYER
  2
補助線
 70
     0
 62
    16
  6
DOT
  0
LAYER
  2
躯体
 70
     0
 62
    31
  6
CONTINUOUS
  0
LAYER
  2
型材
 70
     0
 62
    32
  6
CONTINUOUS
  0
LAYER
  2
型材断面
 70
     0
 62
    47
  6
CONTINUOUS
  0
LAYER
  2
ガラス
 70
     0
 62
    48
  6
CONTINUOUS
  0
LAYER
  2
ゴム等
 70
     0
 62
    63
  6
CONTINUOUS
  0
LAYER
  2
ボルト／ビス
 70
     0
 62
    64
  6
CONTINUOUS
  0
LAYER
  2
文字
 70
     0
 62
    79
  6
CONTINUOUS
  0
LAYER
  2
寸法
 70
     0
 62
    80
  6
CONTINUOUS
  0
LAYER
  2
ﾊｯﾁﾝｸﾞ
 70
     0
 62
    95
  6
CONTINUOUS
  0
LAYER
  2
別途部材
 70
     0
 62
    96
  6
CONTINUOUS
  0
LAYER
  2
曲げ物
 70
     0
 62
   111
  6
CONTINUOUS
  0
LAYER
  2
鉄骨等
 70
     0
 62
   112
  6
CONTINUOUS
  0
LAYER
  2
St
 70
     0
 62
   127
  6
CONTINUOUS
  0
LAYER
  2
その他部品等
 70
     0
 62
   128
  6
CONTINUOUS
  0
LAYER
  2
ｶﾞｽｹｯﾄ
 70
     0
 62
   143
  6
CONTINUOUS
  0
LAYER
  2
ｽｹｯﾁ
 70
     0
 62
    14
  6
CONTINUOUS
  0
LAYER
  2
0
 70
     0
 62
    17
  6
CONTINUOUS
  0
LAYER
  2
1
 70
     0
 62
    30
  6
CONTINUOUS
  0
LAYER
  2
4
 70
     0
 62
    33
  6
CONTINUOUS
  0
LAYER
  2
ﾚｲﾔ3
 70
     0
 62
    46
  6
CONTINUOUS
  0
LAYER
  2
外形線
 70
     0
 62
    49
  6
CONTINUOUS
  0
LAYER
  2
部品
 70
     0
 62
    14
  6
CONTINUOUS
  0
LAYER
  2
サッシ芯
 70
     0
 62
    17
  6
DASHDOTX2
  0
LAYER
  2
寸法線
 70
     0
 62
    62
  6
CONTINUOUS
  0
LAYER
  2
姿図外形線
 70
     0
 62
    65
  6
CONTINUOUS
  0
LAYER
  2
姿補助線
 70
     0
 62
    30
  6
CONTINUOUS
  0
LAYER
  2
透視線
 70
     0
 62
    78
  6
DOT
  0
LAYER
  2
用紙
 70
     0
 62
    81
  6
CONTINUOUS
  0
LAYER
  2
実線図枠
 70
     0
 62
    94
  6
CONTINUOUS
  0
LAYER
  2
補助図枠
 70
     0
 62
    97
  6
CONTINUOUS
  0
LAYER
  2
建具記号
 70
     0
 62
   110
  6
CONTINUOUS
  0
LAYER
  2
補助文字
 70
     0
 62
   113
  6
CONTINUOUS
  0
ENDTAB
  0
TABLE
  2
STYLE
 70
    10
  0
STYLE
  2
STANDARD
 70
     0
 40
1.0
 41
1.0
 42
1.0
 50
0.0
 71
     0
  3
TXT
  4
BIGFONT
  0
STYLE
  2
TATE
 70
     4
 40
1.0
 41
1.0
 42
1.0
 50
0.0
 71
     0
  3
TXT
  4
BIGFONT
  0
STYLE
  2
TextStyle03
 70
     0
 40
1.0
 41
1.0
 42
1.0
 50
0.0
 71
     0
  3
MONOTXT
  4
BIGFONT
  0
STYLE
  2
TextStyle04
 70
     0
 40
1.0
 41
1.0
 42
1.0
 50
0.0
 71
     0
  3
MONOTXT
  4
BIGFONT
  0
STYLE
  2
TextStyle05
 70
     0
 40
1.0
 41
1.0
 42
1.0
 50
0.0
 71
     0
  3
MONOTXT
  4
BIGFONT
  0
STYLE
  2
TextStyle06
 70
     0
 40
1.0
 41
1.0
 42
1.0
 50
0.0
 71
     0
  3
MONOTXT
  4
BIGFONT
  0
STYLE
  2
TextStyle07
 70
     0
 40
1.0
 41
1.0
 42
1.0
 50
0.0
 71
     0
  3
MONOTXT
  4
BIGFONT
  0
STYLE
  2
TextStyle08
 70
     0
 40
1.0
 41
1.0
 42
1.0
 50
0.0
 71
     0
  3
MONOTXT
  4
BIGFONT
  0
STYLE
  2
TextStyle09
 70
     0
 40
1.0
 41
1.0
 42
1.0
 50
0.0
 71
     0
  3
MONOTXT
  4
BIGFONT
  0
STYLE
  2
TextStyle10
 70
     0
 40
1.0
 41
1.0
 42
1.0
 50
0.0
 71
     0
  3
MONOTXT
  4
BIGFONT
  0
ENDTAB
  0
ENDSEC
  0
SECTION
  2
BLOCKS
  0
BLOCK
  2
*GRP_0001
 70
    65
 10
0.0
 20
0.0
  0
LINE
  8
型材断面
  6
CONTINUOUS
 10
195.0
 20
133.5
 11
195.0
 21
-133.5
  0
LINE
  8
型材断面
  6
CONTINUOUS
 10
195.0
 20
-133.5
 11
-185.0
 21
-133.5
  0
LINE
  8
型材断面
  6
CONTINUOUS
 10
-185.0
 20
-133.5
 11
-185.0
 21
133.5
  0
LINE
  8
型材断面
  6
CONTINUOUS
 10
195.0
 20
133.5
 11
-185.0
 21
133.5
  0
LINE
  8
型材断面
  6
CONTINUOUS
 10
145.0
 20
-133.5
 11
145.0
 21
-118.5
  0
LINE
  8
型材断面
  6
CONTINUOUS
 10
195.0
 20
-118.5
 11
145.0
 21
-118.5
  0
ENDBLK
  0
BLOCK
  2
*DIM_0002
 70
    65
 10
0.0
 20
0.0
  0
LINE
  8
寸法
  6
BYBLOCK
 62
     0
 10
-128.742993
 20
-22.207025
 11
-128.742993
 21
-22.536362
  0
LINE
  8
寸法
  6
BYBLOCK
 62
     0
 10
71.257007
 20
-22.207025
 11
71.257007
 21
-22.536362
  0
LINE
  8
寸法
  6
BYBLOCK
 62
     0
 10
-128.742993
 20
-22.536362
 11
71.257007
 21
-22.536362
  0
POINT
  8
寸法
 62
     0
 10
-128.742993
 20
-22.536362
  0
POINT
  8
寸法
 62
     0
 10
71.257007
 20
-22.536362
  0
TEXT
  7
TextStyle03
  8
寸法
  6
CONTINUOUS
 62
     0
 10
-40.46875
 20
-22.175
  1
呼称寸法　6000
 40
3.0
 72
     5
 11
-17.03125
 21
-22.175
  0
ENDBLK
  0
BLOCK
  2
*DIM_0003
 70
    65
 10
0.0
 20
0.0
  0
LINE
  8
寸法
  6
BYBLOCK
 62
     0
 10
57.257007
 20
-71.291265
 11
87.226657
 21
-71.291265
  0
LINE
  8
寸法
  6
BYBLOCK
 62
     0
 10
87.226657
 20
-79.624597
 11
87.226657
 21
-71.291265
  0
POINT
  8
寸法
 62
     0
 10
87.226657
 20
-79.624597
  0
POINT
  8
寸法
 62
     0
 10
87.226657
 20
-71.291265
  0
TEXT
  7
TextStyle03
  8
寸法
  6
CONTINUOUS
 62
     0
 10
86.85
 20
-77.9125
  1
250
 40
3.0
 50
90.0
 72
     5
 11
86.85
 21
-73.0375
  0
ENDBLK
  0
BLOCK
  2
*DIM_0004
 70
    65
 10
0.0
 20
0.0
  0
LINE
  8
寸法
  6
BYBLOCK
 62
     0
 10
-112.076325
 20
9.768917
 11
-112.076325
 21
4.76842
  0
LINE
  8
寸法
  6
BYBLOCK
 62
     0
 10
-28.742993
 20
9.76892
 11
-28.742993
 21
4.76842
  0
LINE
  8
寸法
  6
BYBLOCK
 62
     0
 10
-112.076325
 20
4.76842
 11
-28.742993
 21
4.76842
  0
POINT
  8
寸法
 62
     0
 10
-112.076325
 20
4.76842
  0
POINT
  8
寸法
 62
     0
 10
-28.742993
 20
4.76842
  0
TEXT
  7
TextStyle03
  8
寸法
  6
CONTINUOUS
 62
     0
 10
-73.70625
 20
5.125
  1
2500
 40
3.0
 72
     5
 11
-67.14375
 21
5.125
  0
ENDBLK
  0
BLOCK
  2
*DIM_0005
 70
    65
 10
0.0
 20
0.0
  0
LINE
  8
寸法
  6
BYBLOCK
 62
     0
 10
54.59034
 20
9.768917
 11
54.59034
 21
4.76842
  0
LINE
  8
寸法
  6
BYBLOCK
 62
     0
 10
-28.742993
 20
4.76842
 11
54.59034
 21
4.76842
  0
POINT
  8
寸法
 62
     0
 10
54.59034
 20
4.76842
  0
TEXT
  7
TextStyle03
  8
寸法
  6
CONTINUOUS
 62
     0
 10
9.61875
 20
5.125
  1
2500
 40
3.0
 72
     5
 11
16.18125
 21
5.125
  0
ENDBLK
  0
BLOCK
  2
*DIM_0006
 70
    65
 10
0.0
 20
0.0
  0
LINE
  8
寸法
  6
BYBLOCK
 62
     0
 10
152.619357
 20
29.399048
 11
152.619357
 21
58.954983
  0
LINE
  8
寸法
  6
BYBLOCK
 62
     0
 10
160.95269
 20
58.954983
 11
152.619357
 21
58.954983
  0
POINT
  8
寸法
 62
     0
 10
160.95269
 20
58.954983
  0
POINT
  8
寸法
 62
     0
 10
152.619357
 20
58.954983
  0
TEXT
  7
TextStyle03
  8
寸法
  6
CONTINUOUS
 62
     0
 10
154.3125
 20
59.325
  1
250
 40
3.0
 72
     5
 11
159.1875
 21
59.325
  0
ENDBLK
  0
BLOCK
  2
*DIM_0007
 70
    65
 10
0.0
 20
0.0
  0
LINE
  8
寸法
  6
BYBLOCK
 62
     0
 10
105.439075
 20
13.399048
 11
105.439075
 21
43.399048
  0
POINT
  8
寸法
 62
     0
 10
105.439075
 20
13.399048
  0
POINT
  8
寸法
 62
     0
 10
105.439075
 20
43.399048
  0
TEXT
  7
TextStyle03
  8
寸法
  6
CONTINUOUS
 62
     0
 10
105.05
 20
17.5
  1
呼称寸法　900
 40
3.0
 50
90.0
 72
     5
 11
105.05
 21
39.25
  0
ENDBLK
  0
BLOCK
  2
*DIM_0008
 70
    65
 10
0.0
 20
0.0
  0
LINE
  8
寸法
  6
BYBLOCK
 62
     0
 10
160.95269
 20
46.065715
 11
160.95269
 21
58.954983
  0
LINE
  8
寸法
  6
BYBLOCK
 62
     0
 10
167.735973
 20
46.365715
 11
167.735973
 21
58.954983
  0
LINE
  8
寸法
  6
BYBLOCK
 62
     0
 10
160.95269
 20
58.954983
 11
167.735973
 21
58.954983
  0
POINT
  8
寸法
 62
     0
 10
160.95269
 20
58.954983
  0
POINT
  8
寸法
 62
     0
 10
167.735973
 20
58.954983
  0
TEXT
  7
TextStyle03
  8
寸法
  6
CONTINUOUS
 62
     0
 10
168.575
 20
59.325
  1
203.5
 40
3.0
 72
     5
 11
176.825
 21
59.325
  0
ENDBLK
  0
BLOCK
  2
*DIM_0009
 70
    65
 10
0.0
 20
0.0
  0
LINE
  8
寸法
  6
BYBLOCK
 62
     0
 10
163.77533
 20
45.67905
 11
105.439075
 21
45.67905
  0
LINE
  8
寸法
  6
BYBLOCK
 62
     0
 10
105.439075
 20
43.399048
 11
105.439075
 21
45.67905
  0
POINT
  8
寸法
 62
     0
 10
105.439075
 20
43.399048
  0
POINT
  8
寸法
 62
     0
 10
105.439075
 20
45.67905
  0
TEXT
  7
TextStyle03
  8
寸法
  6
CONTINUOUS
 62
     0
 10
104.975
 20
48.01875
  1
68.4
 40
3.0
 50
90.0
 72
     5
 11
104.975
 21
54.58125
  0
ENDBLK
  0
BLOCK
  2
*DIM_0010
 70
    65
 10
0.0
 20
0.0
  0
LINE
  8
寸法
  6
BYBLOCK
 62
     0
 10
163.77533
 20
11.119045
 11
105.439075
 21
11.119045
  0
LINE
  8
寸法
  6
BYBLOCK
 62
     0
 10
105.439075
 20
13.399048
 11
105.439075
 21
11.119045
  0
POINT
  8
寸法
 62
     0
 10
105.439075
 20
13.399048
  0
POINT
  8
寸法
 62
     0
 10
105.439075
 20
11.119045
  0
TEXT
  7
TextStyle03
  8
寸法
  6
CONTINUOUS
 62
     0
 10
104.975
 20
2.21875
  1
68.4
 40
3.0
 50
90.0
 72
     5
 11
104.975
 21
8.78125
  0
ENDBLK
  0
BLOCK
  2
*DIM_0011
 70
    65
 10
0.0
 20
0.0
  0
LINE
  8
寸法
  6
BYBLOCK
 62
     0
 10
73.923675
 20
-79.624597
 11
87.226657
 21
-79.624597
  0
LINE
  8
寸法
  6
BYBLOCK
 62
     0
 10
74.223675
 20
-86.407882
 11
87.226657
 21
-86.407882
  0
LINE
  8
寸法
  6
BYBLOCK
 62
     0
 10
87.226657
 20
-79.624597
 11
87.226657
 21
-86.407882
  0
POINT
  8
寸法
 62
     0
 10
87.226657
 20
-79.624597
  0
POINT
  8
寸法
 62
     0
 10
87.226657
 20
-86.407882
  0
TEXT
  7
TextStyle03
  8
寸法
  6
CONTINUOUS
 62
     0
 10
86.775
 20
-95.575
  1
203.5
 40
3.0
 50
90.0
 72
     5
 11
86.775
 21
-87.325
  0
ENDBLK
  0
BLOCK
  2
*DIM_0012
 70
    65
 10
0.0
 20
0.0
  0
LINE
  8
寸法
  6
BYBLOCK
 62
     0
 10
73.53701
 20
-82.44724
 11
73.53701
 21
-22.536362
  0
LINE
  8
寸法
  6
BYBLOCK
 62
     0
 10
71.257007
 20
-22.536362
 11
73.53701
 21
-22.536362
  0
POINT
  8
寸法
 62
     0
 10
71.257007
 20
-22.536362
  0
POINT
  8
寸法
 62
     0
 10
73.53701
 20
-22.536362
  0
TEXT
  7
TextStyle03
  8
寸法
  6
CONTINUOUS
 62
     0
 10
75.84375
 20
-22.175
  1
68.4
 40
3.0
 72
     5
 11
82.40625
 21
-22.175
  0
ENDBLK
  0
BLOCK
  2
*DIM_0013
 70
    65
 10
0.0
 20
0.0
  0
LINE
  8
寸法
  6
BYBLOCK
 62
     0
 10
-131.022995
 20
-82.44724
 11
-131.022995
 21
-22.536362
  0
LINE
  8
寸法
  6
BYBLOCK
 62
     0
 10
-128.742993
 20
-22.536362
 11
-131.022995
 21
-22.536362
  0
POINT
  8
寸法
 62
     0
 10
-128.742993
 20
-22.536362
  0
POINT
  8
寸法
 62
     0
 10
-131.022995
 20
-22.536362
  0
TEXT
  7
TextStyle03
  8
寸法
  6
CONTINUOUS
 62
     0
 10
-139.93125
 20
-22.175
  1
68.4
 40
3.0
 72
     5
 11
-133.36875
 21
-22.175
  0
ENDBLK
  0
BLOCK
  2
*DIM_0014
 70
    65
 10
0.0
 20
0.0
  0
LINE
  8
寸法
  6
BYBLOCK
 62
     0
 10
74.887135
 20
39.499048
 11
81.664428
 21
39.499048
  0
LINE
  8
寸法
  6
BYBLOCK
 62
     0
 10
81.664428
 20
43.399048
 11
81.664428
 21
39.499048
  0
POINT
  8
寸法
 62
     0
 10
81.664428
 20
43.399048
  0
POINT
  8
寸法
 62
     0
 10
81.664428
 20
39.499048
  0
TEXT
  7
TextStyle03
  8
寸法
  6
CONTINUOUS
 62
     0
 10
81.325
 20
44.0875
  1
117
 40
3.0
 50
90.0
 72
     5
 11
81.325
 21
48.9625
  0
ENDBLK
  0
BLOCK
  2
*DIM_0015
 70
    65
 10
0.0
 20
0.0
  0
LINE
  8
寸法
  6
BYBLOCK
 62
     0
 10
74.887135
 20
17.299048
 11
81.664428
 21
17.299048
  0
LINE
  8
寸法
  6
BYBLOCK
 62
     0
 10
81.664428
 20
13.399048
 11
81.664428
 21
17.299048
  0
POINT
  8
寸法
 62
     0
 10
81.664428
 20
13.399048
  0
POINT
  8
寸法
 62
     0
 10
81.664428
 20
17.299048
  0
TEXT
  7
TextStyle03
  8
寸法
  6
CONTINUOUS
 62
     0
 10
81.7
 20
7.8125
  1
117
 40
3.0
 50
90.0
 72
     5
 11
81.7
 21
12.6875
  0
ENDBLK
  0
BLOCK
  2
*GRP_0016
 70
    65
 10
0.0
 20
0.0
  0
LINE
  8
別途部材
  6
CONTINUOUS
 62
    96
 10
-130.409657
 20
-79.624597
 11
-130.809657
 21
-80.624597
  0
LINE
  8
別途部材
  6
CONTINUOUS
 62
    96
 10
-130.409657
 20
-79.624597
 11
-28.742993
 21
-79.624597
  0
LINE
  8
別途部材
  6
CONTINUOUS
 10
-130.809657
 20
-80.624597
 11
-28.742993
 21
-80.624597
  0
LINE
  8
別途部材
  6
CONTINUOUS
 10
-29.242993
 20
-70.291265
 11
-30.242993
 21
-71.291265
  0
LINE
  8
別途部材
  6
CONTINUOUS
 10
-31.242993
 20
-71.291265
 11
-32.242993
 21
-70.291265
  0
LINE
  8
別途部材
  6
CONTINUOUS
 10
-33.242993
 20
-70.291265
 11
-34.242993
 21
-71.291265
  0
LINE
  8
別途部材
  6
CONTINUOUS
 10
-32.242993
 20
-70.291265
 11
-33.242993
 21
-70.291265
  0
LINE
  8
別途部材
  6
CONTINUOUS
 10
-29.242993
 20
-70.291265
 11
-28.742993
 21
-70.291265
  0
LINE
  8
別途部材
  6
CONTINUOUS
 10
-35.242993
 20
-71.291265
 11
-36.242993
 21
-70.291265
  0
LINE
  8
別途部材
  6
CONTINUOUS
 10
-37.242993
 20
-70.291265
 11
-38.242993
 21
-71.291265
  0
LINE
  8
別途部材
  6
CONTINUOUS
 10
-36.242993
 20
-70.291265
 11
-37.242993
 21
-70.291265
  0
LINE
  8
別途部材
  6
CONTINUOUS
 10
-39.242993
 20
-71.291265
 11
-40.242993
 21
-70.291265
  0
LINE
  8
別途部材
  6
CONTINUOUS
 10
-41.242993
 20
-70.291265
 11
-42.242993
 21
-71.291265
  0
LINE
  8
別途部材
  6
CONTINUOUS
 10
-40.242993
 20
-70.291265
 11
-41.242993
 21
-70.291265
  0
LINE
  8
別途部材
  6
CONTINUOUS
 10
-43.242993
 20
-71.291265
 11
-44.242993
 21
-70.291265
  0
LINE
  8
別途部材
  6
CONTINUOUS
 10
-45.242993
 20
-70.291265
 11
-46.242993
 21
-71.291265
  0
LINE
  8
別途部材
  6
CONTINUOUS
 10
-44.242993
 20
-70.291265
 11
-45.242993
 21
-70.291265
  0
LINE
  8
別途部材
  6
CONTINUOUS
 10
-47.242993
 20
-71.291265
 11
-48.242993
 21
-70.291265
  0
LINE
  8
別途部材
  6
CONTINUOUS
 10
-49.242993
 20
-70.291265
 11
-50.242993
 21
-71.291265
  0
LINE
  8
別途部材
  6
CONTINUOUS
 10
-48.242993
 20
-70.291265
 11
-49.242993
 21
-70.291265
  0
LINE
  8
別途部材
  6
CONTINUOUS
 10
-51.242993
 20
-71.291265
 11
-52.242993
 21
-70.291265
  0
LINE
  8
別途部材
  6
CONTINUOUS
 10
-53.242993
 20
-70.291265
 11
-54.242993
 21
-71.291265
  0
LINE
  8
別途部材
  6
CONTINUOUS
 10
-52.242993
 20
-70.291265
 11
-53.242993
 21
-70.291265
  0
LINE
  8
別途部材
  6
CONTINUOUS
 10
-55.242993
 20
-71.291265
 11
-56.242993
 21
-70.291265
  0
LINE
  8
別途部材
  6
CONTINUOUS
 10
-57.242993
 20
-70.291265
 11
-58.242993
 21
-71.291265
  0
LINE
  8
別途部材
  6
CONTINUOUS
 10
-56.242993
 20
-70.291265
 11
-57.242993
 21
-70.291265
  0
LINE
  8
別途部材
  6
CONTINUOUS
 10
-59.242993
 20
-71.291265
 11
-60.242993
 21
-70.291265
  0
LINE
  8
別途部材
  6
CONTINUOUS
 10
-61.242993
 20
-70.291265
 11
-62.242993
 21
-71.291265
  0
LINE
  8
別途部材
  6
CONTINUOUS
 10
-60.242993
 20
-70.291265
 11
-61.242993
 21
-70.291265
  0
LINE
  8
別途部材
  6
CONTINUOUS
 10
-63.242993
 20
-71.291265
 11
-64.242993
 21
-70.291265
  0
LINE
  8
別途部材
  6
CONTINUOUS
 10
-65.242993
 20
-70.291265
 11
-66.242993
 21
-71.291265
  0
LINE
  8
別途部材
  6
CONTINUOUS
 10
-64.242993
 20
-70.291265
 11
-65.242993
 21
-70.291265
  0
LINE
  8
別途部材
  6
CONTINUOUS
 10
-67.242993
 20
-71.291265
 11
-68.242993
 21
-70.291265
  0
LINE
  8
別途部材
  6
CONTINUOUS
 10
-69.242993
 20
-70.291265
 11
-70.242993
 21
-71.291265
  0
LINE
  8
別途部材
  6
CONTINUOUS
 10
-68.242993
 20
-70.291265
 11
-69.242993
 21
-70.291265
  0
LINE
  8
別途部材
  6
CONTINUOUS
 10
-71.242993
 20
-71.291265
 11
-72.242993
 21
-70.291265
  0
LINE
  8
別途部材
  6
CONTINUOUS
 10
-73.242993
 20
-70.291265
 11
-74.242993
 21
-71.291265
  0
LINE
  8
別途部材
  6
CONTINUOUS
 10
-72.242993
 20
-70.291265
 11
-73.242993
 21
-70.291265
  0
LINE
  8
別途部材
  6
CONTINUOUS
 10
-70.242993
 20
-71.291265
 11
-71.242993
 21
-71.291265
  0
LINE
  8
別途部材
  6
CONTINUOUS
 10
-66.242993
 20
-71.291265
 11
-67.242993
 21
-71.291265
  0
LINE
  8
別途部材
  6
CONTINUOUS
 10
-62.242993
 20
-71.291265
 11
-63.242993
 21
-71.291265
  0
LINE
  8
別途部材
  6
CONTINUOUS
 10
-58.242993
 20
-71.291265
 11
-59.242993
 21
-71.291265
  0
LINE
  8
別途部材
  6
CONTINUOUS
 10
-54.242993
 20
-71.291265
 11
-55.242993
 21
-71.291265
  0
LINE
  8
別途部材
  6
CONTINUOUS
 10
-50.242993
 20
-71.291265
 11
-51.242993
 21
-71.291265
  0
LINE
  8
別途部材
  6
CONTINUOUS
 10
-46.242993
 20
-71.291265
 11
-47.242993
 21
-71.291265
  0
LINE
  8
別途部材
  6
CONTINUOUS
 10
-42.242993
 20
-71.291265
 11
-43.242993
 21
-71.291265
  0
LINE
  8
別途部材
  6
CONTINUOUS
 10
-38.242993
 20
-71.291265
 11
-39.242993
 21
-71.291265
  0
LINE
  8
別途部材
  6
CONTINUOUS
 10
-34.242993
 20
-71.291265
 11
-35.242993
 21
-71.291265
  0
LINE
  8
別途部材
  6
CONTINUOUS
 10
-31.242993
 20
-71.291265
 11
-30.242993
 21
-71.291265
  0
LINE
  8
別途部材
  6
CONTINUOUS
 10
-75.242993
 20
-71.291265
 11
-76.242993
 21
-70.291265
  0
LINE
  8
別途部材
  6
CONTINUOUS
 10
-77.242993
 20
-70.291265
 11
-78.242993
 21
-71.291265
  0
LINE
  8
別途部材
  6
CONTINUOUS
 10
-76.242993
 20
-70.291265
 11
-77.242993
 21
-70.291265
  0
LINE
  8
別途部材
  6
CONTINUOUS
 10
-79.242993
 20
-71.291265
 11
-80.242993
 21
-70.291265
  0
LINE
  8
別途部材
  6
CONTINUOUS
 10
-81.242993
 20
-70.291265
 11
-82.242993
 21
-71.291265
  0
LINE
  8
別途部材
  6
CONTINUOUS
 10
-80.242993
 20
-70.291265
 11
-81.242993
 21
-70.291265
  0
LINE
  8
別途部材
  6
CONTINUOUS
 10
-83.242993
 20
-71.291265
 11
-84.242993
 21
-70.291265
  0
LINE
  8
別途部材
  6
CONTINUOUS
 10
-85.242993
 20
-70.291265
 11
-86.242993
 21
-71.291265
  0
LINE
  8
別途部材
  6
CONTINUOUS
 10
-84.242993
 20
-70.291265
 11
-85.242993
 21
-70.291265
  0
LINE
  8
別途部材
  6
CONTINUOUS
 10
-87.242993
 20
-71.291265
 11
-88.242993
 21
-70.291265
  0
LINE
  8
別途部材
  6
CONTINUOUS
 10
-89.242993
 20
-70.291265
 11
-90.242993
 21
-71.291265
  0
LINE
  8
別途部材
  6
CONTINUOUS
 10
-88.242993
 20
-70.291265
 11
-89.242993
 21
-70.291265
  0
LINE
  8
別途部材
  6
CONTINUOUS
 10
-91.242993
 20
-71.291265
 11
-92.242993
 21
-70.291265
  0
LINE
  8
別途部材
  6
CONTINUOUS
 10
-93.242993
 20
-70.291265
 11
-94.242993
 21
-71.291265
  0
LINE
  8
別途部材
  6
CONTINUOUS
 10
-92.242993
 20
-70.291265
 11
-93.242993
 21
-70.291265
  0
LINE
  8
別途部材
  6
CONTINUOUS
 10
-95.242993
 20
-71.291265
 11
-96.242993
 21
-70.291265
  0
LINE
  8
別途部材
  6
CONTINUOUS
 10
-97.242993
 20
-70.291265
 11
-98.242993
 21
-71.291265
  0
LINE
  8
別途部材
  6
CONTINUOUS
 10
-96.242993
 20
-70.291265
 11
-97.242993
 21
-70.291265
  0
LINE
  8
別途部材
  6
CONTINUOUS
 10
-99.242993
 20
-71.291265
 11
-100.242993
 21
-70.291265
  0
LINE
  8
別途部材
  6
CONTINUOUS
 10
-101.242993
 20
-70.291265
 11
-102.242993
 21
-71.291265
  0
LINE
  8
別途部材
  6
CONTINUOUS
 10
-100.242993
 20
-70.291265
 11
-101.242993
 21
-70.291265
  0
LINE
  8
別途部材
  6
CONTINUOUS
 10
-103.242993
 20
-71.291265
 11
-104.242993
 21
-70.291265
  0
LINE
  8
別途部材
  6
CONTINUOUS
 10
-105.242993
 20
-70.291265
 11
-106.242993
 21
-71.291265
  0
LINE
  8
別途部材
  6
CONTINUOUS
 10
-104.242993
 20
-70.291265
 11
-105.242993
 21
-70.291265
  0
LINE
  8
別途部材
  6
CONTINUOUS
 10
-102.242993
 20
-71.291265
 11
-103.242993
 21
-71.291265
  0
LINE
  8
別途部材
  6
CONTINUOUS
 10
-98.242993
 20
-71.291265
 11
-99.242993
 21
-71.291265
  0
LINE
  8
別途部材
  6
CONTINUOUS
 10
-94.242993
 20
-71.291265
 11
-95.242993
 21
-71.291265
  0
LINE
  8
別途部材
  6
CONTINUOUS
 10
-90.242993
 20
-71.291265
 11
-91.242993
 21
-71.291265
  0
LINE
  8
別途部材
  6
CONTINUOUS
 10
-86.242993
 20
-71.291265
 11
-87.242993
 21
-71.291265
  0
LINE
  8
別途部材
  6
CONTINUOUS
 10
-82.242993
 20
-71.291265
 11
-83.242993
 21
-71.291265
  0
LINE
  8
別途部材
  6
CONTINUOUS
 10
-78.242993
 20
-71.291265
 11
-79.242993
 21
-71.291265
  0
LINE
  8
別途部材
  6
CONTINUOUS
 10
-74.242993
 20
-71.291265
 11
-75.242993
 21
-71.291265
  0
LINE
  8
別途部材
  6
CONTINUOUS
 10
-106.242993
 20
-71.291265
 11
-106.242993
 21
-79.624597
  0
LINE
  8
別途部材
  6
CONTINUOUS
 10
-104.242993
 20
-70.291265
 11
-104.242993
 21
-79.624597
  0
LINE
  8
別途部材
  6
CONTINUOUS
 10
-105.242993
 20
-70.291265
 11
-105.242993
 21
-79.624597
  0
LINE
  8
別途部材
  6
CONTINUOUS
 10
-102.242993
 20
-71.291265
 11
-102.242993
 21
-79.624597
  0
LINE
  8
別途部材
  6
CONTINUOUS
 10
-103.242993
 20
-71.291265
 11
-103.242993
 21
-79.624597
  0
LINE
  8
別途部材
  6
CONTINUOUS
 10
-101.242993
 20
-70.291265
 11
-101.242993
 21
-79.624597
  0
LINE
  8
別途部材
  6
CONTINUOUS
 10
-99.242993
 20
-71.291265
 11
-99.242993
 21
-79.624597
  0
LINE
  8
別途部材
  6
CONTINUOUS
 10
-100.242993
 20
-70.291265
 11
-100.242993
 21
-79.624597
  0
LINE
  8
別途部材
  6
CONTINUOUS
 10
-98.242993
 20
-71.291265
 11
-98.242993
 21
-79.624597
  0
LINE
  8
別途部材
  6
CONTINUOUS
 10
-97.242993
 20
-70.291265
 11
-97.242993
 21
-79.624597
  0
LINE
  8
別途部材
  6
CONTINUOUS
 10
-95.242993
 20
-71.291265
 11
-95.242993
 21
-79.624597
  0
LINE
  8
別途部材
  6
CONTINUOUS
 10
-96.242993
 20
-70.291265
 11
-96.242993
 21
-79.624597
  0
LINE
  8
別途部材
  6
CONTINUOUS
 10
-93.242993
 20
-70.291265
 11
-93.242993
 21
-79.624597
  0
LINE
  8
別途部材
  6
CONTINUOUS
 10
-94.242993
 20
-71.291265
 11
-94.242993
 21
-79.624597
  0
LINE
  8
別途部材
  6
CONTINUOUS
 10
-91.242993
 20
-71.291265
 11
-91.242993
 21
-79.624597
  0
LINE
  8
別途部材
  6
CONTINUOUS
 10
-92.242993
 20
-70.291265
 11
-92.242993
 21
-79.624597
  0
LINE
  8
別途部材
  6
CONTINUOUS
 10
-90.242993
 20
-71.291265
 11
-90.242993
 21
-79.624597
  0
LINE
  8
別途部材
  6
CONTINUOUS
 10
-88.242993
 20
-70.291265
 11
-88.242993
 21
-79.624597
  0
LINE
  8
別途部材
  6
CONTINUOUS
 10
-89.242993
 20
-70.291265
 11
-89.242993
 21
-79.624597
  0
LINE
  8
別途部材
  6
CONTINUOUS
 10
-87.242993
 20
-71.291265
 11
-87.242993
 21
-79.624597
  0
LINE
  8
別途部材
  6
CONTINUOUS
 10
-86.242993
 20
-71.291265
 11
-86.242993
 21
-79.624597
  0
LINE
  8
別途部材
  6
CONTINUOUS
 10
-85.242993
 20
-70.291265
 11
-85.242993
 21
-79.624597
  0
LINE
  8
別途部材
  6
CONTINUOUS
 10
-84.242993
 20
-70.291265
 11
-84.242993
 21
-79.624597
  0
LINE
  8
別途部材
  6
CONTINUOUS
 10
-80.242993
 20
-70.291265
 11
-80.242993
 21
-79.624597
  0
LINE
  8
別途部材
  6
CONTINUOUS
 10
-73.242993
 20
-70.291265
 11
-73.242993
 21
-79.624597
  0
LINE
  8
別途部材
  6
CONTINUOUS
 10
-69.242993
 20
-70.291265
 11
-69.242993
 21
-79.624597
  0
LINE
  8
別途部材
  6
CONTINUOUS
 10
-67.242993
 20
-71.291265
 11
-67.242993
 21
-79.624597
  0
LINE
  8
別途部材
  6
CONTINUOUS
 10
-72.242993
 20
-70.291265
 11
-72.242993
 21
-79.624597
  0
LINE
  8
別途部材
  6
CONTINUOUS
 10
-76.242993
 20
-70.291265
 11
-76.242993
 21
-79.624597
  0
LINE
  8
別途部材
  6
CONTINUOUS
 10
-78.242993
 20
-71.291265
 11
-78.242993
 21
-79.624597
  0
LINE
  8
別途部材
  6
CONTINUOUS
 10
-81.242993
 20
-70.291265
 11
-81.242993
 21
-79.624597
  0
LINE
  8
別途部材
  6
CONTINUOUS
 10
-82.242993
 20
-71.291265
 11
-82.242993
 21
-79.624597
  0
LINE
  8
別途部材
  6
CONTINUOUS
 10
-83.242993
 20
-71.291265
 11
-83.242993
 21
-79.624597
  0
LINE
  8
別途部材
  6
CONTINUOUS
 10
-79.242993
 20
-71.291265
 11
-79.242993
 21
-79.624597
  0
LINE
  8
別途部材
  6
CONTINUOUS
 10
-77.242993
 20
-70.291265
 11
-77.242993
 21
-79.624597
  0
LINE
  8
別途部材
  6
CONTINUOUS
 10
-75.242993
 20
-71.291265
 11
-75.242993
 21
-79.624597
  0
LINE
  8
別途部材
  6
CONTINUOUS
 10
-74.242993
 20
-71.291265
 11
-74.242993
 21
-79.624597
  0
LINE
  8
別途部材
  6
CONTINUOUS
 10
-71.242993
 20
-71.291265
 11
-71.242993
 21
-79.624597
  0
LINE
  8
別途部材
  6
CONTINUOUS
 10
-70.242993
 20
-71.291265
 11
-70.242993
 21
-79.624597
  0
LINE
  8
別途部材
  6
CONTINUOUS
 10
-68.242993
 20
-70.291265
 11
-68.242993
 21
-79.624597
  0
LINE
  8
別途部材
  6
CONTINUOUS
 10
-65.242993
 20
-70.291265
 11
-65.242993
 21
-79.624597
  0
LINE
  8
別途部材
  6
CONTINUOUS
 10
-66.242993
 20
-71.291265
 11
-66.242993
 21
-79.624597
  0
LINE
  8
別途部材
  6
CONTINUOUS
 10
-64.242993
 20
-70.291265
 11
-64.242993
 21
-79.624597
  0
LINE
  8
別途部材
  6
CONTINUOUS
 10
-63.242993
 20
-71.291265
 11
-63.242993
 21
-79.624597
  0
LINE
  8
別途部材
  6
CONTINUOUS
 10
-62.242993
 20
-71.291265
 11
-62.242993
 21
-79.624597
  0
LINE
  8
別途部材
  6
CONTINUOUS
 10
-61.242993
 20
-70.291265
 11
-61.242993
 21
-79.624597
  0
LINE
  8
別途部材
  6
CONTINUOUS
 10
-59.242993
 20
-71.291265
 11
-59.242993
 21
-79.624597
  0
LINE
  8
別途部材
  6
CONTINUOUS
 10
-60.242993
 20
-70.291265
 11
-60.242993
 21
-79.624597
  0
LINE
  8
別途部材
  6
CONTINUOUS
 10
-57.242993
 20
-70.291265
 11
-57.242993
 21
-79.624597
  0
LINE
  8
別途部材
  6
CONTINUOUS
 10
-58.242993
 20
-71.291265
 11
-58.242993
 21
-79.624597
  0
LINE
  8
別途部材
  6
CONTINUOUS
 10
-54.242993
 20
-71.291265
 11
-54.242993
 21
-79.624597
  0
LINE
  8
別途部材
  6
CONTINUOUS
 10
-53.242993
 20
-70.291265
 11
-53.242993
 21
-79.624597
  0
LINE
  8
別途部材
  6
CONTINUOUS
 10
-52.242993
 20
-70.291265
 11
-52.242993
 21
-79.624597
  0
LINE
  8
別途部材
  6
CONTINUOUS
 10
-55.242993
 20
-71.291265
 11
-55.242993
 21
-79.624597
  0
LINE
  8
別途部材
  6
CONTINUOUS
 10
-56.242993
 20
-70.291265
 11
-56.242993
 21
-79.624597
  0
LINE
  8
別途部材
  6
CONTINUOUS
 10
-48.242993
 20
-70.291265
 11
-48.242993
 21
-79.624597
  0
LINE
  8
別途部材
  6
CONTINUOUS
 10
-50.242993
 20
-71.291265
 11
-50.242993
 21
-79.624597
  0
LINE
  8
別途部材
  6
CONTINUOUS
 10
-51.242993
 20
-71.291265
 11
-51.242993
 21
-79.624597
  0
LINE
  8
別途部材
  6
CONTINUOUS
 10
-49.242993
 20
-70.291265
 11
-49.242993
 21
-79.624597
  0
LINE
  8
別途部材
  6
CONTINUOUS
 10
-47.242993
 20
-71.291265
 11
-47.242993
 21
-79.624597
  0
LINE
  8
別途部材
  6
CONTINUOUS
 10
-45.242993
 20
-70.291265
 11
-45.242993
 21
-79.624597
  0
LINE
  8
別途部材
  6
CONTINUOUS
 10
-44.242993
 20
-70.291265
 11
-44.242993
 21
-79.624597
  0
LINE
  8
別途部材
  6
CONTINUOUS
 10
-42.242993
 20
-71.291265
 11
-42.242993
 21
-79.624597
  0
LINE
  8
別途部材
  6
CONTINUOUS
 10
-43.242993
 20
-71.291265
 11
-43.242993
 21
-79.624597
  0
LINE
  8
別途部材
  6
CONTINUOUS
 10
-46.242993
 20
-71.291265
 11
-46.242993
 21
-79.624597
  0
LINE
  8
別途部材
  6
CONTINUOUS
 10
-41.242993
 20
-70.291265
 11
-41.242993
 21
-79.624597
  0
LINE
  8
別途部材
  6
CONTINUOUS
 10
-39.242993
 20
-71.291265
 11
-39.242993
 21
-79.624597
  0
LINE
  8
別途部材
  6
CONTINUOUS
 10
-40.242993
 20
-70.291265
 11
-40.242993
 21
-79.624597
  0
LINE
  8
別途部材
  6
CONTINUOUS
 10
-38.242993
 20
-71.291265
 11
-38.242993
 21
-79.624597
  0
LINE
  8
別途部材
  6
CONTINUOUS
 10
-37.242993
 20
-70.291265
 11
-37.242993
 21
-79.624597
  0
LINE
  8
別途部材
  6
CONTINUOUS
 10
-35.242993
 20
-71.291265
 11
-35.242993
 21
-79.624597
  0
LINE
  8
別途部材
  6
CONTINUOUS
 10
-36.242993
 20
-70.291265
 11
-36.242993
 21
-79.624597
  0
LINE
  8
別途部材
  6
CONTINUOUS
 10
-34.242993
 20
-71.291265
 11
-34.242993
 21
-79.624597
  0
LINE
  8
別途部材
  6
CONTINUOUS
 10
-33.242993
 20
-70.291265
 11
-33.242993
 21
-79.624597
  0
LINE
  8
別途部材
  6
CONTINUOUS
 10
-31.242993
 20
-71.291265
 11
-31.242993
 21
-79.624597
  0
LINE
  8
別途部材
  6
CONTINUOUS
 10
-32.242993
 20
-70.291265
 11
-32.242993
 21
-79.624597
  0
LINE
  8
別途部材
  6
CONTINUOUS
 10
-30.242993
 20
-71.291265
 11
-30.242993
 21
-79.624597
  0
LINE
  8
別途部材
  6
CONTINUOUS
 10
-29.242993
 20
-70.291265
 11
-29.242993
 21
-79.624597
  0
LINE
  8
別途部材
  6
CONTINUOUS
 10
-107.242993
 20
-71.291265
 11
-108.242993
 21
-70.291265
  0
LINE
  8
別途部材
  6
CONTINUOUS
 10
-109.242993
 20
-70.291265
 11
-110.242993
 21
-71.291265
  0
LINE
  8
別途部材
  6
CONTINUOUS
 10
-108.242993
 20
-70.291265
 11
-109.242993
 21
-70.291265
  0
LINE
  8
別途部材
  6
CONTINUOUS
 10
-106.242993
 20
-71.291265
 11
-107.242993
 21
-71.291265
  0
LINE
  8
別途部材
  6
CONTINUOUS
 10
-110.242993
 20
-71.291265
 11
-110.242993
 21
-79.624597
  0
LINE
  8
別途部材
  6
CONTINUOUS
 10
-108.242993
 20
-70.291265
 11
-108.242993
 21
-79.624597
  0
LINE
  8
別途部材
  6
CONTINUOUS
 10
-109.242993
 20
-70.291265
 11
-109.242993
 21
-79.624597
  0
LINE
  8
別途部材
  6
CONTINUOUS
 10
-107.242993
 20
-71.291265
 11
-107.242993
 21
-79.624597
  0
LINE
  8
別途部材
  6
CONTINUOUS
 10
-111.242993
 20
-71.291265
 11
-112.242993
 21
-70.291265
  0
LINE
  8
別途部材
  6
CONTINUOUS
 10
-113.242993
 20
-70.291265
 11
-114.242993
 21
-71.291265
  0
LINE
  8
別途部材
  6
CONTINUOUS
 10
-112.242993
 20
-70.291265
 11
-113.242993
 21
-70.291265
  0
LINE
  8
別途部材
  6
CONTINUOUS
 10
-110.242993
 20
-71.291265
 11
-111.242993
 21
-71.291265
  0
LINE
  8
別途部材
  6
CONTINUOUS
 10
-114.242993
 20
-71.291265
 11
-114.242993
 21
-79.624597
  0
LINE
  8
別途部材
  6
CONTINUOUS
 10
-112.242993
 20
-70.291265
 11
-112.242993
 21
-79.624597
  0
LINE
  8
別途部材
  6
CONTINUOUS
 10
-113.242993
 20
-70.291265
 11
-113.242993
 21
-79.624597
  0
LINE
  8
別途部材
  6
CONTINUOUS
 10
-111.242993
 20
-71.291265
 11
-111.242993
 21
-79.624597
  0
ARC
  8
別途部材
  6
CONTINUOUS
 10
-113.742989
 20
-88.957929
 40
17.666667
 50
91.621805
 51
148.109204
  0
LINE
  8
別途部材
  6
CONTINUOUS
 62
    96
 10
72.923675
 20
-79.624597
 11
73.323675
 21
-80.624597
  0
LINE
  8
別途部材
  6
CONTINUOUS
 62
    96
 10
72.923675
 20
-79.624597
 11
-28.742993
 21
-79.624597
  0
LINE
  8
別途部材
  6
CONTINUOUS
 10
73.323675
 20
-80.624597
 11
-28.742993
 21
-80.624597
  0
LINE
  8
別途部材
  6
CONTINUOUS
 10
-28.242993
 20
-70.291265
 11
-27.242993
 21
-71.291265
  0
LINE
  8
別途部材
  6
CONTINUOUS
 10
-26.242993
 20
-71.291265
 11
-25.242993
 21
-70.291265
  0
LINE
  8
別途部材
  6
CONTINUOUS
 10
-24.242993
 20
-70.291265
 11
-23.242993
 21
-71.291265
  0
LINE
  8
別途部材
  6
CONTINUOUS
 10
-25.242993
 20
-70.291265
 11
-24.242993
 21
-70.291265
  0
LINE
  8
別途部材
  6
CONTINUOUS
 10
-28.242993
 20
-70.291265
 11
-28.742993
 21
-70.291265
  0
LINE
  8
別途部材
  6
CONTINUOUS
 10
-22.242993
 20
-71.291265
 11
-21.242993
 21
-70.291265
  0
LINE
  8
別途部材
  6
CONTINUOUS
 10
-20.242993
 20
-70.291265
 11
-19.242993
 21
-71.291265
  0
LINE
  8
別途部材
  6
CONTINUOUS
 10
-21.242993
 20
-70.291265
 11
-20.242993
 21
-70.291265
  0
LINE
  8
別途部材
  6
CONTINUOUS
 10
-18.242993
 20
-71.291265
 11
-17.242993
 21
-70.291265
  0
LINE
  8
別途部材
  6
CONTINUOUS
 10
-16.242993
 20
-70.291265
 11
-15.242993
 21
-71.291265
  0
LINE
  8
別途部材
  6
CONTINUOUS
 10
-17.242993
 20
-70.291265
 11
-16.242993
 21
-70.291265
  0
LINE
  8
別途部材
  6
CONTINUOUS
 10
-14.242993
 20
-71.291265
 11
-13.242993
 21
-70.291265
  0
LINE
  8
別途部材
  6
CONTINUOUS
 10
-12.242993
 20
-70.291265
 11
-11.242993
 21
-71.291265
  0
LINE
  8
別途部材
  6
CONTINUOUS
 10
-13.242993
 20
-70.291265
 11
-12.242993
 21
-70.291265
  0
LINE
  8
別途部材
  6
CONTINUOUS
 10
-10.242993
 20
-71.291265
 11
-9.242993
 21
-70.291265
  0
LINE
  8
別途部材
  6
CONTINUOUS
 10
-8.242993
 20
-70.291265
 11
-7.242993
 21
-71.291265
  0
LINE
  8
別途部材
  6
CONTINUOUS
 10
-9.242993
 20
-70.291265
 11
-8.242993
 21
-70.291265
  0
LINE
  8
別途部材
  6
CONTINUOUS
 10
-6.242993
 20
-71.291265
 11
-5.242993
 21
-70.291265
  0
LINE
  8
別途部材
  6
CONTINUOUS
 10
-4.242993
 20
-70.291265
 11
-3.242993
 21
-71.291265
  0
LINE
  8
別途部材
  6
CONTINUOUS
 10
-5.242993
 20
-70.291265
 11
-4.242993
 21
-70.291265
  0
LINE
  8
別途部材
  6
CONTINUOUS
 10
-2.242993
 20
-71.291265
 11
-1.242993
 21
-70.291265
  0
LINE
  8
別途部材
  6
CONTINUOUS
 10
-0.242993
 20
-70.291265
 11
0.757007
 21
-71.291265
  0
LINE
  8
別途部材
  6
CONTINUOUS
 10
-1.242993
 20
-70.291265
 11
-0.242993
 21
-70.291265
  0
LINE
  8
別途部材
  6
CONTINUOUS
 10
1.757007
 20
-71.291265
 11
2.757007
 21
-70.291265
  0
LINE
  8
別途部材
  6
CONTINUOUS
 10
3.757007
 20
-70.291265
 11
4.757007
 21
-71.291265
  0
LINE
  8
別途部材
  6
CONTINUOUS
 10
2.757007
 20
-70.291265
 11
3.757007
 21
-70.291265
  0
LINE
  8
別途部材
  6
CONTINUOUS
 10
5.757007
 20
-71.291265
 11
6.757007
 21
-70.291265
  0
LINE
  8
別途部材
  6
CONTINUOUS
 10
7.757007
 20
-70.291265
 11
8.757007
 21
-71.291265
  0
LINE
  8
別途部材
  6
CONTINUOUS
 10
6.757007
 20
-70.291265
 11
7.757007
 21
-70.291265
  0
LINE
  8
別途部材
  6
CONTINUOUS
 10
9.757007
 20
-71.291265
 11
10.757007
 21
-70.291265
  0
LINE
  8
別途部材
  6
CONTINUOUS
 10
11.757007
 20
-70.291265
 11
12.757007
 21
-71.291265
  0
LINE
  8
別途部材
  6
CONTINUOUS
 10
10.757007
 20
-70.291265
 11
11.757007
 21
-70.291265
  0
LINE
  8
別途部材
  6
CONTINUOUS
 10
13.757007
 20
-71.291265
 11
14.757007
 21
-70.291265
  0
LINE
  8
別途部材
  6
CONTINUOUS
 10
15.757007
 20
-70.291265
 11
16.757007
 21
-71.291265
  0
LINE
  8
別途部材
  6
CONTINUOUS
 10
14.757007
 20
-70.291265
 11
15.757007
 21
-70.291265
  0
LINE
  8
別途部材
  6
CONTINUOUS
 10
12.757007
 20
-71.291265
 11
13.757007
 21
-71.291265
  0
LINE
  8
別途部材
  6
CONTINUOUS
 10
8.757007
 20
-71.291265
 11
9.757007
 21
-71.291265
  0
LINE
  8
別途部材
  6
CONTINUOUS
 10
4.757007
 20
-71.291265
 11
5.757007
 21
-71.291265
  0
LINE
  8
別途部材
  6
CONTINUOUS
 10
0.757007
 20
-71.291265
 11
1.757007
 21
-71.291265
  0
LINE
  8
別途部材
  6
CONTINUOUS
 10
-3.242993
 20
-71.291265
 11
-2.242993
 21
-71.291265
  0
LINE
  8
別途部材
  6
CONTINUOUS
 10
-7.242993
 20
-71.291265
 11
-6.242993
 21
-71.291265
  0
LINE
  8
別途部材
  6
CONTINUOUS
 10
-11.242993
 20
-71.291265
 11
-10.242993
 21
-71.291265
  0
LINE
  8
別途部材
  6
CONTINUOUS
 10
-15.242993
 20
-71.291265
 11
-14.242993
 21
-71.291265
  0
LINE
  8
別途部材
  6
CONTINUOUS
 10
-19.242993
 20
-71.291265
 11
-18.242993
 21
-71.291265
  0
LINE
  8
別途部材
  6
CONTINUOUS
 10
-23.242993
 20
-71.291265
 11
-22.242993
 21
-71.291265
  0
LINE
  8
別途部材
  6
CONTINUOUS
 10
-26.242993
 20
-71.291265
 11
-27.242993
 21
-71.291265
  0
LINE
  8
別途部材
  6
CONTINUOUS
 10
17.757007
 20
-71.291265
 11
18.757007
 21
-70.291265
  0
LINE
  8
別途部材
  6
CONTINUOUS
 10
19.757007
 20
-70.291265
 11
20.757007
 21
-71.291265
  0
LINE
  8
別途部材
  6
CONTINUOUS
 10
18.757007
 20
-70.291265
 11
19.757007
 21
-70.291265
  0
LINE
  8
別途部材
  6
CONTINUOUS
 10
21.757007
 20
-71.291265
 11
22.757007
 21
-70.291265
  0
LINE
  8
別途部材
  6
CONTINUOUS
 10
23.757007
 20
-70.291265
 11
24.757007
 21
-71.291265
  0
LINE
  8
別途部材
  6
CONTINUOUS
 10
22.757007
 20
-70.291265
 11
23.757007
 21
-70.291265
  0
LINE
  8
別途部材
  6
CONTINUOUS
 10
25.757007
 20
-71.291265
 11
26.757007
 21
-70.291265
  0
LINE
  8
別途部材
  6
CONTINUOUS
 10
27.757007
 20
-70.291265
 11
28.757007
 21
-71.291265
  0
LINE
  8
別途部材
  6
CONTINUOUS
 10
26.757007
 20
-70.291265
 11
27.757007
 21
-70.291265
  0
LINE
  8
別途部材
  6
CONTINUOUS
 10
29.757007
 20
-71.291265
 11
30.757007
 21
-70.291265
  0
LINE
  8
別途部材
  6
CONTINUOUS
 10
31.757007
 20
-70.291265
 11
32.757007
 21
-71.291265
  0
LINE
  8
別途部材
  6
CONTINUOUS
 10
30.757007
 20
-70.291265
 11
31.757007
 21
-70.291265
  0
LINE
  8
別途部材
  6
CONTINUOUS
 10
33.757007
 20
-71.291265
 11
34.757007
 21
-70.291265
  0
LINE
  8
別途部材
  6
CONTINUOUS
 10
35.757007
 20
-70.291265
 11
36.757007
 21
-71.291265
  0
LINE
  8
別途部材
  6
CONTINUOUS
 10
34.757007
 20
-70.291265
 11
35.757007
 21
-70.291265
  0
LINE
  8
別途部材
  6
CONTINUOUS
 10
37.757007
 20
-71.291265
 11
38.757007
 21
-70.291265
  0
LINE
  8
別途部材
  6
CONTINUOUS
 10
39.757007
 20
-70.291265
 11
40.757007
 21
-71.291265
  0
LINE
  8
別途部材
  6
CONTINUOUS
 10
38.757007
 20
-70.291265
 11
39.757007
 21
-70.291265
  0
LINE
  8
別途部材
  6
CONTINUOUS
 10
41.757007
 20
-71.291265
 11
42.757007
 21
-70.291265
  0
LINE
  8
別途部材
  6
CONTINUOUS
 10
43.757007
 20
-70.291265
 11
44.757007
 21
-71.291265
  0
LINE
  8
別途部材
  6
CONTINUOUS
 10
42.757007
 20
-70.291265
 11
43.757007
 21
-70.291265
  0
LINE
  8
別途部材
  6
CONTINUOUS
 10
45.757007
 20
-71.291265
 11
46.757007
 21
-70.291265
  0
LINE
  8
別途部材
  6
CONTINUOUS
 10
47.757007
 20
-70.291265
 11
48.757007
 21
-71.291265
  0
LINE
  8
別途部材
  6
CONTINUOUS
 10
46.757007
 20
-70.291265
 11
47.757007
 21
-70.291265
  0
LINE
  8
別途部材
  6
CONTINUOUS
 10
44.757007
 20
-71.291265
 11
45.757007
 21
-71.291265
  0
LINE
  8
別途部材
  6
CONTINUOUS
 10
40.757007
 20
-71.291265
 11
41.757007
 21
-71.291265
  0
LINE
  8
別途部材
  6
CONTINUOUS
 10
36.757007
 20
-71.291265
 11
37.757007
 21
-71.291265
  0
LINE
  8
別途部材
  6
CONTINUOUS
 10
32.757007
 20
-71.291265
 11
33.757007
 21
-71.291265
  0
LINE
  8
別途部材
  6
CONTINUOUS
 10
28.757007
 20
-71.291265
 11
29.757007
 21
-71.291265
  0
LINE
  8
別途部材
  6
CONTINUOUS
 10
24.757007
 20
-71.291265
 11
25.757007
 21
-71.291265
  0
LINE
  8
別途部材
  6
CONTINUOUS
 10
20.757007
 20
-71.291265
 11
21.757007
 21
-71.291265
  0
LINE
  8
別途部材
  6
CONTINUOUS
 10
16.757007
 20
-71.291265
 11
17.757007
 21
-71.291265
  0
LINE
  8
別途部材
  6
CONTINUOUS
 10
48.757007
 20
-71.291265
 11
48.757007
 21
-79.624597
  0
LINE
  8
別途部材
  6
CONTINUOUS
 10
46.757007
 20
-70.291265
 11
46.757007
 21
-79.624597
  0
LINE
  8
別途部材
  6
CONTINUOUS
 10
47.757007
 20
-70.291265
 11
47.757007
 21
-79.624597
  0
LINE
  8
別途部材
  6
CONTINUOUS
 10
44.757007
 20
-71.291265
 11
44.757007
 21
-79.624597
  0
LINE
  8
別途部材
  6
CONTINUOUS
 10
45.757007
 20
-71.291265
 11
45.757007
 21
-79.624597
  0
LINE
  8
別途部材
  6
CONTINUOUS
 10
43.757007
 20
-70.291265
 11
43.757007
 21
-79.624597
  0
LINE
  8
別途部材
  6
CONTINUOUS
 10
41.757007
 20
-71.291265
 11
41.757007
 21
-79.624597
  0
LINE
  8
別途部材
  6
CONTINUOUS
 10
42.757007
 20
-70.291265
 11
42.757007
 21
-79.624597
  0
LINE
  8
別途部材
  6
CONTINUOUS
 10
40.757007
 20
-71.291265
 11
40.757007
 21
-79.624597
  0
LINE
  8
別途部材
  6
CONTINUOUS
 10
39.757007
 20
-70.291265
 11
39.757007
 21
-79.624597
  0
LINE
  8
別途部材
  6
CONTINUOUS
 10
37.757007
 20
-71.291265
 11
37.757007
 21
-79.624597
  0
LINE
  8
別途部材
  6
CONTINUOUS
 10
38.757007
 20
-70.291265
 11
38.757007
 21
-79.624597
  0
LINE
  8
別途部材
  6
CONTINUOUS
 10
35.757007
 20
-70.291265
 11
35.757007
 21
-79.624597
  0
LINE
  8
別途部材
  6
CONTINUOUS
 10
36.757007
 20
-71.291265
 11
36.757007
 21
-79.624597
  0
LINE
  8
別途部材
  6
CONTINUOUS
 10
33.757007
 20
-71.291265
 11
33.757007
 21
-79.624597
  0
LINE
  8
別途部材
  6
CONTINUOUS
 10
34.757007
 20
-70.291265
 11
34.757007
 21
-79.624597
  0
LINE
  8
別途部材
  6
CONTINUOUS
 10
32.757007
 20
-71.291265
 11
32.757007
 21
-79.624597
  0
LINE
  8
別途部材
  6
CONTINUOUS
 10
30.757007
 20
-70.291265
 11
30.757007
 21
-79.624597
  0
LINE
  8
別途部材
  6
CONTINUOUS
 10
31.757007
 20
-70.291265
 11
31.757007
 21
-79.624597
  0
LINE
  8
別途部材
  6
CONTINUOUS
 10
29.757007
 20
-71.291265
 11
29.757007
 21
-79.624597
  0
LINE
  8
別途部材
  6
CONTINUOUS
 10
28.757007
 20
-71.291265
 11
28.757007
 21
-79.624597
  0
LINE
  8
別途部材
  6
CONTINUOUS
 10
27.757007
 20
-70.291265
 11
27.757007
 21
-79.624597
  0
LINE
  8
別途部材
  6
CONTINUOUS
 10
26.757007
 20
-70.291265
 11
26.757007
 21
-79.624597
  0
LINE
  8
別途部材
  6
CONTINUOUS
 10
22.757007
 20
-70.291265
 11
22.757007
 21
-79.624597
  0
LINE
  8
別途部材
  6
CONTINUOUS
 10
15.757007
 20
-70.291265
 11
15.757007
 21
-79.624597
  0
LINE
  8
別途部材
  6
CONTINUOUS
 10
11.757007
 20
-70.291265
 11
11.757007
 21
-79.624597
  0
LINE
  8
別途部材
  6
CONTINUOUS
 10
9.757007
 20
-71.291265
 11
9.757007
 21
-79.624597
  0
LINE
  8
別途部材
  6
CONTINUOUS
 10
14.757007
 20
-70.291265
 11
14.757007
 21
-79.624597
  0
LINE
  8
別途部材
  6
CONTINUOUS
 10
18.757007
 20
-70.291265
 11
18.757007
 21
-79.624597
  0
LINE
  8
別途部材
  6
CONTINUOUS
 10
20.757007
 20
-71.291265
 11
20.757007
 21
-79.624597
  0
LINE
  8
別途部材
  6
CONTINUOUS
 10
23.757007
 20
-70.291265
 11
23.757007
 21
-79.624597
  0
LINE
  8
別途部材
  6
CONTINUOUS
 10
24.757007
 20
-71.291265
 11
24.757007
 21
-79.624597
  0
LINE
  8
別途部材
  6
CONTINUOUS
 10
25.757007
 20
-71.291265
 11
25.757007
 21
-79.624597
  0
LINE
  8
別途部材
  6
CONTINUOUS
 10
21.757007
 20
-71.291265
 11
21.757007
 21
-79.624597
  0
LINE
  8
別途部材
  6
CONTINUOUS
 10
19.757007
 20
-70.291265
 11
19.757007
 21
-79.624597
  0
LINE
  8
別途部材
  6
CONTINUOUS
 10
17.757007
 20
-71.291265
 11
17.757007
 21
-79.624597
  0
LINE
  8
別途部材
  6
CONTINUOUS
 10
16.757007
 20
-71.291265
 11
16.757007
 21
-79.624597
  0
LINE
  8
別途部材
  6
CONTINUOUS
 10
13.757007
 20
-71.291265
 11
13.757007
 21
-79.624597
  0
LINE
  8
別途部材
  6
CONTINUOUS
 10
12.757007
 20
-71.291265
 11
12.757007
 21
-79.624597
  0
LINE
  8
別途部材
  6
CONTINUOUS
 10
10.757007
 20
-70.291265
 11
10.757007
 21
-79.624597
  0
LINE
  8
別途部材
  6
CONTINUOUS
 10
7.757007
 20
-70.291265
 11
7.757007
 21
-79.624597
  0
LINE
  8
別途部材
  6
CONTINUOUS
 10
8.757007
 20
-71.291265
 11
8.757007
 21
-79.624597
  0
LINE
  8
別途部材
  6
CONTINUOUS
 10
6.757007
 20
-70.291265
 11
6.757007
 21
-79.624597
  0
LINE
  8
別途部材
  6
CONTINUOUS
 10
5.757007
 20
-71.291265
 11
5.757007
 21
-79.624597
  0
LINE
  8
別途部材
  6
CONTINUOUS
 10
4.757007
 20
-71.291265
 11
4.757007
 21
-79.624597
  0
LINE
  8
別途部材
  6
CONTINUOUS
 10
3.757007
 20
-70.291265
 11
3.757007
 21
-79.624597
  0
LINE
  8
別途部材
  6
CONTINUOUS
 10
1.757007
 20
-71.291265
 11
1.757007
 21
-79.624597
  0
LINE
  8
別途部材
  6
CONTINUOUS
 10
2.757007
 20
-70.291265
 11
2.757007
 21
-79.624597
  0
LINE
  8
別途部材
  6
CONTINUOUS
 10
-0.242993
 20
-70.291265
 11
-0.242993
 21
-79.624597
  0
LINE
  8
別途部材
  6
CONTINUOUS
 10
0.757007
 20
-71.291265
 11
0.757007
 21
-79.624597
  0
LINE
  8
別途部材
  6
CONTINUOUS
 10
-3.242993
 20
-71.291265
 11
-3.242993
 21
-79.624597
  0
LINE
  8
別途部材
  6
CONTINUOUS
 10
-4.242993
 20
-70.291265
 11
-4.242993
 21
-79.624597
  0
LINE
  8
別途部材
  6
CONTINUOUS
 10
-5.242993
 20
-70.291265
 11
-5.242993
 21
-79.624597
  0
LINE
  8
別途部材
  6
CONTINUOUS
 10
-2.242993
 20
-71.291265
 11
-2.242993
 21
-79.624597
  0
LINE
  8
別途部材
  6
CONTINUOUS
 10
-1.242993
 20
-70.291265
 11
-1.242993
 21
-79.624597
  0
LINE
  8
別途部材
  6
CONTINUOUS
 10
-9.242993
 20
-70.291265
 11
-9.242993
 21
-79.624597
  0
LINE
  8
別途部材
  6
CONTINUOUS
 10
-7.242993
 20
-71.291265
 11
-7.242993
 21
-79.624597
  0
LINE
  8
別途部材
  6
CONTINUOUS
 10
-6.242993
 20
-71.291265
 11
-6.242993
 21
-79.624597
  0
LINE
  8
別途部材
  6
CONTINUOUS
 10
-8.242993
 20
-70.291265
 11
-8.242993
 21
-79.624597
  0
LINE
  8
別途部材
  6
CONTINUOUS
 10
-10.242993
 20
-71.291265
 11
-10.242993
 21
-79.624597
  0
LINE
  8
別途部材
  6
CONTINUOUS
 10
-12.242993
 20
-70.291265
 11
-12.242993
 21
-79.624597
  0
LINE
  8
別途部材
  6
CONTINUOUS
 10
-13.242993
 20
-70.291265
 11
-13.242993
 21
-79.624597
  0
LINE
  8
別途部材
  6
CONTINUOUS
 10
-15.242993
 20
-71.291265
 11
-15.242993
 21
-79.624597
  0
LINE
  8
別途部材
  6
CONTINUOUS
 10
-14.242993
 20
-71.291265
 11
-14.242993
 21
-79.624597
  0
LINE
  8
別途部材
  6
CONTINUOUS
 10
-11.242993
 20
-71.291265
 11
-11.242993
 21
-79.624597
  0
LINE
  8
別途部材
  6
CONTINUOUS
 10
-16.242993
 20
-70.291265
 11
-16.242993
 21
-79.624597
  0
LINE
  8
別途部材
  6
CONTINUOUS
 10
-18.242993
 20
-71.291265
 11
-18.242993
 21
-79.624597
  0
LINE
  8
別途部材
  6
CONTINUOUS
 10
-17.242993
 20
-70.291265
 11
-17.242993
 21
-79.624597
  0
LINE
  8
別途部材
  6
CONTINUOUS
 10
-19.242993
 20
-71.291265
 11
-19.242993
 21
-79.624597
  0
LINE
  8
別途部材
  6
CONTINUOUS
 10
-20.242993
 20
-70.291265
 11
-20.242993
 21
-79.624597
  0
LINE
  8
別途部材
  6
CONTINUOUS
 10
-22.242993
 20
-71.291265
 11
-22.242993
 21
-79.624597
  0
LINE
  8
別途部材
  6
CONTINUOUS
 10
-21.242993
 20
-70.291265
 11
-21.242993
 21
-79.624597
  0
LINE
  8
別途部材
  6
CONTINUOUS
 10
-23.242993
 20
-71.291265
 11
-23.242993
 21
-79.624597
  0
LINE
  8
別途部材
  6
CONTINUOUS
 10
-24.242993
 20
-70.291265
 11
-24.242993
 21
-79.624597
  0
LINE
  8
別途部材
  6
CONTINUOUS
 10
-26.242993
 20
-71.291265
 11
-26.242993
 21
-79.624597
  0
LINE
  8
別途部材
  6
CONTINUOUS
 10
-25.242993
 20
-70.291265
 11
-25.242993
 21
-79.624597
  0
LINE
  8
別途部材
  6
CONTINUOUS
 10
-27.242993
 20
-71.291265
 11
-27.242993
 21
-79.624597
  0
LINE
  8
別途部材
  6
CONTINUOUS
 10
-28.242993
 20
-70.291265
 11
-28.242993
 21
-79.624597
  0
LINE
  8
別途部材
  6
CONTINUOUS
 10
49.757007
 20
-71.291265
 11
50.757007
 21
-70.291265
  0
LINE
  8
別途部材
  6
CONTINUOUS
 10
51.757007
 20
-70.291265
 11
52.757007
 21
-71.291265
  0
LINE
  8
別途部材
  6
CONTINUOUS
 10
50.757007
 20
-70.291265
 11
51.757007
 21
-70.291265
  0
LINE
  8
別途部材
  6
CONTINUOUS
 10
48.757007
 20
-71.291265
 11
49.757007
 21
-71.291265
  0
LINE
  8
別途部材
  6
CONTINUOUS
 10
52.757007
 20
-71.291265
 11
52.757007
 21
-79.624597
  0
LINE
  8
別途部材
  6
CONTINUOUS
 10
50.757007
 20
-70.291265
 11
50.757007
 21
-79.624597
  0
LINE
  8
別途部材
  6
CONTINUOUS
 10
51.757007
 20
-70.291265
 11
51.757007
 21
-79.624597
  0
LINE
  8
別途部材
  6
CONTINUOUS
 10
49.757007
 20
-71.291265
 11
49.757007
 21
-79.624597
  0
LINE
  8
別途部材
  6
CONTINUOUS
 10
53.757007
 20
-71.291265
 11
54.757007
 21
-70.291265
  0
LINE
  8
別途部材
  6
CONTINUOUS
 10
55.757007
 20
-70.291265
 11
56.757007
 21
-71.291265
  0
LINE
  8
別途部材
  6
CONTINUOUS
 10
54.757007
 20
-70.291265
 11
55.757007
 21
-70.291265
  0
LINE
  8
別途部材
  6
CONTINUOUS
 10
52.757007
 20
-71.291265
 11
53.757007
 21
-71.291265
  0
LINE
  8
別途部材
  6
CONTINUOUS
 10
56.757007
 20
-71.291265
 11
56.757007
 21
-79.624597
  0
LINE
  8
別途部材
  6
CONTINUOUS
 10
54.757007
 20
-70.291265
 11
54.757007
 21
-79.624597
  0
LINE
  8
別途部材
  6
CONTINUOUS
 10
55.757007
 20
-70.291265
 11
55.757007
 21
-79.624597
  0
LINE
  8
別途部材
  6
CONTINUOUS
 10
53.757007
 20
-71.291265
 11
53.757007
 21
-79.624597
  0
ARC
  8
別途部材
  6
CONTINUOUS
 10
56.257005
 20
-88.957929
 40
17.666667
 50
31.890796
 51
88.378195
  0
ENDBLK
  0
BLOCK
  2
*GRP_0017
 70
    65
 10
0.0
 20
0.0
  0
LINE
  8
補助線
  6
BYBLOCK
 62
    64
 10
-125.345918
 20
-84.605558
 11
-125.473402
 21
-84.712918
  0
LINE
  8
補助線
  6
BYBLOCK
 62
    64
 10
-125.46334
 20
-84.595493
 11
-125.35598
 21
-84.72298
  0
LINE
  8
補助線
  6
BYBLOCK
 62
    64
 10
-116.8555
 20
-77.455535
 11
-116.982985
 21
-77.56289
  0
LINE
  8
補助線
  6
BYBLOCK
 62
    64
 10
-116.972923
 20
-77.44547
 11
-116.865563
 21
-77.572952
  0
LINE
  8
補助線
  6
BYBLOCK
 62
    64
 10
-108.492565
 20
-70.412865
 11
-108.365082
 21
-70.305508
  0
LINE
  8
補助線
  6
BYBLOCK
 62
    64
 10
-108.482505
 20
-70.295442
 11
-108.375145
 21
-70.42293
  0
LINE
  8
型材断面
  6
CONTINUOUS
 10
-126.201415
 20
-84.236535
 11
-126.261792
 21
-84.94106
  0
LINE
  8
型材断面
  6
CONTINUOUS
 10
-126.261792
 20
-84.94106
 11
-125.83236
 21
-85.450995
  0
LINE
  8
型材断面
  6
CONTINUOUS
 10
-125.83236
 20
-85.450995
 11
-125.127835
 21
-85.511373
  0
LINE
  8
型材断面
  6
CONTINUOUS
 10
-108.710647
 20
-69.507055
 11
-108.006123
 21
-69.567432
  0
LINE
  8
型材断面
  6
CONTINUOUS
 10
-108.006123
 20
-69.567432
 11
-107.57669
 21
-70.077368
  0
LINE
  8
型材断面
  6
CONTINUOUS
 10
-107.57669
 20
-70.077368
 11
-107.637068
 21
-70.781892
  0
LINE
  8
型材断面
  6
CONTINUOUS
 10
-126.201415
 20
-84.236535
 11
-108.710647
 21
-69.507055
  0
LINE
  8
型材断面
  6
CONTINUOUS
 10
-125.127835
 20
-85.511373
 11
-107.637068
 21
-70.781892
  0
CIRCLE
  8
ボルト／ビス
  6
CONTINUOUS
 10
-125.40966
 20
-84.659238
 40
0.250185
  0
CIRCLE
  8
ボルト／ビス
  6
CONTINUOUS
 10
-125.40966
 20
-84.659238
 40
0.301025
  0
LINE
  8
ボルト／ビス
  6
CONTINUOUS
 62
    64
 10
-125.655968
 20
-84.70312
 11
-125.570815
 21
-84.467872
  0
LINE
  8
ボルト／ビス
  6
CONTINUOUS
 62
    64
 10
-125.324507
 20
-84.423988
 11
-125.570815
 21
-84.467872
  0
LINE
  8
ボルト／ビス
  6
CONTINUOUS
 62
    64
 10
-125.494812
 20
-84.894488
 11
-125.248505
 21
-84.850602
  0
LINE
  8
ボルト／ビス
  6
CONTINUOUS
 62
    64
 10
-125.163353
 20
-84.615355
 11
-125.248505
 21
-84.850602
  0
LINE
  8
ボルト／ビス
  6
CONTINUOUS
 62
    64
 10
-125.655968
 20
-84.70312
 11
-125.494812
 21
-84.894488
  0
LINE
  8
ボルト／ビス
  6
CONTINUOUS
 62
    64
 10
-125.324507
 20
-84.423988
 11
-125.163353
 21
-84.615355
  0
CIRCLE
  8
ボルト／ビス
  6
CONTINUOUS
 62
    64
 10
-125.40966
 20
-84.659238
 40
0.216668
  0
CIRCLE
  8
ボルト／ビス
  6
CONTINUOUS
 10
-116.919243
 20
-77.509213
 40
0.250185
  0
CIRCLE
  8
ボルト／ビス
  6
CONTINUOUS
 10
-116.919243
 20
-77.509213
 40
0.301025
  0
LINE
  8
ボルト／ビス
  6
CONTINUOUS
 62
    64
 10
-117.16555
 20
-77.553095
 11
-117.080397
 21
-77.317845
  0
LINE
  8
ボルト／ビス
  6
CONTINUOUS
 62
    64
 10
-116.83409
 20
-77.273963
 11
-117.080397
 21
-77.317845
  0
LINE
  8
ボルト／ビス
  6
CONTINUOUS
 62
    64
 10
-117.004395
 20
-77.744463
 11
-116.758085
 21
-77.70058
  0
LINE
  8
ボルト／ビス
  6
CONTINUOUS
 62
    64
 10
-116.672935
 20
-77.465333
 11
-116.758085
 21
-77.70058
  0
LINE
  8
ボルト／ビス
  6
CONTINUOUS
 62
    64
 10
-117.16555
 20
-77.553095
 11
-117.004395
 21
-77.744463
  0
LINE
  8
ボルト／ビス
  6
CONTINUOUS
 62
    64
 10
-116.83409
 20
-77.273963
 11
-116.672935
 21
-77.465333
  0
CIRCLE
  8
ボルト／ビス
  6
CONTINUOUS
 62
    64
 10
-116.919243
 20
-77.509213
 40
0.216668
  0
CIRCLE
  8
ボルト／ビス
  6
CONTINUOUS
 10
-108.428823
 20
-70.359188
 40
0.250185
  0
CIRCLE
  8
ボルト／ビス
  6
CONTINUOUS
 10
-108.428823
 20
-70.359188
 40
0.301025
  0
LINE
  8
ボルト／ビス
  6
CONTINUOUS
 62
    64
 10
-108.34367
 20
-70.123938
 11
-108.58998
 21
-70.167822
  0
LINE
  8
ボルト／ビス
  6
CONTINUOUS
 62
    64
 10
-108.675133
 20
-70.40307
 11
-108.58998
 21
-70.167822
  0
LINE
  8
ボルト／ビス
  6
CONTINUOUS
 62
    64
 10
-108.182517
 20
-70.315305
 11
-108.267667
 21
-70.550552
  0
LINE
  8
ボルト／ビス
  6
CONTINUOUS
 62
    64
 10
-108.513977
 20
-70.594437
 11
-108.267667
 21
-70.550552
  0
LINE
  8
ボルト／ビス
  6
CONTINUOUS
 62
    64
 10
-108.34367
 20
-70.123938
 11
-108.182517
 21
-70.315305
  0
LINE
  8
ボルト／ビス
  6
CONTINUOUS
 62
    64
 10
-108.675133
 20
-70.40307
 11
-108.513977
 21
-70.594437
  0
CIRCLE
  8
ボルト／ビス
  6
CONTINUOUS
 62
    64
 10
-108.428823
 20
-70.359188
 40
0.216668
  0
ENDBLK
  0
BLOCK
  2
*GRP_0018
 70
    65
 10
0.0
 20
0.0
  0
LINE
  8
補助線
  6
BYBLOCK
 62
    64
 10
-108.492568
 20
-84.605558
 11
-108.365082
 21
-84.712918
  0
LINE
  8
補助線
  6
BYBLOCK
 62
    64
 10
-108.375145
 20
-84.595493
 11
-108.482505
 21
-84.72298
  0
LINE
  8
補助線
  6
BYBLOCK
 62
    64
 10
-116.982985
 20
-77.455535
 11
-116.8555
 21
-77.56289
  0
LINE
  8
補助線
  6
BYBLOCK
 62
    64
 10
-116.865563
 20
-77.44547
 11
-116.972923
 21
-77.572952
  0
LINE
  8
補助線
  6
BYBLOCK
 62
    64
 10
-125.34592
 20
-70.412865
 11
-125.473402
 21
-70.305508
  0
LINE
  8
補助線
  6
BYBLOCK
 62
    64
 10
-125.35598
 20
-70.295442
 11
-125.46334
 21
-70.42293
  0
LINE
  8
型材断面
  6
CONTINUOUS
 10
-107.63707
 20
-84.236535
 11
-107.576692
 21
-84.94106
  0
LINE
  8
型材断面
  6
CONTINUOUS
 10
-107.576692
 20
-84.94106
 11
-108.006125
 21
-85.450995
  0
LINE
  8
型材断面
  6
CONTINUOUS
 10
-108.006125
 20
-85.450995
 11
-108.71065
 21
-85.511373
  0
LINE
  8
型材断面
  6
CONTINUOUS
 10
-125.127837
 20
-69.507055
 11
-125.832363
 21
-69.567432
  0
LINE
  8
型材断面
  6
CONTINUOUS
 10
-125.832363
 20
-69.567432
 11
-126.261795
 21
-70.077368
  0
LINE
  8
型材断面
  6
CONTINUOUS
 10
-126.261795
 20
-70.077368
 11
-126.201418
 21
-70.781892
  0
LINE
  8
型材断面
  6
CONTINUOUS
 10
-107.63707
 20
-84.236535
 11
-125.127837
 21
-69.507055
  0
LINE
  8
型材断面
  6
CONTINUOUS
 10
-108.71065
 20
-85.511373
 11
-126.201418
 21
-70.781892
  0
CIRCLE
  8
ボルト／ビス
  6
CONTINUOUS
 10
-108.428825
 20
-84.659238
 40
0.250185
  0
CIRCLE
  8
ボルト／ビス
  6
CONTINUOUS
 10
-108.428825
 20
-84.659238
 40
0.301025
  0
LINE
  8
ボルト／ビス
  6
CONTINUOUS
 62
    64
 10
-108.182517
 20
-84.70312
 11
-108.26767
 21
-84.467872
  0
LINE
  8
ボルト／ビス
  6
CONTINUOUS
 62
    64
 10
-108.513977
 20
-84.423988
 11
-108.26767
 21
-84.467872
  0
LINE
  8
ボルト／ビス
  6
CONTINUOUS
 62
    64
 10
-108.343672
 20
-84.894488
 11
-108.58998
 21
-84.850602
  0
LINE
  8
ボルト／ビス
  6
CONTINUOUS
 62
    64
 10
-108.675133
 20
-84.615355
 11
-108.58998
 21
-84.850602
  0
LINE
  8
ボルト／ビス
  6
CONTINUOUS
 62
    64
 10
-108.182517
 20
-84.70312
 11
-108.343672
 21
-84.894488
  0
LINE
  8
ボルト／ビス
  6
CONTINUOUS
 62
    64
 10
-108.513977
 20
-84.423988
 11
-108.675133
 21
-84.615355
  0
CIRCLE
  8
ボルト／ビス
  6
CONTINUOUS
 62
    64
 10
-108.428825
 20
-84.659238
 40
0.216668
  0
CIRCLE
  8
ボルト／ビス
  6
CONTINUOUS
 10
-116.919243
 20
-77.509213
 40
0.250185
  0
CIRCLE
  8
ボルト／ビス
  6
CONTINUOUS
 10
-116.919243
 20
-77.509213
 40
0.301025
  0
LINE
  8
ボルト／ビス
  6
CONTINUOUS
 62
    64
 10
-116.672935
 20
-77.553095
 11
-116.758087
 21
-77.317845
  0
LINE
  8
ボルト／ビス
  6
CONTINUOUS
 62
    64
 10
-117.004395
 20
-77.273963
 11
-116.758087
 21
-77.317845
  0
LINE
  8
ボルト／ビス
  6
CONTINUOUS
 62
    64
 10
-116.83409
 20
-77.744463
 11
-117.0804
 21
-77.70058
  0
LINE
  8
ボルト／ビス
  6
CONTINUOUS
 62
    64
 10
-117.16555
 20
-77.465333
 11
-117.0804
 21
-77.70058
  0
LINE
  8
ボルト／ビス
  6
CONTINUOUS
 62
    64
 10
-116.672935
 20
-77.553095
 11
-116.83409
 21
-77.744463
  0
LINE
  8
ボルト／ビス
  6
CONTINUOUS
 62
    64
 10
-117.004395
 20
-77.273963
 11
-117.16555
 21
-77.465333
  0
CIRCLE
  8
ボルト／ビス
  6
CONTINUOUS
 62
    64
 10
-116.919243
 20
-77.509213
 40
0.216668
  0
CIRCLE
  8
ボルト／ビス
  6
CONTINUOUS
 10
-125.409663
 20
-70.359188
 40
0.250185
  0
CIRCLE
  8
ボルト／ビス
  6
CONTINUOUS
 10
-125.409663
 20
-70.359188
 40
0.301025
  0
LINE
  8
ボルト／ビス
  6
CONTINUOUS
 62
    64
 10
-125.494815
 20
-70.123938
 11
-125.248505
 21
-70.167822
  0
LINE
  8
ボルト／ビス
  6
CONTINUOUS
 62
    64
 10
-125.163353
 20
-70.40307
 11
-125.248505
 21
-70.167822
  0
LINE
  8
ボルト／ビス
  6
CONTINUOUS
 62
    64
 10
-125.655968
 20
-70.315305
 11
-125.570817
 21
-70.550552
  0
LINE
  8
ボルト／ビス
  6
CONTINUOUS
 62
    64
 10
-125.324507
 20
-70.594437
 11
-125.570817
 21
-70.550552
  0
LINE
  8
ボルト／ビス
  6
CONTINUOUS
 62
    64
 10
-125.494815
 20
-70.123938
 11
-125.655968
 21
-70.315305
  0
LINE
  8
ボルト／ビス
  6
CONTINUOUS
 62
    64
 10
-125.163353
 20
-70.40307
 11
-125.324507
 21
-70.594437
  0
CIRCLE
  8
ボルト／ビス
  6
CONTINUOUS
 62
    64
 10
-125.409663
 20
-70.359188
 40
0.216668
  0
ENDBLK
  0
BLOCK
  2
*GRP_0019
 70
    65
 10
0.0
 20
0.0
  0
LINE
  8
補助線
  6
BYBLOCK
 62
    64
 10
67.859932
 20
-84.605558
 11
67.987418
 21
-84.712918
  0
LINE
  8
補助線
  6
BYBLOCK
 62
    64
 10
67.977355
 20
-84.595493
 11
67.869995
 21
-84.72298
  0
LINE
  8
補助線
  6
BYBLOCK
 62
    64
 10
59.369515
 20
-77.455535
 11
59.497
 21
-77.56289
  0
LINE
  8
補助線
  6
BYBLOCK
 62
    64
 10
59.486938
 20
-77.44547
 11
59.379578
 21
-77.572952
  0
LINE
  8
補助線
  6
BYBLOCK
 62
    64
 10
51.00658
 20
-70.412865
 11
50.879097
 21
-70.305508
  0
LINE
  8
補助線
  6
BYBLOCK
 62
    64
 10
50.99652
 20
-70.295442
 11
50.88916
 21
-70.42293
  0
LINE
  8
型材断面
  6
CONTINUOUS
 10
68.71543
 20
-84.236535
 11
68.775807
 21
-84.94106
  0
LINE
  8
型材断面
  6
CONTINUOUS
 10
68.775807
 20
-84.94106
 11
68.346375
 21
-85.450995
  0
LINE
  8
型材断面
  6
CONTINUOUS
 10
68.346375
 20
-85.450995
 11
67.64185
 21
-85.511373
  0
LINE
  8
型材断面
  6
CONTINUOUS
 10
51.224662
 20
-69.507055
 11
50.520138
 21
-69.567432
  0
LINE
  8
型材断面
  6
CONTINUOUS
 10
50.520138
 20
-69.567432
 11
50.090705
 21
-70.077368
  0
LINE
  8
型材断面
  6
CONTINUOUS
 10
50.090705
 20
-70.077368
 11
50.151082
 21
-70.781892
  0
LINE
  8
型材断面
  6
CONTINUOUS
 10
68.71543
 20
-84.236535
 11
51.224662
 21
-69.507055
  0
LINE
  8
型材断面
  6
CONTINUOUS
 10
67.64185
 20
-85.511373
 11
50.151082
 21
-70.781892
  0
CIRCLE
  8
ボルト／ビス
  6
CONTINUOUS
 10
67.923675
 20
-84.659238
 40
0.250185
  0
CIRCLE
  8
ボルト／ビス
  6
CONTINUOUS
 10
67.923675
 20
-84.659238
 40
0.301025
  0
LINE
  8
ボルト／ビス
  6
CONTINUOUS
 62
    64
 10
68.169982
 20
-84.70312
 11
68.08483
 21
-84.467872
  0
LINE
  8
ボルト／ビス
  6
CONTINUOUS
 62
    64
 10
67.838522
 20
-84.423988
 11
68.08483
 21
-84.467872
  0
LINE
  8
ボルト／ビス
  6
CONTINUOUS
 62
    64
 10
68.008828
 20
-84.894488
 11
67.76252
 21
-84.850602
  0
LINE
  8
ボルト／ビス
  6
CONTINUOUS
 62
    64
 10
67.677368
 20
-84.615355
 11
67.76252
 21
-84.850602
  0
LINE
  8
ボルト／ビス
  6
CONTINUOUS
 62
    64
 10
68.169982
 20
-84.70312
 11
68.008828
 21
-84.894488
  0
LINE
  8
ボルト／ビス
  6
CONTINUOUS
 62
    64
 10
67.838522
 20
-84.423988
 11
67.677368
 21
-84.615355
  0
CIRCLE
  8
ボルト／ビス
  6
CONTINUOUS
 62
    64
 10
67.923675
 20
-84.659238
 40
0.216668
  0
CIRCLE
  8
ボルト／ビス
  6
CONTINUOUS
 10
59.433258
 20
-77.509213
 40
0.250185
  0
CIRCLE
  8
ボルト／ビス
  6
CONTINUOUS
 10
59.433258
 20
-77.509213
 40
0.301025
  0
LINE
  8
ボルト／ビス
  6
CONTINUOUS
 62
    64
 10
59.679565
 20
-77.553095
 11
59.594412
 21
-77.317845
  0
LINE
  8
ボルト／ビス
  6
CONTINUOUS
 62
    64
 10
59.348105
 20
-77.273963
 11
59.594412
 21
-77.317845
  0
LINE
  8
ボルト／ビス
  6
CONTINUOUS
 62
    64
 10
59.51841
 20
-77.744463
 11
59.2721
 21
-77.70058
  0
LINE
  8
ボルト／ビス
  6
CONTINUOUS
 62
    64
 10
59.18695
 20
-77.465333
 11
59.2721
 21
-77.70058
  0
LINE
  8
ボルト／ビス
  6
CONTINUOUS
 62
    64
 10
59.679565
 20
-77.553095
 11
59.51841
 21
-77.744463
  0
LINE
  8
ボルト／ビス
  6
CONTINUOUS
 62
    64
 10
59.348105
 20
-77.273963
 11
59.18695
 21
-77.465333
  0
CIRCLE
  8
ボルト／ビス
  6
CONTINUOUS
 62
    64
 10
59.433258
 20
-77.509213
 40
0.216668
  0
CIRCLE
  8
ボルト／ビス
  6
CONTINUOUS
 10
50.942837
 20
-70.359188
 40
0.250185
  0
CIRCLE
  8
ボルト／ビス
  6
CONTINUOUS
 10
50.942837
 20
-70.359188
 40
0.301025
  0
LINE
  8
ボルト／ビス
  6
CONTINUOUS
 62
    64
 10
50.857685
 20
-70.123938
 11
51.103995
 21
-70.167822
  0
LINE
  8
ボルト／ビス
  6
CONTINUOUS
 62
    64
 10
51.189148
 20
-70.40307
 11
51.103995
 21
-70.167822
  0
LINE
  8
ボルト／ビス
  6
CONTINUOUS
 62
    64
 10
50.696532
 20
-70.315305
 11
50.781682
 21
-70.550552
  0
LINE
  8
ボルト／ビス
  6
CONTINUOUS
 62
    64
 10
51.027993
 20
-70.594437
 11
50.781682
 21
-70.550552
  0
LINE
  8
ボルト／ビス
  6
CONTINUOUS
 62
    64
 10
50.857685
 20
-70.123938
 11
50.696532
 21
-70.315305
  0
LINE
  8
ボルト／ビス
  6
CONTINUOUS
 62
    64
 10
51.189148
 20
-70.40307
 11
51.027993
 21
-70.594437
  0
CIRCLE
  8
ボルト／ビス
  6
CONTINUOUS
 62
    64
 10
50.942837
 20
-70.359188
 40
0.216668
  0
ENDBLK
  0
BLOCK
  2
*GRP_0020
 70
    65
 10
0.0
 20
0.0
  0
LINE
  8
補助線
  6
BYBLOCK
 62
    64
 10
51.006582
 20
-84.605558
 11
50.879097
 21
-84.712918
  0
LINE
  8
補助線
  6
BYBLOCK
 62
    64
 10
50.88916
 20
-84.595493
 11
50.99652
 21
-84.72298
  0
LINE
  8
補助線
  6
BYBLOCK
 62
    64
 10
59.497
 20
-77.455535
 11
59.369515
 21
-77.56289
  0
LINE
  8
補助線
  6
BYBLOCK
 62
    64
 10
59.379578
 20
-77.44547
 11
59.486938
 21
-77.572952
  0
LINE
  8
補助線
  6
BYBLOCK
 62
    64
 10
67.859935
 20
-70.412865
 11
67.987418
 21
-70.305508
  0
LINE
  8
補助線
  6
BYBLOCK
 62
    64
 10
67.869995
 20
-70.295442
 11
67.977355
 21
-70.42293
  0
LINE
  8
型材断面
  6
CONTINUOUS
 10
50.151085
 20
-84.236535
 11
50.090707
 21
-84.94106
  0
LINE
  8
型材断面
  6
CONTINUOUS
 10
50.090707
 20
-84.94106
 11
50.52014
 21
-85.450995
  0
LINE
  8
型材断面
  6
CONTINUOUS
 10
50.52014
 20
-85.450995
 11
51.224665
 21
-85.511373
  0
LINE
  8
型材断面
  6
CONTINUOUS
 10
67.641852
 20
-69.507055
 11
68.346378
 21
-69.567432
  0
LINE
  8
型材断面
  6
CONTINUOUS
 10
68.346378
 20
-69.567432
 11
68.77581
 21
-70.077368
  0
LINE
  8
型材断面
  6
CONTINUOUS
 10
68.77581
 20
-70.077368
 11
68.715432
 21
-70.781892
  0
LINE
  8
型材断面
  6
CONTINUOUS
 10
50.151085
 20
-84.236535
 11
67.641852
 21
-69.507055
  0
LINE
  8
型材断面
  6
CONTINUOUS
 10
51.224665
 20
-85.511373
 11
68.715432
 21
-70.781892
  0
CIRCLE
  8
ボルト／ビス
  6
CONTINUOUS
 10
50.94284
 20
-84.659238
 40
0.250185
  0
CIRCLE
  8
ボルト／ビス
  6
CONTINUOUS
 10
50.94284
 20
-84.659238
 40
0.301025
  0
LINE
  8
ボルト／ビス
  6
CONTINUOUS
 62
    64
 10
50.696532
 20
-84.70312
 11
50.781685
 21
-84.467872
  0
LINE
  8
ボルト／ビス
  6
CONTINUOUS
 62
    64
 10
51.027993
 20
-84.423988
 11
50.781685
 21
-84.467872
  0
LINE
  8
ボルト／ビス
  6
CONTINUOUS
 62
    64
 10
50.857688
 20
-84.894488
 11
51.103995
 21
-84.850602
  0
LINE
  8
ボルト／ビス
  6
CONTINUOUS
 62
    64
 10
51.189148
 20
-84.615355
 11
51.103995
 21
-84.850602
  0
LINE
  8
ボルト／ビス
  6
CONTINUOUS
 62
    64
 10
50.696532
 20
-84.70312
 11
50.857688
 21
-84.894488
  0
LINE
  8
ボルト／ビス
  6
CONTINUOUS
 62
    64
 10
51.027993
 20
-84.423988
 11
51.189148
 21
-84.615355
  0
CIRCLE
  8
ボルト／ビス
  6
CONTINUOUS
 62
    64
 10
50.94284
 20
-84.659238
 40
0.216668
  0
CIRCLE
  8
ボルト／ビス
  6
CONTINUOUS
 10
59.433258
 20
-77.509213
 40
0.250185
  0
CIRCLE
  8
ボルト／ビス
  6
CONTINUOUS
 10
59.433258
 20
-77.509213
 40
0.301025
  0
LINE
  8
ボルト／ビス
  6
CONTINUOUS
 62
    64
 10
59.18695
 20
-77.553095
 11
59.272103
 21
-77.317845
  0
LINE
  8
ボルト／ビス
  6
CONTINUOUS
 62
    64
 10
59.51841
 20
-77.273963
 11
59.272103
 21
-77.317845
  0
LINE
  8
ボルト／ビス
  6
CONTINUOUS
 62
    64
 10
59.348105
 20
-77.744463
 11
59.594415
 21
-77.70058
  0
LINE
  8
ボルト／ビス
  6
CONTINUOUS
 62
    64
 10
59.679565
 20
-77.465333
 11
59.594415
 21
-77.70058
  0
LINE
  8
ボルト／ビス
  6
CONTINUOUS
 62
    64
 10
59.18695
 20
-77.553095
 11
59.348105
 21
-77.744463
  0
LINE
  8
ボルト／ビス
  6
CONTINUOUS
 62
    64
 10
59.51841
 20
-77.273963
 11
59.679565
 21
-77.465333
  0
CIRCLE
  8
ボルト／ビス
  6
CONTINUOUS
 62
    64
 10
59.433258
 20
-77.509213
 40
0.216668
  0
CIRCLE
  8
ボルト／ビス
  6
CONTINUOUS
 10
67.923677
 20
-70.359188
 40
0.250185
  0
CIRCLE
  8
ボルト／ビス
  6
CONTINUOUS
 10
67.923677
 20
-70.359188
 40
0.301025
  0
LINE
  8
ボルト／ビス
  6
CONTINUOUS
 62
    64
 10
68.00883
 20
-70.123938
 11
67.76252
 21
-70.167822
  0
LINE
  8
ボルト／ビス
  6
CONTINUOUS
 62
    64
 10
67.677368
 20
-70.40307
 11
67.76252
 21
-70.167822
  0
LINE
  8
ボルト／ビス
  6
CONTINUOUS
 62
    64
 10
68.169982
 20
-70.315305
 11
68.084833
 21
-70.550552
  0
LINE
  8
ボルト／ビス
  6
CONTINUOUS
 62
    64
 10
67.838522
 20
-70.594437
 11
68.084833
 21
-70.550552
  0
LINE
  8
ボルト／ビス
  6
CONTINUOUS
 62
    64
 10
68.00883
 20
-70.123938
 11
68.169982
 21
-70.315305
  0
LINE
  8
ボルト／ビス
  6
CONTINUOUS
 62
    64
 10
67.677368
 20
-70.40307
 11
67.838522
 21
-70.594437
  0
CIRCLE
  8
ボルト／ビス
  6
CONTINUOUS
 62
    64
 10
67.923677
 20
-70.359188
 40
0.216668
  0
ENDBLK
  0
BLOCK
  2
*GRP_0021
 70
    65
 10
0.0
 20
0.0
  0
LINE
  8
補助線
  6
BYBLOCK
 62
    64
 10
-20.316317
 20
-84.605558
 11
-20.188832
 21
-84.712918
  0
LINE
  8
補助線
  6
BYBLOCK
 62
    64
 10
-20.198895
 20
-84.595493
 11
-20.306255
 21
-84.72298
  0
LINE
  8
補助線
  6
BYBLOCK
 62
    64
 10
-28.806735
 20
-77.455535
 11
-28.67925
 21
-77.56289
  0
LINE
  8
補助線
  6
BYBLOCK
 62
    64
 10
-28.689312
 20
-77.44547
 11
-28.796673
 21
-77.572952
  0
LINE
  8
補助線
  6
BYBLOCK
 62
    64
 10
-37.16967
 20
-70.412865
 11
-37.297152
 21
-70.305508
  0
LINE
  8
補助線
  6
BYBLOCK
 62
    64
 10
-37.17973
 20
-70.295442
 11
-37.28709
 21
-70.42293
  0
LINE
  8
型材断面
  6
CONTINUOUS
 10
-19.46082
 20
-84.236535
 11
-19.400443
 21
-84.94106
  0
LINE
  8
型材断面
  6
CONTINUOUS
 10
-19.400443
 20
-84.94106
 11
-19.829875
 21
-85.450995
  0
LINE
  8
型材断面
  6
CONTINUOUS
 10
-19.829875
 20
-85.450995
 11
-20.5344
 21
-85.511373
  0
LINE
  8
型材断面
  6
CONTINUOUS
 10
-36.951588
 20
-69.507055
 11
-37.656113
 21
-69.567432
  0
LINE
  8
型材断面
  6
CONTINUOUS
 10
-37.656113
 20
-69.567432
 11
-38.085545
 21
-70.077368
  0
LINE
  8
型材断面
  6
CONTINUOUS
 10
-38.085545
 20
-70.077368
 11
-38.025168
 21
-70.781892
  0
LINE
  8
型材断面
  6
CONTINUOUS
 10
-19.46082
 20
-84.236535
 11
-36.951588
 21
-69.507055
  0
LINE
  8
型材断面
  6
CONTINUOUS
 10
-20.5344
 20
-85.511373
 11
-38.025168
 21
-70.781892
  0
CIRCLE
  8
ボルト／ビス
  6
CONTINUOUS
 10
-20.252575
 20
-84.659238
 40
0.250185
  0
CIRCLE
  8
ボルト／ビス
  6
CONTINUOUS
 10
-20.252575
 20
-84.659238
 40
0.301025
  0
LINE
  8
ボルト／ビス
  6
CONTINUOUS
 62
    64
 10
-20.006268
 20
-84.70312
 11
-20.09142
 21
-84.467872
  0
LINE
  8
ボルト／ビス
  6
CONTINUOUS
 62
    64
 10
-20.337727
 20
-84.423988
 11
-20.09142
 21
-84.467872
  0
LINE
  8
ボルト／ビス
  6
CONTINUOUS
 62
    64
 10
-20.167422
 20
-84.894488
 11
-20.41373
 21
-84.850602
  0
LINE
  8
ボルト／ビス
  6
CONTINUOUS
 62
    64
 10
-20.498883
 20
-84.615355
 11
-20.41373
 21
-84.850602
  0
LINE
  8
ボルト／ビス
  6
CONTINUOUS
 62
    64
 10
-20.006268
 20
-84.70312
 11
-20.167422
 21
-84.894488
  0
LINE
  8
ボルト／ビス
  6
CONTINUOUS
 62
    64
 10
-20.337727
 20
-84.423988
 11
-20.498883
 21
-84.615355
  0
CIRCLE
  8
ボルト／ビス
  6
CONTINUOUS
 62
    64
 10
-20.252575
 20
-84.659238
 40
0.216668
  0
CIRCLE
  8
ボルト／ビス
  6
CONTINUOUS
 10
-28.742993
 20
-77.509213
 40
0.250185
  0
CIRCLE
  8
ボルト／ビス
  6
CONTINUOUS
 10
-28.742993
 20
-77.509213
 40
0.301025
  0
LINE
  8
ボルト／ビス
  6
CONTINUOUS
 62
    64
 10
-28.496685
 20
-77.553095
 11
-28.581837
 21
-77.317845
  0
LINE
  8
ボルト／ビス
  6
CONTINUOUS
 62
    64
 10
-28.828145
 20
-77.273963
 11
-28.581837
 21
-77.317845
  0
LINE
  8
ボルト／ビス
  6
CONTINUOUS
 62
    64
 10
-28.65784
 20
-77.744463
 11
-28.90415
 21
-77.70058
  0
LINE
  8
ボルト／ビス
  6
CONTINUOUS
 62
    64
 10
-28.9893
 20
-77.465333
 11
-28.90415
 21
-77.70058
  0
LINE
  8
ボルト／ビス
  6
CONTINUOUS
 62
    64
 10
-28.496685
 20
-77.553095
 11
-28.65784
 21
-77.744463
  0
LINE
  8
ボルト／ビス
  6
CONTINUOUS
 62
    64
 10
-28.828145
 20
-77.273963
 11
-28.9893
 21
-77.465333
  0
CIRCLE
  8
ボルト／ビス
  6
CONTINUOUS
 62
    64
 10
-28.742993
 20
-77.509213
 40
0.216668
  0
CIRCLE
  8
ボルト／ビス
  6
CONTINUOUS
 10
-37.233413
 20
-70.359188
 40
0.250185
  0
CIRCLE
  8
ボルト／ビス
  6
CONTINUOUS
 10
-37.233413
 20
-70.359188
 40
0.301025
  0
LINE
  8
ボルト／ビス
  6
CONTINUOUS
 62
    64
 10
-37.318565
 20
-70.123938
 11
-37.072255
 21
-70.167822
  0
LINE
  8
ボルト／ビス
  6
CONTINUOUS
 62
    64
 10
-36.987103
 20
-70.40307
 11
-37.072255
 21
-70.167822
  0
LINE
  8
ボルト／ビス
  6
CONTINUOUS
 62
    64
 10
-37.479717
 20
-70.315305
 11
-37.394567
 21
-70.550552
  0
LINE
  8
ボルト／ビス
  6
CONTINUOUS
 62
    64
 10
-37.148258
 20
-70.594437
 11
-37.394567
 21
-70.550552
  0
LINE
  8
ボルト／ビス
  6
CONTINUOUS
 62
    64
 10
-37.318565
 20
-70.123938
 11
-37.479717
 21
-70.315305
  0
LINE
  8
ボルト／ビス
  6
CONTINUOUS
 62
    64
 10
-36.987103
 20
-70.40307
 11
-37.148258
 21
-70.594437
  0
CIRCLE
  8
ボルト／ビス
  6
CONTINUOUS
 62
    64
 10
-37.233413
 20
-70.359188
 40
0.216668
  0
ENDBLK
  0
BLOCK
  2
*GRP_0022
 70
    65
 10
0.0
 20
0.0
  0
LINE
  8
補助線
  6
BYBLOCK
 62
    64
 10
-37.169668
 20
-84.605558
 11
-37.297152
 21
-84.712918
  0
LINE
  8
補助線
  6
BYBLOCK
 62
    64
 10
-37.28709
 20
-84.595493
 11
-37.17973
 21
-84.72298
  0
LINE
  8
補助線
  6
BYBLOCK
 62
    64
 10
-28.67925
 20
-77.455535
 11
-28.806735
 21
-77.56289
  0
LINE
  8
補助線
  6
BYBLOCK
 62
    64
 10
-28.796673
 20
-77.44547
 11
-28.689312
 21
-77.572952
  0
LINE
  8
補助線
  6
BYBLOCK
 62
    64
 10
-20.316315
 20
-70.412865
 11
-20.188832
 21
-70.305508
  0
LINE
  8
補助線
  6
BYBLOCK
 62
    64
 10
-20.306255
 20
-70.295442
 11
-20.198895
 21
-70.42293
  0
LINE
  8
型材断面
  6
CONTINUOUS
 10
-38.025165
 20
-84.236535
 11
-38.085542
 21
-84.94106
  0
LINE
  8
型材断面
  6
CONTINUOUS
 10
-38.085542
 20
-84.94106
 11
-37.65611
 21
-85.450995
  0
LINE
  8
型材断面
  6
CONTINUOUS
 10
-37.65611
 20
-85.450995
 11
-36.951585
 21
-85.511373
  0
LINE
  8
型材断面
  6
CONTINUOUS
 10
-20.534397
 20
-69.507055
 11
-19.829872
 21
-69.567432
  0
LINE
  8
型材断面
  6
CONTINUOUS
 10
-19.829872
 20
-69.567432
 11
-19.40044
 21
-70.077368
  0
LINE
  8
型材断面
  6
CONTINUOUS
 10
-19.40044
 20
-70.077368
 11
-19.460818
 21
-70.781892
  0
LINE
  8
型材断面
  6
CONTINUOUS
 10
-38.025165
 20
-84.236535
 11
-20.534397
 21
-69.507055
  0
LINE
  8
型材断面
  6
CONTINUOUS
 10
-36.951585
 20
-85.511373
 11
-19.460818
 21
-70.781892
  0
CIRCLE
  8
ボルト／ビス
  6
CONTINUOUS
 10
-37.23341
 20
-84.659238
 40
0.250185
  0
CIRCLE
  8
ボルト／ビス
  6
CONTINUOUS
 10
-37.23341
 20
-84.659238
 40
0.301025
  0
LINE
  8
ボルト／ビス
  6
CONTINUOUS
 62
    64
 10
-37.479717
 20
-84.70312
 11
-37.394565
 21
-84.467872
  0
LINE
  8
ボルト／ビス
  6
CONTINUOUS
 62
    64
 10
-37.148258
 20
-84.423988
 11
-37.394565
 21
-84.467872
  0
LINE
  8
ボルト／ビス
  6
CONTINUOUS
 62
    64
 10
-37.318563
 20
-84.894488
 11
-37.072255
 21
-84.850602
  0
LINE
  8
ボルト／ビス
  6
CONTINUOUS
 62
    64
 10
-36.987103
 20
-84.615355
 11
-37.072255
 21
-84.850602
  0
LINE
  8
ボルト／ビス
  6
CONTINUOUS
 62
    64
 10
-37.479717
 20
-84.70312
 11
-37.318563
 21
-84.894488
  0
LINE
  8
ボルト／ビス
  6
CONTINUOUS
 62
    64
 10
-37.148258
 20
-84.423988
 11
-36.987103
 21
-84.615355
  0
CIRCLE
  8
ボルト／ビス
  6
CONTINUOUS
 62
    64
 10
-37.23341
 20
-84.659238
 40
0.216668
  0
CIRCLE
  8
ボルト／ビス
  6
CONTINUOUS
 10
-28.742993
 20
-77.509213
 40
0.250185
  0
CIRCLE
  8
ボルト／ビス
  6
CONTINUOUS
 10
-28.742993
 20
-77.509213
 40
0.301025
  0
LINE
  8
ボルト／ビス
  6
CONTINUOUS
 62
    64
 10
-28.9893
 20
-77.553095
 11
-28.904148
 21
-77.317845
  0
LINE
  8
ボルト／ビス
  6
CONTINUOUS
 62
    64
 10
-28.65784
 20
-77.273963
 11
-28.904148
 21
-77.317845
  0
LINE
  8
ボルト／ビス
  6
CONTINUOUS
 62
    64
 10
-28.828145
 20
-77.744463
 11
-28.581835
 21
-77.70058
  0
LINE
  8
ボルト／ビス
  6
CONTINUOUS
 62
    64
 10
-28.496685
 20
-77.465333
 11
-28.581835
 21
-77.70058
  0
LINE
  8
ボルト／ビス
  6
CONTINUOUS
 62
    64
 10
-28.9893
 20
-77.553095
 11
-28.828145
 21
-77.744463
  0
LINE
  8
ボルト／ビス
  6
CONTINUOUS
 62
    64
 10
-28.65784
 20
-77.273963
 11
-28.496685
 21
-77.465333
  0
CIRCLE
  8
ボルト／ビス
  6
CONTINUOUS
 62
    64
 10
-28.742993
 20
-77.509213
 40
0.216668
  0
CIRCLE
  8
ボルト／ビス
  6
CONTINUOUS
 10
-20.252573
 20
-70.359188
 40
0.250185
  0
CIRCLE
  8
ボルト／ビス
  6
CONTINUOUS
 10
-20.252573
 20
-70.359188
 40
0.301025
  0
LINE
  8
ボルト／ビス
  6
CONTINUOUS
 62
    64
 10
-20.16742
 20
-70.123938
 11
-20.41373
 21
-70.167822
  0
LINE
  8
ボルト／ビス
  6
CONTINUOUS
 62
    64
 10
-20.498883
 20
-70.40307
 11
-20.41373
 21
-70.167822
  0
LINE
  8
ボルト／ビス
  6
CONTINUOUS
 62
    64
 10
-20.006268
 20
-70.315305
 11
-20.091417
 21
-70.550552
  0
LINE
  8
ボルト／ビス
  6
CONTINUOUS
 62
    64
 10
-20.337727
 20
-70.594437
 11
-20.091417
 21
-70.550552
  0
LINE
  8
ボルト／ビス
  6
CONTINUOUS
 62
    64
 10
-20.16742
 20
-70.123938
 11
-20.006268
 21
-70.315305
  0
LINE
  8
ボルト／ビス
  6
CONTINUOUS
 62
    64
 10
-20.498883
 20
-70.40307
 11
-20.337727
 21
-70.594437
  0
CIRCLE
  8
ボルト／ビス
  6
CONTINUOUS
 62
    64
 10
-20.252573
 20
-70.359188
 40
0.216668
  0
ENDBLK
  0
BLOCK
  2
*DIM_0023
 70
    65
 10
0.0
 20
0.0
  0
LINE
  8
寸法
  6
BYBLOCK
 62
     0
 10
-131.742993
 20
38.399048
 11
-145.03583
 21
38.399048
  0
LINE
  8
寸法
  6
BYBLOCK
 62
     0
 10
-131.742993
 20
18.399048
 11
-145.03583
 21
18.399048
  0
LINE
  8
寸法
  6
BYBLOCK
 62
     0
 10
-145.03583
 20
38.399048
 11
-145.03583
 21
18.399048
  0
POINT
  8
寸法
 62
     0
 10
-145.03583
 20
38.399048
  0
POINT
  8
寸法
 62
     0
 10
-145.03583
 20
18.399048
  0
TEXT
  7
TextStyle03
  8
寸法
  6
CONTINUOUS
 62
     0
 10
-145.375
 20
25.9625
  1
600
 40
3.0
 50
90.0
 72
     5
 11
-145.375
 21
30.8375
  0
ENDBLK
  0
BLOCK
  2
*DIM_0024
 70
    65
 10
0.0
 20
0.0
  0
LINE
  8
寸法
  6
BYBLOCK
 62
     0
 10
-122.076325
 20
46.399048
 11
-122.076325
 21
75.50712
  0
LINE
  8
寸法
  6
BYBLOCK
 62
     0
 10
-98.742993
 20
46.399048
 11
-98.742993
 21
75.50712
  0
LINE
  8
寸法
  6
BYBLOCK
 62
     0
 10
-122.076325
 20
75.50712
 11
-98.742993
 21
75.50712
  0
POINT
  8
寸法
 62
     0
 10
-122.076325
 20
75.50712
  0
POINT
  8
寸法
 62
     0
 10
-98.742993
 20
75.50712
  0
TEXT
  7
TextStyle03
  8
寸法
  6
CONTINUOUS
 62
     0
 10
-112.8625
 20
75.875
  1
700
 40
3.0
 72
     5
 11
-107.9875
 21
75.875
  0
ENDBLK
  0
BLOCK
  2
*DIM_0025
 70
    65
 10
0.0
 20
0.0
  0
LINE
  8
寸法
  6
BYBLOCK
 62
     0
 10
-75.40966
 20
46.399048
 11
-75.40966
 21
75.50712
  0
LINE
  8
寸法
  6
BYBLOCK
 62
     0
 10
-98.742993
 20
75.50712
 11
-75.40966
 21
75.50712
  0
POINT
  8
寸法
 62
     0
 10
-75.40966
 20
75.50712
  0
TEXT
  7
TextStyle03
  8
寸法
  6
CONTINUOUS
 62
     0
 10
-89.5375
 20
75.875
  1
700
 40
3.0
 72
     5
 11
-84.6625
 21
75.875
  0
ENDBLK
  0
BLOCK
  2
*DIM_0026
 70
    65
 10
0.0
 20
0.0
  0
LINE
  8
寸法
  6
BYBLOCK
 62
     0
 10
-52.076325
 20
46.399048
 11
-52.076325
 21
75.50712
  0
LINE
  8
寸法
  6
BYBLOCK
 62
     0
 10
-75.40966
 20
75.50712
 11
-52.076325
 21
75.50712
  0
POINT
  8
寸法
 62
     0
 10
-52.076325
 20
75.50712
  0
TEXT
  7
TextStyle03
  8
寸法
  6
CONTINUOUS
 62
     0
 10
-66.1875
 20
75.875
  1
700
 40
3.0
 72
     5
 11
-61.3125
 21
75.875
  0
ENDBLK
  0
BLOCK
  2
*DIM_0027
 70
    65
 10
0.0
 20
0.0
  0
LINE
  8
寸法
  6
BYBLOCK
 62
     0
 10
-28.742993
 20
46.399048
 11
-28.742993
 21
75.50712
  0
LINE
  8
寸法
  6
BYBLOCK
 62
     0
 10
-52.076325
 20
75.50712
 11
-28.742993
 21
75.50712
  0
POINT
  8
寸法
 62
     0
 10
-28.742993
 20
75.50712
  0
TEXT
  7
TextStyle03
  8
寸法
  6
CONTINUOUS
 62
     0
 10
-42.8625
 20
75.875
  1
700
 40
3.0
 72
     5
 11
-37.9875
 21
75.875
  0
ENDBLK
  0
BLOCK
  2
*DIM_0028
 70
    65
 10
0.0
 20
0.0
  0
LINE
  8
寸法
  6
BYBLOCK
 62
     0
 10
-5.40966
 20
46.399048
 11
-5.40966
 21
75.50712
  0
LINE
  8
寸法
  6
BYBLOCK
 62
     0
 10
-28.742993
 20
75.50712
 11
-5.40966
 21
75.50712
  0
POINT
  8
寸法
 62
     0
 10
-5.40966
 20
75.50712
  0
TEXT
  7
TextStyle03
  8
寸法
  6
CONTINUOUS
 62
     0
 10
-19.5375
 20
75.875
  1
700
 40
3.0
 72
     5
 11
-14.6625
 21
75.875
  0
ENDBLK
  0
BLOCK
  2
*DIM_0029
 70
    65
 10
0.0
 20
0.0
  0
LINE
  8
寸法
  6
BYBLOCK
 62
     0
 10
17.923675
 20
46.399048
 11
17.923675
 21
75.50712
  0
LINE
  8
寸法
  6
BYBLOCK
 62
     0
 10
-5.40966
 20
75.50712
 11
17.923675
 21
75.50712
  0
POINT
  8
寸法
 62
     0
 10
17.923675
 20
75.50712
  0
TEXT
  7
TextStyle03
  8
寸法
  6
CONTINUOUS
 62
     0
 10
3.8125
 20
75.875
  1
700
 40
3.0
 72
     5
 11
8.6875
 21
75.875
  0
ENDBLK
  0
BLOCK
  2
*DIM_0030
 70
    65
 10
0.0
 20
0.0
  0
LINE
  8
寸法
  6
BYBLOCK
 62
     0
 10
41.257007
 20
46.399048
 11
41.257007
 21
75.50712
  0
LINE
  8
寸法
  6
BYBLOCK
 62
     0
 10
17.923675
 20
75.50712
 11
41.257007
 21
75.50712
  0
POINT
  8
寸法
 62
     0
 10
41.257007
 20
75.50712
  0
TEXT
  7
TextStyle03
  8
寸法
  6
CONTINUOUS
 62
     0
 10
27.1375
 20
75.875
  1
700
 40
3.0
 72
     5
 11
32.0125
 21
75.875
  0
ENDBLK
  0
BLOCK
  2
*DIM_0031
 70
    65
 10
0.0
 20
0.0
  0
LINE
  8
寸法
  6
BYBLOCK
 62
     0
 10
64.59034
 20
46.399048
 11
64.59034
 21
75.50712
  0
LINE
  8
寸法
  6
BYBLOCK
 62
     0
 10
41.257007
 20
75.50712
 11
64.59034
 21
75.50712
  0
POINT
  8
寸法
 62
     0
 10
64.59034
 20
75.50712
  0
TEXT
  7
TextStyle03
  8
寸法
  6
CONTINUOUS
 62
     0
 10
50.4625
 20
75.875
  1
700
 40
3.0
 72
     5
 11
55.3375
 21
75.875
  0
ENDBLK
  0
BLOCK
  2
*DIM_0032
 70
    65
 10
0.0
 20
0.0
  0
LINE
  8
寸法
  6
BYBLOCK
 62
     0
 10
167.110227
 20
-63.20038
 11
173.85621
 21
-63.20038
  0
LINE
  8
寸法
  6
BYBLOCK
 62
     0
 10
167.110227
 20
-92.533713
 11
173.85621
 21
-92.533713
  0
LINE
  8
寸法
  6
BYBLOCK
 62
     0
 10
173.85621
 20
-63.20038
 11
173.85621
 21
-92.533713
  0
POINT
  8
寸法
 62
     0
 10
173.85621
 20
-63.20038
  0
POINT
  8
寸法
 62
     0
 10
173.85621
 20
-92.533713
  0
TEXT
  7
TextStyle03
  8
寸法
  6
CONTINUOUS
 62
     0
 10
173.475
 20
-80.3125
  1
880
 40
3.0
 50
90.0
 72
     5
 11
173.475
 21
-75.4375
  0
ENDBLK
  0
BLOCK
  2
*DIM_0033
 70
    65
 10
0.0
 20
0.0
  0
LINE
  8
寸法
  6
CONTINUOUS
 10
166.110227
 20
-53.503385
 11
134.010227
 21
-53.503385
  0
POINT
  8
寸法
 10
166.110227
 20
-53.503385
  0
POINT
  8
寸法
 10
134.010227
 20
-53.503385
  0
TEXT
  7
TextStyle03
  8
寸法
  6
CONTINUOUS
 10
147.6125
 20
-53.15
  1
963
 40
3.0
 72
     5
 11
152.4875
 21
-53.15
  0
ENDBLK
  0
BLOCK
  2
*DIM_0034
 70
    65
 10
0.0
 20
0.0
  0
LINE
  8
寸法
  6
BYBLOCK
 62
     0
 10
59.257007
 20
-59.624597
 11
87.226657
 21
-59.624597
  0
LINE
  8
寸法
  6
BYBLOCK
 62
     0
 10
87.226657
 20
-71.291265
 11
87.226657
 21
-59.624597
  0
POINT
  8
寸法
 62
     0
 10
87.226657
 20
-71.291265
  0
POINT
  8
寸法
 62
     0
 10
87.226657
 20
-59.624597
  0
TEXT
  7
TextStyle03
  8
寸法
  6
CONTINUOUS
 62
     0
 10
92.15
 20
-74.36875
  1
上昇330以上
 40
3.0
 50
90.0
 72
     5
 11
92.15
 21
-56.18125
  0
ENDBLK
  0
BLOCK
  2
*GRP_0035
 70
    65
 10
0.0
 20
0.0
  0
LINE
  8
ボルト／ビス
  6
CONTINUOUS
 10
160.95269
 20
44.065715
 11
160.486025
 21
44.065715
  0
LINE
  8
ボルト／ビス
  6
CONTINUOUS
 10
160.95269
 20
44.43238
 11
160.886025
 21
44.43238
  0
LINE
  8
ボルト／ビス
  6
CONTINUOUS
 10
160.886025
 20
44.43238
 11
160.886025
 21
43.699048
  0
LINE
  8
ボルト／ビス
  6
CONTINUOUS
 10
160.886025
 20
43.699048
 11
160.95269
 21
43.699048
  0
LINE
  8
ボルト／ビス
  6
CONTINUOUS
 10
160.95269
 20
44.43238
 11
160.95269
 21
43.699048
  0
LINE
  8
ボルト／ビス
  6
CONTINUOUS
 10
160.85269
 20
44.365715
 11
160.886025
 21
44.365715
  0
LINE
  8
ボルト／ビス
  6
CONTINUOUS
 10
160.85269
 20
44.365715
 11
160.85269
 21
43.765715
  0
LINE
  8
ボルト／ビス
  6
CONTINUOUS
 10
160.85269
 20
43.765715
 11
160.886025
 21
43.765715
  0
LINE
  8
ボルト／ビス
  6
CONTINUOUS
 62
    64
 10
160.65269
 20
44.22609
 11
160.664365
 21
44.258165
  0
ARC
  8
ボルト／ビス
  6
CONTINUOUS
 62
    64
 10
160.757668
 20
44.210051
 40
0.104978
 50
180.0
 51
207.278033
  0
ARC
  8
ボルト／ビス
  6
CONTINUOUS
 62
    64
 10
161.055092
 20
44.065714
 40
0.402402
 50
166.165015
 51
193.834998
  0
LINE
  8
ボルト／ビス
  6
CONTINUOUS
 62
    64
 10
160.65269
 20
43.90534
 11
160.664365
 21
43.873265
  0
ARC
  8
ボルト／ビス
  6
CONTINUOUS
 62
    64
 10
160.757668
 20
43.921376
 40
0.104978
 50
152.721967
 51
180.0
  0
LINE
  8
ボルト／ビス
  6
CONTINUOUS
 62
    64
 10
160.65269
 20
44.22609
 11
160.65269
 21
43.90534
  0
LINE
  8
ボルト／ビス
  6
CONTINUOUS
 62
    64
 10
160.664365
 20
43.873265
 11
160.786025
 21
43.873265
  0
LINE
  8
ボルト／ビス
  6
CONTINUOUS
 62
    64
 10
160.664365
 20
43.96949
 11
160.786025
 21
43.96949
  0
LINE
  8
ボルト／ビス
  6
CONTINUOUS
 62
    64
 10
160.664365
 20
44.258165
 11
160.786025
 21
44.258165
  0
LINE
  8
ボルト／ビス
  6
CONTINUOUS
 62
    64
 10
160.664365
 20
44.16194
 11
160.786025
 21
44.16194
  0
LINE
  8
ボルト／ビス
  6
CONTINUOUS
 10
160.786025
 20
44.258165
 11
160.786025
 21
43.873265
  0
LINE
  8
ボルト／ビス
  6
CONTINUOUS
 10
160.786025
 20
44.265715
 11
160.85269
 21
44.265715
  0
LINE
  8
ボルト／ビス
  6
CONTINUOUS
 10
160.786025
 20
44.265715
 11
160.786025
 21
43.865715
  0
LINE
  8
ボルト／ビス
  6
CONTINUOUS
 10
160.786025
 20
43.865715
 11
160.85269
 21
43.865715
  0
ENDBLK
  0
BLOCK
  2
*GRP_0036
 70
    65
 10
0.0
 20
0.0
  0
LINE
  8
ボルト／ビス
  6
CONTINUOUS
 10
160.95269
 20
12.73238
 11
160.486025
 21
12.73238
  0
LINE
  8
ボルト／ビス
  6
CONTINUOUS
 10
160.95269
 20
13.099045
 11
160.886025
 21
13.099045
  0
LINE
  8
ボルト／ビス
  6
CONTINUOUS
 10
160.886025
 20
13.099045
 11
160.886025
 21
12.365712
  0
LINE
  8
ボルト／ビス
  6
CONTINUOUS
 10
160.886025
 20
12.365712
 11
160.95269
 21
12.365712
  0
LINE
  8
ボルト／ビス
  6
CONTINUOUS
 10
160.95269
 20
13.099045
 11
160.95269
 21
12.365712
  0
LINE
  8
ボルト／ビス
  6
CONTINUOUS
 10
160.85269
 20
13.03238
 11
160.886025
 21
13.03238
  0
LINE
  8
ボルト／ビス
  6
CONTINUOUS
 10
160.85269
 20
13.03238
 11
160.85269
 21
12.43238
  0
LINE
  8
ボルト／ビス
  6
CONTINUOUS
 10
160.85269
 20
12.43238
 11
160.886025
 21
12.43238
  0
LINE
  8
ボルト／ビス
  6
CONTINUOUS
 62
    64
 10
160.65269
 20
12.892755
 11
160.664365
 21
12.92483
  0
ARC
  8
ボルト／ビス
  6
CONTINUOUS
 62
    64
 10
160.757668
 20
12.876716
 40
0.104978
 50
180.0
 51
207.278033
  0
ARC
  8
ボルト／ビス
  6
CONTINUOUS
 62
    64
 10
161.055092
 20
12.732379
 40
0.402402
 50
166.165015
 51
193.834998
  0
LINE
  8
ボルト／ビス
  6
CONTINUOUS
 62
    64
 10
160.65269
 20
12.572005
 11
160.664365
 21
12.53993
  0
ARC
  8
ボルト／ビス
  6
CONTINUOUS
 62
    64
 10
160.757668
 20
12.588041
 40
0.104978
 50
152.721967
 51
180.0
  0
LINE
  8
ボルト／ビス
  6
CONTINUOUS
 62
    64
 10
160.65269
 20
12.892755
 11
160.65269
 21
12.572005
  0
LINE
  8
ボルト／ビス
  6
CONTINUOUS
 62
    64
 10
160.664365
 20
12.53993
 11
160.786025
 21
12.53993
  0
LINE
  8
ボルト／ビス
  6
CONTINUOUS
 62
    64
 10
160.664365
 20
12.636155
 11
160.786025
 21
12.636155
  0
LINE
  8
ボルト／ビス
  6
CONTINUOUS
 62
    64
 10
160.664365
 20
12.92483
 11
160.786025
 21
12.92483
  0
LINE
  8
ボルト／ビス
  6
CONTINUOUS
 62
    64
 10
160.664365
 20
12.828605
 11
160.786025
 21
12.828605
  0
LINE
  8
ボルト／ビス
  6
CONTINUOUS
 10
160.786025
 20
12.92483
 11
160.786025
 21
12.53993
  0
LINE
  8
ボルト／ビス
  6
CONTINUOUS
 10
160.786025
 20
12.93238
 11
160.85269
 21
12.93238
  0
LINE
  8
ボルト／ビス
  6
CONTINUOUS
 10
160.786025
 20
12.93238
 11
160.786025
 21
12.53238
  0
LINE
  8
ボルト／ビス
  6
CONTINUOUS
 10
160.786025
 20
12.53238
 11
160.85269
 21
12.53238
  0
ENDBLK
  0
BLOCK
  2
*GRP_0037
 70
    65
 10
0.0
 20
0.0
  0
LINE
  8
ボルト／ビス
  6
CONTINUOUS
 10
71.923675
 20
-79.624597
 11
71.923675
 21
-79.157932
  0
LINE
  8
ボルト／ビス
  6
CONTINUOUS
 10
71.55701
 20
-79.624597
 11
71.55701
 21
-79.557932
  0
LINE
  8
ボルト／ビス
  6
CONTINUOUS
 10
71.55701
 20
-79.557932
 11
72.290343
 21
-79.557932
  0
LINE
  8
ボルト／ビス
  6
CONTINUOUS
 10
72.290343
 20
-79.557932
 11
72.290343
 21
-79.624597
  0
LINE
  8
ボルト／ビス
  6
CONTINUOUS
 10
71.55701
 20
-79.624597
 11
72.290343
 21
-79.624597
  0
LINE
  8
ボルト／ビス
  6
CONTINUOUS
 10
71.623675
 20
-79.524597
 11
71.623675
 21
-79.557932
  0
LINE
  8
ボルト／ビス
  6
CONTINUOUS
 10
71.623675
 20
-79.524597
 11
72.223675
 21
-79.524597
  0
LINE
  8
ボルト／ビス
  6
CONTINUOUS
 10
72.223675
 20
-79.524597
 11
72.223675
 21
-79.557932
  0
LINE
  8
ボルト／ビス
  6
CONTINUOUS
 62
    64
 10
71.7633
 20
-79.324597
 11
71.731225
 21
-79.336272
  0
ARC
  8
ボルト／ビス
  6
CONTINUOUS
 62
    64
 10
71.779338
 20
-79.429575
 40
0.104978
 50
62.721967
 51
90.0
  0
ARC
  8
ボルト／ビス
  6
CONTINUOUS
 62
    64
 10
71.923676
 20
-79.726999
 40
0.402402
 50
76.165002
 51
103.834985
  0
LINE
  8
ボルト／ビス
  6
CONTINUOUS
 62
    64
 10
72.08405
 20
-79.324597
 11
72.116125
 21
-79.336272
  0
ARC
  8
ボルト／ビス
  6
CONTINUOUS
 62
    64
 10
72.068013
 20
-79.429575
 40
0.104978
 50
90.0
 51
117.278033
  0
LINE
  8
ボルト／ビス
  6
CONTINUOUS
 62
    64
 10
71.7633
 20
-79.324597
 11
72.08405
 21
-79.324597
  0
LINE
  8
ボルト／ビス
  6
CONTINUOUS
 62
    64
 10
72.116125
 20
-79.336272
 11
72.116125
 21
-79.457932
  0
LINE
  8
ボルト／ビス
  6
CONTINUOUS
 62
    64
 10
72.0199
 20
-79.336272
 11
72.0199
 21
-79.457932
  0
LINE
  8
ボルト／ビス
  6
CONTINUOUS
 62
    64
 10
71.731225
 20
-79.336272
 11
71.731225
 21
-79.457932
  0
LINE
  8
ボルト／ビス
  6
CONTINUOUS
 62
    64
 10
71.82745
 20
-79.336272
 11
71.82745
 21
-79.457932
  0
LINE
  8
ボルト／ビス
  6
CONTINUOUS
 10
71.731225
 20
-79.457932
 11
72.116125
 21
-79.457932
  0
LINE
  8
ボルト／ビス
  6
CONTINUOUS
 10
71.723675
 20
-79.457932
 11
71.723675
 21
-79.524597
  0
LINE
  8
ボルト／ビス
  6
CONTINUOUS
 10
71.723675
 20
-79.457932
 11
72.123675
 21
-79.457932
  0
LINE
  8
ボルト／ビス
  6
CONTINUOUS
 10
72.123675
 20
-79.457932
 11
72.123675
 21
-79.524597
  0
ENDBLK
  0
BLOCK
  2
*GRP_0038
 70
    65
 10
0.0
 20
0.0
  0
LINE
  8
ボルト／ビス
  6
DOT
 10
71.923675
 20
-67.95793
 11
71.923675
 21
-67.491265
  0
LINE
  8
ボルト／ビス
  6
DOT
 10
71.55701
 20
-67.95793
 11
71.55701
 21
-67.891265
  0
LINE
  8
ボルト／ビス
  6
DOT
 10
71.55701
 20
-67.891265
 11
72.290343
 21
-67.891265
  0
LINE
  8
ボルト／ビス
  6
DOT
 10
72.290343
 20
-67.891265
 11
72.290343
 21
-67.95793
  0
LINE
  8
ボルト／ビス
  6
DOT
 10
71.55701
 20
-67.95793
 11
72.290343
 21
-67.95793
  0
LINE
  8
ボルト／ビス
  6
DOT
 10
71.623675
 20
-67.85793
 11
71.623675
 21
-67.891265
  0
LINE
  8
ボルト／ビス
  6
DOT
 10
71.623675
 20
-67.85793
 11
72.223675
 21
-67.85793
  0
LINE
  8
ボルト／ビス
  6
DOT
 10
72.223675
 20
-67.85793
 11
72.223675
 21
-67.891265
  0
LINE
  8
ボルト／ビス
  6
DOT
 62
    64
 10
71.7633
 20
-67.65793
 11
71.731225
 21
-67.669605
  0
ARC
  8
ボルト／ビス
  6
DOT
 62
    64
 10
71.779338
 20
-67.762907
 40
0.104978
 50
62.721967
 51
90.0
  0
ARC
  8
ボルト／ビス
  6
DOT
 62
    64
 10
71.923676
 20
-68.060331
 40
0.402402
 50
76.165002
 51
103.834985
  0
LINE
  8
ボルト／ビス
  6
DOT
 62
    64
 10
72.08405
 20
-67.65793
 11
72.116125
 21
-67.669605
  0
ARC
  8
ボルト／ビス
  6
DOT
 62
    64
 10
72.068013
 20
-67.762907
 40
0.104978
 50
90.0
 51
117.278033
  0
LINE
  8
ボルト／ビス
  6
DOT
 62
    64
 10
71.7633
 20
-67.65793
 11
72.08405
 21
-67.65793
  0
LINE
  8
ボルト／ビス
  6
DOT
 62
    64
 10
72.116125
 20
-67.669605
 11
72.116125
 21
-67.791265
  0
LINE
  8
ボルト／ビス
  6
DOT
 62
    64
 10
72.0199
 20
-67.669605
 11
72.0199
 21
-67.791265
  0
LINE
  8
ボルト／ビス
  6
DOT
 62
    64
 10
71.731225
 20
-67.669605
 11
71.731225
 21
-67.791265
  0
LINE
  8
ボルト／ビス
  6
DOT
 62
    64
 10
71.82745
 20
-67.669605
 11
71.82745
 21
-67.791265
  0
LINE
  8
ボルト／ビス
  6
DOT
 10
71.731225
 20
-67.791265
 11
72.116125
 21
-67.791265
  0
LINE
  8
ボルト／ビス
  6
DOT
 10
71.723675
 20
-67.791265
 11
71.723675
 21
-67.85793
  0
LINE
  8
ボルト／ビス
  6
DOT
 10
71.723675
 20
-67.791265
 11
72.123675
 21
-67.791265
  0
LINE
  8
ボルト／ビス
  6
DOT
 10
72.123675
 20
-67.791265
 11
72.123675
 21
-67.85793
  0
ENDBLK
  0
BLOCK
  2
*GRP_0039
 70
    65
 10
0.0
 20
0.0
  0
LINE
  8
ボルト／ビス
  6
CONTINUOUS
 10
-129.40966
 20
-79.624597
 11
-129.40966
 21
-79.157932
  0
LINE
  8
ボルト／ビス
  6
CONTINUOUS
 10
-129.776325
 20
-79.624597
 11
-129.776325
 21
-79.557932
  0
LINE
  8
ボルト／ビス
  6
CONTINUOUS
 10
-129.776325
 20
-79.557932
 11
-129.042993
 21
-79.557932
  0
LINE
  8
ボルト／ビス
  6
CONTINUOUS
 10
-129.042993
 20
-79.557932
 11
-129.042993
 21
-79.624597
  0
LINE
  8
ボルト／ビス
  6
CONTINUOUS
 10
-129.776325
 20
-79.624597
 11
-129.042993
 21
-79.624597
  0
LINE
  8
ボルト／ビス
  6
CONTINUOUS
 10
-129.70966
 20
-79.524597
 11
-129.70966
 21
-79.557932
  0
LINE
  8
ボルト／ビス
  6
CONTINUOUS
 10
-129.70966
 20
-79.524597
 11
-129.10966
 21
-79.524597
  0
LINE
  8
ボルト／ビス
  6
CONTINUOUS
 10
-129.10966
 20
-79.524597
 11
-129.10966
 21
-79.557932
  0
LINE
  8
ボルト／ビス
  6
CONTINUOUS
 62
    64
 10
-129.570035
 20
-79.324597
 11
-129.60211
 21
-79.336272
  0
ARC
  8
ボルト／ビス
  6
CONTINUOUS
 62
    64
 10
-129.553997
 20
-79.429575
 40
0.104978
 50
62.721967
 51
90.0
  0
ARC
  8
ボルト／ビス
  6
CONTINUOUS
 62
    64
 10
-129.409659
 20
-79.726999
 40
0.402402
 50
76.165002
 51
103.834985
  0
LINE
  8
ボルト／ビス
  6
CONTINUOUS
 62
    64
 10
-129.249285
 20
-79.324597
 11
-129.21721
 21
-79.336272
  0
ARC
  8
ボルト／ビス
  6
CONTINUOUS
 62
    64
 10
-129.265322
 20
-79.429575
 40
0.104978
 50
90.0
 51
117.278033
  0
LINE
  8
ボルト／ビス
  6
CONTINUOUS
 62
    64
 10
-129.570035
 20
-79.324597
 11
-129.249285
 21
-79.324597
  0
LINE
  8
ボルト／ビス
  6
CONTINUOUS
 62
    64
 10
-129.21721
 20
-79.336272
 11
-129.21721
 21
-79.457932
  0
LINE
  8
ボルト／ビス
  6
CONTINUOUS
 62
    64
 10
-129.313435
 20
-79.336272
 11
-129.313435
 21
-79.457932
  0
LINE
  8
ボルト／ビス
  6
CONTINUOUS
 62
    64
 10
-129.60211
 20
-79.336272
 11
-129.60211
 21
-79.457932
  0
LINE
  8
ボルト／ビス
  6
CONTINUOUS
 62
    64
 10
-129.505885
 20
-79.336272
 11
-129.505885
 21
-79.457932
  0
LINE
  8
ボルト／ビス
  6
CONTINUOUS
 10
-129.60211
 20
-79.457932
 11
-129.21721
 21
-79.457932
  0
LINE
  8
ボルト／ビス
  6
CONTINUOUS
 10
-129.60966
 20
-79.457932
 11
-129.60966
 21
-79.524597
  0
LINE
  8
ボルト／ビス
  6
CONTINUOUS
 10
-129.60966
 20
-79.457932
 11
-129.20966
 21
-79.457932
  0
LINE
  8
ボルト／ビス
  6
CONTINUOUS
 10
-129.20966
 20
-79.457932
 11
-129.20966
 21
-79.524597
  0
ENDBLK
  0
BLOCK
  2
*GRP_0040
 70
    65
 10
0.0
 20
0.0
  0
LINE
  8
ボルト／ビス
  6
DOT
 10
-129.40966
 20
-67.95793
 11
-129.40966
 21
-67.491265
  0
LINE
  8
ボルト／ビス
  6
DOT
 10
-129.776325
 20
-67.95793
 11
-129.776325
 21
-67.891265
  0
LINE
  8
ボルト／ビス
  6
DOT
 10
-129.776325
 20
-67.891265
 11
-129.042993
 21
-67.891265
  0
LINE
  8
ボルト／ビス
  6
DOT
 10
-129.042993
 20
-67.891265
 11
-129.042993
 21
-67.95793
  0
LINE
  8
ボルト／ビス
  6
DOT
 10
-129.776325
 20
-67.95793
 11
-129.042993
 21
-67.95793
  0
LINE
  8
ボルト／ビス
  6
DOT
 10
-129.70966
 20
-67.85793
 11
-129.70966
 21
-67.891265
  0
LINE
  8
ボルト／ビス
  6
DOT
 10
-129.70966
 20
-67.85793
 11
-129.10966
 21
-67.85793
  0
LINE
  8
ボルト／ビス
  6
DOT
 10
-129.10966
 20
-67.85793
 11
-129.10966
 21
-67.891265
  0
LINE
  8
ボルト／ビス
  6
DOT
 62
    64
 10
-129.570035
 20
-67.65793
 11
-129.60211
 21
-67.669605
  0
ARC
  8
ボルト／ビス
  6
DOT
 62
    64
 10
-129.553997
 20
-67.762907
 40
0.104978
 50
62.721967
 51
90.0
  0
ARC
  8
ボルト／ビス
  6
DOT
 62
    64
 10
-129.409659
 20
-68.060331
 40
0.402402
 50
76.165002
 51
103.834985
  0
LINE
  8
ボルト／ビス
  6
DOT
 62
    64
 10
-129.249285
 20
-67.65793
 11
-129.21721
 21
-67.669605
  0
ARC
  8
ボルト／ビス
  6
DOT
 62
    64
 10
-129.265322
 20
-67.762907
 40
0.104978
 50
90.0
 51
117.278033
  0
LINE
  8
ボルト／ビス
  6
DOT
 62
    64
 10
-129.570035
 20
-67.65793
 11
-129.249285
 21
-67.65793
  0
LINE
  8
ボルト／ビス
  6
DOT
 62
    64
 10
-129.21721
 20
-67.669605
 11
-129.21721
 21
-67.791265
  0
LINE
  8
ボルト／ビス
  6
DOT
 62
    64
 10
-129.313435
 20
-67.669605
 11
-129.313435
 21
-67.791265
  0
LINE
  8
ボルト／ビス
  6
DOT
 62
    64
 10
-129.60211
 20
-67.669605
 11
-129.60211
 21
-67.791265
  0
LINE
  8
ボルト／ビス
  6
DOT
 62
    64
 10
-129.505885
 20
-67.669605
 11
-129.505885
 21
-67.791265
  0
LINE
  8
ボルト／ビス
  6
DOT
 10
-129.60211
 20
-67.791265
 11
-129.21721
 21
-67.791265
  0
LINE
  8
ボルト／ビス
  6
DOT
 10
-129.60966
 20
-67.791265
 11
-129.60966
 21
-67.85793
  0
LINE
  8
ボルト／ビス
  6
DOT
 10
-129.60966
 20
-67.791265
 11
-129.20966
 21
-67.791265
  0
LINE
  8
ボルト／ビス
  6
DOT
 10
-129.20966
 20
-67.791265
 11
-129.20966
 21
-67.85793
  0
ENDBLK
  0
ENDSEC
  0
SECTION
  2
ENTITIES
  0
POLYLINE
  8
通り芯
  6
CONTINUOUS
 66
     1
 70
     1
  0
VERTEX
  8
通り芯
 10
-210.0
 20
-148.5
  0
VERTEX
  8
通り芯
 10
210.0
 20
-148.5
  0
VERTEX
  8
通り芯
 10
210.0
 20
148.5
  0
VERTEX
  8
通り芯
 10
-210.0
 20
148.5
  0
SEQEND
  0
INSERT
  2
*GRP_0001
  8
型材断面
  6
CONTINUOUS
 10
0.0
 20
0.0
  0
LINE
  8
型材断面
  6
DASHDOT
 10
-128.742993
 20
13.399048
 11
168.93377
 21
13.399048
  0
POLYLINE
  8
型材断面
  6
CONTINUOUS
 66
     1
 70
     1
  0
VERTEX
  8
型材断面
 10
-19.342983
 20
3.623125
  0
VERTEX
  8
型材断面
 10
-38.114912
 20
3.623125
  0
VERTEX
  8
型材断面
 10
-38.114912
 20
-1.113717
  0
VERTEX
  8
型材断面
 10
-19.342983
 20
-1.113717
  0
SEQEND
  0
LINE
  8
型材断面
  6
DASHDOT
 10
-128.742993
 20
28.399048
 11
168.93377
 21
28.399048
  0
LINE
  8
型材断面
  6
DASHDOT
 10
-128.742993
 20
43.399048
 11
168.93377
 21
43.399048
  0
LINE
  8
型材断面
  6
DASHDOT
 10
-128.742993
 20
-87.251428
 11
-128.742993
 21
43.399048
  0
LINE
  8
型材断面
  6
DASHDOT
 10
-28.742993
 20
-87.251428
 11
-28.742993
 21
43.399048
  0
LINE
  8
型材断面
  6
DOT
 10
-29.992993
 20
13.399048
 11
-29.992993
 21
43.399048
  0
LINE
  8
型材断面
  6
DOT
 10
-27.492993
 20
13.399048
 11
-27.492993
 21
43.399048
  0
LINE
  8
型材断面
  6
DASHDOT
 10
71.257007
 20
-87.251428
 11
71.257007
 21
43.399048
  0
POLYLINE
  8
型材断面
  6
CONTINUOUS
 66
     1
 70
     1
  0
VERTEX
  8
型材断面
 10
-19.342983
 20
53.17497
  0
VERTEX
  8
型材断面
 10
-38.114912
 20
53.17497
  0
VERTEX
  8
型材断面
 10
-38.114912
 20
57.911813
  0
VERTEX
  8
型材断面
 10
-19.342983
 20
57.911813
  0
SEQEND
  0
LINE
  8
型材断面
  6
CONTINUOUS
 10
-112.076325
 20
46.029177
 11
-113.571955
 21
48.619685
  0
LINE
  8
型材断面
  6
CONTINUOUS
 10
-112.076325
 20
46.029177
 11
-110.580695
 21
48.619685
  0
LINE
  8
型材断面
  6
CONTINUOUS
 10
-110.580695
 20
48.619685
 11
-113.571955
 21
48.619685
  0
LINE
  8
型材断面
  6
CONTINUOUS
 10
-169.5952
 20
81.37652
 11
-168.999145
 21
78.786012
  0
LINE
  8
型材断面
  6
CONTINUOUS
 10
-169.5952
 20
81.37652
 11
-170.191258
 21
78.786012
  0
LINE
  8
型材断面
  6
CONTINUOUS
 10
-170.191258
 20
78.786012
 11
-168.999145
 21
78.786012
  0
LINE
  8
型材断面
  6
CONTINUOUS
 10
-175.617788
 20
75.50712
 11
-129.37601
 21
75.50712
  0
LINE
  8
型材断面
  6
CONTINUOUS
 10
-169.5952
 20
87.906395
 11
-171.09083
 21
85.315887
  0
LINE
  8
型材断面
  6
CONTINUOUS
 10
-169.5952
 20
87.906395
 11
-168.09957
 21
85.315887
  0
LINE
  8
型材断面
  6
CONTINUOUS
 10
-168.09957
 20
85.315887
 11
-171.09083
 21
85.315887
  0
LINE
  8
型材断面
  6
CONTINUOUS
 10
-175.617788
 20
84.377292
 11
-129.37601
 21
84.377292
  0
LINE
  8
型材断面
  6
CONTINUOUS
 10
-175.617788
 20
69.719088
 11
-129.37601
 21
69.719088
  0
LINE
  8
型材断面
  6
CONTINUOUS
 10
-131.373123
 20
28.399048
 11
-133.96363
 21
29.894678
  0
LINE
  8
型材断面
  6
CONTINUOUS
 10
-131.373123
 20
28.399048
 11
-133.96363
 21
26.903418
  0
LINE
  8
型材断面
  6
CONTINUOUS
 10
-133.96363
 20
26.903418
 11
-133.96363
 21
29.894678
  0
LINE
  8
型材断面
  6
CONTINUOUS
 10
-112.076325
 20
10.768917
 11
-113.571955
 21
8.17841
  0
LINE
  8
型材断面
  6
CONTINUOUS
 10
-112.076325
 20
10.768917
 11
-110.580695
 21
8.17841
  0
LINE
  8
型材断面
  6
CONTINUOUS
 10
-110.580695
 20
8.17841
 11
-113.571955
 21
8.17841
  0
LINE
  8
型材断面
  6
CONTINUOUS
 10
54.59034
 20
46.029177
 11
56.08597
 21
48.619685
  0
LINE
  8
型材断面
  6
CONTINUOUS
 10
54.59034
 20
46.029177
 11
53.09471
 21
48.619685
  0
LINE
  8
型材断面
  6
CONTINUOUS
 10
53.09471
 20
48.619685
 11
56.08597
 21
48.619685
  0
LINE
  8
型材断面
  6
CONTINUOUS
 10
54.59034
 20
10.768917
 11
56.08597
 21
8.17841
  0
LINE
  8
型材断面
  6
CONTINUOUS
 10
54.59034
 20
10.768917
 11
53.09471
 21
8.17841
  0
LINE
  8
型材断面
  6
CONTINUOUS
 10
53.09471
 20
8.17841
 11
56.08597
 21
8.17841
  0
LINE
  8
型材断面
  6
CONTINUOUS
 10
-28.742993
 20
46.029175
 11
-27.247362
 21
48.619683
  0
LINE
  8
型材断面
  6
CONTINUOUS
 10
-28.742993
 20
46.029175
 11
-30.238623
 21
48.619683
  0
LINE
  8
型材断面
  6
CONTINUOUS
 10
-30.238623
 20
48.619683
 11
-27.247362
 21
48.619683
  0
LINE
  8
型材断面
  6
CONTINUOUS
 10
-28.742993
 20
10.768915
 11
-27.247362
 21
8.178407
  0
LINE
  8
型材断面
  6
CONTINUOUS
 10
-28.742993
 20
10.768915
 11
-30.238623
 21
8.178407
  0
LINE
  8
型材断面
  6
CONTINUOUS
 10
-30.238623
 20
8.178407
 11
-27.247362
 21
8.178407
  0
LINE
  8
型材断面
  6
CONTINUOUS
 10
73.887138
 20
28.399048
 11
76.477645
 21
29.894678
  0
LINE
  8
型材断面
  6
CONTINUOUS
 10
73.887138
 20
28.399048
 11
76.477645
 21
26.903418
  0
LINE
  8
型材断面
  6
CONTINUOUS
 10
76.477645
 20
26.903418
 11
76.477645
 21
29.894678
  0
LINE
  8
型材断面
  6
DASHDOT
 10
161.985973
 20
13.399045
 11
168.006037
 21
13.399045
  0
LINE
  8
型材断面
  6
CONTINUOUS
 62
    47
 10
164.269305
 20
12.00238
 11
164.269305
 21
12.78238
  0
LINE
  8
型材断面
  6
CONTINUOUS
 10
162.435973
 20
11.90238
 11
161.985973
 21
11.90238
  0
LINE
  8
型材断面
  6
CONTINUOUS
 62
    47
 10
165.108665
 20
11.119045
 11
164.77533
 21
11.119045
  0
LINE
  8
型材断面
  6
CONTINUOUS
 62
    47
 10
164.77533
 20
11.119045
 11
164.67533
 21
11.90238
  0
LINE
  8
型材断面
  6
CONTINUOUS
 62
    47
 10
164.269305
 20
11.90238
 11
164.67533
 21
11.90238
  0
LINE
  8
型材断面
  6
CONTINUOUS
 62
    47
 10
164.269305
 20
11.43238
 11
162.435973
 21
11.43238
  0
LINE
  8
型材断面
  6
CONTINUOUS
 62
    47
 10
168.235973
 20
11.999045
 11
167.735973
 21
11.999045
  0
LINE
  8
型材断面
  6
CONTINUOUS
 62
    47
 10
167.735973
 20
11.43238
 11
165.108665
 21
11.43238
  0
LINE
  8
型材断面
  6
CONTINUOUS
 62
    47
 10
167.735973
 20
11.43238
 11
167.735973
 21
28.399048
  0
LINE
  8
型材断面
  6
CONTINUOUS
 62
    47
 10
168.235973
 20
11.999045
 11
168.235973
 21
28.399048
  0
LINE
  8
型材断面
  6
CONTINUOUS
 62
    47
 10
164.269305
 20
11.43238
 11
164.269305
 21
28.399048
  0
LINE
  8
型材断面
  6
CONTINUOUS
 10
164.67533
 20
11.90238
 11
164.67533
 21
28.399048
  0
LINE
  8
型材断面
  6
CONTINUOUS
 10
164.77533
 20
11.119045
 11
164.77533
 21
28.399048
  0
LINE
  8
型材断面
  6
CONTINUOUS
 62
    47
 10
165.108665
 20
11.119045
 11
165.108665
 21
28.399048
  0
LINE
  8
型材断面
  6
CONTINUOUS
 10
162.435973
 20
11.43238
 11
162.435973
 21
28.399048
  0
LINE
  8
型材断面
  6
DASHDOT
 10
161.985973
 20
43.39905
 11
168.006037
 21
43.39905
  0
LINE
  8
型材断面
  6
CONTINUOUS
 62
    47
 10
164.269305
 20
44.795715
 11
164.269305
 21
44.015715
  0
LINE
  8
型材断面
  6
CONTINUOUS
 10
162.435973
 20
44.895715
 11
161.985973
 21
44.895715
  0
LINE
  8
型材断面
  6
CONTINUOUS
 62
    47
 10
165.108665
 20
45.67905
 11
164.77533
 21
45.67905
  0
LINE
  8
型材断面
  6
CONTINUOUS
 62
    47
 10
164.77533
 20
45.67905
 11
164.67533
 21
44.895715
  0
LINE
  8
型材断面
  6
CONTINUOUS
 62
    47
 10
164.269305
 20
44.895715
 11
164.67533
 21
44.895715
  0
LINE
  8
型材断面
  6
CONTINUOUS
 62
    47
 10
164.269305
 20
45.365715
 11
162.435973
 21
45.365715
  0
LINE
  8
型材断面
  6
CONTINUOUS
 62
    47
 10
168.235973
 20
44.79905
 11
167.735973
 21
44.79905
  0
LINE
  8
型材断面
  6
CONTINUOUS
 62
    47
 10
167.735973
 20
45.365715
 11
165.108665
 21
45.365715
  0
LINE
  8
型材断面
  6
CONTINUOUS
 62
    47
 10
167.735973
 20
45.365715
 11
167.735973
 21
28.399048
  0
LINE
  8
型材断面
  6
CONTINUOUS
 62
    47
 10
168.235973
 20
44.79905
 11
168.235973
 21
28.399048
  0
LINE
  8
型材断面
  6
CONTINUOUS
 62
    47
 10
164.269305
 20
45.365715
 11
164.269305
 21
28.399048
  0
LINE
  8
型材断面
  6
CONTINUOUS
 10
164.67533
 20
44.895715
 11
164.67533
 21
28.399048
  0
LINE
  8
型材断面
  6
CONTINUOUS
 10
164.77533
 20
45.67905
 11
164.77533
 21
28.399048
  0
LINE
  8
型材断面
  6
CONTINUOUS
 62
    47
 10
165.108665
 20
45.67905
 11
165.108665
 21
28.399048
  0
LINE
  8
型材断面
  6
CONTINUOUS
 10
162.435973
 20
45.365715
 11
162.435973
 21
28.399048
  0
LINE
  8
型材断面
  6
DASHDOT
 10
71.25701
 20
-80.657882
 11
71.25701
 21
-86.677948
  0
LINE
  8
型材断面
  6
CONTINUOUS
 62
    47
 10
72.653675
 20
-82.941215
 11
71.873675
 21
-82.941215
  0
LINE
  8
型材断面
  6
CONTINUOUS
 10
72.753675
 20
-81.107882
 11
72.753675
 21
-80.657882
  0
LINE
  8
型材断面
  6
CONTINUOUS
 62
    47
 10
73.53701
 20
-83.780575
 11
73.53701
 21
-83.44724
  0
LINE
  8
型材断面
  6
CONTINUOUS
 62
    47
 10
73.53701
 20
-83.44724
 11
72.753675
 21
-83.34724
  0
LINE
  8
型材断面
  6
CONTINUOUS
 62
    47
 10
72.753675
 20
-82.941215
 11
72.753675
 21
-83.34724
  0
LINE
  8
型材断面
  6
CONTINUOUS
 62
    47
 10
73.223675
 20
-82.941215
 11
73.223675
 21
-81.107882
  0
LINE
  8
型材断面
  6
CONTINUOUS
 62
    47
 10
72.65701
 20
-86.907882
 11
72.65701
 21
-86.407882
  0
LINE
  8
型材断面
  6
CONTINUOUS
 62
    47
 10
73.223675
 20
-86.407882
 11
73.223675
 21
-83.780575
  0
LINE
  8
型材断面
  6
CONTINUOUS
 10
73.53701
 20
28.399048
 11
73.53701
 21
11.119045
  0
LINE
  8
型材断面
  6
CONTINUOUS
 10
73.323675
 20
11.33238
 11
73.53701
 21
11.119045
  0
LINE
  8
型材断面
  6
CONTINUOUS
 10
73.223675
 20
-81.107882
 11
-28.742993
 21
-81.107882
  0
LINE
  8
型材断面
  6
CONTINUOUS
 62
    47
 10
73.223675
 20
-82.941215
 11
-28.742993
 21
-82.941215
  0
LINE
  8
型材断面
  6
CONTINUOUS
 10
73.53701
 20
-83.44724
 11
-28.742993
 21
-83.44724
  0
LINE
  8
型材断面
  6
CONTINUOUS
 10
72.753675
 20
-83.34724
 11
-28.742993
 21
-83.34724
  0
LINE
  8
型材断面
  6
CONTINUOUS
 62
    47
 10
73.53701
 20
-83.780575
 11
-28.742993
 21
-83.780575
  0
LINE
  8
型材断面
  6
CONTINUOUS
 62
    47
 10
73.223675
 20
-86.407882
 11
-28.742993
 21
-86.407882
  0
LINE
  8
型材断面
  6
CONTINUOUS
 62
    47
 10
72.65701
 20
-86.907882
 11
-28.742993
 21
-86.907882
  0
LINE
  8
型材断面
  6
CONTINUOUS
 10
73.53701
 20
11.119045
 11
-28.742993
 21
11.119075
  0
LINE
  8
型材断面
  6
CONTINUOUS
 10
73.53701
 20
28.399048
 11
73.53701
 21
45.67905
  0
LINE
  8
型材断面
  6
CONTINUOUS
 10
73.323675
 20
45.465715
 11
73.53701
 21
45.67905
  0
LINE
  8
型材断面
  6
CONTINUOUS
 10
73.53701
 20
45.67905
 11
-28.742993
 21
45.67902
  0
LINE
  8
型材断面
  6
CONTINUOUS
 10
-131.022995
 20
28.399048
 11
-131.022995
 21
45.67905
  0
LINE
  8
型材断面
  6
CONTINUOUS
 10
-130.80966
 20
45.465715
 11
-131.022995
 21
45.67905
  0
LINE
  8
型材断面
  6
CONTINUOUS
 10
-131.022995
 20
45.67905
 11
-28.742993
 21
45.67902
  0
LINE
  8
型材断面
  6
CONTINUOUS
 10
-131.022995
 20
28.399048
 11
-131.022995
 21
11.119045
  0
LINE
  8
型材断面
  6
CONTINUOUS
 10
-130.80966
 20
11.33238
 11
-131.022995
 21
11.119045
  0
LINE
  8
型材断面
  6
CONTINUOUS
 10
-131.022995
 20
11.119045
 11
-28.742993
 21
11.119075
  0
LINE
  8
型材断面
  6
DASHDOT
 10
-128.742995
 20
-80.657882
 11
-128.742995
 21
-86.677948
  0
LINE
  8
型材断面
  6
CONTINUOUS
 62
    47
 10
-130.13966
 20
-82.941215
 11
-129.35966
 21
-82.941215
  0
LINE
  8
型材断面
  6
CONTINUOUS
 10
-130.23966
 20
-81.107882
 11
-130.23966
 21
-80.657882
  0
LINE
  8
型材断面
  6
CONTINUOUS
 62
    47
 10
-131.022995
 20
-83.780575
 11
-131.022995
 21
-83.44724
  0
LINE
  8
型材断面
  6
CONTINUOUS
 62
    47
 10
-131.022995
 20
-83.44724
 11
-130.23966
 21
-83.34724
  0
LINE
  8
型材断面
  6
CONTINUOUS
 62
    47
 10
-130.23966
 20
-82.941215
 11
-130.23966
 21
-83.34724
  0
LINE
  8
型材断面
  6
CONTINUOUS
 62
    47
 10
-130.70966
 20
-82.941215
 11
-130.70966
 21
-81.107882
  0
LINE
  8
型材断面
  6
CONTINUOUS
 62
    47
 10
-130.142995
 20
-86.907882
 11
-130.142995
 21
-86.407882
  0
LINE
  8
型材断面
  6
CONTINUOUS
 62
    47
 10
-130.70966
 20
-86.407882
 11
-130.70966
 21
-83.780575
  0
LINE
  8
型材断面
  6
CONTINUOUS
 10
-130.70966
 20
-81.107882
 11
-28.742993
 21
-81.107882
  0
LINE
  8
型材断面
  6
CONTINUOUS
 62
    47
 10
-130.70966
 20
-82.941215
 11
-28.742993
 21
-82.941215
  0
LINE
  8
型材断面
  6
CONTINUOUS
 10
-131.022995
 20
-83.44724
 11
-28.742993
 21
-83.44724
  0
LINE
  8
型材断面
  6
CONTINUOUS
 10
-130.23966
 20
-83.34724
 11
-28.742993
 21
-83.34724
  0
LINE
  8
型材断面
  6
CONTINUOUS
 62
    47
 10
-131.022995
 20
-83.780575
 11
-28.742993
 21
-83.780575
  0
LINE
  8
型材断面
  6
CONTINUOUS
 62
    47
 10
-130.70966
 20
-86.407882
 11
-28.742993
 21
-86.407882
  0
LINE
  8
型材断面
  6
CONTINUOUS
 62
    47
 10
-130.142995
 20
-86.907882
 11
-28.742993
 21
-86.907882
  0
LINE
  8
型材断面
  6
DOT
 62
    47
 10
72.653675
 20
-71.274547
 11
71.873675
 21
-71.274547
  0
LINE
  8
型材断面
  6
DOT
 10
72.753675
 20
-69.441215
 11
72.753675
 21
-68.991215
  0
LINE
  8
型材断面
  6
DOT
 62
    47
 10
73.53701
 20
-72.113908
 11
73.53701
 21
-71.780573
  0
LINE
  8
型材断面
  6
DOT
 62
    47
 10
73.53701
 20
-71.780573
 11
72.753675
 21
-71.680573
  0
LINE
  8
型材断面
  6
DOT
 62
    47
 10
72.753675
 20
-71.274547
 11
72.753675
 21
-71.680573
  0
LINE
  8
型材断面
  6
DOT
 62
    47
 10
73.223675
 20
-71.274547
 11
73.223675
 21
-69.441215
  0
LINE
  8
型材断面
  6
DOT
 10
73.223675
 20
-69.441215
 11
-28.742993
 21
-69.441215
  0
LINE
  8
型材断面
  6
DOT
 62
    47
 10
73.223675
 20
-71.274547
 11
-28.742993
 21
-71.274547
  0
LINE
  8
型材断面
  6
DOT
 10
73.53701
 20
-71.780573
 11
-28.742993
 21
-71.780573
  0
LINE
  8
型材断面
  6
DOT
 10
72.753675
 20
-71.680573
 11
-28.742993
 21
-71.680573
  0
LINE
  8
型材断面
  6
DOT
 62
    47
 10
73.53701
 20
-72.113908
 11
-28.742993
 21
-72.113908
  0
LINE
  8
型材断面
  6
DOT
 62
    47
 10
-130.13966
 20
-71.274547
 11
-129.35966
 21
-71.274547
  0
LINE
  8
型材断面
  6
DOT
 10
-130.23966
 20
-69.441215
 11
-130.23966
 21
-68.991215
  0
LINE
  8
型材断面
  6
DOT
 62
    47
 10
-131.022995
 20
-72.113908
 11
-131.022995
 21
-71.780573
  0
LINE
  8
型材断面
  6
DOT
 62
    47
 10
-131.022995
 20
-71.780573
 11
-130.23966
 21
-71.680573
  0
LINE
  8
型材断面
  6
DOT
 62
    47
 10
-130.23966
 20
-71.274547
 11
-130.23966
 21
-71.680573
  0
LINE
  8
型材断面
  6
DOT
 62
    47
 10
-130.70966
 20
-71.274547
 11
-130.70966
 21
-69.441215
  0
LINE
  8
型材断面
  6
DOT
 10
-130.70966
 20
-69.441215
 11
-28.742993
 21
-69.441215
  0
LINE
  8
型材断面
  6
DOT
 62
    47
 10
-130.70966
 20
-71.274547
 11
-28.742993
 21
-71.274547
  0
LINE
  8
型材断面
  6
DOT
 10
-131.022995
 20
-71.780573
 11
-28.742993
 21
-71.780573
  0
LINE
  8
型材断面
  6
DOT
 10
-130.23966
 20
-71.680573
 11
-28.742993
 21
-71.680573
  0
LINE
  8
型材断面
  6
DOT
 62
    47
 10
-131.022995
 20
-72.113908
 11
-28.742993
 21
-72.113908
  0
LINE
  8
型材断面
  6
CONTINUOUS
 10
73.887135
 20
39.499048
 11
76.477643
 21
38.90299
  0
LINE
  8
型材断面
  6
CONTINUOUS
 10
73.887135
 20
39.499048
 11
76.477643
 21
40.095105
  0
LINE
  8
型材断面
  6
CONTINUOUS
 10
76.477643
 20
40.095105
 11
76.477643
 21
38.90299
  0
LINE
  8
型材断面
  6
CONTINUOUS
 10
73.887135
 20
17.299048
 11
76.477643
 21
17.895105
  0
LINE
  8
型材断面
  6
CONTINUOUS
 10
73.887135
 20
17.299048
 11
76.477643
 21
16.70299
  0
LINE
  8
型材断面
  6
CONTINUOUS
 10
76.477643
 20
16.70299
 11
76.477643
 21
17.895105
  0
LINE
  8
型材断面
  6
CONTINUOUS
 10
-131.37312
 20
39.499048
 11
-133.963627
 21
38.90299
  0
LINE
  8
型材断面
  6
CONTINUOUS
 10
-131.37312
 20
39.499048
 11
-133.963627
 21
40.095105
  0
LINE
  8
型材断面
  6
CONTINUOUS
 10
-133.963627
 20
40.095105
 11
-133.963627
 21
38.90299
  0
LINE
  8
型材断面
  6
CONTINUOUS
 10
-131.37312
 20
17.299048
 11
-133.963627
 21
17.895105
  0
LINE
  8
型材断面
  6
CONTINUOUS
 10
-131.37312
 20
17.299048
 11
-133.963627
 21
16.70299
  0
LINE
  8
型材断面
  6
CONTINUOUS
 10
-133.963627
 20
16.70299
 11
-133.963627
 21
17.895105
  0
INSERT
  2
*GRP_0017
  8
型材断面
  6
CONTINUOUS
 10
0.0
 20
0.0
  0
INSERT
  2
*GRP_0018
  8
型材断面
  6
CONTINUOUS
 10
0.0
 20
0.0
  0
INSERT
  2
*GRP_0019
  8
型材断面
  6
CONTINUOUS
 10
0.0
 20
0.0
  0
INSERT
  2
*GRP_0020
  8
型材断面
  6
CONTINUOUS
 10
0.0
 20
0.0
  0
INSERT
  2
*GRP_0021
  8
型材断面
  6
CONTINUOUS
 10
0.0
 20
0.0
  0
INSERT
  2
*GRP_0022
  8
型材断面
  6
CONTINUOUS
 10
0.0
 20
0.0
  0
LINE
  8
型材断面
  6
CONTINUOUS
 10
-175.617788
 20
63.931055
 11
-129.37601
 21
63.931055
  0
LINE
  8
型材断面
  6
DASHDOT
 10
-95.636327
 20
13.399048
 11
-95.636327
 21
43.399048
  0
LINE
  8
型材断面
  6
DOT
 10
-96.886327
 20
13.399048
 11
-96.886327
 21
43.399048
  0
LINE
  8
型材断面
  6
DOT
 10
-94.386327
 20
13.399048
 11
-94.386327
 21
43.399048
  0
LINE
  8
型材断面
  6
DOT
 10
-63.439663
 20
13.399048
 11
-63.439663
 21
43.399048
  0
LINE
  8
型材断面
  6
DOT
 10
-60.939663
 20
13.399048
 11
-60.939663
 21
43.399048
  0
LINE
  8
型材断面
  6
DASHDOT
 10
-62.189663
 20
13.399048
 11
-62.189663
 21
43.399048
  0
LINE
  8
型材断面
  6
DASHDOT
 10
38.150343
 20
13.399048
 11
38.150343
 21
43.399048
  0
LINE
  8
型材断面
  6
DOT
 10
39.400343
 20
13.399048
 11
39.400343
 21
43.399048
  0
LINE
  8
型材断面
  6
DOT
 10
36.900343
 20
13.399048
 11
36.900343
 21
43.399048
  0
LINE
  8
型材断面
  6
DOT
 10
5.953678
 20
13.399048
 11
5.953678
 21
43.399048
  0
LINE
  8
型材断面
  6
DOT
 10
3.453678
 20
13.399048
 11
3.453678
 21
43.399048
  0
LINE
  8
型材断面
  6
DASHDOT
 10
4.703678
 20
13.399048
 11
4.703678
 21
43.399048
  0
TEXT
  7
TextStyle03
  8
文字
  6
CONTINUOUS
 10
-37.025
 20
-0.075
  1
可動装置側
 40
3.0
 72
     5
 11
-20.525
 21
-0.075
  0
TEXT
  7
TextStyle03
  8
文字
  6
CONTINUOUS
 10
147.775
 20
-86.1
  1
網入り6.8t
 40
3.0
 72
     5
 11
164.4625
 21
-86.1
  0
TEXT
  7
TextStyle03
  8
文字
  6
CONTINUOUS
 10
154.45
 20
-90.775
  1
×６枚
 40
3.0
 72
     5
 11
164.2
 21
-90.775
  0
TEXT
  7
TextStyle03
  8
文字
  6
CONTINUOUS
 10
-37.025
 20
53.875
  1
可動装置側
 40
3.0
 72
     5
 11
-20.525
 21
53.875
  0
TEXT
  7
TextStyle03
  8
文字
  6
CONTINUOUS
 10
-166.775
 20
80.0
  1
はケーシング位置を示す
 40
3.0
 72
     5
 11
-130.025
 21
80.0
  0
TEXT
  7
TextStyle03
  8
文字
  6
CONTINUOUS
 10
-166.775
 20
76.625
  1
４ヶ所中1ヶ所に設定
 40
3.0
 72
     5
 11
-135.0875
 21
76.625
  0
TEXT
  7
TextStyle03
  8
文字
  6
CONTINUOUS
 10
-166.775
 20
85.525
  1
は排水穴位置を示す
 40
3.0
 72
     5
 11
-136.775
 21
85.525
  0
TEXT
  7
TextStyle03
  8
文字
  6
CONTINUOUS
 10
-149.7
 20
6.875
  1
アンカーピッチ
 40
3.0
 50
90.0
 72
     5
 11
-149.7
 21
30.125
  0
TEXT
  7
TextStyle03
  8
文字
  6
CONTINUOUS
 10
-115.3
 20
80.55
  1
アンカーピッチ
 40
3.0
 72
     5
 11
-92.05
 21
80.55
  0
TEXT
  7
TextStyle03
  8
文字
  6
CONTINUOUS
 10
-170.5
 20
70.65
  1
アンカー数量　２２ヶ所
 40
3.0
 72
     5
 11
-133.75
 21
70.65
  0
TEXT
  7
TextStyle03
  8
文字
  6
CONTINUOUS
 10
-170.55
 20
64.875
  1
アームユニット数　４～６ヶ所
 40
3.0
 72
     5
 11
-123.675
 21
64.875
  0
TEXT
  7
TextStyle03
  8
文字
  6
CONTINUOUS
 10
-175.475
 20
59.925
  1
※重量に依るのでご相談ください
 40
3.0
 72
     5
 11
-125.225
 21
59.925
  0
LINE
  8
文字
  6
CONTINUOUS
 10
166.110227
 20
-53.503385
 11
166.110227
 21
-61.383212
  0
LINE
  8
文字
  6
CONTINUOUS
 10
134.010227
 20
-53.503385
 11
134.010227
 21
-61.383212
  0
TEXT
  7
TextStyle03
  8
文字
  6
CONTINUOUS
 10
78.1
 20
125.25
  1
シリーズ：ＳＴＤＬ
 40
5.0
 72
     5
 11
128.1
 21
125.25
  0
TEXT
  7
TextStyle03
  8
文字
  6
CONTINUOUS
 10
78.1
 20
119.625
  1
　　　　　（上下可動）900×6000タイプ
 40
5.0
 72
     5
 11
181.5375
 21
119.625
  0
TEXT
  7
TextStyle03
  8
文字
  6
CONTINUOUS
 10
78.1
 20
114.0
  1
図面名　：外観姿図
 40
5.0
 72
     5
 11
128.1
 21
114.0
  0
TEXT
  7
TextStyle03
  8
文字
  6
CONTINUOUS
 10
78.1
 20
108.375
  1
　　　　　　
 40
5.0
 72
     5
 11
111.225
 21
108.375
  0
TEXT
  7
TextStyle03
  8
文字
  6
CONTINUOUS
 10
77.425
 20
103.975
  1
ＮＳコード：ＮＳＤＳＬ
 40
5.0
 72
     5
 11
138.675
 21
103.975
  0
INSERT
  2
*DIM_0002
  8
寸法
  6
CONTINUOUS
 10
0.0
 20
0.0
  0
INSERT
  2
*DIM_0003
  8
寸法
  6
CONTINUOUS
 10
0.0
 20
0.0
  0
INSERT
  2
*DIM_0004
  8
寸法
  6
CONTINUOUS
 10
0.0
 20
0.0
  0
INSERT
  2
*DIM_0005
  8
寸法
  6
CONTINUOUS
 10
0.0
 20
0.0
  0
INSERT
  2
*DIM_0006
  8
寸法
  6
CONTINUOUS
 10
0.0
 20
0.0
  0
INSERT
  2
*DIM_0007
  8
寸法
  6
CONTINUOUS
 10
0.0
 20
0.0
  0
INSERT
  2
*DIM_0008
  8
寸法
  6
CONTINUOUS
 10
0.0
 20
0.0
  0
INSERT
  2
*DIM_0009
  8
寸法
  6
CONTINUOUS
 10
0.0
 20
0.0
  0
INSERT
  2
*DIM_0010
  8
寸法
  6
CONTINUOUS
 10
0.0
 20
0.0
  0
INSERT
  2
*DIM_0011
  8
寸法
  6
CONTINUOUS
 10
0.0
 20
0.0
  0
INSERT
  2
*DIM_0012
  8
寸法
  6
CONTINUOUS
 10
0.0
 20
0.0
  0
INSERT
  2
*DIM_0013
  8
寸法
  6
CONTINUOUS
 10
0.0
 20
0.0
  0
INSERT
  2
*DIM_0014
  8
寸法
  6
CONTINUOUS
 10
0.0
 20
0.0
  0
INSERT
  2
*DIM_0015
  8
寸法
  6
CONTINUOUS
 10
0.0
 20
0.0
  0
INSERT
  2
*DIM_0023
  8
寸法
  6
CONTINUOUS
 10
0.0
 20
0.0
  0
INSERT
  2
*DIM_0024
  8
寸法
  6
CONTINUOUS
 10
0.0
 20
0.0
  0
INSERT
  2
*DIM_0025
  8
寸法
  6
CONTINUOUS
 10
0.0
 20
0.0
  0
INSERT
  2
*DIM_0026
  8
寸法
  6
CONTINUOUS
 10
0.0
 20
0.0
  0
INSERT
  2
*DIM_0027
  8
寸法
  6
CONTINUOUS
 10
0.0
 20
0.0
  0
INSERT
  2
*DIM_0028
  8
寸法
  6
CONTINUOUS
 10
0.0
 20
0.0
  0
INSERT
  2
*DIM_0029
  8
寸法
  6
CONTINUOUS
 10
0.0
 20
0.0
  0
INSERT
  2
*DIM_0030
  8
寸法
  6
CONTINUOUS
 10
0.0
 20
0.0
  0
INSERT
  2
*DIM_0031
  8
寸法
  6
CONTINUOUS
 10
0.0
 20
0.0
  0
INSERT
  2
*DIM_0032
  8
寸法
  6
CONTINUOUS
 10
0.0
 20
0.0
  0
INSERT
  2
*DIM_0033
  8
寸法
  6
CONTINUOUS
 10
0.0
 20
0.0
  0
INSERT
  2
*DIM_0034
  8
寸法
  6
CONTINUOUS
 10
0.0
 20
0.0
  0
LINE
  8
別途部材
  6
CONTINUOUS
 10
-130.80966
 20
11.33238
 11
-130.40966
 21
11.73238
  0
LINE
  8
別途部材
  6
CONTINUOUS
 10
-128.742993
 20
13.399048
 11
-120.683738
 21
21.458305
  0
LINE
  8
別途部材
  6
CONTINUOUS
 10
-130.40966
 20
11.73238
 11
-28.742993
 21
11.73238
  0
LINE
  8
別途部材
  6
CONTINUOUS
 10
-130.80966
 20
11.33238
 11
-28.742993
 21
11.33238
  0
LINE
  8
別途部材
  6
CONTINUOUS
 10
73.323675
 20
11.33238
 11
72.923675
 21
11.73238
  0
LINE
  8
別途部材
  6
CONTINUOUS
 10
71.257007
 20
13.399048
 11
63.197753
 21
21.458305
  0
LINE
  8
別途部材
  6
CONTINUOUS
 10
72.923675
 20
11.73238
 11
-28.742993
 21
11.73238
  0
LINE
  8
別途部材
  6
CONTINUOUS
 10
73.323675
 20
11.33238
 11
-28.742993
 21
11.33238
  0
LINE
  8
別途部材
  6
CONTINUOUS
 10
72.923675
 20
11.73238
 11
72.923675
 21
28.399048
  0
LINE
  8
別途部材
  6
CONTINUOUS
 10
73.323675
 20
11.33238
 11
73.323675
 21
28.399048
  0
LINE
  8
別途部材
  6
CONTINUOUS
 10
-130.80966
 20
11.33238
 11
-130.80966
 21
28.399048
  0
LINE
  8
別途部材
  6
CONTINUOUS
 10
-130.40966
 20
11.73238
 11
-130.40966
 21
28.399048
  0
LINE
  8
別途部材
  6
CONTINUOUS
 10
-130.80966
 20
45.465715
 11
-130.40966
 21
45.065715
  0
LINE
  8
別途部材
  6
CONTINUOUS
 10
-128.742993
 20
43.399048
 11
-120.683738
 21
35.33979
  0
LINE
  8
別途部材
  6
CONTINUOUS
 10
-130.40966
 20
45.065715
 11
-28.742993
 21
45.065715
  0
LINE
  8
別途部材
  6
CONTINUOUS
 10
-130.80966
 20
45.465715
 11
-28.742993
 21
45.465715
  0
LINE
  8
別途部材
  6
CONTINUOUS
 10
73.323675
 20
45.465715
 11
72.923675
 21
45.065715
  0
LINE
  8
別途部材
  6
CONTINUOUS
 10
71.257007
 20
43.399048
 11
63.197753
 21
35.33979
  0
LINE
  8
別途部材
  6
CONTINUOUS
 10
72.923675
 20
45.065715
 11
-28.742993
 21
45.065715
  0
LINE
  8
別途部材
  6
CONTINUOUS
 10
73.323675
 20
45.465715
 11
-28.742993
 21
45.465715
  0
LINE
  8
別途部材
  6
CONTINUOUS
 10
72.923675
 20
45.065715
 11
72.923675
 21
28.399048
  0
LINE
  8
別途部材
  6
CONTINUOUS
 10
73.323675
 20
45.465715
 11
73.323675
 21
28.399048
  0
LINE
  8
別途部材
  6
CONTINUOUS
 10
-130.80966
 20
45.465715
 11
-130.80966
 21
28.399048
  0
LINE
  8
別途部材
  6
CONTINUOUS
 10
-130.40966
 20
45.065715
 11
-130.40966
 21
28.399048
  0
LINE
  8
別途部材
  6
CONTINUOUS
 62
    96
 10
160.95269
 20
11.73238
 11
161.95269
 21
11.33238
  0
LINE
  8
別途部材
  6
CONTINUOUS
 62
    96
 10
160.95269
 20
11.73238
 11
160.95269
 21
28.399048
  0
LINE
  8
別途部材
  6
CONTINUOUS
 10
161.95269
 20
11.33238
 11
161.95269
 21
28.399048
  0
LINE
  8
別途部材
  6
CONTINUOUS
 62
    96
 10
160.95269
 20
45.065715
 11
161.95269
 21
45.465715
  0
LINE
  8
別途部材
  6
CONTINUOUS
 62
    96
 10
160.95269
 20
45.065715
 11
160.95269
 21
28.399048
  0
LINE
  8
別途部材
  6
CONTINUOUS
 10
161.95269
 20
45.465715
 11
161.95269
 21
28.399048
  0
ARC
  8
別途部材
  6
CONTINUOUS
 10
170.286022
 20
28.399048
 40
17.666667
 50
121.890796
 51
238.109204
  0
LINE
  8
別途部材
  6
DOT
 62
    96
 10
-130.40966
 20
-67.95793
 11
-130.80966
 21
-68.95793
  0
LINE
  8
別途部材
  6
DOT
 62
    96
 10
-130.40966
 20
-67.95793
 11
-28.742993
 21
-67.95793
  0
LINE
  8
別途部材
  6
DOT
 10
-130.80966
 20
-68.95793
 11
-28.742993
 21
-68.95793
  0
LINE
  8
別途部材
  6
DOT
 62
    96
 10
72.923675
 20
-67.95793
 11
73.323675
 21
-68.95793
  0
LINE
  8
別途部材
  6
DOT
 62
    96
 10
72.923675
 20
-67.95793
 11
-28.742993
 21
-67.95793
  0
LINE
  8
別途部材
  6
DOT
 10
73.323675
 20
-68.95793
 11
-28.742993
 21
-68.95793
  0
ARC
  8
別途部材
  6
DOT
 10
-113.742993
 20
-77.291265
 40
17.666667
 50
90.0
 51
148.109204
  0
LINE
  8
別途部材
  6
DOT
 10
-28.742993
 20
-59.624597
 11
-113.742993
 21
-59.624597
  0
ARC
  8
別途部材
  6
DOT
 10
56.257007
 20
-77.291265
 40
17.666667
 50
31.890796
 51
90.0
  0
LINE
  8
別途部材
  6
DOT
 10
-28.742993
 20
-59.624597
 11
56.257007
 21
-59.624597
  0
INSERT
  2
*GRP_0016
  8
別途部材
  6
CONTINUOUS
 10
0.0
 20
0.0
  0
INSERT
  2
*GRP_0035
  8
別途部材
  6
DOT
 10
0.0
 20
0.0
  0
INSERT
  2
*GRP_0036
  8
別途部材
  6
DOT
 10
0.0
 20
0.0
  0
INSERT
  2
*GRP_0037
  8
別途部材
  6
DOT
 10
0.0
 20
0.0
  0
INSERT
  2
*GRP_0038
  8
別途部材
  6
DOT
 10
0.0
 20
0.0
  0
INSERT
  2
*GRP_0039
  8
別途部材
  6
DOT
 10
0.0
 20
0.0
  0
INSERT
  2
*GRP_0040
  8
別途部材
  6
DOT
 10
0.0
 20
0.0
  0
LINE
  8
曲げ物
  6
CONTINUOUS
 10
134.010227
 20
-63.20038
 11
134.010227
 21
-92.533713
  0
LINE
  8
曲げ物
  6
CONTINUOUS
 10
166.110227
 20
-63.20038
 11
166.110227
 21
-92.533713
  0
LINE
  8
曲げ物
  6
CONTINUOUS
 10
134.010227
 20
-63.20038
 11
166.110227
 21
-63.20038
  0
LINE
  8
曲げ物
  6
CONTINUOUS
 10
134.010227
 20
-92.533713
 11
166.110227
 21
-92.533713
  0
ENDSEC
  0
EOF
