  0
SECTION
  2
HEADER
  9
$EXTMIN
 10
-210.0
 20
-148.5
  9
$EXTMAX
 10
210.0
 20
148.5
  9
$PDMODE
 70
    32
  9
$PDSIZE
 40
1.5
  9
$LTSCALE
 40
10.0
  0
ENDSEC
  0
SECTION
  2
TABLES
  0
TABLE
  2
LTYPE
 70
    15
  0
LTYPE
  2
CONTINUOUS
 70
    64
  3
実線
 72
    65
 73
     0
 40
0.0
  0
LTYPE
  2
DASHED
 70
    64
  3
破線A
 72
    65
 73
     2
 40
0.6
 49
0.4
 49
-0.2
  0
LTYPE
  2
DASHEDX2
 70
    64
  3
破線B
 72
    65
 73
     2
 40
1.3
 49
0.9
 49
-0.4
  0
LTYPE
  2
DASHDOT
 70
    64
  3
１点鎖線A
 72
    65
 73
     4
 40
0.5375
 49
0.375
 49
-0.05
 49
0.0625
 49
-0.05
  0
LTYPE
  2
DASHDOTX2
 70
    64
  3
１点鎖線B
 72
    65
 73
     4
 40
1.075
 49
0.75
 49
-0.1
 49
0.125
 49
-0.1
  0
LTYPE
  2
DIVIDE2
 70
    64
  3
２点鎖線A
 72
    65
 73
     6
 40
0.5125
 49
0.3
 49
-0.0375
 49
0.05
 49
-0.0375
 49
0.05
 49
-0.0375
  0
LTYPE
  2
DIVIDE
 70
    64
  3
２点鎖線B
 72
    65
 73
     6
 40
1.05
 49
0.55
 49
-0.1
 49
0.1
 49
-0.1
 49
0.1
 49
-0.1
  0
LTYPE
  2
DOT
 70
    64
  3
点線A
 72
    65
 73
     2
 40
0.1125
 49
0.0625
 49
-0.05
  0
LTYPE
  2
DOTX2
 70
    64
  3
点線B
 72
    65
 73
     2
 40
0.275
 49
0.15
 49
-0.125
  0
LTYPE
  2
CONTINUOUS
 70
    64
  3
実線
 72
    65
 73
     0
 40
0.0
  0
LTYPE
  2
CONTINUOUS
 70
    64
  3
実線
 72
    65
 73
     0
 40
0.0
  0
LTYPE
  2
CONTINUOUS
 70
    64
  3
実線
 72
    65
 73
     0
 40
0.0
  0
LTYPE
  2
CONTINUOUS
 70
    64
  3
実線
 72
    65
 73
     0
 40
0.0
  0
LTYPE
  2
CONTINUOUS
 70
    64
  3
実線
 72
    65
 73
     0
 40
0.0
  0
LTYPE
  2
CONTINUOUS
 70
    64
  3
実線
 72
    65
 73
     0
 40
0.0
  0
ENDTAB
  0
TABLE
  2
LAYER
 70
    34
  0
LAYER
  2
通り芯
 70
     0
 62
    15
  6
CONTINUOUS
  0
LAYER
  2
補助線
 70
     0
 62
    16
  6
DOT
  0
LAYER
  2
躯体
 70
     0
 62
    31
  6
CONTINUOUS
  0
LAYER
  2
型材
 70
     0
 62
    32
  6
CONTINUOUS
  0
LAYER
  2
型材断面
 70
     0
 62
    47
  6
CONTINUOUS
  0
LAYER
  2
ガラス
 70
     0
 62
    48
  6
CONTINUOUS
  0
LAYER
  2
ゴム等
 70
     0
 62
    63
  6
CONTINUOUS
  0
LAYER
  2
ボルト／ビス
 70
     0
 62
    64
  6
CONTINUOUS
  0
LAYER
  2
文字
 70
     0
 62
    79
  6
CONTINUOUS
  0
LAYER
  2
寸法
 70
     0
 62
    80
  6
CONTINUOUS
  0
LAYER
  2
ﾊｯﾁﾝｸﾞ
 70
     0
 62
    95
  6
CONTINUOUS
  0
LAYER
  2
別途部材
 70
     0
 62
    96
  6
CONTINUOUS
  0
LAYER
  2
曲げ物
 70
     0
 62
   111
  6
CONTINUOUS
  0
LAYER
  2
鉄骨等
 70
     0
 62
   112
  6
CONTINUOUS
  0
LAYER
  2
St
 70
     0
 62
   127
  6
CONTINUOUS
  0
LAYER
  2
その他部品等
 70
     0
 62
   128
  6
CONTINUOUS
  0
LAYER
  2
ｶﾞｽｹｯﾄ
 70
     0
 62
   143
  6
CONTINUOUS
  0
LAYER
  2
ｽｹｯﾁ
 70
     0
 62
    14
  6
CONTINUOUS
  0
LAYER
  2
0
 70
     0
 62
    17
  6
CONTINUOUS
  0
LAYER
  2
1
 70
     0
 62
    30
  6
CONTINUOUS
  0
LAYER
  2
4
 70
     0
 62
    33
  6
CONTINUOUS
  0
LAYER
  2
ﾚｲﾔ3
 70
     0
 62
    46
  6
CONTINUOUS
  0
LAYER
  2
外形線
 70
     0
 62
    49
  6
CONTINUOUS
  0
LAYER
  2
部品
 70
     0
 62
    14
  6
CONTINUOUS
  0
LAYER
  2
サッシ芯
 70
     0
 62
    17
  6
DASHDOTX2
  0
LAYER
  2
寸法線
 70
     0
 62
    62
  6
CONTINUOUS
  0
LAYER
  2
姿図外形線
 70
     0
 62
    65
  6
CONTINUOUS
  0
LAYER
  2
姿補助線
 70
     0
 62
    30
  6
CONTINUOUS
  0
LAYER
  2
透視線
 70
     0
 62
    78
  6
DOT
  0
LAYER
  2
用紙
 70
     0
 62
    81
  6
CONTINUOUS
  0
LAYER
  2
実線図枠
 70
     0
 62
    94
  6
CONTINUOUS
  0
LAYER
  2
補助図枠
 70
     0
 62
    97
  6
CONTINUOUS
  0
LAYER
  2
建具記号
 70
     0
 62
   110
  6
CONTINUOUS
  0
LAYER
  2
補助文字
 70
     0
 62
   113
  6
CONTINUOUS
  0
ENDTAB
  0
TABLE
  2
STYLE
 70
    10
  0
STYLE
  2
STANDARD
 70
     0
 40
1.0
 41
1.0
 42
1.0
 50
0.0
 71
     0
  3
TXT
  4
BIGFONT
  0
STYLE
  2
TATE
 70
     4
 40
1.0
 41
1.0
 42
1.0
 50
0.0
 71
     0
  3
TXT
  4
BIGFONT
  0
STYLE
  2
TextStyle03
 70
     0
 40
1.0
 41
1.0
 42
1.0
 50
0.0
 71
     0
  3
MONOTXT
  4
BIGFONT
  0
STYLE
  2
TextStyle04
 70
     0
 40
1.0
 41
1.0
 42
1.0
 50
0.0
 71
     0
  3
MONOTXT
  4
BIGFONT
  0
STYLE
  2
TextStyle05
 70
     0
 40
1.0
 41
1.0
 42
1.0
 50
0.0
 71
     0
  3
MONOTXT
  4
BIGFONT
  0
STYLE
  2
TextStyle06
 70
     0
 40
1.0
 41
1.0
 42
1.0
 50
0.0
 71
     0
  3
MONOTXT
  4
BIGFONT
  0
STYLE
  2
TextStyle07
 70
     0
 40
1.0
 41
1.0
 42
1.0
 50
0.0
 71
     0
  3
MONOTXT
  4
BIGFONT
  0
STYLE
  2
TextStyle08
 70
     0
 40
1.0
 41
1.0
 42
1.0
 50
0.0
 71
     0
  3
MONOTXT
  4
BIGFONT
  0
STYLE
  2
TextStyle09
 70
     0
 40
1.0
 41
1.0
 42
1.0
 50
0.0
 71
     0
  3
MONOTXT
  4
BIGFONT
  0
STYLE
  2
TextStyle10
 70
     0
 40
1.0
 41
1.0
 42
1.0
 50
0.0
 71
     0
  3
MONOTXT
  4
BIGFONT
  0
ENDTAB
  0
ENDSEC
  0
SECTION
  2
BLOCKS
  0
BLOCK
  2
*GRP_0001
 70
    65
 10
0.0
 20
0.0
  0
LINE
  8
型材断面
  6
CONTINUOUS
 10
195.0
 20
133.5
 11
195.0
 21
-133.5
  0
LINE
  8
型材断面
  6
CONTINUOUS
 10
195.0
 20
-133.5
 11
-185.0
 21
-133.5
  0
LINE
  8
型材断面
  6
CONTINUOUS
 10
-185.0
 20
-133.5
 11
-185.0
 21
133.5
  0
LINE
  8
型材断面
  6
CONTINUOUS
 10
195.0
 20
133.5
 11
-185.0
 21
133.5
  0
LINE
  8
型材断面
  6
CONTINUOUS
 10
145.0
 20
-133.5
 11
145.0
 21
-118.5
  0
LINE
  8
型材断面
  6
CONTINUOUS
 10
195.0
 20
-118.5
 11
145.0
 21
-118.5
  0
ENDBLK
  0
BLOCK
  2
*DIM_0002
 70
    65
 10
0.0
 20
0.0
  0
LINE
  8
寸法
  6
BYBLOCK
 62
     0
 10
7.403067
 20
-61.87628
 11
37.372718
 21
-61.87628
  0
LINE
  8
寸法
  6
BYBLOCK
 62
     0
 10
37.372718
 20
-70.209613
 11
37.372718
 21
-61.87628
  0
POINT
  8
寸法
 62
     0
 10
37.372718
 20
-70.209613
  0
POINT
  8
寸法
 62
     0
 10
37.372718
 20
-61.87628
  0
TEXT
  7
TextStyle03
  8
寸法
  6
CONTINUOUS
 62
     0
 10
37.05
 20
-68.5125
  1
250
 40
3.0
 50
90.0
 72
     5
 11
37.05
 21
-63.6375
  0
ENDBLK
  0
BLOCK
  2
*DIM_0003
 70
    65
 10
0.0
 20
0.0
  0
LINE
  8
寸法
  6
BYBLOCK
 62
     0
 10
-61.930265
 20
-13.511205
 11
-61.930265
 21
-13.121378
  0
LINE
  8
寸法
  6
BYBLOCK
 62
     0
 10
21.403067
 20
-13.121378
 11
-61.930265
 21
-13.121378
  0
POINT
  8
寸法
 62
     0
 10
21.403067
 20
-13.121378
  0
POINT
  8
寸法
 62
     0
 10
-61.930265
 20
-13.121378
  0
TEXT
  7
TextStyle03
  8
寸法
  6
CONTINUOUS
 62
     0
 10
-31.99375
 20
-12.75
  1
呼称寸法　2500
 40
3.0
 72
     5
 11
-8.55625
 21
-12.75
  0
ENDBLK
  0
BLOCK
  2
*DIM_0004
 70
    65
 10
0.0
 20
0.0
  0
LINE
  8
寸法
  6
BYBLOCK
 62
     0
 10
-45.263598
 20
19.183902
 11
-45.263598
 21
14.01842
  0
LINE
  8
寸法
  6
BYBLOCK
 62
     0
 10
4.736398
 20
19.183902
 11
4.736398
 21
14.01842
  0
LINE
  8
寸法
  6
BYBLOCK
 62
     0
 10
-45.263598
 20
14.01842
 11
4.736398
 21
14.01842
  0
POINT
  8
寸法
 62
     0
 10
-45.263598
 20
14.01842
  0
POINT
  8
寸法
 62
     0
 10
4.736398
 20
14.01842
  0
TEXT
  7
TextStyle03
  8
寸法
  6
CONTINUOUS
 62
     0
 10
-23.55625
 20
14.375
  1
1500
 40
3.0
 72
     5
 11
-16.99375
 21
14.375
  0
ENDBLK
  0
BLOCK
  2
*DIM_0005
 70
    65
 10
0.0
 20
0.0
  0
LINE
  8
寸法
  6
BYBLOCK
 62
     0
 10
102.603
 20
38.814033
 11
102.603
 21
68.369967
  0
LINE
  8
寸法
  6
BYBLOCK
 62
     0
 10
110.936333
 20
68.369967
 11
102.603
 21
68.369967
  0
POINT
  8
寸法
 62
     0
 10
110.936333
 20
68.369967
  0
POINT
  8
寸法
 62
     0
 10
102.603
 20
68.369967
  0
TEXT
  7
TextStyle03
  8
寸法
  6
CONTINUOUS
 62
     0
 10
104.3625
 20
68.725
  1
250
 40
3.0
 72
     5
 11
109.2375
 21
68.725
  0
ENDBLK
  0
BLOCK
  2
*DIM_0006
 70
    65
 10
0.0
 20
0.0
  0
LINE
  8
寸法
  6
BYBLOCK
 62
     0
 10
55.422717
 20
22.814033
 11
55.422717
 21
52.814033
  0
POINT
  8
寸法
 62
     0
 10
55.422717
 20
22.814033
  0
POINT
  8
寸法
 62
     0
 10
55.422717
 20
52.814033
  0
TEXT
  7
TextStyle03
  8
寸法
  6
CONTINUOUS
 62
     0
 10
55.1
 20
26.9
  1
呼称寸法　900
 40
3.0
 50
90.0
 72
     5
 11
55.1
 21
48.65
  0
ENDBLK
  0
BLOCK
  2
*DIM_0007
 70
    65
 10
0.0
 20
0.0
  0
LINE
  8
寸法
  6
BYBLOCK
 62
     0
 10
110.936333
 20
55.4807
 11
110.936333
 21
68.369967
  0
LINE
  8
寸法
  6
BYBLOCK
 62
     0
 10
117.719615
 20
55.7807
 11
117.719615
 21
68.369967
  0
LINE
  8
寸法
  6
BYBLOCK
 62
     0
 10
110.936333
 20
68.369967
 11
117.719615
 21
68.369967
  0
POINT
  8
寸法
 62
     0
 10
110.936333
 20
68.369967
  0
POINT
  8
寸法
 62
     0
 10
117.719615
 20
68.369967
  0
TEXT
  7
TextStyle03
  8
寸法
  6
CONTINUOUS
 62
     0
 10
118.625
 20
68.725
  1
203.5
 40
3.0
 72
     5
 11
126.875
 21
68.725
  0
ENDBLK
  0
BLOCK
  2
*DIM_0008
 70
    65
 10
0.0
 20
0.0
  0
LINE
  8
寸法
  6
BYBLOCK
 62
     0
 10
113.758972
 20
55.094035
 11
55.422717
 21
55.094035
  0
LINE
  8
寸法
  6
BYBLOCK
 62
     0
 10
55.422717
 20
52.814033
 11
55.422717
 21
55.094035
  0
POINT
  8
寸法
 62
     0
 10
55.422717
 20
52.814033
  0
POINT
  8
寸法
 62
     0
 10
55.422717
 20
55.094035
  0
TEXT
  7
TextStyle03
  8
寸法
  6
CONTINUOUS
 62
     0
 10
55.025
 20
57.41875
  1
68.4
 40
3.0
 50
90.0
 72
     5
 11
55.025
 21
63.98125
  0
ENDBLK
  0
BLOCK
  2
*DIM_0009
 70
    65
 10
0.0
 20
0.0
  0
LINE
  8
寸法
  6
BYBLOCK
 62
     0
 10
113.758972
 20
20.53403
 11
55.422717
 21
20.53403
  0
LINE
  8
寸法
  6
BYBLOCK
 62
     0
 10
55.422717
 20
22.814033
 11
55.422717
 21
20.53403
  0
POINT
  8
寸法
 62
     0
 10
55.422717
 20
22.814033
  0
POINT
  8
寸法
 62
     0
 10
55.422717
 20
20.53403
  0
TEXT
  7
TextStyle03
  8
寸法
  6
CONTINUOUS
 62
     0
 10
55.025
 20
11.61875
  1
68.4
 40
3.0
 50
90.0
 72
     5
 11
55.025
 21
18.18125
  0
ENDBLK
  0
BLOCK
  2
*DIM_0010
 70
    65
 10
0.0
 20
0.0
  0
LINE
  8
寸法
  6
BYBLOCK
 62
     0
 10
24.069735
 20
-70.209613
 11
37.372718
 21
-70.209613
  0
LINE
  8
寸法
  6
BYBLOCK
 62
     0
 10
24.369732
 20
-76.992897
 11
37.372718
 21
-76.992897
  0
LINE
  8
寸法
  6
BYBLOCK
 62
     0
 10
37.372718
 20
-70.209613
 11
37.372718
 21
-76.992897
  0
POINT
  8
寸法
 62
     0
 10
37.372718
 20
-70.209613
  0
POINT
  8
寸法
 62
     0
 10
37.372718
 20
-76.992897
  0
TEXT
  7
TextStyle03
  8
寸法
  6
CONTINUOUS
 62
     0
 10
36.975
 20
-86.175
  1
203.5
 40
3.0
 50
90.0
 72
     5
 11
36.975
 21
-77.925
  0
ENDBLK
  0
BLOCK
  2
*DIM_0011
 70
    65
 10
0.0
 20
0.0
  0
LINE
  8
寸法
  6
BYBLOCK
 62
     0
 10
23.683067
 20
-73.032255
 11
23.683067
 21
-13.121378
  0
LINE
  8
寸法
  6
BYBLOCK
 62
     0
 10
21.403067
 20
-13.121378
 11
23.683067
 21
-13.121378
  0
POINT
  8
寸法
 62
     0
 10
21.403067
 20
-13.121378
  0
POINT
  8
寸法
 62
     0
 10
23.683067
 20
-13.121378
  0
TEXT
  7
TextStyle03
  8
寸法
  6
CONTINUOUS
 62
     0
 10
25.99375
 20
-12.75
  1
68.4
 40
3.0
 72
     5
 11
32.55625
 21
-12.75
  0
ENDBLK
  0
BLOCK
  2
*DIM_0012
 70
    65
 10
0.0
 20
0.0
  0
LINE
  8
寸法
  6
BYBLOCK
 62
     0
 10
-64.210268
 20
-73.032255
 11
-64.210268
 21
-13.121378
  0
LINE
  8
寸法
  6
BYBLOCK
 62
     0
 10
-61.930265
 20
-13.121378
 11
-64.210268
 21
-13.121378
  0
POINT
  8
寸法
 62
     0
 10
-61.930265
 20
-13.121378
  0
POINT
  8
寸法
 62
     0
 10
-64.210268
 20
-13.121378
  0
TEXT
  7
TextStyle03
  8
寸法
  6
CONTINUOUS
 62
     0
 10
-73.10625
 20
-12.75
  1
68.4
 40
3.0
 72
     5
 11
-66.54375
 21
-12.75
  0
ENDBLK
  0
BLOCK
  2
*DIM_0013
 70
    65
 10
0.0
 20
0.0
  0
LINE
  8
寸法
  6
BYBLOCK
 62
     0
 10
75.689623
 20
-52.785395
 11
75.689623
 21
-42.794092
  0
LINE
  8
寸法
  6
BYBLOCK
 62
     0
 10
116.35629
 20
-52.785395
 11
116.35629
 21
-42.794092
  0
LINE
  8
寸法
  6
BYBLOCK
 62
     0
 10
75.689623
 20
-42.794092
 11
116.35629
 21
-42.794092
  0
POINT
  8
寸法
 62
     0
 10
75.689623
 20
-42.794092
  0
POINT
  8
寸法
 62
     0
 10
116.35629
 20
-42.794092
  0
TEXT
  7
TextStyle03
  8
寸法
  6
CONTINUOUS
 62
     0
 10
92.71875
 20
-42.425
  1
1220
 40
3.0
 72
     5
 11
99.28125
 21
-42.425
  0
ENDBLK
  0
BLOCK
  2
*DIM_0014
 70
    65
 10
0.0
 20
0.0
  0
LINE
  8
寸法
  6
BYBLOCK
 62
     0
 10
117.35629
 20
-53.785395
 11
127.3768
 21
-53.785395
  0
LINE
  8
寸法
  6
BYBLOCK
 62
     0
 10
117.35629
 20
-83.118728
 11
127.3768
 21
-83.118728
  0
LINE
  8
寸法
  6
BYBLOCK
 62
     0
 10
127.3768
 20
-53.785395
 11
127.3768
 21
-83.118728
  0
POINT
  8
寸法
 62
     0
 10
127.3768
 20
-53.785395
  0
POINT
  8
寸法
 62
     0
 10
127.3768
 20
-83.118728
  0
TEXT
  7
TextStyle03
  8
寸法
  6
CONTINUOUS
 62
     0
 10
127.0
 20
-70.9125
  1
880
 40
3.0
 50
90.0
 72
     5
 11
127.0
 21
-66.0375
  0
ENDBLK
  0
BLOCK
  2
*DIM_0015
 70
    65
 10
0.0
 20
0.0
  0
LINE
  8
寸法
  6
BYBLOCK
 62
     0
 10
25.033195
 20
48.914033
 11
31.810488
 21
48.914033
  0
LINE
  8
寸法
  6
BYBLOCK
 62
     0
 10
31.810488
 20
52.814033
 11
31.810488
 21
48.914033
  0
POINT
  8
寸法
 62
     0
 10
31.810488
 20
52.814033
  0
POINT
  8
寸法
 62
     0
 10
31.810488
 20
48.914033
  0
TEXT
  7
TextStyle03
  8
寸法
  6
CONTINUOUS
 62
     0
 10
31.525
 20
53.4875
  1
117
 40
3.0
 50
90.0
 72
     5
 11
31.525
 21
58.3625
  0
ENDBLK
  0
BLOCK
  2
*DIM_0016
 70
    65
 10
0.0
 20
0.0
  0
LINE
  8
寸法
  6
BYBLOCK
 62
     0
 10
25.033195
 20
26.714033
 11
31.810488
 21
26.714033
  0
LINE
  8
寸法
  6
BYBLOCK
 62
     0
 10
31.810488
 20
22.814033
 11
31.810488
 21
26.714033
  0
POINT
  8
寸法
 62
     0
 10
31.810488
 20
22.814033
  0
POINT
  8
寸法
 62
     0
 10
31.810488
 20
26.714033
  0
TEXT
  7
TextStyle03
  8
寸法
  6
CONTINUOUS
 62
     0
 10
31.9
 20
17.2125
  1
117
 40
3.0
 50
90.0
 72
     5
 11
31.9
 21
22.0875
  0
ENDBLK
  0
BLOCK
  2
*GRP_0017
 70
    65
 10
0.0
 20
0.0
  0
LINE
  8
別途部材
  6
CONTINUOUS
 62
    96
 10
-63.596933
 20
-70.209613
 11
-63.996933
 21
-71.209613
  0
ARC
  8
別途部材
  6
CONTINUOUS
 10
-46.930262
 20
-79.54295
 40
17.666667
 50
90.0
 51
148.109204
  0
LINE
  8
別途部材
  6
CONTINUOUS
 62
    96
 10
-63.596933
 20
-70.209613
 11
-20.263598
 21
-70.209613
  0
LINE
  8
別途部材
  6
CONTINUOUS
 10
-63.996933
 20
-71.209613
 11
-20.263598
 21
-71.209613
  0
LINE
  8
別途部材
  6
CONTINUOUS
 10
-20.763598
 20
-60.87628
 11
-21.763598
 21
-61.87628
  0
LINE
  8
別途部材
  6
CONTINUOUS
 10
-22.763598
 20
-61.87628
 11
-23.763598
 21
-60.87628
  0
LINE
  8
別途部材
  6
CONTINUOUS
 10
-24.763598
 20
-60.87628
 11
-25.763598
 21
-61.87628
  0
LINE
  8
別途部材
  6
CONTINUOUS
 10
-23.763598
 20
-60.87628
 11
-24.763598
 21
-60.87628
  0
LINE
  8
別途部材
  6
CONTINUOUS
 10
-20.763598
 20
-60.87628
 11
-20.263598
 21
-60.87628
  0
LINE
  8
別途部材
  6
CONTINUOUS
 10
-26.763598
 20
-61.87628
 11
-27.763598
 21
-60.87628
  0
LINE
  8
別途部材
  6
CONTINUOUS
 10
-28.763598
 20
-60.87628
 11
-29.763598
 21
-61.87628
  0
LINE
  8
別途部材
  6
CONTINUOUS
 10
-27.763598
 20
-60.87628
 11
-28.763598
 21
-60.87628
  0
LINE
  8
別途部材
  6
CONTINUOUS
 10
-30.763598
 20
-61.87628
 11
-31.763598
 21
-60.87628
  0
LINE
  8
別途部材
  6
CONTINUOUS
 10
-32.763598
 20
-60.87628
 11
-33.763598
 21
-61.87628
  0
LINE
  8
別途部材
  6
CONTINUOUS
 10
-31.763598
 20
-60.87628
 11
-32.763598
 21
-60.87628
  0
LINE
  8
別途部材
  6
CONTINUOUS
 10
-34.763598
 20
-61.87628
 11
-35.763598
 21
-60.87628
  0
LINE
  8
別途部材
  6
CONTINUOUS
 10
-36.763598
 20
-60.87628
 11
-37.763598
 21
-61.87628
  0
LINE
  8
別途部材
  6
CONTINUOUS
 10
-35.763598
 20
-60.87628
 11
-36.763598
 21
-60.87628
  0
LINE
  8
別途部材
  6
CONTINUOUS
 10
-38.763598
 20
-61.87628
 11
-39.763598
 21
-60.87628
  0
LINE
  8
別途部材
  6
CONTINUOUS
 10
-40.763598
 20
-60.87628
 11
-41.763598
 21
-61.87628
  0
LINE
  8
別途部材
  6
CONTINUOUS
 10
-39.763598
 20
-60.87628
 11
-40.763598
 21
-60.87628
  0
LINE
  8
別途部材
  6
CONTINUOUS
 10
-42.763598
 20
-61.87628
 11
-43.763598
 21
-60.87628
  0
LINE
  8
別途部材
  6
CONTINUOUS
 10
-44.763598
 20
-60.87628
 11
-45.763598
 21
-61.87628
  0
LINE
  8
別途部材
  6
CONTINUOUS
 10
-43.763598
 20
-60.87628
 11
-44.763598
 21
-60.87628
  0
LINE
  8
別途部材
  6
CONTINUOUS
 10
-41.763598
 20
-61.87628
 11
-42.763598
 21
-61.87628
  0
LINE
  8
別途部材
  6
CONTINUOUS
 10
-37.763598
 20
-61.87628
 11
-38.763598
 21
-61.87628
  0
LINE
  8
別途部材
  6
CONTINUOUS
 10
-33.763598
 20
-61.87628
 11
-34.763598
 21
-61.87628
  0
LINE
  8
別途部材
  6
CONTINUOUS
 10
-29.763598
 20
-61.87628
 11
-30.763598
 21
-61.87628
  0
LINE
  8
別途部材
  6
CONTINUOUS
 10
-25.763598
 20
-61.87628
 11
-26.763598
 21
-61.87628
  0
LINE
  8
別途部材
  6
CONTINUOUS
 10
-22.763598
 20
-61.87628
 11
-21.763598
 21
-61.87628
  0
LINE
  8
別途部材
  6
CONTINUOUS
 10
-45.763598
 20
-61.87628
 11
-45.763598
 21
-70.209613
  0
LINE
  8
別途部材
  6
CONTINUOUS
 10
-44.763598
 20
-60.87628
 11
-44.763598
 21
-70.209613
  0
LINE
  8
別途部材
  6
CONTINUOUS
 10
-43.763598
 20
-60.87628
 11
-43.763598
 21
-70.209613
  0
LINE
  8
別途部材
  6
CONTINUOUS
 10
-39.763598
 20
-60.87628
 11
-39.763598
 21
-70.209613
  0
LINE
  8
別途部材
  6
CONTINUOUS
 10
-41.763598
 20
-61.87628
 11
-41.763598
 21
-70.209613
  0
LINE
  8
別途部材
  6
CONTINUOUS
 10
-42.763598
 20
-61.87628
 11
-42.763598
 21
-70.209613
  0
LINE
  8
別途部材
  6
CONTINUOUS
 10
-40.763598
 20
-60.87628
 11
-40.763598
 21
-70.209613
  0
LINE
  8
別途部材
  6
CONTINUOUS
 10
-38.763598
 20
-61.87628
 11
-38.763598
 21
-70.209613
  0
LINE
  8
別途部材
  6
CONTINUOUS
 10
-36.763598
 20
-60.87628
 11
-36.763598
 21
-70.209613
  0
LINE
  8
別途部材
  6
CONTINUOUS
 10
-35.763598
 20
-60.87628
 11
-35.763598
 21
-70.209613
  0
LINE
  8
別途部材
  6
CONTINUOUS
 10
-33.763598
 20
-61.87628
 11
-33.763598
 21
-70.209613
  0
LINE
  8
別途部材
  6
CONTINUOUS
 10
-34.763598
 20
-61.87628
 11
-34.763598
 21
-70.209613
  0
LINE
  8
別途部材
  6
CONTINUOUS
 10
-37.763598
 20
-61.87628
 11
-37.763598
 21
-70.209613
  0
LINE
  8
別途部材
  6
CONTINUOUS
 10
-32.763598
 20
-60.87628
 11
-32.763598
 21
-70.209613
  0
LINE
  8
別途部材
  6
CONTINUOUS
 10
-30.763598
 20
-61.87628
 11
-30.763598
 21
-70.209613
  0
LINE
  8
別途部材
  6
CONTINUOUS
 10
-31.763598
 20
-60.87628
 11
-31.763598
 21
-70.209613
  0
LINE
  8
別途部材
  6
CONTINUOUS
 10
-29.763598
 20
-61.87628
 11
-29.763598
 21
-70.209613
  0
LINE
  8
別途部材
  6
CONTINUOUS
 10
-28.763598
 20
-60.87628
 11
-28.763598
 21
-70.209613
  0
LINE
  8
別途部材
  6
CONTINUOUS
 10
-26.763598
 20
-61.87628
 11
-26.763598
 21
-70.209613
  0
LINE
  8
別途部材
  6
CONTINUOUS
 10
-27.763598
 20
-60.87628
 11
-27.763598
 21
-70.209613
  0
LINE
  8
別途部材
  6
CONTINUOUS
 10
-25.763598
 20
-61.87628
 11
-25.763598
 21
-70.209613
  0
LINE
  8
別途部材
  6
CONTINUOUS
 10
-24.763598
 20
-60.87628
 11
-24.763598
 21
-70.209613
  0
LINE
  8
別途部材
  6
CONTINUOUS
 10
-22.763598
 20
-61.87628
 11
-22.763598
 21
-70.209613
  0
LINE
  8
別途部材
  6
CONTINUOUS
 10
-23.763598
 20
-60.87628
 11
-23.763598
 21
-70.209613
  0
LINE
  8
別途部材
  6
CONTINUOUS
 10
-21.763598
 20
-61.87628
 11
-21.763598
 21
-70.209613
  0
LINE
  8
別途部材
  6
CONTINUOUS
 10
-20.763598
 20
-60.87628
 11
-20.763598
 21
-70.209613
  0
LINE
  8
別途部材
  6
CONTINUOUS
 10
-45.763598
 20
-61.87628
 11
-46.930265
 21
-61.87628
  0
LINE
  8
別途部材
  6
CONTINUOUS
 62
    96
 10
23.069735
 20
-70.209613
 11
23.469735
 21
-71.209613
  0
ARC
  8
別途部材
  6
CONTINUOUS
 10
6.403065
 20
-79.54295
 40
17.666667
 50
31.890796
 51
90.0
  0
LINE
  8
別途部材
  6
CONTINUOUS
 62
    96
 10
23.069735
 20
-70.209613
 11
-20.263598
 21
-70.209613
  0
LINE
  8
別途部材
  6
CONTINUOUS
 10
23.469735
 20
-71.209613
 11
-20.263598
 21
-71.209613
  0
LINE
  8
別途部材
  6
CONTINUOUS
 10
-19.763598
 20
-60.87628
 11
-18.763598
 21
-61.87628
  0
LINE
  8
別途部材
  6
CONTINUOUS
 10
-17.763598
 20
-61.87628
 11
-16.763598
 21
-60.87628
  0
LINE
  8
別途部材
  6
CONTINUOUS
 10
-15.763598
 20
-60.87628
 11
-14.763598
 21
-61.87628
  0
LINE
  8
別途部材
  6
CONTINUOUS
 10
-16.763598
 20
-60.87628
 11
-15.763598
 21
-60.87628
  0
LINE
  8
別途部材
  6
CONTINUOUS
 10
-19.763598
 20
-60.87628
 11
-20.263598
 21
-60.87628
  0
LINE
  8
別途部材
  6
CONTINUOUS
 10
-13.763598
 20
-61.87628
 11
-12.763598
 21
-60.87628
  0
LINE
  8
別途部材
  6
CONTINUOUS
 10
-11.763598
 20
-60.87628
 11
-10.763598
 21
-61.87628
  0
LINE
  8
別途部材
  6
CONTINUOUS
 10
-12.763598
 20
-60.87628
 11
-11.763598
 21
-60.87628
  0
LINE
  8
別途部材
  6
CONTINUOUS
 10
-9.763598
 20
-61.87628
 11
-8.763598
 21
-60.87628
  0
LINE
  8
別途部材
  6
CONTINUOUS
 10
-7.763598
 20
-60.87628
 11
-6.763598
 21
-61.87628
  0
LINE
  8
別途部材
  6
CONTINUOUS
 10
-8.763598
 20
-60.87628
 11
-7.763598
 21
-60.87628
  0
LINE
  8
別途部材
  6
CONTINUOUS
 10
-5.763598
 20
-61.87628
 11
-4.763598
 21
-60.87628
  0
LINE
  8
別途部材
  6
CONTINUOUS
 10
-3.763598
 20
-60.87628
 11
-2.763598
 21
-61.87628
  0
LINE
  8
別途部材
  6
CONTINUOUS
 10
-4.763598
 20
-60.87628
 11
-3.763598
 21
-60.87628
  0
LINE
  8
別途部材
  6
CONTINUOUS
 10
-1.763598
 20
-61.87628
 11
-0.763598
 21
-60.87628
  0
LINE
  8
別途部材
  6
CONTINUOUS
 10
0.236403
 20
-60.87628
 11
1.236403
 21
-61.87628
  0
LINE
  8
別途部材
  6
CONTINUOUS
 10
-0.763598
 20
-60.87628
 11
0.236403
 21
-60.87628
  0
LINE
  8
別途部材
  6
CONTINUOUS
 10
2.236403
 20
-61.87628
 11
3.236403
 21
-60.87628
  0
LINE
  8
別途部材
  6
CONTINUOUS
 10
4.236403
 20
-60.87628
 11
5.236403
 21
-61.87628
  0
LINE
  8
別途部材
  6
CONTINUOUS
 10
3.236403
 20
-60.87628
 11
4.236403
 21
-60.87628
  0
LINE
  8
別途部材
  6
CONTINUOUS
 10
1.236403
 20
-61.87628
 11
2.236403
 21
-61.87628
  0
LINE
  8
別途部材
  6
CONTINUOUS
 10
-2.763598
 20
-61.87628
 11
-1.763598
 21
-61.87628
  0
LINE
  8
別途部材
  6
CONTINUOUS
 10
-6.763598
 20
-61.87628
 11
-5.763598
 21
-61.87628
  0
LINE
  8
別途部材
  6
CONTINUOUS
 10
-10.763598
 20
-61.87628
 11
-9.763598
 21
-61.87628
  0
LINE
  8
別途部材
  6
CONTINUOUS
 10
-14.763598
 20
-61.87628
 11
-13.763598
 21
-61.87628
  0
LINE
  8
別途部材
  6
CONTINUOUS
 10
-17.763598
 20
-61.87628
 11
-18.763598
 21
-61.87628
  0
LINE
  8
別途部材
  6
CONTINUOUS
 10
5.236403
 20
-61.87628
 11
5.236403
 21
-70.209613
  0
LINE
  8
別途部材
  6
CONTINUOUS
 10
4.236403
 20
-60.87628
 11
4.236403
 21
-70.209613
  0
LINE
  8
別途部材
  6
CONTINUOUS
 10
3.236403
 20
-60.87628
 11
3.236403
 21
-70.209613
  0
LINE
  8
別途部材
  6
CONTINUOUS
 10
-0.763598
 20
-60.87628
 11
-0.763598
 21
-70.209613
  0
LINE
  8
別途部材
  6
CONTINUOUS
 10
1.236403
 20
-61.87628
 11
1.236403
 21
-70.209613
  0
LINE
  8
別途部材
  6
CONTINUOUS
 10
2.236403
 20
-61.87628
 11
2.236403
 21
-70.209613
  0
LINE
  8
別途部材
  6
CONTINUOUS
 10
0.236403
 20
-60.87628
 11
0.236403
 21
-70.209613
  0
LINE
  8
別途部材
  6
CONTINUOUS
 10
-1.763598
 20
-61.87628
 11
-1.763598
 21
-70.209613
  0
LINE
  8
別途部材
  6
CONTINUOUS
 10
-3.763598
 20
-60.87628
 11
-3.763598
 21
-70.209613
  0
LINE
  8
別途部材
  6
CONTINUOUS
 10
-4.763598
 20
-60.87628
 11
-4.763598
 21
-70.209613
  0
LINE
  8
別途部材
  6
CONTINUOUS
 10
-6.763598
 20
-61.87628
 11
-6.763598
 21
-70.209613
  0
LINE
  8
別途部材
  6
CONTINUOUS
 10
-5.763598
 20
-61.87628
 11
-5.763598
 21
-70.209613
  0
LINE
  8
別途部材
  6
CONTINUOUS
 10
-2.763598
 20
-61.87628
 11
-2.763598
 21
-70.209613
  0
LINE
  8
別途部材
  6
CONTINUOUS
 10
-7.763598
 20
-60.87628
 11
-7.763598
 21
-70.209613
  0
LINE
  8
別途部材
  6
CONTINUOUS
 10
-9.763598
 20
-61.87628
 11
-9.763598
 21
-70.209613
  0
LINE
  8
別途部材
  6
CONTINUOUS
 10
-8.763598
 20
-60.87628
 11
-8.763598
 21
-70.209613
  0
LINE
  8
別途部材
  6
CONTINUOUS
 10
-10.763598
 20
-61.87628
 11
-10.763598
 21
-70.209613
  0
LINE
  8
別途部材
  6
CONTINUOUS
 10
-11.763598
 20
-60.87628
 11
-11.763598
 21
-70.209613
  0
LINE
  8
別途部材
  6
CONTINUOUS
 10
-13.763598
 20
-61.87628
 11
-13.763598
 21
-70.209613
  0
LINE
  8
別途部材
  6
CONTINUOUS
 10
-12.763598
 20
-60.87628
 11
-12.763598
 21
-70.209613
  0
LINE
  8
別途部材
  6
CONTINUOUS
 10
-14.763598
 20
-61.87628
 11
-14.763598
 21
-70.209613
  0
LINE
  8
別途部材
  6
CONTINUOUS
 10
-15.763598
 20
-60.87628
 11
-15.763598
 21
-70.209613
  0
LINE
  8
別途部材
  6
CONTINUOUS
 10
-17.763598
 20
-61.87628
 11
-17.763598
 21
-70.209613
  0
LINE
  8
別途部材
  6
CONTINUOUS
 10
-16.763598
 20
-60.87628
 11
-16.763598
 21
-70.209613
  0
LINE
  8
別途部材
  6
CONTINUOUS
 10
-18.763598
 20
-61.87628
 11
-18.763598
 21
-70.209613
  0
LINE
  8
別途部材
  6
CONTINUOUS
 10
-19.763598
 20
-60.87628
 11
-19.763598
 21
-70.209613
  0
LINE
  8
別途部材
  6
CONTINUOUS
 10
5.236403
 20
-61.87628
 11
6.403067
 21
-61.87628
  0
ENDBLK
  0
BLOCK
  2
*GRP_0018
 70
    65
 10
0.0
 20
0.0
  0
LINE
  8
補助線
  6
BYBLOCK
 62
    64
 10
-58.52841
 20
-75.122355
 11
-58.66546
 21
-75.2172
  0
LINE
  8
補助線
  6
BYBLOCK
 62
    64
 10
-58.644358
 20
-75.10125
 11
-58.549513
 21
-75.238303
  0
LINE
  8
補助線
  6
BYBLOCK
 62
    64
 10
-49.401008
 20
-68.805665
 11
-49.538058
 21
-68.900508
  0
LINE
  8
補助線
  6
BYBLOCK
 62
    64
 10
-49.516955
 20
-68.78456
 11
-49.42211
 21
-68.92161
  0
LINE
  8
補助線
  6
BYBLOCK
 62
    64
 10
-40.410655
 20
-62.583817
 11
-40.273607
 21
-62.488973
  0
LINE
  8
補助線
  6
BYBLOCK
 62
    64
 10
-40.389555
 20
-62.467868
 11
-40.294708
 21
-62.60492
  0
LINE
  8
型材断面
  6
CONTINUOUS
 10
-59.345255
 20
-74.67423
 11
-59.471865
 21
-75.36991
  0
LINE
  8
型材断面
  6
CONTINUOUS
 10
-59.471865
 20
-75.36991
 11
-59.092483
 21
-75.9181
  0
LINE
  8
型材断面
  6
CONTINUOUS
 10
-59.092483
 20
-75.9181
 11
-58.396803
 21
-76.04471
  0
LINE
  8
型材断面
  6
CONTINUOUS
 10
-40.542263
 20
-61.661465
 11
-39.846583
 21
-61.788075
  0
LINE
  8
型材断面
  6
CONTINUOUS
 10
-39.846583
 20
-61.788075
 11
-39.4672
 21
-62.336265
  0
LINE
  8
型材断面
  6
CONTINUOUS
 10
-39.4672
 20
-62.336265
 11
-39.59381
 21
-63.031945
  0
LINE
  8
型材断面
  6
CONTINUOUS
 10
-59.345255
 20
-74.67423
 11
-40.542263
 21
-61.661465
  0
LINE
  8
型材断面
  6
CONTINUOUS
 10
-58.396803
 20
-76.04471
 11
-39.59381
 21
-63.031945
  0
CIRCLE
  8
ボルト／ビス
  6
CONTINUOUS
 10
-58.596935
 20
-75.169777
 40
0.250185
  0
CIRCLE
  8
ボルト／ビス
  6
CONTINUOUS
 10
-58.596935
 20
-75.169777
 40
0.301025
  0
LINE
  8
ボルト／ビス
  6
CONTINUOUS
 62
    64
 10
-58.846285
 20
-75.190215
 11
-58.739307
 21
-74.964055
  0
LINE
  8
ボルト／ビス
  6
CONTINUOUS
 62
    64
 10
-58.489958
 20
-74.943617
 11
-58.739307
 21
-74.964055
  0
LINE
  8
ボルト／ビス
  6
CONTINUOUS
 62
    64
 10
-58.703913
 20
-75.395938
 11
-58.454562
 21
-75.3755
  0
LINE
  8
ボルト／ビス
  6
CONTINUOUS
 62
    64
 10
-58.347585
 20
-75.14934
 11
-58.454562
 21
-75.3755
  0
LINE
  8
ボルト／ビス
  6
CONTINUOUS
 62
    64
 10
-58.846285
 20
-75.190215
 11
-58.703913
 21
-75.395938
  0
LINE
  8
ボルト／ビス
  6
CONTINUOUS
 62
    64
 10
-58.489958
 20
-74.943617
 11
-58.347585
 21
-75.14934
  0
CIRCLE
  8
ボルト／ビス
  6
CONTINUOUS
 62
    64
 10
-58.596935
 20
-75.169777
 40
0.216668
  0
CIRCLE
  8
ボルト／ビス
  6
CONTINUOUS
 10
-49.469532
 20
-68.853085
 40
0.250185
  0
CIRCLE
  8
ボルト／ビス
  6
CONTINUOUS
 10
-49.469532
 20
-68.853085
 40
0.301025
  0
LINE
  8
ボルト／ビス
  6
CONTINUOUS
 62
    64
 10
-49.718885
 20
-68.873523
 11
-49.611907
 21
-68.647362
  0
LINE
  8
ボルト／ビス
  6
CONTINUOUS
 62
    64
 10
-49.362555
 20
-68.626925
 11
-49.611907
 21
-68.647362
  0
LINE
  8
ボルト／ビス
  6
CONTINUOUS
 62
    64
 10
-49.57651
 20
-69.079248
 11
-49.32716
 21
-69.05881
  0
LINE
  8
ボルト／ビス
  6
CONTINUOUS
 62
    64
 10
-49.220185
 20
-68.83265
 11
-49.32716
 21
-69.05881
  0
LINE
  8
ボルト／ビス
  6
CONTINUOUS
 62
    64
 10
-49.718885
 20
-68.873523
 11
-49.57651
 21
-69.079248
  0
LINE
  8
ボルト／ビス
  6
CONTINUOUS
 62
    64
 10
-49.362555
 20
-68.626925
 11
-49.220185
 21
-68.83265
  0
CIRCLE
  8
ボルト／ビス
  6
CONTINUOUS
 62
    64
 10
-49.469532
 20
-68.853085
 40
0.216668
  0
CIRCLE
  8
ボルト／ビス
  6
CONTINUOUS
 10
-40.34213
 20
-62.536395
 40
0.250185
  0
CIRCLE
  8
ボルト／ビス
  6
CONTINUOUS
 10
-40.34213
 20
-62.536395
 40
0.301025
  0
LINE
  8
ボルト／ビス
  6
CONTINUOUS
 62
    64
 10
-40.235153
 20
-62.310232
 11
-40.484502
 21
-62.330673
  0
LINE
  8
ボルト／ビス
  6
CONTINUOUS
 62
    64
 10
-40.59148
 20
-62.556833
 11
-40.484502
 21
-62.330673
  0
LINE
  8
ボルト／ビス
  6
CONTINUOUS
 62
    64
 10
-40.092782
 20
-62.515957
 11
-40.199758
 21
-62.742118
  0
LINE
  8
ボルト／ビス
  6
CONTINUOUS
 62
    64
 10
-40.449107
 20
-62.762555
 11
-40.199758
 21
-62.742118
  0
LINE
  8
ボルト／ビス
  6
CONTINUOUS
 62
    64
 10
-40.235153
 20
-62.310232
 11
-40.092782
 21
-62.515957
  0
LINE
  8
ボルト／ビス
  6
CONTINUOUS
 62
    64
 10
-40.59148
 20
-62.556833
 11
-40.449107
 21
-62.762555
  0
CIRCLE
  8
ボルト／ビス
  6
CONTINUOUS
 62
    64
 10
-40.34213
 20
-62.536395
 40
0.216668
  0
ENDBLK
  0
BLOCK
  2
*GRP_0019
 70
    65
 10
0.0
 20
0.0
  0
LINE
  8
補助線
  6
BYBLOCK
 62
    64
 10
-40.410655
 20
-75.122355
 11
-40.273605
 21
-75.2172
  0
LINE
  8
補助線
  6
BYBLOCK
 62
    64
 10
-40.294708
 20
-75.10125
 11
-40.389552
 21
-75.238303
  0
LINE
  8
補助線
  6
BYBLOCK
 62
    64
 10
-49.538058
 20
-68.805665
 11
-49.401008
 21
-68.900508
  0
LINE
  8
補助線
  6
BYBLOCK
 62
    64
 10
-49.42211
 20
-68.78456
 11
-49.516955
 21
-68.92161
  0
LINE
  8
補助線
  6
BYBLOCK
 62
    64
 10
-58.52841
 20
-62.583817
 11
-58.665457
 21
-62.488973
  0
LINE
  8
補助線
  6
BYBLOCK
 62
    64
 10
-58.54951
 20
-62.467868
 11
-58.644358
 21
-62.60492
  0
LINE
  8
型材断面
  6
CONTINUOUS
 10
-39.59381
 20
-74.67423
 11
-39.4672
 21
-75.36991
  0
LINE
  8
型材断面
  6
CONTINUOUS
 10
-39.4672
 20
-75.36991
 11
-39.846583
 21
-75.9181
  0
LINE
  8
型材断面
  6
CONTINUOUS
 10
-39.846583
 20
-75.9181
 11
-40.542263
 21
-76.04471
  0
LINE
  8
型材断面
  6
CONTINUOUS
 10
-58.396803
 20
-61.661465
 11
-59.092483
 21
-61.788075
  0
LINE
  8
型材断面
  6
CONTINUOUS
 10
-59.092483
 20
-61.788075
 11
-59.471865
 21
-62.336265
  0
LINE
  8
型材断面
  6
CONTINUOUS
 10
-59.471865
 20
-62.336265
 11
-59.345255
 21
-63.031945
  0
LINE
  8
型材断面
  6
CONTINUOUS
 10
-39.59381
 20
-74.67423
 11
-58.396803
 21
-61.661465
  0
LINE
  8
型材断面
  6
CONTINUOUS
 10
-40.542263
 20
-76.04471
 11
-59.345255
 21
-63.031945
  0
CIRCLE
  8
ボルト／ビス
  6
CONTINUOUS
 10
-40.34213
 20
-75.169777
 40
0.250185
  0
CIRCLE
  8
ボルト／ビス
  6
CONTINUOUS
 10
-40.34213
 20
-75.169777
 40
0.301025
  0
LINE
  8
ボルト／ビス
  6
CONTINUOUS
 62
    64
 10
-40.09278
 20
-75.190215
 11
-40.199758
 21
-74.964055
  0
LINE
  8
ボルト／ビス
  6
CONTINUOUS
 62
    64
 10
-40.449107
 20
-74.943617
 11
-40.199758
 21
-74.964055
  0
LINE
  8
ボルト／ビス
  6
CONTINUOUS
 62
    64
 10
-40.235153
 20
-75.395938
 11
-40.484502
 21
-75.3755
  0
LINE
  8
ボルト／ビス
  6
CONTINUOUS
 62
    64
 10
-40.59148
 20
-75.14934
 11
-40.484502
 21
-75.3755
  0
LINE
  8
ボルト／ビス
  6
CONTINUOUS
 62
    64
 10
-40.09278
 20
-75.190215
 11
-40.235153
 21
-75.395938
  0
LINE
  8
ボルト／ビス
  6
CONTINUOUS
 62
    64
 10
-40.449107
 20
-74.943617
 11
-40.59148
 21
-75.14934
  0
CIRCLE
  8
ボルト／ビス
  6
CONTINUOUS
 62
    64
 10
-40.34213
 20
-75.169777
 40
0.216668
  0
CIRCLE
  8
ボルト／ビス
  6
CONTINUOUS
 10
-49.469532
 20
-68.853085
 40
0.250185
  0
CIRCLE
  8
ボルト／ビス
  6
CONTINUOUS
 10
-49.469532
 20
-68.853085
 40
0.301025
  0
LINE
  8
ボルト／ビス
  6
CONTINUOUS
 62
    64
 10
-49.22018
 20
-68.873523
 11
-49.327157
 21
-68.647362
  0
LINE
  8
ボルト／ビス
  6
CONTINUOUS
 62
    64
 10
-49.57651
 20
-68.626925
 11
-49.327157
 21
-68.647362
  0
LINE
  8
ボルト／ビス
  6
CONTINUOUS
 62
    64
 10
-49.362555
 20
-69.079248
 11
-49.611905
 21
-69.05881
  0
LINE
  8
ボルト／ビス
  6
CONTINUOUS
 62
    64
 10
-49.71888
 20
-68.83265
 11
-49.611905
 21
-69.05881
  0
LINE
  8
ボルト／ビス
  6
CONTINUOUS
 62
    64
 10
-49.22018
 20
-68.873523
 11
-49.362555
 21
-69.079248
  0
LINE
  8
ボルト／ビス
  6
CONTINUOUS
 62
    64
 10
-49.57651
 20
-68.626925
 11
-49.71888
 21
-68.83265
  0
CIRCLE
  8
ボルト／ビス
  6
CONTINUOUS
 62
    64
 10
-49.469532
 20
-68.853085
 40
0.216668
  0
CIRCLE
  8
ボルト／ビス
  6
CONTINUOUS
 10
-58.596935
 20
-62.536395
 40
0.250185
  0
CIRCLE
  8
ボルト／ビス
  6
CONTINUOUS
 10
-58.596935
 20
-62.536395
 40
0.301025
  0
LINE
  8
ボルト／ビス
  6
CONTINUOUS
 62
    64
 10
-58.703913
 20
-62.310232
 11
-58.454562
 21
-62.330673
  0
LINE
  8
ボルト／ビス
  6
CONTINUOUS
 62
    64
 10
-58.347585
 20
-62.556833
 11
-58.454562
 21
-62.330673
  0
LINE
  8
ボルト／ビス
  6
CONTINUOUS
 62
    64
 10
-58.846282
 20
-62.515957
 11
-58.739307
 21
-62.742118
  0
LINE
  8
ボルト／ビス
  6
CONTINUOUS
 62
    64
 10
-58.489958
 20
-62.762555
 11
-58.739307
 21
-62.742118
  0
LINE
  8
ボルト／ビス
  6
CONTINUOUS
 62
    64
 10
-58.703913
 20
-62.310232
 11
-58.846282
 21
-62.515957
  0
LINE
  8
ボルト／ビス
  6
CONTINUOUS
 62
    64
 10
-58.347585
 20
-62.556833
 11
-58.489958
 21
-62.762555
  0
CIRCLE
  8
ボルト／ビス
  6
CONTINUOUS
 62
    64
 10
-58.596935
 20
-62.536395
 40
0.216668
  0
ENDBLK
  0
BLOCK
  2
*GRP_0020
 70
    65
 10
0.0
 20
0.0
  0
LINE
  8
補助線
  6
BYBLOCK
 62
    64
 10
18.00121
 20
-75.122355
 11
18.13826
 21
-75.2172
  0
LINE
  8
補助線
  6
BYBLOCK
 62
    64
 10
18.117158
 20
-75.10125
 11
18.022313
 21
-75.238303
  0
LINE
  8
補助線
  6
BYBLOCK
 62
    64
 10
8.873807
 20
-68.805665
 11
9.010858
 21
-68.900508
  0
LINE
  8
補助線
  6
BYBLOCK
 62
    64
 10
8.989755
 20
-68.78456
 11
8.89491
 21
-68.92161
  0
LINE
  8
補助線
  6
BYBLOCK
 62
    64
 10
-0.116545
 20
-62.583817
 11
-0.253593
 21
-62.488973
  0
LINE
  8
補助線
  6
BYBLOCK
 62
    64
 10
-0.137645
 20
-62.467868
 11
-0.232492
 21
-62.60492
  0
LINE
  8
型材断面
  6
CONTINUOUS
 10
18.818055
 20
-74.67423
 11
18.944665
 21
-75.36991
  0
LINE
  8
型材断面
  6
CONTINUOUS
 10
18.944665
 20
-75.36991
 11
18.565282
 21
-75.9181
  0
LINE
  8
型材断面
  6
CONTINUOUS
 10
18.565282
 20
-75.9181
 11
17.869602
 21
-76.04471
  0
LINE
  8
型材断面
  6
CONTINUOUS
 10
0.015063
 20
-61.661465
 11
-0.680617
 21
-61.788075
  0
LINE
  8
型材断面
  6
CONTINUOUS
 10
-0.680617
 20
-61.788075
 11
-1.06
 21
-62.336265
  0
LINE
  8
型材断面
  6
CONTINUOUS
 10
-1.06
 20
-62.336265
 11
-0.93339
 21
-63.031945
  0
LINE
  8
型材断面
  6
CONTINUOUS
 10
18.818055
 20
-74.67423
 11
0.015063
 21
-61.661465
  0
LINE
  8
型材断面
  6
CONTINUOUS
 10
17.869602
 20
-76.04471
 11
-0.93339
 21
-63.031945
  0
CIRCLE
  8
ボルト／ビス
  6
CONTINUOUS
 10
18.069735
 20
-75.169777
 40
0.250185
  0
CIRCLE
  8
ボルト／ビス
  6
CONTINUOUS
 10
18.069735
 20
-75.169777
 40
0.301025
  0
LINE
  8
ボルト／ビス
  6
CONTINUOUS
 62
    64
 10
18.319085
 20
-75.190215
 11
18.212107
 21
-74.964055
  0
LINE
  8
ボルト／ビス
  6
CONTINUOUS
 62
    64
 10
17.962758
 20
-74.943617
 11
18.212107
 21
-74.964055
  0
LINE
  8
ボルト／ビス
  6
CONTINUOUS
 62
    64
 10
18.176713
 20
-75.395938
 11
17.927362
 21
-75.3755
  0
LINE
  8
ボルト／ビス
  6
CONTINUOUS
 62
    64
 10
17.820385
 20
-75.14934
 11
17.927362
 21
-75.3755
  0
LINE
  8
ボルト／ビス
  6
CONTINUOUS
 62
    64
 10
18.319085
 20
-75.190215
 11
18.176713
 21
-75.395938
  0
LINE
  8
ボルト／ビス
  6
CONTINUOUS
 62
    64
 10
17.962758
 20
-74.943617
 11
17.820385
 21
-75.14934
  0
CIRCLE
  8
ボルト／ビス
  6
CONTINUOUS
 62
    64
 10
18.069735
 20
-75.169777
 40
0.216668
  0
CIRCLE
  8
ボルト／ビス
  6
CONTINUOUS
 10
8.942332
 20
-68.853085
 40
0.250185
  0
CIRCLE
  8
ボルト／ビス
  6
CONTINUOUS
 10
8.942332
 20
-68.853085
 40
0.301025
  0
LINE
  8
ボルト／ビス
  6
CONTINUOUS
 62
    64
 10
9.191685
 20
-68.873523
 11
9.084707
 21
-68.647362
  0
LINE
  8
ボルト／ビス
  6
CONTINUOUS
 62
    64
 10
8.835355
 20
-68.626925
 11
9.084707
 21
-68.647362
  0
LINE
  8
ボルト／ビス
  6
CONTINUOUS
 62
    64
 10
9.04931
 20
-69.079248
 11
8.79996
 21
-69.05881
  0
LINE
  8
ボルト／ビス
  6
CONTINUOUS
 62
    64
 10
8.692985
 20
-68.83265
 11
8.79996
 21
-69.05881
  0
LINE
  8
ボルト／ビス
  6
CONTINUOUS
 62
    64
 10
9.191685
 20
-68.873523
 11
9.04931
 21
-69.079248
  0
LINE
  8
ボルト／ビス
  6
CONTINUOUS
 62
    64
 10
8.835355
 20
-68.626925
 11
8.692985
 21
-68.83265
  0
CIRCLE
  8
ボルト／ビス
  6
CONTINUOUS
 62
    64
 10
8.942332
 20
-68.853085
 40
0.216668
  0
CIRCLE
  8
ボルト／ビス
  6
CONTINUOUS
 10
-0.18507
 20
-62.536395
 40
0.250185
  0
CIRCLE
  8
ボルト／ビス
  6
CONTINUOUS
 10
-0.18507
 20
-62.536395
 40
0.301025
  0
LINE
  8
ボルト／ビス
  6
CONTINUOUS
 62
    64
 10
-0.292047
 20
-62.310232
 11
-0.042698
 21
-62.330673
  0
LINE
  8
ボルト／ビス
  6
CONTINUOUS
 62
    64
 10
0.06428
 20
-62.556833
 11
-0.042698
 21
-62.330673
  0
LINE
  8
ボルト／ビス
  6
CONTINUOUS
 62
    64
 10
-0.434418
 20
-62.515957
 11
-0.327442
 21
-62.742118
  0
LINE
  8
ボルト／ビス
  6
CONTINUOUS
 62
    64
 10
-0.078093
 20
-62.762555
 11
-0.327442
 21
-62.742118
  0
LINE
  8
ボルト／ビス
  6
CONTINUOUS
 62
    64
 10
-0.292047
 20
-62.310232
 11
-0.434418
 21
-62.515957
  0
LINE
  8
ボルト／ビス
  6
CONTINUOUS
 62
    64
 10
0.06428
 20
-62.556833
 11
-0.078093
 21
-62.762555
  0
CIRCLE
  8
ボルト／ビス
  6
CONTINUOUS
 62
    64
 10
-0.18507
 20
-62.536395
 40
0.216668
  0
ENDBLK
  0
BLOCK
  2
*GRP_0021
 70
    65
 10
0.0
 20
0.0
  0
LINE
  8
補助線
  6
BYBLOCK
 62
    64
 10
-0.116545
 20
-75.122355
 11
-0.253595
 21
-75.2172
  0
LINE
  8
補助線
  6
BYBLOCK
 62
    64
 10
-0.232492
 20
-75.10125
 11
-0.137648
 21
-75.238303
  0
LINE
  8
補助線
  6
BYBLOCK
 62
    64
 10
9.010858
 20
-68.805665
 11
8.873807
 21
-68.900508
  0
LINE
  8
補助線
  6
BYBLOCK
 62
    64
 10
8.89491
 20
-68.78456
 11
8.989755
 21
-68.92161
  0
LINE
  8
補助線
  6
BYBLOCK
 62
    64
 10
18.00121
 20
-62.583817
 11
18.138257
 21
-62.488973
  0
LINE
  8
補助線
  6
BYBLOCK
 62
    64
 10
18.02231
 20
-62.467868
 11
18.117158
 21
-62.60492
  0
LINE
  8
型材断面
  6
CONTINUOUS
 10
-0.93339
 20
-74.67423
 11
-1.06
 21
-75.36991
  0
LINE
  8
型材断面
  6
CONTINUOUS
 10
-1.06
 20
-75.36991
 11
-0.680617
 21
-75.9181
  0
LINE
  8
型材断面
  6
CONTINUOUS
 10
-0.680617
 20
-75.9181
 11
0.015063
 21
-76.04471
  0
LINE
  8
型材断面
  6
CONTINUOUS
 10
17.869602
 20
-61.661465
 11
18.565282
 21
-61.788075
  0
LINE
  8
型材断面
  6
CONTINUOUS
 10
18.565282
 20
-61.788075
 11
18.944665
 21
-62.336265
  0
LINE
  8
型材断面
  6
CONTINUOUS
 10
18.944665
 20
-62.336265
 11
18.818055
 21
-63.031945
  0
LINE
  8
型材断面
  6
CONTINUOUS
 10
-0.93339
 20
-74.67423
 11
17.869602
 21
-61.661465
  0
LINE
  8
型材断面
  6
CONTINUOUS
 10
0.015063
 20
-76.04471
 11
18.818055
 21
-63.031945
  0
CIRCLE
  8
ボルト／ビス
  6
CONTINUOUS
 10
-0.18507
 20
-75.169777
 40
0.250185
  0
CIRCLE
  8
ボルト／ビス
  6
CONTINUOUS
 10
-0.18507
 20
-75.169777
 40
0.301025
  0
LINE
  8
ボルト／ビス
  6
CONTINUOUS
 62
    64
 10
-0.43442
 20
-75.190215
 11
-0.327442
 21
-74.964055
  0
LINE
  8
ボルト／ビス
  6
CONTINUOUS
 62
    64
 10
-0.078093
 20
-74.943617
 11
-0.327442
 21
-74.964055
  0
LINE
  8
ボルト／ビス
  6
CONTINUOUS
 62
    64
 10
-0.292047
 20
-75.395938
 11
-0.042698
 21
-75.3755
  0
LINE
  8
ボルト／ビス
  6
CONTINUOUS
 62
    64
 10
0.06428
 20
-75.14934
 11
-0.042698
 21
-75.3755
  0
LINE
  8
ボルト／ビス
  6
CONTINUOUS
 62
    64
 10
-0.43442
 20
-75.190215
 11
-0.292047
 21
-75.395938
  0
LINE
  8
ボルト／ビス
  6
CONTINUOUS
 62
    64
 10
-0.078093
 20
-74.943617
 11
0.06428
 21
-75.14934
  0
CIRCLE
  8
ボルト／ビス
  6
CONTINUOUS
 62
    64
 10
-0.18507
 20
-75.169777
 40
0.216668
  0
CIRCLE
  8
ボルト／ビス
  6
CONTINUOUS
 10
8.942332
 20
-68.853085
 40
0.250185
  0
CIRCLE
  8
ボルト／ビス
  6
CONTINUOUS
 10
8.942332
 20
-68.853085
 40
0.301025
  0
LINE
  8
ボルト／ビス
  6
CONTINUOUS
 62
    64
 10
8.69298
 20
-68.873523
 11
8.799957
 21
-68.647362
  0
LINE
  8
ボルト／ビス
  6
CONTINUOUS
 62
    64
 10
9.04931
 20
-68.626925
 11
8.799957
 21
-68.647362
  0
LINE
  8
ボルト／ビス
  6
CONTINUOUS
 62
    64
 10
8.835355
 20
-69.079248
 11
9.084705
 21
-69.05881
  0
LINE
  8
ボルト／ビス
  6
CONTINUOUS
 62
    64
 10
9.19168
 20
-68.83265
 11
9.084705
 21
-69.05881
  0
LINE
  8
ボルト／ビス
  6
CONTINUOUS
 62
    64
 10
8.69298
 20
-68.873523
 11
8.835355
 21
-69.079248
  0
LINE
  8
ボルト／ビス
  6
CONTINUOUS
 62
    64
 10
9.04931
 20
-68.626925
 11
9.19168
 21
-68.83265
  0
CIRCLE
  8
ボルト／ビス
  6
CONTINUOUS
 62
    64
 10
8.942332
 20
-68.853085
 40
0.216668
  0
CIRCLE
  8
ボルト／ビス
  6
CONTINUOUS
 10
18.069735
 20
-62.536395
 40
0.250185
  0
CIRCLE
  8
ボルト／ビス
  6
CONTINUOUS
 10
18.069735
 20
-62.536395
 40
0.301025
  0
LINE
  8
ボルト／ビス
  6
CONTINUOUS
 62
    64
 10
18.176713
 20
-62.310232
 11
17.927362
 21
-62.330673
  0
LINE
  8
ボルト／ビス
  6
CONTINUOUS
 62
    64
 10
17.820385
 20
-62.556833
 11
17.927362
 21
-62.330673
  0
LINE
  8
ボルト／ビス
  6
CONTINUOUS
 62
    64
 10
18.319082
 20
-62.515957
 11
18.212107
 21
-62.742118
  0
LINE
  8
ボルト／ビス
  6
CONTINUOUS
 62
    64
 10
17.962758
 20
-62.762555
 11
18.212107
 21
-62.742118
  0
LINE
  8
ボルト／ビス
  6
CONTINUOUS
 62
    64
 10
18.176713
 20
-62.310232
 11
18.319082
 21
-62.515957
  0
LINE
  8
ボルト／ビス
  6
CONTINUOUS
 62
    64
 10
17.820385
 20
-62.556833
 11
17.962758
 21
-62.762555
  0
CIRCLE
  8
ボルト／ビス
  6
CONTINUOUS
 62
    64
 10
18.069735
 20
-62.536395
 40
0.216668
  0
ENDBLK
  0
BLOCK
  2
*DIM_0022
 70
    65
 10
0.0
 20
0.0
  0
LINE
  8
寸法
  6
BYBLOCK
 62
     0
 10
-64.930265
 20
47.814033
 11
-78.223103
 21
47.814033
  0
LINE
  8
寸法
  6
BYBLOCK
 62
     0
 10
-64.930265
 20
27.814033
 11
-78.223103
 21
27.814033
  0
LINE
  8
寸法
  6
BYBLOCK
 62
     0
 10
-78.223103
 20
47.814033
 11
-78.223103
 21
27.814033
  0
POINT
  8
寸法
 62
     0
 10
-78.223103
 20
47.814033
  0
POINT
  8
寸法
 62
     0
 10
-78.223103
 20
27.814033
  0
TEXT
  7
TextStyle03
  8
寸法
  6
CONTINUOUS
 62
     0
 10
-78.6
 20
35.3625
  1
600
 40
3.0
 50
90.0
 72
     5
 11
-78.6
 21
40.2375
  0
ENDBLK
  0
BLOCK
  2
*DIM_0023
 70
    65
 10
0.0
 20
0.0
  0
LINE
  8
寸法
  6
BYBLOCK
 62
     0
 10
-55.2636
 20
55.814033
 11
-55.2636
 21
85.561652
  0
LINE
  8
寸法
  6
BYBLOCK
 62
     0
 10
-31.930267
 20
55.814033
 11
-31.930267
 21
85.561652
  0
LINE
  8
寸法
  6
BYBLOCK
 62
     0
 10
-55.2636
 20
85.561652
 11
-31.930267
 21
85.561652
  0
POINT
  8
寸法
 62
     0
 10
-55.2636
 20
85.561652
  0
POINT
  8
寸法
 62
     0
 10
-31.930267
 20
85.561652
  0
TEXT
  7
TextStyle03
  8
寸法
  6
CONTINUOUS
 62
     0
 10
-46.0375
 20
85.95
  1
700
 40
3.0
 72
     5
 11
-41.1625
 21
85.95
  0
ENDBLK
  0
BLOCK
  2
*DIM_0024
 70
    65
 10
0.0
 20
0.0
  0
LINE
  8
寸法
  6
BYBLOCK
 62
     0
 10
-8.596933
 20
55.814033
 11
-8.596933
 21
85.561652
  0
LINE
  8
寸法
  6
BYBLOCK
 62
     0
 10
-31.930267
 20
85.561652
 11
-8.596933
 21
85.561652
  0
POINT
  8
寸法
 62
     0
 10
-8.596933
 20
85.561652
  0
TEXT
  7
TextStyle03
  8
寸法
  6
CONTINUOUS
 62
     0
 10
-22.7125
 20
85.95
  1
700
 40
3.0
 72
     5
 11
-17.8375
 21
85.95
  0
ENDBLK
  0
BLOCK
  2
*DIM_0025
 70
    65
 10
0.0
 20
0.0
  0
LINE
  8
寸法
  6
BYBLOCK
 62
     0
 10
14.7364
 20
55.814033
 11
14.7364
 21
85.561652
  0
LINE
  8
寸法
  6
BYBLOCK
 62
     0
 10
-8.596933
 20
85.561652
 11
14.7364
 21
85.561652
  0
POINT
  8
寸法
 62
     0
 10
14.7364
 20
85.561652
  0
TEXT
  7
TextStyle03
  8
寸法
  6
CONTINUOUS
 62
     0
 10
0.6375
 20
85.95
  1
700
 40
3.0
 72
     5
 11
5.5125
 21
85.95
  0
ENDBLK
  0
BLOCK
  2
*DIM_0026
 70
    65
 10
0.0
 20
0.0
  0
LINE
  8
寸法
  6
BYBLOCK
 62
     0
 10
9.403065
 20
-51.87628
 11
37.372718
 21
-51.87628
  0
LINE
  8
寸法
  6
BYBLOCK
 62
     0
 10
37.372718
 20
-61.87628
 11
37.372718
 21
-51.87628
  0
POINT
  8
寸法
 62
     0
 10
37.372718
 20
-61.87628
  0
POINT
  8
寸法
 62
     0
 10
37.372718
 20
-51.87628
  0
TEXT
  7
TextStyle03
  8
寸法
  6
CONTINUOUS
 62
     0
 10
41.625
 20
-66.21875
  1
上昇266以上
 40
3.0
 50
90.0
 72
     5
 11
41.625
 21
-48.03125
  0
ENDBLK
  0
BLOCK
  2
*GRP_0027
 70
    65
 10
0.0
 20
0.0
  0
LINE
  8
ボルト／ビス
  6
CONTINUOUS
 10
110.936333
 20
53.4807
 11
110.469667
 21
53.4807
  0
LINE
  8
ボルト／ビス
  6
CONTINUOUS
 10
110.936333
 20
53.847365
 11
110.869667
 21
53.847365
  0
LINE
  8
ボルト／ビス
  6
CONTINUOUS
 10
110.869667
 20
53.847365
 11
110.869667
 21
53.114033
  0
LINE
  8
ボルト／ビス
  6
CONTINUOUS
 10
110.869667
 20
53.114033
 11
110.936333
 21
53.114033
  0
LINE
  8
ボルト／ビス
  6
CONTINUOUS
 10
110.936333
 20
53.847365
 11
110.936333
 21
53.114033
  0
LINE
  8
ボルト／ビス
  6
CONTINUOUS
 10
110.836333
 20
53.7807
 11
110.869667
 21
53.7807
  0
LINE
  8
ボルト／ビス
  6
CONTINUOUS
 10
110.836333
 20
53.7807
 11
110.836333
 21
53.1807
  0
LINE
  8
ボルト／ビス
  6
CONTINUOUS
 10
110.836333
 20
53.1807
 11
110.869667
 21
53.1807
  0
LINE
  8
ボルト／ビス
  6
CONTINUOUS
 62
    64
 10
110.636333
 20
53.641075
 11
110.648007
 21
53.67315
  0
ARC
  8
ボルト／ビス
  6
CONTINUOUS
 62
    64
 10
110.74131
 20
53.625036
 40
0.104978
 50
180.0
 51
207.278033
  0
ARC
  8
ボルト／ビス
  6
CONTINUOUS
 62
    64
 10
111.038734
 20
53.480699
 40
0.402402
 50
166.165015
 51
193.834998
  0
LINE
  8
ボルト／ビス
  6
CONTINUOUS
 62
    64
 10
110.636333
 20
53.320325
 11
110.648007
 21
53.28825
  0
ARC
  8
ボルト／ビス
  6
CONTINUOUS
 62
    64
 10
110.74131
 20
53.336361
 40
0.104978
 50
152.721967
 51
180.0
  0
LINE
  8
ボルト／ビス
  6
CONTINUOUS
 62
    64
 10
110.636333
 20
53.641075
 11
110.636333
 21
53.320325
  0
LINE
  8
ボルト／ビス
  6
CONTINUOUS
 62
    64
 10
110.648007
 20
53.28825
 11
110.769667
 21
53.28825
  0
LINE
  8
ボルト／ビス
  6
CONTINUOUS
 62
    64
 10
110.648007
 20
53.384475
 11
110.769667
 21
53.384475
  0
LINE
  8
ボルト／ビス
  6
CONTINUOUS
 62
    64
 10
110.648007
 20
53.67315
 11
110.769667
 21
53.67315
  0
LINE
  8
ボルト／ビス
  6
CONTINUOUS
 62
    64
 10
110.648007
 20
53.576925
 11
110.769667
 21
53.576925
  0
LINE
  8
ボルト／ビス
  6
CONTINUOUS
 10
110.769667
 20
53.67315
 11
110.769667
 21
53.28825
  0
LINE
  8
ボルト／ビス
  6
CONTINUOUS
 10
110.769667
 20
53.6807
 11
110.836333
 21
53.6807
  0
LINE
  8
ボルト／ビス
  6
CONTINUOUS
 10
110.769667
 20
53.6807
 11
110.769667
 21
53.2807
  0
LINE
  8
ボルト／ビス
  6
CONTINUOUS
 10
110.769667
 20
53.2807
 11
110.836333
 21
53.2807
  0
ENDBLK
  0
BLOCK
  2
*GRP_0028
 70
    65
 10
0.0
 20
0.0
  0
LINE
  8
ボルト／ビス
  6
CONTINUOUS
 10
110.936333
 20
22.147365
 11
110.469667
 21
22.147365
  0
LINE
  8
ボルト／ビス
  6
CONTINUOUS
 10
110.936333
 20
22.51403
 11
110.869667
 21
22.51403
  0
LINE
  8
ボルト／ビス
  6
CONTINUOUS
 10
110.869667
 20
22.51403
 11
110.869667
 21
21.780697
  0
LINE
  8
ボルト／ビス
  6
CONTINUOUS
 10
110.869667
 20
21.780697
 11
110.936333
 21
21.780697
  0
LINE
  8
ボルト／ビス
  6
CONTINUOUS
 10
110.936333
 20
22.51403
 11
110.936333
 21
21.780697
  0
LINE
  8
ボルト／ビス
  6
CONTINUOUS
 10
110.836333
 20
22.447365
 11
110.869667
 21
22.447365
  0
LINE
  8
ボルト／ビス
  6
CONTINUOUS
 10
110.836333
 20
22.447365
 11
110.836333
 21
21.847365
  0
LINE
  8
ボルト／ビス
  6
CONTINUOUS
 10
110.836333
 20
21.847365
 11
110.869667
 21
21.847365
  0
LINE
  8
ボルト／ビス
  6
CONTINUOUS
 62
    64
 10
110.636333
 20
22.30774
 11
110.648007
 21
22.339815
  0
ARC
  8
ボルト／ビス
  6
CONTINUOUS
 62
    64
 10
110.74131
 20
22.291701
 40
0.104978
 50
180.0
 51
207.278033
  0
ARC
  8
ボルト／ビス
  6
CONTINUOUS
 62
    64
 10
111.038734
 20
22.147364
 40
0.402402
 50
166.165015
 51
193.834998
  0
LINE
  8
ボルト／ビス
  6
CONTINUOUS
 62
    64
 10
110.636333
 20
21.98699
 11
110.648007
 21
21.954915
  0
ARC
  8
ボルト／ビス
  6
CONTINUOUS
 62
    64
 10
110.74131
 20
22.003026
 40
0.104978
 50
152.721967
 51
180.0
  0
LINE
  8
ボルト／ビス
  6
CONTINUOUS
 62
    64
 10
110.636333
 20
22.30774
 11
110.636333
 21
21.98699
  0
LINE
  8
ボルト／ビス
  6
CONTINUOUS
 62
    64
 10
110.648007
 20
21.954915
 11
110.769667
 21
21.954915
  0
LINE
  8
ボルト／ビス
  6
CONTINUOUS
 62
    64
 10
110.648007
 20
22.05114
 11
110.769667
 21
22.05114
  0
LINE
  8
ボルト／ビス
  6
CONTINUOUS
 62
    64
 10
110.648007
 20
22.339815
 11
110.769667
 21
22.339815
  0
LINE
  8
ボルト／ビス
  6
CONTINUOUS
 62
    64
 10
110.648007
 20
22.24359
 11
110.769667
 21
22.24359
  0
LINE
  8
ボルト／ビス
  6
CONTINUOUS
 10
110.769667
 20
22.339815
 11
110.769667
 21
21.954915
  0
LINE
  8
ボルト／ビス
  6
CONTINUOUS
 10
110.769667
 20
22.347365
 11
110.836333
 21
22.347365
  0
LINE
  8
ボルト／ビス
  6
CONTINUOUS
 10
110.769667
 20
22.347365
 11
110.769667
 21
21.947365
  0
LINE
  8
ボルト／ビス
  6
CONTINUOUS
 10
110.769667
 20
21.947365
 11
110.836333
 21
21.947365
  0
ENDBLK
  0
BLOCK
  2
*GRP_0029
 70
    65
 10
0.0
 20
0.0
  0
LINE
  8
ボルト／ビス
  6
CONTINUOUS
 10
22.069735
 20
-70.209613
 11
22.069735
 21
-69.742947
  0
LINE
  8
ボルト／ビス
  6
CONTINUOUS
 10
21.70307
 20
-70.209613
 11
21.70307
 21
-70.142947
  0
LINE
  8
ボルト／ビス
  6
CONTINUOUS
 10
21.70307
 20
-70.142947
 11
22.436403
 21
-70.142947
  0
LINE
  8
ボルト／ビス
  6
CONTINUOUS
 10
22.436403
 20
-70.142947
 11
22.436403
 21
-70.209613
  0
LINE
  8
ボルト／ビス
  6
CONTINUOUS
 10
21.70307
 20
-70.209613
 11
22.436403
 21
-70.209613
  0
LINE
  8
ボルト／ビス
  6
CONTINUOUS
 10
21.769735
 20
-70.109612
 11
21.769735
 21
-70.142947
  0
LINE
  8
ボルト／ビス
  6
CONTINUOUS
 10
21.769735
 20
-70.109612
 11
22.369735
 21
-70.109612
  0
LINE
  8
ボルト／ビス
  6
CONTINUOUS
 10
22.369735
 20
-70.109612
 11
22.369735
 21
-70.142947
  0
LINE
  8
ボルト／ビス
  6
CONTINUOUS
 62
    64
 10
21.90936
 20
-69.909613
 11
21.877285
 21
-69.921288
  0
ARC
  8
ボルト／ビス
  6
CONTINUOUS
 62
    64
 10
21.925399
 20
-70.01459
 40
0.104978
 50
62.721967
 51
90.0
  0
ARC
  8
ボルト／ビス
  6
CONTINUOUS
 62
    64
 10
22.069737
 20
-70.312014
 40
0.402402
 50
76.165002
 51
103.834985
  0
LINE
  8
ボルト／ビス
  6
CONTINUOUS
 62
    64
 10
22.23011
 20
-69.909613
 11
22.262185
 21
-69.921288
  0
ARC
  8
ボルト／ビス
  6
CONTINUOUS
 62
    64
 10
22.214074
 20
-70.01459
 40
0.104978
 50
90.0
 51
117.278033
  0
LINE
  8
ボルト／ビス
  6
CONTINUOUS
 62
    64
 10
21.90936
 20
-69.909613
 11
22.23011
 21
-69.909613
  0
LINE
  8
ボルト／ビス
  6
CONTINUOUS
 62
    64
 10
22.262185
 20
-69.921288
 11
22.262185
 21
-70.042947
  0
LINE
  8
ボルト／ビス
  6
CONTINUOUS
 62
    64
 10
22.16596
 20
-69.921288
 11
22.16596
 21
-70.042947
  0
LINE
  8
ボルト／ビス
  6
CONTINUOUS
 62
    64
 10
21.877285
 20
-69.921288
 11
21.877285
 21
-70.042947
  0
LINE
  8
ボルト／ビス
  6
CONTINUOUS
 62
    64
 10
21.97351
 20
-69.921288
 11
21.97351
 21
-70.042947
  0
LINE
  8
ボルト／ビス
  6
CONTINUOUS
 10
21.877285
 20
-70.042947
 11
22.262185
 21
-70.042947
  0
LINE
  8
ボルト／ビス
  6
CONTINUOUS
 10
21.869735
 20
-70.042947
 11
21.869735
 21
-70.109612
  0
LINE
  8
ボルト／ビス
  6
CONTINUOUS
 10
21.869735
 20
-70.042947
 11
22.269735
 21
-70.042947
  0
LINE
  8
ボルト／ビス
  6
CONTINUOUS
 10
22.269735
 20
-70.042947
 11
22.269735
 21
-70.109612
  0
ENDBLK
  0
BLOCK
  2
*GRP_0030
 70
    65
 10
0.0
 20
0.0
  0
LINE
  8
ボルト／ビス
  6
DOT
 10
22.069735
 20
-60.209613
 11
22.069735
 21
-59.742947
  0
LINE
  8
ボルト／ビス
  6
DOT
 10
21.70307
 20
-60.209613
 11
21.70307
 21
-60.142947
  0
LINE
  8
ボルト／ビス
  6
DOT
 10
21.70307
 20
-60.142947
 11
22.436403
 21
-60.142947
  0
LINE
  8
ボルト／ビス
  6
DOT
 10
22.436403
 20
-60.142947
 11
22.436403
 21
-60.209613
  0
LINE
  8
ボルト／ビス
  6
DOT
 10
21.70307
 20
-60.209613
 11
22.436403
 21
-60.209613
  0
LINE
  8
ボルト／ビス
  6
DOT
 10
21.769735
 20
-60.109613
 11
21.769735
 21
-60.142947
  0
LINE
  8
ボルト／ビス
  6
DOT
 10
21.769735
 20
-60.109613
 11
22.369735
 21
-60.109613
  0
LINE
  8
ボルト／ビス
  6
DOT
 10
22.369735
 20
-60.109613
 11
22.369735
 21
-60.142947
  0
LINE
  8
ボルト／ビス
  6
DOT
 62
    64
 10
21.90936
 20
-59.909613
 11
21.877285
 21
-59.921288
  0
ARC
  8
ボルト／ビス
  6
DOT
 62
    64
 10
21.925399
 20
-60.01459
 40
0.104978
 50
62.721967
 51
90.0
  0
ARC
  8
ボルト／ビス
  6
DOT
 62
    64
 10
22.069737
 20
-60.312014
 40
0.402402
 50
76.165002
 51
103.834985
  0
LINE
  8
ボルト／ビス
  6
DOT
 62
    64
 10
22.23011
 20
-59.909613
 11
22.262185
 21
-59.921288
  0
ARC
  8
ボルト／ビス
  6
DOT
 62
    64
 10
22.214074
 20
-60.01459
 40
0.104978
 50
90.0
 51
117.278033
  0
LINE
  8
ボルト／ビス
  6
DOT
 62
    64
 10
21.90936
 20
-59.909613
 11
22.23011
 21
-59.909613
  0
LINE
  8
ボルト／ビス
  6
DOT
 62
    64
 10
22.262185
 20
-59.921288
 11
22.262185
 21
-60.042947
  0
LINE
  8
ボルト／ビス
  6
DOT
 62
    64
 10
22.16596
 20
-59.921288
 11
22.16596
 21
-60.042947
  0
LINE
  8
ボルト／ビス
  6
DOT
 62
    64
 10
21.877285
 20
-59.921288
 11
21.877285
 21
-60.042947
  0
LINE
  8
ボルト／ビス
  6
DOT
 62
    64
 10
21.97351
 20
-59.921288
 11
21.97351
 21
-60.042947
  0
LINE
  8
ボルト／ビス
  6
DOT
 10
21.877285
 20
-60.042947
 11
22.262185
 21
-60.042947
  0
LINE
  8
ボルト／ビス
  6
DOT
 10
21.869735
 20
-60.042947
 11
21.869735
 21
-60.109613
  0
LINE
  8
ボルト／ビス
  6
DOT
 10
21.869735
 20
-60.042947
 11
22.269735
 21
-60.042947
  0
LINE
  8
ボルト／ビス
  6
DOT
 10
22.269735
 20
-60.042947
 11
22.269735
 21
-60.109613
  0
ENDBLK
  0
BLOCK
  2
*GRP_0031
 70
    65
 10
0.0
 20
0.0
  0
LINE
  8
ボルト／ビス
  6
CONTINUOUS
 10
-62.596935
 20
-70.209613
 11
-62.596935
 21
-69.742947
  0
LINE
  8
ボルト／ビス
  6
CONTINUOUS
 10
-62.9636
 20
-70.209613
 11
-62.9636
 21
-70.142947
  0
LINE
  8
ボルト／ビス
  6
CONTINUOUS
 10
-62.9636
 20
-70.142947
 11
-62.230267
 21
-70.142947
  0
LINE
  8
ボルト／ビス
  6
CONTINUOUS
 10
-62.230267
 20
-70.142947
 11
-62.230267
 21
-70.209613
  0
LINE
  8
ボルト／ビス
  6
CONTINUOUS
 10
-62.9636
 20
-70.209613
 11
-62.230267
 21
-70.209613
  0
LINE
  8
ボルト／ビス
  6
CONTINUOUS
 10
-62.896935
 20
-70.109612
 11
-62.896935
 21
-70.142947
  0
LINE
  8
ボルト／ビス
  6
CONTINUOUS
 10
-62.896935
 20
-70.109612
 11
-62.296935
 21
-70.109612
  0
LINE
  8
ボルト／ビス
  6
CONTINUOUS
 10
-62.296935
 20
-70.109612
 11
-62.296935
 21
-70.142947
  0
LINE
  8
ボルト／ビス
  6
CONTINUOUS
 62
    64
 10
-62.75731
 20
-69.909613
 11
-62.789385
 21
-69.921288
  0
ARC
  8
ボルト／ビス
  6
CONTINUOUS
 62
    64
 10
-62.741271
 20
-70.01459
 40
0.104978
 50
62.721967
 51
90.0
  0
ARC
  8
ボルト／ビス
  6
CONTINUOUS
 62
    64
 10
-62.596933
 20
-70.312014
 40
0.402402
 50
76.165002
 51
103.834985
  0
LINE
  8
ボルト／ビス
  6
CONTINUOUS
 62
    64
 10
-62.43656
 20
-69.909613
 11
-62.404485
 21
-69.921288
  0
ARC
  8
ボルト／ビス
  6
CONTINUOUS
 62
    64
 10
-62.452596
 20
-70.01459
 40
0.104978
 50
90.0
 51
117.278033
  0
LINE
  8
ボルト／ビス
  6
CONTINUOUS
 62
    64
 10
-62.75731
 20
-69.909613
 11
-62.43656
 21
-69.909613
  0
LINE
  8
ボルト／ビス
  6
CONTINUOUS
 62
    64
 10
-62.404485
 20
-69.921288
 11
-62.404485
 21
-70.042947
  0
LINE
  8
ボルト／ビス
  6
CONTINUOUS
 62
    64
 10
-62.50071
 20
-69.921288
 11
-62.50071
 21
-70.042947
  0
LINE
  8
ボルト／ビス
  6
CONTINUOUS
 62
    64
 10
-62.789385
 20
-69.921288
 11
-62.789385
 21
-70.042947
  0
LINE
  8
ボルト／ビス
  6
CONTINUOUS
 62
    64
 10
-62.69316
 20
-69.921288
 11
-62.69316
 21
-70.042947
  0
LINE
  8
ボルト／ビス
  6
CONTINUOUS
 10
-62.789385
 20
-70.042947
 11
-62.404485
 21
-70.042947
  0
LINE
  8
ボルト／ビス
  6
CONTINUOUS
 10
-62.796935
 20
-70.042947
 11
-62.796935
 21
-70.109612
  0
LINE
  8
ボルト／ビス
  6
CONTINUOUS
 10
-62.796935
 20
-70.042947
 11
-62.396935
 21
-70.042947
  0
LINE
  8
ボルト／ビス
  6
CONTINUOUS
 10
-62.396935
 20
-70.042947
 11
-62.396935
 21
-70.109612
  0
ENDBLK
  0
BLOCK
  2
*GRP_0032
 70
    65
 10
0.0
 20
0.0
  0
LINE
  8
ボルト／ビス
  6
DOT
 10
-62.596935
 20
-60.209613
 11
-62.596935
 21
-59.742947
  0
LINE
  8
ボルト／ビス
  6
DOT
 10
-62.9636
 20
-60.209613
 11
-62.9636
 21
-60.142947
  0
LINE
  8
ボルト／ビス
  6
DOT
 10
-62.9636
 20
-60.142947
 11
-62.230267
 21
-60.142947
  0
LINE
  8
ボルト／ビス
  6
DOT
 10
-62.230267
 20
-60.142947
 11
-62.230267
 21
-60.209613
  0
LINE
  8
ボルト／ビス
  6
DOT
 10
-62.9636
 20
-60.209613
 11
-62.230267
 21
-60.209613
  0
LINE
  8
ボルト／ビス
  6
DOT
 10
-62.896935
 20
-60.109613
 11
-62.896935
 21
-60.142947
  0
LINE
  8
ボルト／ビス
  6
DOT
 10
-62.896935
 20
-60.109613
 11
-62.296935
 21
-60.109613
  0
LINE
  8
ボルト／ビス
  6
DOT
 10
-62.296935
 20
-60.109613
 11
-62.296935
 21
-60.142947
  0
LINE
  8
ボルト／ビス
  6
DOT
 62
    64
 10
-62.75731
 20
-59.909613
 11
-62.789385
 21
-59.921288
  0
ARC
  8
ボルト／ビス
  6
DOT
 62
    64
 10
-62.741271
 20
-60.01459
 40
0.104978
 50
62.721967
 51
90.0
  0
ARC
  8
ボルト／ビス
  6
DOT
 62
    64
 10
-62.596933
 20
-60.312014
 40
0.402402
 50
76.165002
 51
103.834985
  0
LINE
  8
ボルト／ビス
  6
DOT
 62
    64
 10
-62.43656
 20
-59.909613
 11
-62.404485
 21
-59.921288
  0
ARC
  8
ボルト／ビス
  6
DOT
 62
    64
 10
-62.452596
 20
-60.01459
 40
0.104978
 50
90.0
 51
117.278033
  0
LINE
  8
ボルト／ビス
  6
DOT
 62
    64
 10
-62.75731
 20
-59.909613
 11
-62.43656
 21
-59.909613
  0
LINE
  8
ボルト／ビス
  6
DOT
 62
    64
 10
-62.404485
 20
-59.921288
 11
-62.404485
 21
-60.042947
  0
LINE
  8
ボルト／ビス
  6
DOT
 62
    64
 10
-62.50071
 20
-59.921288
 11
-62.50071
 21
-60.042947
  0
LINE
  8
ボルト／ビス
  6
DOT
 62
    64
 10
-62.789385
 20
-59.921288
 11
-62.789385
 21
-60.042947
  0
LINE
  8
ボルト／ビス
  6
DOT
 62
    64
 10
-62.69316
 20
-59.921288
 11
-62.69316
 21
-60.042947
  0
LINE
  8
ボルト／ビス
  6
DOT
 10
-62.789385
 20
-60.042947
 11
-62.404485
 21
-60.042947
  0
LINE
  8
ボルト／ビス
  6
DOT
 10
-62.796935
 20
-60.042947
 11
-62.796935
 21
-60.109613
  0
LINE
  8
ボルト／ビス
  6
DOT
 10
-62.796935
 20
-60.042947
 11
-62.396935
 21
-60.042947
  0
LINE
  8
ボルト／ビス
  6
DOT
 10
-62.396935
 20
-60.042947
 11
-62.396935
 21
-60.109613
  0
ENDBLK
  0
ENDSEC
  0
SECTION
  2
ENTITIES
  0
POLYLINE
  8
通り芯
  6
CONTINUOUS
 66
     1
 70
     1
  0
VERTEX
  8
通り芯
 10
-210.0
 20
-148.5
  0
VERTEX
  8
通り芯
 10
210.0
 20
-148.5
  0
VERTEX
  8
通り芯
 10
210.0
 20
148.5
  0
VERTEX
  8
通り芯
 10
-210.0
 20
148.5
  0
SEQEND
  0
INSERT
  2
*GRP_0001
  8
型材断面
  6
CONTINUOUS
 10
0.0
 20
0.0
  0
LINE
  8
型材断面
  6
DASHDOT
 10
21.403067
 20
-77.836442
 11
21.403067
 21
52.814033
  0
LINE
  8
型材断面
  6
DASHDOT
 10
-20.2636
 20
-77.836442
 11
-20.2636
 21
52.814033
  0
LINE
  8
型材断面
  6
DASHDOT
 10
-61.930265
 20
-77.836442
 11
-61.930265
 21
52.814033
  0
LINE
  8
型材断面
  6
DASHDOT
 10
119.07983
 20
52.814033
 11
-61.930265
 21
52.814033
  0
LINE
  8
型材断面
  6
DASHDOT
 10
119.07983
 20
37.814033
 11
-61.930265
 21
37.814033
  0
LINE
  8
型材断面
  6
DASHDOT
 10
119.07983
 20
22.814033
 11
-61.930265
 21
22.814033
  0
LINE
  8
型材断面
  6
DOT
 10
-21.5136
 20
22.814033
 11
-21.5136
 21
52.814033
  0
LINE
  8
型材断面
  6
DOT
 10
-19.0136
 20
22.814033
 11
-19.0136
 21
52.814033
  0
LINE
  8
型材断面
  6
DASHDOT
 10
-20.2636
 20
22.814033
 11
-20.2636
 21
52.814033
  0
POLYLINE
  8
型材断面
  6
CONTINUOUS
 66
     1
 70
     1
  0
VERTEX
  8
型材断面
 10
-10.779187
 20
13.03811
  0
VERTEX
  8
型材断面
 10
-29.551117
 20
13.03811
  0
VERTEX
  8
型材断面
 10
-29.551117
 20
8.301267
  0
VERTEX
  8
型材断面
 10
-10.779187
 20
8.301267
  0
SEQEND
  0
POLYLINE
  8
型材断面
  6
CONTINUOUS
 66
     1
 70
     1
  0
VERTEX
  8
型材断面
 10
-10.779187
 20
62.589955
  0
VERTEX
  8
型材断面
 10
-29.551117
 20
62.589955
  0
VERTEX
  8
型材断面
 10
-29.551117
 20
67.326798
  0
VERTEX
  8
型材断面
 10
-10.779187
 20
67.326798
  0
SEQEND
  0
LINE
  8
型材断面
  6
CONTINUOUS
 10
-45.263598
 20
55.444162
 11
-46.759227
 21
58.03467
  0
LINE
  8
型材断面
  6
CONTINUOUS
 10
-45.263598
 20
55.444162
 11
-43.767968
 21
58.03467
  0
LINE
  8
型材断面
  6
CONTINUOUS
 10
-43.767968
 20
58.03467
 11
-46.759227
 21
58.03467
  0
LINE
  8
型材断面
  6
CONTINUOUS
 10
-64.560395
 20
37.814033
 11
-67.150903
 21
39.309663
  0
LINE
  8
型材断面
  6
CONTINUOUS
 10
-64.560395
 20
37.814033
 11
-67.150903
 21
36.318403
  0
LINE
  8
型材断面
  6
CONTINUOUS
 10
-67.150903
 20
36.318403
 11
-67.150903
 21
39.309663
  0
LINE
  8
型材断面
  6
CONTINUOUS
 10
-45.263598
 20
20.183902
 11
-46.759227
 21
17.593395
  0
LINE
  8
型材断面
  6
CONTINUOUS
 10
-45.263598
 20
20.183902
 11
-43.767968
 21
17.593395
  0
LINE
  8
型材断面
  6
CONTINUOUS
 10
-43.767968
 20
17.593395
 11
-46.759227
 21
17.593395
  0
LINE
  8
型材断面
  6
CONTINUOUS
 10
-115.808788
 20
90.791505
 11
-115.212733
 21
88.200998
  0
LINE
  8
型材断面
  6
CONTINUOUS
 10
-115.808788
 20
90.791505
 11
-116.404845
 21
88.200998
  0
LINE
  8
型材断面
  6
CONTINUOUS
 10
-116.404845
 20
88.200998
 11
-115.212733
 21
88.200998
  0
LINE
  8
型材断面
  6
CONTINUOUS
 10
-121.831375
 20
84.922105
 11
-75.589598
 21
84.922105
  0
LINE
  8
型材断面
  6
CONTINUOUS
 10
-115.808788
 20
97.32138
 11
-117.304418
 21
94.730873
  0
LINE
  8
型材断面
  6
CONTINUOUS
 10
-115.808788
 20
97.32138
 11
-114.313158
 21
94.730873
  0
LINE
  8
型材断面
  6
CONTINUOUS
 10
-114.313158
 20
94.730873
 11
-117.304418
 21
94.730873
  0
LINE
  8
型材断面
  6
CONTINUOUS
 10
-121.831375
 20
93.792277
 11
-75.589598
 21
93.792277
  0
LINE
  8
型材断面
  6
CONTINUOUS
 10
-121.831375
 20
79.134073
 11
-75.589598
 21
79.134073
  0
LINE
  8
型材断面
  6
CONTINUOUS
 10
4.736398
 20
55.444162
 11
6.232028
 21
58.03467
  0
LINE
  8
型材断面
  6
CONTINUOUS
 10
4.736398
 20
55.444162
 11
3.240768
 21
58.03467
  0
LINE
  8
型材断面
  6
CONTINUOUS
 10
3.240768
 20
58.03467
 11
6.232028
 21
58.03467
  0
LINE
  8
型材断面
  6
CONTINUOUS
 10
24.033195
 20
37.814033
 11
26.623703
 21
39.309663
  0
LINE
  8
型材断面
  6
CONTINUOUS
 10
24.033195
 20
37.814033
 11
26.623703
 21
36.318403
  0
LINE
  8
型材断面
  6
CONTINUOUS
 10
26.623703
 20
36.318403
 11
26.623703
 21
39.309663
  0
LINE
  8
型材断面
  6
CONTINUOUS
 10
4.736398
 20
20.183902
 11
6.232028
 21
17.593395
  0
LINE
  8
型材断面
  6
CONTINUOUS
 10
4.736398
 20
20.183902
 11
3.240768
 21
17.593395
  0
LINE
  8
型材断面
  6
CONTINUOUS
 10
3.240768
 20
17.593395
 11
6.232028
 21
17.593395
  0
LINE
  8
型材断面
  6
DASHDOT
 10
111.969615
 20
22.81403
 11
117.98968
 21
22.81403
  0
LINE
  8
型材断面
  6
CONTINUOUS
 62
    47
 10
114.252947
 20
21.417365
 11
114.252947
 21
22.197365
  0
LINE
  8
型材断面
  6
CONTINUOUS
 10
112.419615
 20
21.317365
 11
111.969615
 21
21.317365
  0
LINE
  8
型材断面
  6
CONTINUOUS
 62
    47
 10
115.092308
 20
20.53403
 11
114.758972
 21
20.53403
  0
LINE
  8
型材断面
  6
CONTINUOUS
 62
    47
 10
114.758972
 20
20.53403
 11
114.658972
 21
21.317365
  0
LINE
  8
型材断面
  6
CONTINUOUS
 62
    47
 10
114.252947
 20
21.317365
 11
114.658972
 21
21.317365
  0
LINE
  8
型材断面
  6
CONTINUOUS
 62
    47
 10
114.252947
 20
20.847365
 11
112.419615
 21
20.847365
  0
LINE
  8
型材断面
  6
CONTINUOUS
 62
    47
 10
118.219615
 20
21.41403
 11
117.719615
 21
21.41403
  0
LINE
  8
型材断面
  6
CONTINUOUS
 62
    47
 10
117.719615
 20
20.847365
 11
115.092308
 21
20.847365
  0
LINE
  8
型材断面
  6
CONTINUOUS
 62
    47
 10
117.719615
 20
20.847365
 11
117.719615
 21
37.814033
  0
LINE
  8
型材断面
  6
CONTINUOUS
 62
    47
 10
118.219615
 20
21.41403
 11
118.219615
 21
37.814033
  0
LINE
  8
型材断面
  6
CONTINUOUS
 62
    47
 10
114.252947
 20
20.847365
 11
114.252947
 21
37.814033
  0
LINE
  8
型材断面
  6
CONTINUOUS
 10
114.658972
 20
21.317365
 11
114.658972
 21
37.814033
  0
LINE
  8
型材断面
  6
CONTINUOUS
 10
114.758972
 20
20.53403
 11
114.758972
 21
37.814033
  0
LINE
  8
型材断面
  6
CONTINUOUS
 62
    47
 10
115.092308
 20
20.53403
 11
115.092308
 21
37.814033
  0
LINE
  8
型材断面
  6
CONTINUOUS
 10
112.419615
 20
20.847365
 11
112.419615
 21
37.814033
  0
LINE
  8
型材断面
  6
DASHDOT
 10
111.969615
 20
52.814035
 11
117.98968
 21
52.814035
  0
LINE
  8
型材断面
  6
CONTINUOUS
 62
    47
 10
114.252947
 20
54.2107
 11
114.252947
 21
53.4307
  0
LINE
  8
型材断面
  6
CONTINUOUS
 10
112.419615
 20
54.3107
 11
111.969615
 21
54.3107
  0
LINE
  8
型材断面
  6
CONTINUOUS
 62
    47
 10
115.092308
 20
55.094035
 11
114.758972
 21
55.094035
  0
LINE
  8
型材断面
  6
CONTINUOUS
 62
    47
 10
114.758972
 20
55.094035
 11
114.658972
 21
54.3107
  0
LINE
  8
型材断面
  6
CONTINUOUS
 62
    47
 10
114.252947
 20
54.3107
 11
114.658972
 21
54.3107
  0
LINE
  8
型材断面
  6
CONTINUOUS
 62
    47
 10
114.252947
 20
54.7807
 11
112.419615
 21
54.7807
  0
LINE
  8
型材断面
  6
CONTINUOUS
 62
    47
 10
118.219615
 20
54.214035
 11
117.719615
 21
54.214035
  0
LINE
  8
型材断面
  6
CONTINUOUS
 62
    47
 10
117.719615
 20
54.7807
 11
115.092308
 21
54.7807
  0
LINE
  8
型材断面
  6
CONTINUOUS
 62
    47
 10
117.719615
 20
54.7807
 11
117.719615
 21
37.814033
  0
LINE
  8
型材断面
  6
CONTINUOUS
 62
    47
 10
118.219615
 20
54.214035
 11
118.219615
 21
37.814033
  0
LINE
  8
型材断面
  6
CONTINUOUS
 62
    47
 10
114.252947
 20
54.7807
 11
114.252947
 21
37.814033
  0
LINE
  8
型材断面
  6
CONTINUOUS
 10
114.658972
 20
54.3107
 11
114.658972
 21
37.814033
  0
LINE
  8
型材断面
  6
CONTINUOUS
 10
114.758972
 20
55.094035
 11
114.758972
 21
37.814033
  0
LINE
  8
型材断面
  6
CONTINUOUS
 62
    47
 10
115.092308
 20
55.094035
 11
115.092308
 21
37.814033
  0
LINE
  8
型材断面
  6
CONTINUOUS
 10
112.419615
 20
54.7807
 11
112.419615
 21
37.814033
  0
LINE
  8
型材断面
  6
CONTINUOUS
 10
23.469735
 20
20.747365
 11
23.68307
 21
20.53403
  0
LINE
  8
型材断面
  6
CONTINUOUS
 10
23.68307
 20
20.53403
 11
23.68307
 21
37.814033
  0
LINE
  8
型材断面
  6
CONTINUOUS
 62
    47
 10
22.799733
 20
-73.52623
 11
22.019732
 21
-73.52623
  0
LINE
  8
型材断面
  6
CONTINUOUS
 10
22.899733
 20
-71.692897
 11
22.899733
 21
-71.242897
  0
LINE
  8
型材断面
  6
CONTINUOUS
 62
    47
 10
23.683067
 20
-74.36559
 11
23.683067
 21
-74.032255
  0
LINE
  8
型材断面
  6
CONTINUOUS
 62
    47
 10
23.683067
 20
-74.032255
 11
22.899733
 21
-73.932255
  0
LINE
  8
型材断面
  6
CONTINUOUS
 62
    47
 10
22.899733
 20
-73.52623
 11
22.899733
 21
-73.932255
  0
LINE
  8
型材断面
  6
CONTINUOUS
 62
    47
 10
23.369732
 20
-73.52623
 11
23.369732
 21
-71.692897
  0
LINE
  8
型材断面
  6
CONTINUOUS
 62
    47
 10
22.803067
 20
-77.492897
 11
22.803067
 21
-76.992897
  0
LINE
  8
型材断面
  6
CONTINUOUS
 62
    47
 10
23.369732
 20
-76.992897
 11
23.369732
 21
-74.36559
  0
LINE
  8
型材断面
  6
CONTINUOUS
 10
23.369732
 20
-71.692897
 11
-20.2636
 21
-71.692897
  0
LINE
  8
型材断面
  6
CONTINUOUS
 10
23.683067
 20
-74.032255
 11
-20.2636
 21
-74.032255
  0
LINE
  8
型材断面
  6
CONTINUOUS
 10
22.899733
 20
-73.932255
 11
-20.2636
 21
-73.932255
  0
LINE
  8
型材断面
  6
CONTINUOUS
 62
    47
 10
23.683067
 20
-74.36559
 11
-20.2636
 21
-74.36559
  0
LINE
  8
型材断面
  6
CONTINUOUS
 62
    47
 10
23.369732
 20
-73.52623
 11
-20.2636
 21
-73.52623
  0
LINE
  8
型材断面
  6
CONTINUOUS
 62
    47
 10
23.369732
 20
-76.992897
 11
-20.2636
 21
-76.992897
  0
LINE
  8
型材断面
  6
CONTINUOUS
 62
    47
 10
22.803067
 20
-77.492897
 11
-20.2636
 21
-77.492897
  0
LINE
  8
型材断面
  6
CONTINUOUS
 62
    47
 10
-63.326933
 20
-73.52623
 11
-62.546933
 21
-73.52623
  0
LINE
  8
型材断面
  6
CONTINUOUS
 10
-63.426933
 20
-71.692897
 11
-63.426933
 21
-71.242897
  0
LINE
  8
型材断面
  6
CONTINUOUS
 62
    47
 10
-64.210268
 20
-74.36559
 11
-64.210268
 21
-74.032255
  0
LINE
  8
型材断面
  6
CONTINUOUS
 62
    47
 10
-64.210268
 20
-74.032255
 11
-63.426933
 21
-73.932255
  0
LINE
  8
型材断面
  6
CONTINUOUS
 62
    47
 10
-63.426933
 20
-73.52623
 11
-63.426933
 21
-73.932255
  0
LINE
  8
型材断面
  6
CONTINUOUS
 62
    47
 10
-63.896933
 20
-73.52623
 11
-63.896933
 21
-71.692897
  0
LINE
  8
型材断面
  6
CONTINUOUS
 62
    47
 10
-63.330267
 20
-77.492897
 11
-63.330267
 21
-76.992897
  0
LINE
  8
型材断面
  6
CONTINUOUS
 62
    47
 10
-63.896933
 20
-76.992897
 11
-63.896933
 21
-74.36559
  0
LINE
  8
型材断面
  6
CONTINUOUS
 10
-63.896933
 20
-71.692897
 11
-20.2636
 21
-71.692897
  0
LINE
  8
型材断面
  6
CONTINUOUS
 10
-64.210268
 20
-74.032255
 11
-20.2636
 21
-74.032255
  0
LINE
  8
型材断面
  6
CONTINUOUS
 10
-63.426933
 20
-73.932255
 11
-20.2636
 21
-73.932255
  0
LINE
  8
型材断面
  6
CONTINUOUS
 62
    47
 10
-64.210268
 20
-74.36559
 11
-20.2636
 21
-74.36559
  0
LINE
  8
型材断面
  6
CONTINUOUS
 62
    47
 10
-63.896933
 20
-73.52623
 11
-20.2636
 21
-73.52623
  0
LINE
  8
型材断面
  6
CONTINUOUS
 62
    47
 10
-63.896933
 20
-76.992897
 11
-20.2636
 21
-76.992897
  0
LINE
  8
型材断面
  6
CONTINUOUS
 62
    47
 10
-63.330267
 20
-77.492897
 11
-20.2636
 21
-77.492897
  0
LINE
  8
型材断面
  6
DOT
 62
    47
 10
22.799733
 20
-63.52623
 11
22.019732
 21
-63.52623
  0
LINE
  8
型材断面
  6
DOT
 10
22.899733
 20
-61.692897
 11
22.899733
 21
-61.242897
  0
LINE
  8
型材断面
  6
DOT
 62
    47
 10
23.683067
 20
-64.36559
 11
23.683067
 21
-64.032255
  0
LINE
  8
型材断面
  6
DOT
 62
    47
 10
23.683067
 20
-64.032255
 11
22.899733
 21
-63.932255
  0
LINE
  8
型材断面
  6
DOT
 62
    47
 10
22.899733
 20
-63.52623
 11
22.899733
 21
-63.932255
  0
LINE
  8
型材断面
  6
DOT
 62
    47
 10
23.369732
 20
-63.52623
 11
23.369732
 21
-61.692897
  0
LINE
  8
型材断面
  6
DOT
 10
23.369732
 20
-61.692897
 11
-20.2636
 21
-61.692897
  0
LINE
  8
型材断面
  6
DOT
 10
23.683067
 20
-64.032255
 11
-20.2636
 21
-64.032255
  0
LINE
  8
型材断面
  6
DOT
 10
22.899733
 20
-63.932255
 11
-20.2636
 21
-63.932255
  0
LINE
  8
型材断面
  6
DOT
 62
    47
 10
23.683067
 20
-64.36559
 11
-20.2636
 21
-64.36559
  0
LINE
  8
型材断面
  6
DOT
 62
    47
 10
23.369732
 20
-63.52623
 11
-20.2636
 21
-63.52623
  0
LINE
  8
型材断面
  6
DOT
 62
    47
 10
-63.326933
 20
-63.52623
 11
-62.546933
 21
-63.52623
  0
LINE
  8
型材断面
  6
DOT
 10
-63.426933
 20
-61.692897
 11
-63.426933
 21
-61.242897
  0
LINE
  8
型材断面
  6
DOT
 62
    47
 10
-64.210268
 20
-64.36559
 11
-64.210268
 21
-64.032255
  0
LINE
  8
型材断面
  6
DOT
 62
    47
 10
-64.210268
 20
-64.032255
 11
-63.426933
 21
-63.932255
  0
LINE
  8
型材断面
  6
DOT
 62
    47
 10
-63.426933
 20
-63.52623
 11
-63.426933
 21
-63.932255
  0
LINE
  8
型材断面
  6
DOT
 62
    47
 10
-63.896933
 20
-63.52623
 11
-63.896933
 21
-61.692897
  0
LINE
  8
型材断面
  6
DOT
 10
-63.896933
 20
-61.692897
 11
-20.2636
 21
-61.692897
  0
LINE
  8
型材断面
  6
DOT
 10
-64.210268
 20
-64.032255
 11
-20.2636
 21
-64.032255
  0
LINE
  8
型材断面
  6
DOT
 10
-63.426933
 20
-63.932255
 11
-20.2636
 21
-63.932255
  0
LINE
  8
型材断面
  6
DOT
 62
    47
 10
-64.210268
 20
-64.36559
 11
-20.2636
 21
-64.36559
  0
LINE
  8
型材断面
  6
DOT
 62
    47
 10
-63.896933
 20
-63.52623
 11
-20.2636
 21
-63.52623
  0
LINE
  8
型材断面
  6
CONTINUOUS
 10
23.68307
 20
20.53403
 11
-20.2636
 21
20.53403
  0
LINE
  8
型材断面
  6
CONTINUOUS
 10
23.469735
 20
54.8807
 11
23.68307
 21
55.094035
  0
LINE
  8
型材断面
  6
CONTINUOUS
 10
23.68307
 20
55.094035
 11
23.68307
 21
37.814033
  0
LINE
  8
型材断面
  6
CONTINUOUS
 10
23.68307
 20
55.094035
 11
-20.2636
 21
55.094035
  0
LINE
  8
型材断面
  6
CONTINUOUS
 10
-63.996935
 20
54.8807
 11
-64.21027
 21
55.094035
  0
LINE
  8
型材断面
  6
CONTINUOUS
 10
-64.21027
 20
55.094035
 11
-64.21027
 21
37.814033
  0
LINE
  8
型材断面
  6
CONTINUOUS
 10
-64.21027
 20
55.094035
 11
-20.2636
 21
55.094035
  0
LINE
  8
型材断面
  6
CONTINUOUS
 10
-63.996935
 20
20.747365
 11
-64.21027
 21
20.53403
  0
LINE
  8
型材断面
  6
CONTINUOUS
 10
-64.21027
 20
20.53403
 11
-64.21027
 21
37.814033
  0
LINE
  8
型材断面
  6
CONTINUOUS
 10
-64.21027
 20
20.53403
 11
-20.2636
 21
20.53403
  0
LINE
  8
型材断面
  6
CONTINUOUS
 10
24.033195
 20
48.914033
 11
26.623703
 21
48.317975
  0
LINE
  8
型材断面
  6
CONTINUOUS
 10
24.033195
 20
48.914033
 11
26.623703
 21
49.51009
  0
LINE
  8
型材断面
  6
CONTINUOUS
 10
26.623703
 20
49.51009
 11
26.623703
 21
48.317975
  0
LINE
  8
型材断面
  6
CONTINUOUS
 10
24.033195
 20
26.714033
 11
26.623703
 21
27.31009
  0
LINE
  8
型材断面
  6
CONTINUOUS
 10
24.033195
 20
26.714033
 11
26.623703
 21
26.117975
  0
LINE
  8
型材断面
  6
CONTINUOUS
 10
26.623703
 20
26.117975
 11
26.623703
 21
27.31009
  0
LINE
  8
型材断面
  6
CONTINUOUS
 10
-64.560395
 20
48.914033
 11
-67.150903
 21
48.317975
  0
LINE
  8
型材断面
  6
CONTINUOUS
 10
-64.560395
 20
48.914033
 11
-67.150903
 21
49.51009
  0
LINE
  8
型材断面
  6
CONTINUOUS
 10
-67.150903
 20
49.51009
 11
-67.150903
 21
48.317975
  0
LINE
  8
型材断面
  6
CONTINUOUS
 10
-64.560395
 20
26.714033
 11
-67.150903
 21
27.31009
  0
LINE
  8
型材断面
  6
CONTINUOUS
 10
-64.560395
 20
26.714033
 11
-67.150903
 21
26.117975
  0
LINE
  8
型材断面
  6
CONTINUOUS
 10
-67.150903
 20
26.117975
 11
-67.150903
 21
27.31009
  0
INSERT
  2
*GRP_0018
  8
型材断面
  6
CONTINUOUS
 10
0.0
 20
0.0
  0
INSERT
  2
*GRP_0019
  8
型材断面
  6
CONTINUOUS
 10
0.0
 20
0.0
  0
INSERT
  2
*GRP_0020
  8
型材断面
  6
CONTINUOUS
 10
0.0
 20
0.0
  0
INSERT
  2
*GRP_0021
  8
型材断面
  6
CONTINUOUS
 10
0.0
 20
0.0
  0
LINE
  8
型材断面
  6
CONTINUOUS
 10
-121.831375
 20
73.34604
 11
-75.589598
 21
73.34604
  0
TEXT
  7
TextStyle03
  8
文字
  6
CONTINUOUS
 10
97.975
 20
-76.7
  1
網入り6.8t
 40
3.0
 72
     5
 11
114.6625
 21
-76.7
  0
TEXT
  7
TextStyle03
  8
文字
  6
CONTINUOUS
 10
-28.45
 20
9.325
  1
可動装置側
 40
3.0
 72
     5
 11
-11.95
 21
9.325
  0
TEXT
  7
TextStyle03
  8
文字
  6
CONTINUOUS
 10
-28.45
 20
63.275
  1
可動装置側
 40
3.0
 72
     5
 11
-11.95
 21
63.275
  0
TEXT
  7
TextStyle03
  8
文字
  6
CONTINUOUS
 10
104.65
 20
-81.375
  1
×２枚
 40
3.0
 72
     5
 11
114.4
 21
-81.375
  0
TEXT
  7
TextStyle03
  8
文字
  6
CONTINUOUS
 10
-113.025
 20
89.4
  1
はケーシング位置を示す
 40
3.0
 72
     5
 11
-76.275
 21
89.4
  0
TEXT
  7
TextStyle03
  8
文字
  6
CONTINUOUS
 10
-113.025
 20
86.025
  1
４ヶ所中1ヶ所に設定
 40
3.0
 72
     5
 11
-81.3375
 21
86.025
  0
TEXT
  7
TextStyle03
  8
文字
  6
CONTINUOUS
 10
-113.025
 20
94.925
  1
は排水穴位置を示す
 40
3.0
 72
     5
 11
-83.025
 21
94.925
  0
TEXT
  7
TextStyle03
  8
文字
  6
CONTINUOUS
 10
-82.925
 20
16.275
  1
アンカーピッチ
 40
3.0
 50
90.0
 72
     5
 11
-82.925
 21
39.525
  0
TEXT
  7
TextStyle03
  8
文字
  6
CONTINUOUS
 10
-55.3
 20
90.85
  1
アンカーピッチ
 40
3.0
 72
     5
 11
-32.05
 21
90.85
  0
TEXT
  7
TextStyle03
  8
文字
  6
CONTINUOUS
 10
-116.75
 20
80.05
  1
アンカー数量　１２ヶ所
 40
3.0
 72
     5
 11
-80.0
 21
80.05
  0
TEXT
  7
TextStyle03
  8
文字
  6
CONTINUOUS
 10
-121.75
 20
69.35
  1
※重量に依るのでご相談ください
 40
3.0
 72
     5
 11
-71.5
 21
69.35
  0
TEXT
  7
TextStyle03
  8
文字
  6
CONTINUOUS
 10
-121.75
 20
74.3
  1
アームユニット数　※２～４ヶ所
 40
3.0
 72
     5
 11
-71.5
 21
74.3
  0
TEXT
  7
TextStyle03
  8
文字
  6
CONTINUOUS
 10
78.1
 20
125.25
  1
シリーズ：ＳＴＤＬ
 40
5.0
 72
     5
 11
128.1
 21
125.25
  0
TEXT
  7
TextStyle03
  8
文字
  6
CONTINUOUS
 10
78.1
 20
119.625
  1
　　　　　（上下可動）900×2500タイプ
 40
5.0
 72
     5
 11
181.5375
 21
119.625
  0
TEXT
  7
TextStyle03
  8
文字
  6
CONTINUOUS
 10
78.1
 20
114.0
  1
図面名　：外観姿図
 40
5.0
 72
     5
 11
128.1
 21
114.0
  0
TEXT
  7
TextStyle03
  8
文字
  6
CONTINUOUS
 10
78.1
 20
108.375
  1
　　　　　　
 40
5.0
 72
     5
 11
111.225
 21
108.375
  0
TEXT
  7
TextStyle03
  8
文字
  6
CONTINUOUS
 10
77.425
 20
103.975
  1
ＮＳコード：ＮＳＤＳＬ
 40
5.0
 72
     5
 11
138.675
 21
103.975
  0
INSERT
  2
*DIM_0002
  8
寸法
  6
CONTINUOUS
 10
0.0
 20
0.0
  0
INSERT
  2
*DIM_0003
  8
寸法
  6
CONTINUOUS
 10
0.0
 20
0.0
  0
INSERT
  2
*DIM_0004
  8
寸法
  6
CONTINUOUS
 10
0.0
 20
0.0
  0
INSERT
  2
*DIM_0005
  8
寸法
  6
CONTINUOUS
 10
0.0
 20
0.0
  0
INSERT
  2
*DIM_0006
  8
寸法
  6
CONTINUOUS
 10
0.0
 20
0.0
  0
INSERT
  2
*DIM_0007
  8
寸法
  6
CONTINUOUS
 10
0.0
 20
0.0
  0
INSERT
  2
*DIM_0008
  8
寸法
  6
CONTINUOUS
 10
0.0
 20
0.0
  0
INSERT
  2
*DIM_0009
  8
寸法
  6
CONTINUOUS
 10
0.0
 20
0.0
  0
INSERT
  2
*DIM_0010
  8
寸法
  6
CONTINUOUS
 10
0.0
 20
0.0
  0
INSERT
  2
*DIM_0011
  8
寸法
  6
CONTINUOUS
 10
0.0
 20
0.0
  0
INSERT
  2
*DIM_0012
  8
寸法
  6
CONTINUOUS
 10
0.0
 20
0.0
  0
INSERT
  2
*DIM_0013
  8
寸法
  6
CONTINUOUS
 10
0.0
 20
0.0
  0
INSERT
  2
*DIM_0014
  8
寸法
  6
CONTINUOUS
 10
0.0
 20
0.0
  0
INSERT
  2
*DIM_0015
  8
寸法
  6
CONTINUOUS
 10
0.0
 20
0.0
  0
INSERT
  2
*DIM_0016
  8
寸法
  6
CONTINUOUS
 10
0.0
 20
0.0
  0
INSERT
  2
*DIM_0022
  8
寸法
  6
CONTINUOUS
 10
0.0
 20
0.0
  0
INSERT
  2
*DIM_0023
  8
寸法
  6
CONTINUOUS
 10
0.0
 20
0.0
  0
INSERT
  2
*DIM_0024
  8
寸法
  6
CONTINUOUS
 10
0.0
 20
0.0
  0
INSERT
  2
*DIM_0025
  8
寸法
  6
CONTINUOUS
 10
0.0
 20
0.0
  0
INSERT
  2
*DIM_0026
  8
寸法
  6
CONTINUOUS
 10
0.0
 20
0.0
  0
LINE
  8
別途部材
  6
CONTINUOUS
 10
23.469735
 20
20.747365
 11
23.069735
 21
21.147365
  0
LINE
  8
別途部材
  6
CONTINUOUS
 10
21.403067
 20
22.814033
 11
13.343813
 21
30.87329
  0
LINE
  8
別途部材
  6
CONTINUOUS
 10
23.069735
 20
21.147365
 11
23.069735
 21
37.814033
  0
LINE
  8
別途部材
  6
CONTINUOUS
 10
23.469735
 20
20.747365
 11
23.469735
 21
37.814033
  0
LINE
  8
別途部材
  6
CONTINUOUS
 10
23.469735
 20
54.8807
 11
23.069735
 21
54.4807
  0
LINE
  8
別途部材
  6
CONTINUOUS
 10
21.403067
 20
52.814033
 11
13.343813
 21
44.754775
  0
LINE
  8
別途部材
  6
CONTINUOUS
 10
23.069735
 20
54.4807
 11
23.069735
 21
37.814033
  0
LINE
  8
別途部材
  6
CONTINUOUS
 10
23.469735
 20
54.8807
 11
23.469735
 21
37.814033
  0
LINE
  8
別途部材
  6
CONTINUOUS
 10
23.069735
 20
54.4807
 11
-20.2636
 21
54.4807
  0
LINE
  8
別途部材
  6
CONTINUOUS
 10
23.469735
 20
54.8807
 11
-20.2636
 21
54.8807
  0
LINE
  8
別途部材
  6
CONTINUOUS
 10
23.069735
 20
21.147365
 11
-20.2636
 21
21.147365
  0
LINE
  8
別途部材
  6
CONTINUOUS
 10
23.469735
 20
20.747365
 11
-20.2636
 21
20.747365
  0
LINE
  8
別途部材
  6
CONTINUOUS
 10
-63.996935
 20
20.747365
 11
-63.596935
 21
21.147365
  0
LINE
  8
別途部材
  6
CONTINUOUS
 10
-61.930267
 20
22.814033
 11
-53.871012
 21
30.87329
  0
LINE
  8
別途部材
  6
CONTINUOUS
 10
-63.596935
 20
21.147365
 11
-63.596935
 21
37.814033
  0
LINE
  8
別途部材
  6
CONTINUOUS
 10
-63.996935
 20
20.747365
 11
-63.996935
 21
37.814033
  0
LINE
  8
別途部材
  6
CONTINUOUS
 10
-63.996935
 20
54.8807
 11
-63.596935
 21
54.4807
  0
LINE
  8
別途部材
  6
CONTINUOUS
 10
-61.930267
 20
52.814033
 11
-53.871012
 21
44.754775
  0
LINE
  8
別途部材
  6
CONTINUOUS
 10
-63.596935
 20
54.4807
 11
-63.596935
 21
37.814033
  0
LINE
  8
別途部材
  6
CONTINUOUS
 10
-63.996935
 20
54.8807
 11
-63.996935
 21
37.814033
  0
LINE
  8
別途部材
  6
CONTINUOUS
 10
-63.596935
 20
54.4807
 11
-20.2636
 21
54.4807
  0
LINE
  8
別途部材
  6
CONTINUOUS
 10
-63.996935
 20
54.8807
 11
-20.2636
 21
54.8807
  0
LINE
  8
別途部材
  6
CONTINUOUS
 10
-63.596935
 20
21.147365
 11
-20.2636
 21
21.147365
  0
LINE
  8
別途部材
  6
CONTINUOUS
 10
-63.996935
 20
20.747365
 11
-20.2636
 21
20.747365
  0
LINE
  8
別途部材
  6
CONTINUOUS
 62
    96
 10
110.936333
 20
21.147365
 11
111.936333
 21
20.747365
  0
LINE
  8
別途部材
  6
CONTINUOUS
 62
    96
 10
110.936333
 20
21.147365
 11
110.936333
 21
37.814033
  0
LINE
  8
別途部材
  6
CONTINUOUS
 10
111.936333
 20
20.747365
 11
111.936333
 21
37.814033
  0
LINE
  8
別途部材
  6
CONTINUOUS
 62
    96
 10
110.936333
 20
54.4807
 11
111.936333
 21
54.8807
  0
LINE
  8
別途部材
  6
CONTINUOUS
 62
    96
 10
110.936333
 20
54.4807
 11
110.936333
 21
37.814033
  0
LINE
  8
別途部材
  6
CONTINUOUS
 10
111.936333
 20
54.8807
 11
111.936333
 21
37.814033
  0
ARC
  8
別途部材
  6
CONTINUOUS
 10
120.269665
 20
37.814033
 40
17.666667
 50
121.890796
 51
238.109204
  0
LINE
  8
別途部材
  6
DOT
 62
    96
 10
23.069735
 20
-60.209613
 11
23.469735
 21
-61.209613
  0
ARC
  8
別途部材
  6
DOT
 10
6.403065
 20
-69.542947
 40
17.666667
 50
31.890796
 51
90.0
  0
LINE
  8
別途部材
  6
DOT
 10
6.403067
 20
-51.87628
 11
-20.2636
 21
-51.87628
  0
LINE
  8
別途部材
  6
DOT
 62
    96
 10
23.069735
 20
-60.209613
 11
-20.2636
 21
-60.209613
  0
LINE
  8
別途部材
  6
DOT
 10
23.469735
 20
-61.209613
 11
-20.2636
 21
-61.209613
  0
LINE
  8
別途部材
  6
DOT
 62
    96
 10
-63.596935
 20
-60.209613
 11
-63.996935
 21
-61.209613
  0
ARC
  8
別途部材
  6
DOT
 10
-46.930265
 20
-69.542947
 40
17.666667
 50
90.0
 51
148.109204
  0
LINE
  8
別途部材
  6
DOT
 10
-46.930267
 20
-51.87628
 11
-20.2636
 21
-51.87628
  0
LINE
  8
別途部材
  6
DOT
 62
    96
 10
-63.596935
 20
-60.209613
 11
-20.2636
 21
-60.209613
  0
LINE
  8
別途部材
  6
DOT
 10
-63.996935
 20
-61.209613
 11
-20.2636
 21
-61.209613
  0
INSERT
  2
*GRP_0017
  8
別途部材
  6
CONTINUOUS
 10
0.0
 20
0.0
  0
INSERT
  2
*GRP_0027
  8
別途部材
  6
DOT
 10
0.0
 20
0.0
  0
INSERT
  2
*GRP_0028
  8
別途部材
  6
DOT
 10
0.0
 20
0.0
  0
INSERT
  2
*GRP_0029
  8
別途部材
  6
DOT
 10
0.0
 20
0.0
  0
INSERT
  2
*GRP_0030
  8
別途部材
  6
DOT
 10
0.0
 20
0.0
  0
INSERT
  2
*GRP_0031
  8
別途部材
  6
DOT
 10
0.0
 20
0.0
  0
INSERT
  2
*GRP_0032
  8
別途部材
  6
DOT
 10
0.0
 20
0.0
  0
LINE
  8
曲げ物
  6
CONTINUOUS
 10
75.689623
 20
-83.118728
 11
75.689623
 21
-53.785395
  0
LINE
  8
曲げ物
  6
CONTINUOUS
 10
75.689623
 20
-53.785395
 11
116.35629
 21
-53.785395
  0
LINE
  8
曲げ物
  6
CONTINUOUS
 10
116.35629
 20
-53.785395
 11
116.35629
 21
-83.118728
  0
LINE
  8
曲げ物
  6
CONTINUOUS
 10
75.689623
 20
-83.118728
 11
116.35629
 21
-83.118728
  0
ENDSEC
  0
EOF
