  0
SECTION
  2
HEADER
  9
$EXTMIN
 10
-210.0
 20
-148.5
  9
$EXTMAX
 10
210.0
 20
148.5
  9
$PDMODE
 70
    32
  9
$PDSIZE
 40
1.5
  9
$LTSCALE
 40
10.0
  0
ENDSEC
  0
SECTION
  2
TABLES
  0
TABLE
  2
LTYPE
 70
    15
  0
LTYPE
  2
CONTINUOUS
 70
    64
  3
実線
 72
    65
 73
     0
 40
0.0
  0
LTYPE
  2
DASHED
 70
    64
  3
破線A
 72
    65
 73
     2
 40
0.6
 49
0.4
 49
-0.2
  0
LTYPE
  2
DASHEDX2
 70
    64
  3
破線B
 72
    65
 73
     2
 40
1.3
 49
0.9
 49
-0.4
  0
LTYPE
  2
DASHDOT
 70
    64
  3
１点鎖線A
 72
    65
 73
     4
 40
0.5375
 49
0.375
 49
-0.05
 49
0.0625
 49
-0.05
  0
LTYPE
  2
DASHDOTX2
 70
    64
  3
１点鎖線B
 72
    65
 73
     4
 40
1.075
 49
0.75
 49
-0.1
 49
0.125
 49
-0.1
  0
LTYPE
  2
DIVIDE2
 70
    64
  3
２点鎖線A
 72
    65
 73
     6
 40
0.5125
 49
0.3
 49
-0.0375
 49
0.05
 49
-0.0375
 49
0.05
 49
-0.0375
  0
LTYPE
  2
DIVIDE
 70
    64
  3
２点鎖線B
 72
    65
 73
     6
 40
1.05
 49
0.55
 49
-0.1
 49
0.1
 49
-0.1
 49
0.1
 49
-0.1
  0
LTYPE
  2
DOT
 70
    64
  3
点線A
 72
    65
 73
     2
 40
0.1125
 49
0.0625
 49
-0.05
  0
LTYPE
  2
DOTX2
 70
    64
  3
点線B
 72
    65
 73
     2
 40
0.275
 49
0.15
 49
-0.125
  0
LTYPE
  2
CONTINUOUS
 70
    64
  3
実線
 72
    65
 73
     0
 40
0.0
  0
LTYPE
  2
CONTINUOUS
 70
    64
  3
実線
 72
    65
 73
     0
 40
0.0
  0
LTYPE
  2
CONTINUOUS
 70
    64
  3
実線
 72
    65
 73
     0
 40
0.0
  0
LTYPE
  2
CONTINUOUS
 70
    64
  3
実線
 72
    65
 73
     0
 40
0.0
  0
LTYPE
  2
CONTINUOUS
 70
    64
  3
実線
 72
    65
 73
     0
 40
0.0
  0
LTYPE
  2
CONTINUOUS
 70
    64
  3
実線
 72
    65
 73
     0
 40
0.0
  0
ENDTAB
  0
TABLE
  2
LAYER
 70
    34
  0
LAYER
  2
通り芯
 70
     0
 62
    15
  6
CONTINUOUS
  0
LAYER
  2
補助線
 70
     0
 62
    16
  6
DOT
  0
LAYER
  2
躯体
 70
     0
 62
    31
  6
CONTINUOUS
  0
LAYER
  2
型材
 70
     0
 62
    32
  6
CONTINUOUS
  0
LAYER
  2
型材断面
 70
     0
 62
    47
  6
CONTINUOUS
  0
LAYER
  2
ガラス
 70
     0
 62
    48
  6
CONTINUOUS
  0
LAYER
  2
ゴム等
 70
     0
 62
    63
  6
CONTINUOUS
  0
LAYER
  2
ボルト／ビス
 70
     0
 62
    64
  6
CONTINUOUS
  0
LAYER
  2
文字
 70
     0
 62
    79
  6
CONTINUOUS
  0
LAYER
  2
寸法
 70
     0
 62
    80
  6
CONTINUOUS
  0
LAYER
  2
ﾊｯﾁﾝｸﾞ
 70
     0
 62
    95
  6
CONTINUOUS
  0
LAYER
  2
別途部材
 70
     0
 62
    96
  6
CONTINUOUS
  0
LAYER
  2
曲げ物
 70
     0
 62
   111
  6
CONTINUOUS
  0
LAYER
  2
鉄骨等
 70
     0
 62
   112
  6
CONTINUOUS
  0
LAYER
  2
St
 70
     0
 62
   127
  6
CONTINUOUS
  0
LAYER
  2
その他部品等
 70
     0
 62
   128
  6
CONTINUOUS
  0
LAYER
  2
ｶﾞｽｹｯﾄ
 70
     0
 62
   143
  6
CONTINUOUS
  0
LAYER
  2
ｽｹｯﾁ
 70
     0
 62
    14
  6
CONTINUOUS
  0
LAYER
  2
0
 70
     0
 62
    17
  6
CONTINUOUS
  0
LAYER
  2
1
 70
     0
 62
    30
  6
CONTINUOUS
  0
LAYER
  2
4
 70
     0
 62
    33
  6
CONTINUOUS
  0
LAYER
  2
ﾚｲﾔ3
 70
     0
 62
    46
  6
CONTINUOUS
  0
LAYER
  2
外形線
 70
     0
 62
    49
  6
CONTINUOUS
  0
LAYER
  2
部品
 70
     0
 62
    14
  6
CONTINUOUS
  0
LAYER
  2
サッシ芯
 70
     0
 62
    17
  6
DASHDOTX2
  0
LAYER
  2
寸法線
 70
     0
 62
    62
  6
CONTINUOUS
  0
LAYER
  2
姿図外形線
 70
     0
 62
    65
  6
CONTINUOUS
  0
LAYER
  2
姿補助線
 70
     0
 62
    30
  6
CONTINUOUS
  0
LAYER
  2
透視線
 70
     0
 62
    78
  6
DOT
  0
LAYER
  2
用紙
 70
     0
 62
    81
  6
CONTINUOUS
  0
LAYER
  2
実線図枠
 70
     0
 62
    94
  6
CONTINUOUS
  0
LAYER
  2
補助図枠
 70
     0
 62
    97
  6
CONTINUOUS
  0
LAYER
  2
建具記号
 70
     0
 62
   110
  6
CONTINUOUS
  0
LAYER
  2
補助文字
 70
     0
 62
   113
  6
CONTINUOUS
  0
ENDTAB
  0
TABLE
  2
STYLE
 70
    10
  0
STYLE
  2
STANDARD
 70
     0
 40
1.0
 41
1.0
 42
1.0
 50
0.0
 71
     0
  3
TXT
  4
BIGFONT
  0
STYLE
  2
TATE
 70
     4
 40
1.0
 41
1.0
 42
1.0
 50
0.0
 71
     0
  3
TXT
  4
BIGFONT
  0
STYLE
  2
TextStyle03
 70
     0
 40
1.0
 41
1.0
 42
1.0
 50
0.0
 71
     0
  3
MONOTXT
  4
BIGFONT
  0
STYLE
  2
TextStyle04
 70
     0
 40
1.0
 41
1.0
 42
1.0
 50
0.0
 71
     0
  3
MONOTXT
  4
BIGFONT
  0
STYLE
  2
TextStyle05
 70
     0
 40
1.0
 41
1.0
 42
1.0
 50
0.0
 71
     0
  3
MONOTXT
  4
BIGFONT
  0
STYLE
  2
TextStyle06
 70
     0
 40
1.0
 41
1.0
 42
1.0
 50
0.0
 71
     0
  3
MONOTXT
  4
BIGFONT
  0
STYLE
  2
TextStyle07
 70
     0
 40
1.0
 41
1.0
 42
1.0
 50
0.0
 71
     0
  3
MONOTXT
  4
BIGFONT
  0
STYLE
  2
TextStyle08
 70
     0
 40
1.0
 41
1.0
 42
1.0
 50
0.0
 71
     0
  3
MONOTXT
  4
BIGFONT
  0
STYLE
  2
TextStyle09
 70
     0
 40
1.0
 41
1.0
 42
1.0
 50
0.0
 71
     0
  3
MONOTXT
  4
BIGFONT
  0
STYLE
  2
TextStyle10
 70
     0
 40
1.0
 41
1.0
 42
1.0
 50
0.0
 71
     0
  3
MONOTXT
  4
BIGFONT
  0
ENDTAB
  0
ENDSEC
  0
SECTION
  2
BLOCKS
  0
BLOCK
  2
*GRP_0001
 70
    65
 10
0.0
 20
0.0
  0
LINE
  8
型材断面
  6
CONTINUOUS
 10
195.0
 20
133.5
 11
195.0
 21
-133.5
  0
LINE
  8
型材断面
  6
CONTINUOUS
 10
195.0
 20
-133.5
 11
-185.0
 21
-133.5
  0
LINE
  8
型材断面
  6
CONTINUOUS
 10
-185.0
 20
-133.5
 11
-185.0
 21
133.5
  0
LINE
  8
型材断面
  6
CONTINUOUS
 10
195.0
 20
133.5
 11
-185.0
 21
133.5
  0
LINE
  8
型材断面
  6
CONTINUOUS
 10
145.0
 20
-133.5
 11
145.0
 21
-118.5
  0
LINE
  8
型材断面
  6
CONTINUOUS
 10
195.0
 20
-118.5
 11
145.0
 21
-118.5
  0
ENDBLK
  0
BLOCK
  2
*DIM_0002
 70
    65
 10
0.0
 20
0.0
  0
LINE
  8
寸法
  6
BYBLOCK
 62
     0
 10
7.403067
 20
-61.87628
 11
37.372718
 21
-61.87628
  0
LINE
  8
寸法
  6
BYBLOCK
 62
     0
 10
37.372718
 20
-70.209613
 11
37.372718
 21
-61.87628
  0
POINT
  8
寸法
 62
     0
 10
37.372718
 20
-70.209613
  0
POINT
  8
寸法
 62
     0
 10
37.372718
 20
-61.87628
  0
TEXT
  7
TextStyle03
  8
寸法
  6
CONTINUOUS
 62
     0
 10
37.05
 20
-68.5125
  1
250
 40
3.0
 50
90.0
 72
     5
 11
37.05
 21
-63.6375
  0
ENDBLK
  0
BLOCK
  2
*DIM_0003
 70
    65
 10
0.0
 20
0.0
  0
LINE
  8
寸法
  6
BYBLOCK
 62
     0
 10
102.603
 20
38.814033
 11
102.603
 21
68.369967
  0
LINE
  8
寸法
  6
BYBLOCK
 62
     0
 10
110.936333
 20
68.369967
 11
102.603
 21
68.369967
  0
POINT
  8
寸法
 62
     0
 10
110.936333
 20
68.369967
  0
POINT
  8
寸法
 62
     0
 10
102.603
 20
68.369967
  0
TEXT
  7
TextStyle03
  8
寸法
  6
CONTINUOUS
 62
     0
 10
104.3625
 20
68.725
  1
250
 40
3.0
 72
     5
 11
109.2375
 21
68.725
  0
ENDBLK
  0
BLOCK
  2
*DIM_0004
 70
    65
 10
0.0
 20
0.0
  0
LINE
  8
寸法
  6
BYBLOCK
 62
     0
 10
55.422717
 20
22.814033
 11
55.422717
 21
52.814033
  0
POINT
  8
寸法
 62
     0
 10
55.422717
 20
22.814033
  0
POINT
  8
寸法
 62
     0
 10
55.422717
 20
52.814033
  0
TEXT
  7
TextStyle03
  8
寸法
  6
CONTINUOUS
 62
     0
 10
55.1
 20
26.9
  1
呼称寸法　900
 40
3.0
 50
90.0
 72
     5
 11
55.1
 21
48.65
  0
ENDBLK
  0
BLOCK
  2
*DIM_0005
 70
    65
 10
0.0
 20
0.0
  0
LINE
  8
寸法
  6
BYBLOCK
 62
     0
 10
-45.2636
 20
-13.511205
 11
-45.2636
 21
-13.121378
  0
LINE
  8
寸法
  6
BYBLOCK
 62
     0
 10
21.403067
 20
-13.121378
 11
-45.2636
 21
-13.121378
  0
POINT
  8
寸法
 62
     0
 10
21.403067
 20
-13.121378
  0
POINT
  8
寸法
 62
     0
 10
-45.2636
 20
-13.121378
  0
TEXT
  7
TextStyle03
  8
寸法
  6
CONTINUOUS
 62
     0
 10
-23.66875
 20
-12.75
  1
呼称寸法　2000
 40
3.0
 72
     5
 11
-0.23125
 21
-12.75
  0
ENDBLK
  0
BLOCK
  2
*DIM_0006
 70
    65
 10
0.0
 20
0.0
  0
LINE
  8
寸法
  6
BYBLOCK
 62
     0
 10
-28.596933
 20
19.183902
 11
-28.596933
 21
13.85658
  0
LINE
  8
寸法
  6
BYBLOCK
 62
     0
 10
4.736403
 20
19.183902
 11
4.736403
 21
13.85658
  0
LINE
  8
寸法
  6
BYBLOCK
 62
     0
 10
-28.596933
 20
13.85658
 11
4.736403
 21
13.85658
  0
POINT
  8
寸法
 62
     0
 10
-28.596933
 20
13.85658
  0
POINT
  8
寸法
 62
     0
 10
4.736403
 20
13.85658
  0
TEXT
  7
TextStyle03
  8
寸法
  6
CONTINUOUS
 62
     0
 10
-15.23125
 20
14.225
  1
1000
 40
3.0
 72
     5
 11
-8.66875
 21
14.225
  0
ENDBLK
  0
BLOCK
  2
*DIM_0007
 70
    65
 10
0.0
 20
0.0
  0
LINE
  8
寸法
  6
BYBLOCK
 62
     0
 10
110.936333
 20
55.4807
 11
110.936333
 21
68.369967
  0
LINE
  8
寸法
  6
BYBLOCK
 62
     0
 10
117.719615
 20
55.7807
 11
117.719615
 21
68.369967
  0
LINE
  8
寸法
  6
BYBLOCK
 62
     0
 10
110.936333
 20
68.369967
 11
117.719615
 21
68.369967
  0
POINT
  8
寸法
 62
     0
 10
110.936333
 20
68.369967
  0
POINT
  8
寸法
 62
     0
 10
117.719615
 20
68.369967
  0
TEXT
  7
TextStyle03
  8
寸法
  6
CONTINUOUS
 62
     0
 10
118.625
 20
68.725
  1
203.5
 40
3.0
 72
     5
 11
126.875
 21
68.725
  0
ENDBLK
  0
BLOCK
  2
*DIM_0008
 70
    65
 10
0.0
 20
0.0
  0
LINE
  8
寸法
  6
BYBLOCK
 62
     0
 10
113.758972
 20
55.094035
 11
55.422717
 21
55.094035
  0
LINE
  8
寸法
  6
BYBLOCK
 62
     0
 10
55.422717
 20
52.814033
 11
55.422717
 21
55.094035
  0
POINT
  8
寸法
 62
     0
 10
55.422717
 20
52.814033
  0
POINT
  8
寸法
 62
     0
 10
55.422717
 20
55.094035
  0
TEXT
  7
TextStyle03
  8
寸法
  6
CONTINUOUS
 62
     0
 10
55.025
 20
57.41875
  1
68.4
 40
3.0
 50
90.0
 72
     5
 11
55.025
 21
63.98125
  0
ENDBLK
  0
BLOCK
  2
*DIM_0009
 70
    65
 10
0.0
 20
0.0
  0
LINE
  8
寸法
  6
BYBLOCK
 62
     0
 10
113.758972
 20
20.53403
 11
55.422717
 21
20.53403
  0
LINE
  8
寸法
  6
BYBLOCK
 62
     0
 10
55.422717
 20
22.814033
 11
55.422717
 21
20.53403
  0
POINT
  8
寸法
 62
     0
 10
55.422717
 20
22.814033
  0
POINT
  8
寸法
 62
     0
 10
55.422717
 20
20.53403
  0
TEXT
  7
TextStyle03
  8
寸法
  6
CONTINUOUS
 62
     0
 10
55.025
 20
11.61875
  1
68.4
 40
3.0
 50
90.0
 72
     5
 11
55.025
 21
18.18125
  0
ENDBLK
  0
BLOCK
  2
*DIM_0010
 70
    65
 10
0.0
 20
0.0
  0
LINE
  8
寸法
  6
BYBLOCK
 62
     0
 10
24.069735
 20
-70.209613
 11
37.372718
 21
-70.209613
  0
LINE
  8
寸法
  6
BYBLOCK
 62
     0
 10
24.369732
 20
-76.992897
 11
37.372718
 21
-76.992897
  0
LINE
  8
寸法
  6
BYBLOCK
 62
     0
 10
37.372718
 20
-70.209613
 11
37.372718
 21
-76.992897
  0
POINT
  8
寸法
 62
     0
 10
37.372718
 20
-70.209613
  0
POINT
  8
寸法
 62
     0
 10
37.372718
 20
-76.992897
  0
TEXT
  7
TextStyle03
  8
寸法
  6
CONTINUOUS
 62
     0
 10
36.975
 20
-86.175
  1
203.5
 40
3.0
 50
90.0
 72
     5
 11
36.975
 21
-77.925
  0
ENDBLK
  0
BLOCK
  2
*DIM_0011
 70
    65
 10
0.0
 20
0.0
  0
LINE
  8
寸法
  6
BYBLOCK
 62
     0
 10
-47.543598
 20
-73.032255
 11
-47.543598
 21
-13.121378
  0
LINE
  8
寸法
  6
BYBLOCK
 62
     0
 10
-45.2636
 20
-13.121378
 11
-47.543598
 21
-13.121378
  0
POINT
  8
寸法
 62
     0
 10
-45.2636
 20
-13.121378
  0
POINT
  8
寸法
 62
     0
 10
-47.543598
 20
-13.121378
  0
TEXT
  7
TextStyle03
  8
寸法
  6
CONTINUOUS
 62
     0
 10
-56.45625
 20
-12.75
  1
68.4
 40
3.0
 72
     5
 11
-49.89375
 21
-12.75
  0
ENDBLK
  0
BLOCK
  2
*DIM_0012
 70
    65
 10
0.0
 20
0.0
  0
LINE
  8
寸法
  6
BYBLOCK
 62
     0
 10
23.683067
 20
-73.032255
 11
23.683067
 21
-13.121378
  0
LINE
  8
寸法
  6
BYBLOCK
 62
     0
 10
21.403067
 20
-13.121378
 11
23.683067
 21
-13.121378
  0
POINT
  8
寸法
 62
     0
 10
21.403067
 20
-13.121378
  0
POINT
  8
寸法
 62
     0
 10
23.683067
 20
-13.121378
  0
TEXT
  7
TextStyle03
  8
寸法
  6
CONTINUOUS
 62
     0
 10
25.99375
 20
-12.75
  1
68.4
 40
3.0
 72
     5
 11
32.55625
 21
-12.75
  0
ENDBLK
  0
BLOCK
  2
*DIM_0013
 70
    65
 10
0.0
 20
0.0
  0
LINE
  8
寸法
  6
BYBLOCK
 62
     0
 10
84.022955
 20
-52.785395
 11
84.022955
 21
-43.844812
  0
LINE
  8
寸法
  6
BYBLOCK
 62
     0
 10
116.356287
 20
-52.785395
 11
116.356287
 21
-43.844812
  0
LINE
  8
寸法
  6
BYBLOCK
 62
     0
 10
84.022955
 20
-43.844812
 11
116.356287
 21
-43.844812
  0
POINT
  8
寸法
 62
     0
 10
84.022955
 20
-43.844812
  0
POINT
  8
寸法
 62
     0
 10
116.356287
 20
-43.844812
  0
TEXT
  7
TextStyle03
  8
寸法
  6
CONTINUOUS
 62
     0
 10
97.7375
 20
-43.475
  1
970
 40
3.0
 72
     5
 11
102.6125
 21
-43.475
  0
ENDBLK
  0
BLOCK
  2
*DIM_0014
 70
    65
 10
0.0
 20
0.0
  0
LINE
  8
寸法
  6
BYBLOCK
 62
     0
 10
117.356287
 20
-53.785395
 11
123.983933
 21
-53.785395
  0
LINE
  8
寸法
  6
BYBLOCK
 62
     0
 10
117.356287
 20
-83.118728
 11
123.983933
 21
-83.118728
  0
LINE
  8
寸法
  6
BYBLOCK
 62
     0
 10
123.983933
 20
-53.785395
 11
123.983933
 21
-83.118728
  0
POINT
  8
寸法
 62
     0
 10
123.983933
 20
-53.785395
  0
POINT
  8
寸法
 62
     0
 10
123.983933
 20
-83.118728
  0
TEXT
  7
TextStyle03
  8
寸法
  6
CONTINUOUS
 62
     0
 10
123.6
 20
-70.9125
  1
880
 40
3.0
 50
90.0
 72
     5
 11
123.6
 21
-66.0375
  0
ENDBLK
  0
BLOCK
  2
*DIM_0015
 70
    65
 10
0.0
 20
0.0
  0
LINE
  8
寸法
  6
BYBLOCK
 62
     0
 10
25.033195
 20
48.914033
 11
31.810488
 21
48.914033
  0
LINE
  8
寸法
  6
BYBLOCK
 62
     0
 10
31.810488
 20
52.814033
 11
31.810488
 21
48.914033
  0
POINT
  8
寸法
 62
     0
 10
31.810488
 20
52.814033
  0
POINT
  8
寸法
 62
     0
 10
31.810488
 20
48.914033
  0
TEXT
  7
TextStyle03
  8
寸法
  6
CONTINUOUS
 62
     0
 10
31.525
 20
53.4875
  1
117
 40
3.0
 50
90.0
 72
     5
 11
31.525
 21
58.3625
  0
ENDBLK
  0
BLOCK
  2
*DIM_0016
 70
    65
 10
0.0
 20
0.0
  0
LINE
  8
寸法
  6
BYBLOCK
 62
     0
 10
25.033195
 20
26.714033
 11
31.810488
 21
26.714033
  0
LINE
  8
寸法
  6
BYBLOCK
 62
     0
 10
31.810488
 20
22.814033
 11
31.810488
 21
26.714033
  0
POINT
  8
寸法
 62
     0
 10
31.810488
 20
22.814033
  0
POINT
  8
寸法
 62
     0
 10
31.810488
 20
26.714033
  0
TEXT
  7
TextStyle03
  8
寸法
  6
CONTINUOUS
 62
     0
 10
31.9
 20
17.2125
  1
117
 40
3.0
 50
90.0
 72
     5
 11
31.9
 21
22.0875
  0
ENDBLK
  0
BLOCK
  2
*GRP_0017
 70
    65
 10
0.0
 20
0.0
  0
LINE
  8
別途部材
  6
CONTINUOUS
 62
    96
 10
-46.930265
 20
-70.209613
 11
-47.330265
 21
-71.209613
  0
ARC
  8
別途部材
  6
CONTINUOUS
 10
-30.263597
 20
-79.542943
 40
17.666667
 50
90.0
 51
148.109204
  0
LINE
  8
別途部材
  6
CONTINUOUS
 10
-47.330265
 20
-71.209613
 11
-11.930265
 21
-71.209613
  0
LINE
  8
別途部材
  6
CONTINUOUS
 62
    96
 10
-46.930265
 20
-70.209613
 11
-11.930265
 21
-70.209613
  0
LINE
  8
別途部材
  6
CONTINUOUS
 10
-12.430265
 20
-60.87628
 11
-13.430265
 21
-61.87628
  0
LINE
  8
別途部材
  6
CONTINUOUS
 10
-14.430265
 20
-61.87628
 11
-15.430265
 21
-60.87628
  0
LINE
  8
別途部材
  6
CONTINUOUS
 10
-16.430265
 20
-60.87628
 11
-17.430265
 21
-61.87628
  0
LINE
  8
別途部材
  6
CONTINUOUS
 10
-15.430265
 20
-60.87628
 11
-16.430265
 21
-60.87628
  0
LINE
  8
別途部材
  6
CONTINUOUS
 10
-12.430265
 20
-60.87628
 11
-11.930265
 21
-60.87628
  0
LINE
  8
別途部材
  6
CONTINUOUS
 10
-18.430265
 20
-61.87628
 11
-19.430265
 21
-60.87628
  0
LINE
  8
別途部材
  6
CONTINUOUS
 10
-20.430265
 20
-60.87628
 11
-21.430265
 21
-61.87628
  0
LINE
  8
別途部材
  6
CONTINUOUS
 10
-19.430265
 20
-60.87628
 11
-20.430265
 21
-60.87628
  0
LINE
  8
別途部材
  6
CONTINUOUS
 10
-22.430265
 20
-61.87628
 11
-23.430265
 21
-60.87628
  0
LINE
  8
別途部材
  6
CONTINUOUS
 10
-24.430265
 20
-60.87628
 11
-25.430265
 21
-61.87628
  0
LINE
  8
別途部材
  6
CONTINUOUS
 10
-23.430265
 20
-60.87628
 11
-24.430265
 21
-60.87628
  0
LINE
  8
別途部材
  6
CONTINUOUS
 10
-26.430265
 20
-61.87628
 11
-27.430265
 21
-60.87628
  0
LINE
  8
別途部材
  6
CONTINUOUS
 10
-28.430265
 20
-60.87628
 11
-29.430265
 21
-61.87628
  0
LINE
  8
別途部材
  6
CONTINUOUS
 10
-27.430265
 20
-60.87628
 11
-28.430265
 21
-60.87628
  0
LINE
  8
別途部材
  6
CONTINUOUS
 10
-25.430265
 20
-61.87628
 11
-26.430265
 21
-61.87628
  0
LINE
  8
別途部材
  6
CONTINUOUS
 10
-21.430265
 20
-61.87628
 11
-22.430265
 21
-61.87628
  0
LINE
  8
別途部材
  6
CONTINUOUS
 10
-17.430265
 20
-61.87628
 11
-18.430265
 21
-61.87628
  0
LINE
  8
別途部材
  6
CONTINUOUS
 10
-14.430265
 20
-61.87628
 11
-13.430265
 21
-61.87628
  0
LINE
  8
別途部材
  6
CONTINUOUS
 10
-28.430265
 20
-60.87628
 11
-28.430265
 21
-70.209613
  0
LINE
  8
別途部材
  6
CONTINUOUS
 10
-27.430265
 20
-60.87628
 11
-27.430265
 21
-70.209613
  0
LINE
  8
別途部材
  6
CONTINUOUS
 10
-25.430265
 20
-61.87628
 11
-25.430265
 21
-70.209613
  0
LINE
  8
別途部材
  6
CONTINUOUS
 10
-26.430265
 20
-61.87628
 11
-26.430265
 21
-70.209613
  0
LINE
  8
別途部材
  6
CONTINUOUS
 10
-29.430265
 20
-61.87628
 11
-29.430265
 21
-70.209613
  0
LINE
  8
別途部材
  6
CONTINUOUS
 10
-24.430265
 20
-60.87628
 11
-24.430265
 21
-70.209613
  0
LINE
  8
別途部材
  6
CONTINUOUS
 10
-22.430265
 20
-61.87628
 11
-22.430265
 21
-70.209613
  0
LINE
  8
別途部材
  6
CONTINUOUS
 10
-23.430265
 20
-60.87628
 11
-23.430265
 21
-70.209613
  0
LINE
  8
別途部材
  6
CONTINUOUS
 10
-21.430265
 20
-61.87628
 11
-21.430265
 21
-70.209613
  0
LINE
  8
別途部材
  6
CONTINUOUS
 10
-20.430265
 20
-60.87628
 11
-20.430265
 21
-70.209613
  0
LINE
  8
別途部材
  6
CONTINUOUS
 10
-18.430265
 20
-61.87628
 11
-18.430265
 21
-70.209613
  0
LINE
  8
別途部材
  6
CONTINUOUS
 10
-19.430265
 20
-60.87628
 11
-19.430265
 21
-70.209613
  0
LINE
  8
別途部材
  6
CONTINUOUS
 10
-17.430265
 20
-61.87628
 11
-17.430265
 21
-70.209613
  0
LINE
  8
別途部材
  6
CONTINUOUS
 10
-16.430265
 20
-60.87628
 11
-16.430265
 21
-70.209613
  0
LINE
  8
別途部材
  6
CONTINUOUS
 10
-14.430265
 20
-61.87628
 11
-14.430265
 21
-70.209613
  0
LINE
  8
別途部材
  6
CONTINUOUS
 10
-15.430265
 20
-60.87628
 11
-15.430265
 21
-70.209613
  0
LINE
  8
別途部材
  6
CONTINUOUS
 10
-13.430265
 20
-61.87628
 11
-13.430265
 21
-70.209613
  0
LINE
  8
別途部材
  6
CONTINUOUS
 10
-12.430265
 20
-60.87628
 11
-12.430265
 21
-70.209613
  0
LINE
  8
別途部材
  6
CONTINUOUS
 10
-30.263598
 20
-61.87628
 11
-29.430265
 21
-61.87628
  0
LINE
  8
別途部材
  6
CONTINUOUS
 62
    96
 10
23.069735
 20
-70.209613
 11
23.469735
 21
-71.209613
  0
ARC
  8
別途部材
  6
CONTINUOUS
 10
6.403067
 20
-79.542943
 40
17.666667
 50
31.890796
 51
90.0
  0
LINE
  8
別途部材
  6
CONTINUOUS
 10
23.469735
 20
-71.209613
 11
-11.930265
 21
-71.209613
  0
LINE
  8
別途部材
  6
CONTINUOUS
 62
    96
 10
23.069735
 20
-70.209613
 11
-11.930265
 21
-70.209613
  0
LINE
  8
別途部材
  6
CONTINUOUS
 10
-11.430265
 20
-60.87628
 11
-10.430265
 21
-61.87628
  0
LINE
  8
別途部材
  6
CONTINUOUS
 10
-9.430265
 20
-61.87628
 11
-8.430265
 21
-60.87628
  0
LINE
  8
別途部材
  6
CONTINUOUS
 10
-7.430265
 20
-60.87628
 11
-6.430265
 21
-61.87628
  0
LINE
  8
別途部材
  6
CONTINUOUS
 10
-8.430265
 20
-60.87628
 11
-7.430265
 21
-60.87628
  0
LINE
  8
別途部材
  6
CONTINUOUS
 10
-11.430265
 20
-60.87628
 11
-11.930265
 21
-60.87628
  0
LINE
  8
別途部材
  6
CONTINUOUS
 10
-5.430265
 20
-61.87628
 11
-4.430265
 21
-60.87628
  0
LINE
  8
別途部材
  6
CONTINUOUS
 10
-3.430265
 20
-60.87628
 11
-2.430265
 21
-61.87628
  0
LINE
  8
別途部材
  6
CONTINUOUS
 10
-4.430265
 20
-60.87628
 11
-3.430265
 21
-60.87628
  0
LINE
  8
別途部材
  6
CONTINUOUS
 10
-1.430265
 20
-61.87628
 11
-0.430265
 21
-60.87628
  0
LINE
  8
別途部材
  6
CONTINUOUS
 10
0.569735
 20
-60.87628
 11
1.569735
 21
-61.87628
  0
LINE
  8
別途部材
  6
CONTINUOUS
 10
-0.430265
 20
-60.87628
 11
0.569735
 21
-60.87628
  0
LINE
  8
別途部材
  6
CONTINUOUS
 10
2.569735
 20
-61.87628
 11
3.569735
 21
-60.87628
  0
LINE
  8
別途部材
  6
CONTINUOUS
 10
4.569735
 20
-60.87628
 11
5.569735
 21
-61.87628
  0
LINE
  8
別途部材
  6
CONTINUOUS
 10
3.569735
 20
-60.87628
 11
4.569735
 21
-60.87628
  0
LINE
  8
別途部材
  6
CONTINUOUS
 10
1.569735
 20
-61.87628
 11
2.569735
 21
-61.87628
  0
LINE
  8
別途部材
  6
CONTINUOUS
 10
-2.430265
 20
-61.87628
 11
-1.430265
 21
-61.87628
  0
LINE
  8
別途部材
  6
CONTINUOUS
 10
-6.430265
 20
-61.87628
 11
-5.430265
 21
-61.87628
  0
LINE
  8
別途部材
  6
CONTINUOUS
 10
-9.430265
 20
-61.87628
 11
-10.430265
 21
-61.87628
  0
LINE
  8
別途部材
  6
CONTINUOUS
 10
4.569735
 20
-60.87628
 11
4.569735
 21
-70.209613
  0
LINE
  8
別途部材
  6
CONTINUOUS
 10
3.569735
 20
-60.87628
 11
3.569735
 21
-70.209613
  0
LINE
  8
別途部材
  6
CONTINUOUS
 10
1.569735
 20
-61.87628
 11
1.569735
 21
-70.209613
  0
LINE
  8
別途部材
  6
CONTINUOUS
 10
2.569735
 20
-61.87628
 11
2.569735
 21
-70.209613
  0
LINE
  8
別途部材
  6
CONTINUOUS
 10
5.569735
 20
-61.87628
 11
5.569735
 21
-70.209613
  0
LINE
  8
別途部材
  6
CONTINUOUS
 10
0.569735
 20
-60.87628
 11
0.569735
 21
-70.209613
  0
LINE
  8
別途部材
  6
CONTINUOUS
 10
-1.430265
 20
-61.87628
 11
-1.430265
 21
-70.209613
  0
LINE
  8
別途部材
  6
CONTINUOUS
 10
-0.430265
 20
-60.87628
 11
-0.430265
 21
-70.209613
  0
LINE
  8
別途部材
  6
CONTINUOUS
 10
-2.430265
 20
-61.87628
 11
-2.430265
 21
-70.209613
  0
LINE
  8
別途部材
  6
CONTINUOUS
 10
-3.430265
 20
-60.87628
 11
-3.430265
 21
-70.209613
  0
LINE
  8
別途部材
  6
CONTINUOUS
 10
-5.430265
 20
-61.87628
 11
-5.430265
 21
-70.209613
  0
LINE
  8
別途部材
  6
CONTINUOUS
 10
-4.430265
 20
-60.87628
 11
-4.430265
 21
-70.209613
  0
LINE
  8
別途部材
  6
CONTINUOUS
 10
-6.430265
 20
-61.87628
 11
-6.430265
 21
-70.209613
  0
LINE
  8
別途部材
  6
CONTINUOUS
 10
-7.430265
 20
-60.87628
 11
-7.430265
 21
-70.209613
  0
LINE
  8
別途部材
  6
CONTINUOUS
 10
-9.430265
 20
-61.87628
 11
-9.430265
 21
-70.209613
  0
LINE
  8
別途部材
  6
CONTINUOUS
 10
-8.430265
 20
-60.87628
 11
-8.430265
 21
-70.209613
  0
LINE
  8
別途部材
  6
CONTINUOUS
 10
-10.430265
 20
-61.87628
 11
-10.430265
 21
-70.209613
  0
LINE
  8
別途部材
  6
CONTINUOUS
 10
-11.430265
 20
-60.87628
 11
-11.430265
 21
-70.209613
  0
LINE
  8
別途部材
  6
CONTINUOUS
 10
6.403067
 20
-61.87628
 11
5.569735
 21
-61.87628
  0
ENDBLK
  0
BLOCK
  2
*DIM_0018
 70
    65
 10
0.0
 20
0.0
  0
LINE
  8
寸法
  6
BYBLOCK
 62
     0
 10
-48.2636
 20
47.814033
 11
-61.556437
 21
47.814033
  0
LINE
  8
寸法
  6
BYBLOCK
 62
     0
 10
-48.2636
 20
27.814033
 11
-61.556437
 21
27.814033
  0
LINE
  8
寸法
  6
BYBLOCK
 62
     0
 10
-61.556437
 20
47.814033
 11
-61.556437
 21
27.814033
  0
POINT
  8
寸法
 62
     0
 10
-61.556437
 20
47.814033
  0
POINT
  8
寸法
 62
     0
 10
-61.556437
 20
27.814033
  0
TEXT
  7
TextStyle03
  8
寸法
  6
CONTINUOUS
 62
     0
 10
-61.95
 20
35.3625
  1
600
 40
3.0
 50
90.0
 72
     5
 11
-61.95
 21
40.2375
  0
ENDBLK
  0
BLOCK
  2
*DIM_0019
 70
    65
 10
0.0
 20
0.0
  0
LINE
  8
寸法
  6
BYBLOCK
 62
     0
 10
-35.263598
 20
55.814033
 11
-35.263598
 21
84.741653
  0
LINE
  8
寸法
  6
BYBLOCK
 62
     0
 10
-11.930265
 20
55.814033
 11
-11.930265
 21
84.741653
  0
LINE
  8
寸法
  6
BYBLOCK
 62
     0
 10
-35.263598
 20
84.741653
 11
-11.930265
 21
84.741653
  0
POINT
  8
寸法
 62
     0
 10
-35.263598
 20
84.741653
  0
POINT
  8
寸法
 62
     0
 10
-11.930265
 20
84.741653
  0
TEXT
  7
TextStyle03
  8
寸法
  6
CONTINUOUS
 62
     0
 10
-26.0375
 20
85.125
  1
700
 40
3.0
 72
     5
 11
-21.1625
 21
85.125
  0
ENDBLK
  0
BLOCK
  2
*DIM_0020
 70
    65
 10
0.0
 20
0.0
  0
LINE
  8
寸法
  6
BYBLOCK
 62
     0
 10
11.403067
 20
55.814033
 11
11.403067
 21
84.741653
  0
LINE
  8
寸法
  6
BYBLOCK
 62
     0
 10
-11.930265
 20
84.741653
 11
11.403067
 21
84.741653
  0
POINT
  8
寸法
 62
     0
 10
11.403067
 20
84.741653
  0
TEXT
  7
TextStyle03
  8
寸法
  6
CONTINUOUS
 62
     0
 10
-2.7125
 20
85.125
  1
700
 40
3.0
 72
     5
 11
2.1625
 21
85.125
  0
ENDBLK
  0
BLOCK
  2
*DIM_0021
 70
    65
 10
0.0
 20
0.0
  0
LINE
  8
寸法
  6
BYBLOCK
 62
     0
 10
9.403065
 20
-51.87628
 11
37.372718
 21
-51.87628
  0
LINE
  8
寸法
  6
BYBLOCK
 62
     0
 10
37.372718
 20
-61.87628
 11
37.372718
 21
-51.87628
  0
POINT
  8
寸法
 62
     0
 10
37.372718
 20
-61.87628
  0
POINT
  8
寸法
 62
     0
 10
37.372718
 20
-51.87628
  0
TEXT
  7
TextStyle03
  8
寸法
  6
CONTINUOUS
 62
     0
 10
43.25
 20
-65.96875
  1
上昇243以上
 40
3.0
 50
90.0
 72
     5
 11
43.25
 21
-47.78125
  0
ENDBLK
  0
BLOCK
  2
*GRP_0022
 70
    65
 10
0.0
 20
0.0
  0
LINE
  8
ボルト／ビス
  6
CONTINUOUS
 10
110.936333
 20
53.4807
 11
110.469667
 21
53.4807
  0
LINE
  8
ボルト／ビス
  6
CONTINUOUS
 10
110.936333
 20
53.847365
 11
110.869667
 21
53.847365
  0
LINE
  8
ボルト／ビス
  6
CONTINUOUS
 10
110.869667
 20
53.847365
 11
110.869667
 21
53.114033
  0
LINE
  8
ボルト／ビス
  6
CONTINUOUS
 10
110.869667
 20
53.114033
 11
110.936333
 21
53.114033
  0
LINE
  8
ボルト／ビス
  6
CONTINUOUS
 10
110.936333
 20
53.847365
 11
110.936333
 21
53.114033
  0
LINE
  8
ボルト／ビス
  6
CONTINUOUS
 10
110.836333
 20
53.7807
 11
110.869667
 21
53.7807
  0
LINE
  8
ボルト／ビス
  6
CONTINUOUS
 10
110.836333
 20
53.7807
 11
110.836333
 21
53.1807
  0
LINE
  8
ボルト／ビス
  6
CONTINUOUS
 10
110.836333
 20
53.1807
 11
110.869667
 21
53.1807
  0
LINE
  8
ボルト／ビス
  6
CONTINUOUS
 62
    64
 10
110.636333
 20
53.641075
 11
110.648007
 21
53.67315
  0
ARC
  8
ボルト／ビス
  6
CONTINUOUS
 62
    64
 10
110.74131
 20
53.625036
 40
0.104978
 50
180.0
 51
207.278033
  0
ARC
  8
ボルト／ビス
  6
CONTINUOUS
 62
    64
 10
111.038734
 20
53.480699
 40
0.402402
 50
166.165015
 51
193.834998
  0
LINE
  8
ボルト／ビス
  6
CONTINUOUS
 62
    64
 10
110.636333
 20
53.320325
 11
110.648007
 21
53.28825
  0
ARC
  8
ボルト／ビス
  6
CONTINUOUS
 62
    64
 10
110.74131
 20
53.336361
 40
0.104978
 50
152.721967
 51
180.0
  0
LINE
  8
ボルト／ビス
  6
CONTINUOUS
 62
    64
 10
110.636333
 20
53.641075
 11
110.636333
 21
53.320325
  0
LINE
  8
ボルト／ビス
  6
CONTINUOUS
 62
    64
 10
110.648007
 20
53.28825
 11
110.769667
 21
53.28825
  0
LINE
  8
ボルト／ビス
  6
CONTINUOUS
 62
    64
 10
110.648007
 20
53.384475
 11
110.769667
 21
53.384475
  0
LINE
  8
ボルト／ビス
  6
CONTINUOUS
 62
    64
 10
110.648007
 20
53.67315
 11
110.769667
 21
53.67315
  0
LINE
  8
ボルト／ビス
  6
CONTINUOUS
 62
    64
 10
110.648007
 20
53.576925
 11
110.769667
 21
53.576925
  0
LINE
  8
ボルト／ビス
  6
CONTINUOUS
 10
110.769667
 20
53.67315
 11
110.769667
 21
53.28825
  0
LINE
  8
ボルト／ビス
  6
CONTINUOUS
 10
110.769667
 20
53.6807
 11
110.836333
 21
53.6807
  0
LINE
  8
ボルト／ビス
  6
CONTINUOUS
 10
110.769667
 20
53.6807
 11
110.769667
 21
53.2807
  0
LINE
  8
ボルト／ビス
  6
CONTINUOUS
 10
110.769667
 20
53.2807
 11
110.836333
 21
53.2807
  0
ENDBLK
  0
BLOCK
  2
*GRP_0023
 70
    65
 10
0.0
 20
0.0
  0
LINE
  8
ボルト／ビス
  6
CONTINUOUS
 10
110.936333
 20
22.147365
 11
110.469667
 21
22.147365
  0
LINE
  8
ボルト／ビス
  6
CONTINUOUS
 10
110.936333
 20
22.51403
 11
110.869667
 21
22.51403
  0
LINE
  8
ボルト／ビス
  6
CONTINUOUS
 10
110.869667
 20
22.51403
 11
110.869667
 21
21.780697
  0
LINE
  8
ボルト／ビス
  6
CONTINUOUS
 10
110.869667
 20
21.780697
 11
110.936333
 21
21.780697
  0
LINE
  8
ボルト／ビス
  6
CONTINUOUS
 10
110.936333
 20
22.51403
 11
110.936333
 21
21.780697
  0
LINE
  8
ボルト／ビス
  6
CONTINUOUS
 10
110.836333
 20
22.447365
 11
110.869667
 21
22.447365
  0
LINE
  8
ボルト／ビス
  6
CONTINUOUS
 10
110.836333
 20
22.447365
 11
110.836333
 21
21.847365
  0
LINE
  8
ボルト／ビス
  6
CONTINUOUS
 10
110.836333
 20
21.847365
 11
110.869667
 21
21.847365
  0
LINE
  8
ボルト／ビス
  6
CONTINUOUS
 62
    64
 10
110.636333
 20
22.30774
 11
110.648007
 21
22.339815
  0
ARC
  8
ボルト／ビス
  6
CONTINUOUS
 62
    64
 10
110.74131
 20
22.291701
 40
0.104978
 50
180.0
 51
207.278033
  0
ARC
  8
ボルト／ビス
  6
CONTINUOUS
 62
    64
 10
111.038734
 20
22.147364
 40
0.402402
 50
166.165015
 51
193.834998
  0
LINE
  8
ボルト／ビス
  6
CONTINUOUS
 62
    64
 10
110.636333
 20
21.98699
 11
110.648007
 21
21.954915
  0
ARC
  8
ボルト／ビス
  6
CONTINUOUS
 62
    64
 10
110.74131
 20
22.003026
 40
0.104978
 50
152.721967
 51
180.0
  0
LINE
  8
ボルト／ビス
  6
CONTINUOUS
 62
    64
 10
110.636333
 20
22.30774
 11
110.636333
 21
21.98699
  0
LINE
  8
ボルト／ビス
  6
CONTINUOUS
 62
    64
 10
110.648007
 20
21.954915
 11
110.769667
 21
21.954915
  0
LINE
  8
ボルト／ビス
  6
CONTINUOUS
 62
    64
 10
110.648007
 20
22.05114
 11
110.769667
 21
22.05114
  0
LINE
  8
ボルト／ビス
  6
CONTINUOUS
 62
    64
 10
110.648007
 20
22.339815
 11
110.769667
 21
22.339815
  0
LINE
  8
ボルト／ビス
  6
CONTINUOUS
 62
    64
 10
110.648007
 20
22.24359
 11
110.769667
 21
22.24359
  0
LINE
  8
ボルト／ビス
  6
CONTINUOUS
 10
110.769667
 20
22.339815
 11
110.769667
 21
21.954915
  0
LINE
  8
ボルト／ビス
  6
CONTINUOUS
 10
110.769667
 20
22.347365
 11
110.836333
 21
22.347365
  0
LINE
  8
ボルト／ビス
  6
CONTINUOUS
 10
110.769667
 20
22.347365
 11
110.769667
 21
21.947365
  0
LINE
  8
ボルト／ビス
  6
CONTINUOUS
 10
110.769667
 20
21.947365
 11
110.836333
 21
21.947365
  0
ENDBLK
  0
BLOCK
  2
*GRP_0024
 70
    65
 10
0.0
 20
0.0
  0
LINE
  8
ボルト／ビス
  6
CONTINUOUS
 10
22.069735
 20
-70.209613
 11
22.069735
 21
-69.742947
  0
LINE
  8
ボルト／ビス
  6
CONTINUOUS
 10
21.70307
 20
-70.209613
 11
21.70307
 21
-70.142947
  0
LINE
  8
ボルト／ビス
  6
CONTINUOUS
 10
21.70307
 20
-70.142947
 11
22.436403
 21
-70.142947
  0
LINE
  8
ボルト／ビス
  6
CONTINUOUS
 10
22.436403
 20
-70.142947
 11
22.436403
 21
-70.209613
  0
LINE
  8
ボルト／ビス
  6
CONTINUOUS
 10
21.70307
 20
-70.209613
 11
22.436403
 21
-70.209613
  0
LINE
  8
ボルト／ビス
  6
CONTINUOUS
 10
21.769735
 20
-70.109612
 11
21.769735
 21
-70.142947
  0
LINE
  8
ボルト／ビス
  6
CONTINUOUS
 10
21.769735
 20
-70.109612
 11
22.369735
 21
-70.109612
  0
LINE
  8
ボルト／ビス
  6
CONTINUOUS
 10
22.369735
 20
-70.109612
 11
22.369735
 21
-70.142947
  0
LINE
  8
ボルト／ビス
  6
CONTINUOUS
 62
    64
 10
21.90936
 20
-69.909613
 11
21.877285
 21
-69.921288
  0
ARC
  8
ボルト／ビス
  6
CONTINUOUS
 62
    64
 10
21.925399
 20
-70.01459
 40
0.104978
 50
62.721967
 51
90.0
  0
ARC
  8
ボルト／ビス
  6
CONTINUOUS
 62
    64
 10
22.069737
 20
-70.312014
 40
0.402402
 50
76.165002
 51
103.834985
  0
LINE
  8
ボルト／ビス
  6
CONTINUOUS
 62
    64
 10
22.23011
 20
-69.909613
 11
22.262185
 21
-69.921288
  0
ARC
  8
ボルト／ビス
  6
CONTINUOUS
 62
    64
 10
22.214074
 20
-70.01459
 40
0.104978
 50
90.0
 51
117.278033
  0
LINE
  8
ボルト／ビス
  6
CONTINUOUS
 62
    64
 10
21.90936
 20
-69.909613
 11
22.23011
 21
-69.909613
  0
LINE
  8
ボルト／ビス
  6
CONTINUOUS
 62
    64
 10
22.262185
 20
-69.921288
 11
22.262185
 21
-70.042947
  0
LINE
  8
ボルト／ビス
  6
CONTINUOUS
 62
    64
 10
22.16596
 20
-69.921288
 11
22.16596
 21
-70.042947
  0
LINE
  8
ボルト／ビス
  6
CONTINUOUS
 62
    64
 10
21.877285
 20
-69.921288
 11
21.877285
 21
-70.042947
  0
LINE
  8
ボルト／ビス
  6
CONTINUOUS
 62
    64
 10
21.97351
 20
-69.921288
 11
21.97351
 21
-70.042947
  0
LINE
  8
ボルト／ビス
  6
CONTINUOUS
 10
21.877285
 20
-70.042947
 11
22.262185
 21
-70.042947
  0
LINE
  8
ボルト／ビス
  6
CONTINUOUS
 10
21.869735
 20
-70.042947
 11
21.869735
 21
-70.109612
  0
LINE
  8
ボルト／ビス
  6
CONTINUOUS
 10
21.869735
 20
-70.042947
 11
22.269735
 21
-70.042947
  0
LINE
  8
ボルト／ビス
  6
CONTINUOUS
 10
22.269735
 20
-70.042947
 11
22.269735
 21
-70.109612
  0
ENDBLK
  0
BLOCK
  2
*GRP_0025
 70
    65
 10
0.0
 20
0.0
  0
LINE
  8
ボルト／ビス
  6
DOT
 10
22.069735
 20
-60.209613
 11
22.069735
 21
-59.742947
  0
LINE
  8
ボルト／ビス
  6
DOT
 10
21.70307
 20
-60.209613
 11
21.70307
 21
-60.142947
  0
LINE
  8
ボルト／ビス
  6
DOT
 10
21.70307
 20
-60.142947
 11
22.436403
 21
-60.142947
  0
LINE
  8
ボルト／ビス
  6
DOT
 10
22.436403
 20
-60.142947
 11
22.436403
 21
-60.209613
  0
LINE
  8
ボルト／ビス
  6
DOT
 10
21.70307
 20
-60.209613
 11
22.436403
 21
-60.209613
  0
LINE
  8
ボルト／ビス
  6
DOT
 10
21.769735
 20
-60.109613
 11
21.769735
 21
-60.142947
  0
LINE
  8
ボルト／ビス
  6
DOT
 10
21.769735
 20
-60.109613
 11
22.369735
 21
-60.109613
  0
LINE
  8
ボルト／ビス
  6
DOT
 10
22.369735
 20
-60.109613
 11
22.369735
 21
-60.142947
  0
LINE
  8
ボルト／ビス
  6
DOT
 62
    64
 10
21.90936
 20
-59.909613
 11
21.877285
 21
-59.921288
  0
ARC
  8
ボルト／ビス
  6
DOT
 62
    64
 10
21.925399
 20
-60.01459
 40
0.104978
 50
62.721967
 51
90.0
  0
ARC
  8
ボルト／ビス
  6
DOT
 62
    64
 10
22.069737
 20
-60.312014
 40
0.402402
 50
76.165002
 51
103.834985
  0
LINE
  8
ボルト／ビス
  6
DOT
 62
    64
 10
22.23011
 20
-59.909613
 11
22.262185
 21
-59.921288
  0
ARC
  8
ボルト／ビス
  6
DOT
 62
    64
 10
22.214074
 20
-60.01459
 40
0.104978
 50
90.0
 51
117.278033
  0
LINE
  8
ボルト／ビス
  6
DOT
 62
    64
 10
21.90936
 20
-59.909613
 11
22.23011
 21
-59.909613
  0
LINE
  8
ボルト／ビス
  6
DOT
 62
    64
 10
22.262185
 20
-59.921288
 11
22.262185
 21
-60.042947
  0
LINE
  8
ボルト／ビス
  6
DOT
 62
    64
 10
22.16596
 20
-59.921288
 11
22.16596
 21
-60.042947
  0
LINE
  8
ボルト／ビス
  6
DOT
 62
    64
 10
21.877285
 20
-59.921288
 11
21.877285
 21
-60.042947
  0
LINE
  8
ボルト／ビス
  6
DOT
 62
    64
 10
21.97351
 20
-59.921288
 11
21.97351
 21
-60.042947
  0
LINE
  8
ボルト／ビス
  6
DOT
 10
21.877285
 20
-60.042947
 11
22.262185
 21
-60.042947
  0
LINE
  8
ボルト／ビス
  6
DOT
 10
21.869735
 20
-60.042947
 11
21.869735
 21
-60.109613
  0
LINE
  8
ボルト／ビス
  6
DOT
 10
21.869735
 20
-60.042947
 11
22.269735
 21
-60.042947
  0
LINE
  8
ボルト／ビス
  6
DOT
 10
22.269735
 20
-60.042947
 11
22.269735
 21
-60.109613
  0
ENDBLK
  0
BLOCK
  2
*GRP_0026
 70
    65
 10
0.0
 20
0.0
  0
LINE
  8
ボルト／ビス
  6
CONTINUOUS
 10
-45.930265
 20
-70.209613
 11
-45.930265
 21
-69.742947
  0
LINE
  8
ボルト／ビス
  6
CONTINUOUS
 10
-46.29693
 20
-70.209613
 11
-46.29693
 21
-70.142947
  0
LINE
  8
ボルト／ビス
  6
CONTINUOUS
 10
-46.29693
 20
-70.142947
 11
-45.563598
 21
-70.142947
  0
LINE
  8
ボルト／ビス
  6
CONTINUOUS
 10
-45.563598
 20
-70.142947
 11
-45.563598
 21
-70.209613
  0
LINE
  8
ボルト／ビス
  6
CONTINUOUS
 10
-46.29693
 20
-70.209613
 11
-45.563598
 21
-70.209613
  0
LINE
  8
ボルト／ビス
  6
CONTINUOUS
 10
-46.230265
 20
-70.109612
 11
-46.230265
 21
-70.142947
  0
LINE
  8
ボルト／ビス
  6
CONTINUOUS
 10
-46.230265
 20
-70.109612
 11
-45.630265
 21
-70.109612
  0
LINE
  8
ボルト／ビス
  6
CONTINUOUS
 10
-45.630265
 20
-70.109612
 11
-45.630265
 21
-70.142947
  0
LINE
  8
ボルト／ビス
  6
CONTINUOUS
 62
    64
 10
-46.09064
 20
-69.909613
 11
-46.122715
 21
-69.921288
  0
ARC
  8
ボルト／ビス
  6
CONTINUOUS
 62
    64
 10
-46.074601
 20
-70.01459
 40
0.104978
 50
62.721967
 51
90.0
  0
ARC
  8
ボルト／ビス
  6
CONTINUOUS
 62
    64
 10
-45.930263
 20
-70.312014
 40
0.402402
 50
76.165002
 51
103.834985
  0
LINE
  8
ボルト／ビス
  6
CONTINUOUS
 62
    64
 10
-45.76989
 20
-69.909613
 11
-45.737815
 21
-69.921288
  0
ARC
  8
ボルト／ビス
  6
CONTINUOUS
 62
    64
 10
-45.785926
 20
-70.01459
 40
0.104978
 50
90.0
 51
117.278033
  0
LINE
  8
ボルト／ビス
  6
CONTINUOUS
 62
    64
 10
-46.09064
 20
-69.909613
 11
-45.76989
 21
-69.909613
  0
LINE
  8
ボルト／ビス
  6
CONTINUOUS
 62
    64
 10
-45.737815
 20
-69.921288
 11
-45.737815
 21
-70.042947
  0
LINE
  8
ボルト／ビス
  6
CONTINUOUS
 62
    64
 10
-45.83404
 20
-69.921288
 11
-45.83404
 21
-70.042947
  0
LINE
  8
ボルト／ビス
  6
CONTINUOUS
 62
    64
 10
-46.122715
 20
-69.921288
 11
-46.122715
 21
-70.042947
  0
LINE
  8
ボルト／ビス
  6
CONTINUOUS
 62
    64
 10
-46.02649
 20
-69.921288
 11
-46.02649
 21
-70.042947
  0
LINE
  8
ボルト／ビス
  6
CONTINUOUS
 10
-46.122715
 20
-70.042947
 11
-45.737815
 21
-70.042947
  0
LINE
  8
ボルト／ビス
  6
CONTINUOUS
 10
-46.130265
 20
-70.042947
 11
-46.130265
 21
-70.109612
  0
LINE
  8
ボルト／ビス
  6
CONTINUOUS
 10
-46.130265
 20
-70.042947
 11
-45.730265
 21
-70.042947
  0
LINE
  8
ボルト／ビス
  6
CONTINUOUS
 10
-45.730265
 20
-70.042947
 11
-45.730265
 21
-70.109612
  0
ENDBLK
  0
BLOCK
  2
*GRP_0027
 70
    65
 10
0.0
 20
0.0
  0
LINE
  8
ボルト／ビス
  6
DOT
 10
-45.930265
 20
-60.209613
 11
-45.930265
 21
-59.742947
  0
LINE
  8
ボルト／ビス
  6
DOT
 10
-46.29693
 20
-60.209613
 11
-46.29693
 21
-60.142947
  0
LINE
  8
ボルト／ビス
  6
DOT
 10
-46.29693
 20
-60.142947
 11
-45.563598
 21
-60.142947
  0
LINE
  8
ボルト／ビス
  6
DOT
 10
-45.563598
 20
-60.142947
 11
-45.563598
 21
-60.209613
  0
LINE
  8
ボルト／ビス
  6
DOT
 10
-46.29693
 20
-60.209613
 11
-45.563598
 21
-60.209613
  0
LINE
  8
ボルト／ビス
  6
DOT
 10
-46.230265
 20
-60.109613
 11
-46.230265
 21
-60.142947
  0
LINE
  8
ボルト／ビス
  6
DOT
 10
-46.230265
 20
-60.109613
 11
-45.630265
 21
-60.109613
  0
LINE
  8
ボルト／ビス
  6
DOT
 10
-45.630265
 20
-60.109613
 11
-45.630265
 21
-60.142947
  0
LINE
  8
ボルト／ビス
  6
DOT
 62
    64
 10
-46.09064
 20
-59.909613
 11
-46.122715
 21
-59.921288
  0
ARC
  8
ボルト／ビス
  6
DOT
 62
    64
 10
-46.074601
 20
-60.01459
 40
0.104978
 50
62.721967
 51
90.0
  0
ARC
  8
ボルト／ビス
  6
DOT
 62
    64
 10
-45.930263
 20
-60.312014
 40
0.402402
 50
76.165002
 51
103.834985
  0
LINE
  8
ボルト／ビス
  6
DOT
 62
    64
 10
-45.76989
 20
-59.909613
 11
-45.737815
 21
-59.921288
  0
ARC
  8
ボルト／ビス
  6
DOT
 62
    64
 10
-45.785926
 20
-60.01459
 40
0.104978
 50
90.0
 51
117.278033
  0
LINE
  8
ボルト／ビス
  6
DOT
 62
    64
 10
-46.09064
 20
-59.909613
 11
-45.76989
 21
-59.909613
  0
LINE
  8
ボルト／ビス
  6
DOT
 62
    64
 10
-45.737815
 20
-59.921288
 11
-45.737815
 21
-60.042947
  0
LINE
  8
ボルト／ビス
  6
DOT
 62
    64
 10
-45.83404
 20
-59.921288
 11
-45.83404
 21
-60.042947
  0
LINE
  8
ボルト／ビス
  6
DOT
 62
    64
 10
-46.122715
 20
-59.921288
 11
-46.122715
 21
-60.042947
  0
LINE
  8
ボルト／ビス
  6
DOT
 62
    64
 10
-46.02649
 20
-59.921288
 11
-46.02649
 21
-60.042947
  0
LINE
  8
ボルト／ビス
  6
DOT
 10
-46.122715
 20
-60.042947
 11
-45.737815
 21
-60.042947
  0
LINE
  8
ボルト／ビス
  6
DOT
 10
-46.130265
 20
-60.042947
 11
-46.130265
 21
-60.109613
  0
LINE
  8
ボルト／ビス
  6
DOT
 10
-46.130265
 20
-60.042947
 11
-45.730265
 21
-60.042947
  0
LINE
  8
ボルト／ビス
  6
DOT
 10
-45.730265
 20
-60.042947
 11
-45.730265
 21
-60.109613
  0
ENDBLK
  0
ENDSEC
  0
SECTION
  2
ENTITIES
  0
POLYLINE
  8
通り芯
  6
CONTINUOUS
 66
     1
 70
     1
  0
VERTEX
  8
通り芯
 10
-210.0
 20
-148.5
  0
VERTEX
  8
通り芯
 10
210.0
 20
-148.5
  0
VERTEX
  8
通り芯
 10
210.0
 20
148.5
  0
VERTEX
  8
通り芯
 10
-210.0
 20
148.5
  0
SEQEND
  0
INSERT
  2
*GRP_0001
  8
型材断面
  6
CONTINUOUS
 10
0.0
 20
0.0
  0
LINE
  8
型材断面
  6
DASHDOT
 10
21.403067
 20
-77.836442
 11
21.403067
 21
52.814033
  0
LINE
  8
型材断面
  6
DASHDOT
 10
-11.930265
 20
-77.836442
 11
-11.930265
 21
52.814033
  0
LINE
  8
型材断面
  6
DASHDOT
 10
-45.2636
 20
-77.836442
 11
-45.2636
 21
52.814033
  0
LINE
  8
型材断面
  6
DASHDOT
 10
119.07983
 20
52.814033
 11
-45.2636
 21
52.814033
  0
LINE
  8
型材断面
  6
DASHDOT
 10
119.07983
 20
37.814033
 11
-45.2636
 21
37.814033
  0
LINE
  8
型材断面
  6
DASHDOT
 10
119.07983
 20
22.814033
 11
-45.2636
 21
22.814033
  0
LINE
  8
型材断面
  6
DOT
 10
-13.180265
 20
22.814033
 11
-13.180265
 21
52.814033
  0
LINE
  8
型材断面
  6
DOT
 10
-10.680265
 20
22.814033
 11
-10.680265
 21
52.814033
  0
LINE
  8
型材断面
  6
DASHDOT
 10
-11.930265
 20
22.814033
 11
-11.930265
 21
52.814033
  0
POLYLINE
  8
型材断面
  6
CONTINUOUS
 66
     1
 70
     1
  0
VERTEX
  8
型材断面
 10
-2.324078
 20
13.03811
  0
VERTEX
  8
型材断面
 10
-21.096007
 20
13.03811
  0
VERTEX
  8
型材断面
 10
-21.096007
 20
8.301267
  0
VERTEX
  8
型材断面
 10
-2.324078
 20
8.301267
  0
SEQEND
  0
POLYLINE
  8
型材断面
  6
CONTINUOUS
 66
     1
 70
     1
  0
VERTEX
  8
型材断面
 10
-2.324078
 20
62.589955
  0
VERTEX
  8
型材断面
 10
-21.096007
 20
62.589955
  0
VERTEX
  8
型材断面
 10
-21.096007
 20
67.326798
  0
VERTEX
  8
型材断面
 10
-2.324078
 20
67.326798
  0
SEQEND
  0
LINE
  8
型材断面
  6
CONTINUOUS
 10
-28.596933
 20
55.444162
 11
-30.092562
 21
58.03467
  0
LINE
  8
型材断面
  6
CONTINUOUS
 10
-28.596933
 20
55.444162
 11
-27.101303
 21
58.03467
  0
LINE
  8
型材断面
  6
CONTINUOUS
 10
-27.101303
 20
58.03467
 11
-30.092562
 21
58.03467
  0
LINE
  8
型材断面
  6
CONTINUOUS
 10
-47.89373
 20
37.814033
 11
-50.484238
 21
39.309663
  0
LINE
  8
型材断面
  6
CONTINUOUS
 10
-47.89373
 20
37.814033
 11
-50.484238
 21
36.318403
  0
LINE
  8
型材断面
  6
CONTINUOUS
 10
-50.484238
 20
36.318403
 11
-50.484238
 21
39.309663
  0
LINE
  8
型材断面
  6
CONTINUOUS
 10
-28.596933
 20
20.183902
 11
-30.092562
 21
17.593395
  0
LINE
  8
型材断面
  6
CONTINUOUS
 10
-28.596933
 20
20.183902
 11
-27.101303
 21
17.593395
  0
LINE
  8
型材断面
  6
CONTINUOUS
 10
-27.101303
 20
17.593395
 11
-30.092562
 21
17.593395
  0
LINE
  8
型材断面
  6
CONTINUOUS
 10
-99.142122
 20
90.791505
 11
-98.546068
 21
88.200998
  0
LINE
  8
型材断面
  6
CONTINUOUS
 10
-99.142122
 20
90.791505
 11
-99.73818
 21
88.200998
  0
LINE
  8
型材断面
  6
CONTINUOUS
 10
-99.73818
 20
88.200998
 11
-98.546068
 21
88.200998
  0
LINE
  8
型材断面
  6
CONTINUOUS
 10
-105.16471
 20
84.922105
 11
-58.922933
 21
84.922105
  0
LINE
  8
型材断面
  6
CONTINUOUS
 10
-99.142122
 20
97.32138
 11
-100.637752
 21
94.730873
  0
LINE
  8
型材断面
  6
CONTINUOUS
 10
-99.142122
 20
97.32138
 11
-97.646493
 21
94.730873
  0
LINE
  8
型材断面
  6
CONTINUOUS
 10
-97.646493
 20
94.730873
 11
-100.637752
 21
94.730873
  0
LINE
  8
型材断面
  6
CONTINUOUS
 10
-105.16471
 20
93.792277
 11
-58.922933
 21
93.792277
  0
LINE
  8
型材断面
  6
CONTINUOUS
 10
-105.16471
 20
79.134073
 11
-58.922933
 21
79.134073
  0
LINE
  8
型材断面
  6
CONTINUOUS
 10
4.736403
 20
55.444162
 11
6.232033
 21
58.03467
  0
LINE
  8
型材断面
  6
CONTINUOUS
 10
4.736403
 20
55.444162
 11
3.240772
 21
58.03467
  0
LINE
  8
型材断面
  6
CONTINUOUS
 10
3.240772
 20
58.03467
 11
6.232033
 21
58.03467
  0
LINE
  8
型材断面
  6
CONTINUOUS
 10
24.0332
 20
37.814033
 11
26.623707
 21
39.309663
  0
LINE
  8
型材断面
  6
CONTINUOUS
 10
24.0332
 20
37.814033
 11
26.623707
 21
36.318403
  0
LINE
  8
型材断面
  6
CONTINUOUS
 10
26.623707
 20
36.318403
 11
26.623707
 21
39.309663
  0
LINE
  8
型材断面
  6
CONTINUOUS
 10
4.736403
 20
20.183902
 11
6.232033
 21
17.593395
  0
LINE
  8
型材断面
  6
CONTINUOUS
 10
4.736403
 20
20.183902
 11
3.240772
 21
17.593395
  0
LINE
  8
型材断面
  6
CONTINUOUS
 10
3.240772
 20
17.593395
 11
6.232033
 21
17.593395
  0
LINE
  8
型材断面
  6
DASHDOT
 10
111.969615
 20
22.81403
 11
117.98968
 21
22.81403
  0
LINE
  8
型材断面
  6
CONTINUOUS
 62
    47
 10
114.252947
 20
21.417365
 11
114.252947
 21
22.197365
  0
LINE
  8
型材断面
  6
CONTINUOUS
 10
112.419615
 20
21.317365
 11
111.969615
 21
21.317365
  0
LINE
  8
型材断面
  6
CONTINUOUS
 62
    47
 10
115.092308
 20
20.53403
 11
114.758972
 21
20.53403
  0
LINE
  8
型材断面
  6
CONTINUOUS
 62
    47
 10
114.758972
 20
20.53403
 11
114.658972
 21
21.317365
  0
LINE
  8
型材断面
  6
CONTINUOUS
 62
    47
 10
114.252947
 20
21.317365
 11
114.658972
 21
21.317365
  0
LINE
  8
型材断面
  6
CONTINUOUS
 62
    47
 10
114.252947
 20
20.847365
 11
112.419615
 21
20.847365
  0
LINE
  8
型材断面
  6
CONTINUOUS
 62
    47
 10
118.219615
 20
21.41403
 11
117.719615
 21
21.41403
  0
LINE
  8
型材断面
  6
CONTINUOUS
 62
    47
 10
117.719615
 20
20.847365
 11
115.092308
 21
20.847365
  0
LINE
  8
型材断面
  6
CONTINUOUS
 62
    47
 10
117.719615
 20
20.847365
 11
117.719615
 21
37.814033
  0
LINE
  8
型材断面
  6
CONTINUOUS
 62
    47
 10
118.219615
 20
21.41403
 11
118.219615
 21
37.814033
  0
LINE
  8
型材断面
  6
CONTINUOUS
 62
    47
 10
114.252947
 20
20.847365
 11
114.252947
 21
37.814033
  0
LINE
  8
型材断面
  6
CONTINUOUS
 10
114.658972
 20
21.317365
 11
114.658972
 21
37.814033
  0
LINE
  8
型材断面
  6
CONTINUOUS
 10
114.758972
 20
20.53403
 11
114.758972
 21
37.814033
  0
LINE
  8
型材断面
  6
CONTINUOUS
 62
    47
 10
115.092308
 20
20.53403
 11
115.092308
 21
37.814033
  0
LINE
  8
型材断面
  6
CONTINUOUS
 10
112.419615
 20
20.847365
 11
112.419615
 21
37.814033
  0
LINE
  8
型材断面
  6
DASHDOT
 10
111.969615
 20
52.814035
 11
117.98968
 21
52.814035
  0
LINE
  8
型材断面
  6
CONTINUOUS
 62
    47
 10
114.252947
 20
54.2107
 11
114.252947
 21
53.4307
  0
LINE
  8
型材断面
  6
CONTINUOUS
 10
112.419615
 20
54.3107
 11
111.969615
 21
54.3107
  0
LINE
  8
型材断面
  6
CONTINUOUS
 62
    47
 10
115.092308
 20
55.094035
 11
114.758972
 21
55.094035
  0
LINE
  8
型材断面
  6
CONTINUOUS
 62
    47
 10
114.758972
 20
55.094035
 11
114.658972
 21
54.3107
  0
LINE
  8
型材断面
  6
CONTINUOUS
 62
    47
 10
114.252947
 20
54.3107
 11
114.658972
 21
54.3107
  0
LINE
  8
型材断面
  6
CONTINUOUS
 62
    47
 10
114.252947
 20
54.7807
 11
112.419615
 21
54.7807
  0
LINE
  8
型材断面
  6
CONTINUOUS
 62
    47
 10
118.219615
 20
54.214035
 11
117.719615
 21
54.214035
  0
LINE
  8
型材断面
  6
CONTINUOUS
 62
    47
 10
117.719615
 20
54.7807
 11
115.092308
 21
54.7807
  0
LINE
  8
型材断面
  6
CONTINUOUS
 62
    47
 10
117.719615
 20
54.7807
 11
117.719615
 21
37.814033
  0
LINE
  8
型材断面
  6
CONTINUOUS
 62
    47
 10
118.219615
 20
54.214035
 11
118.219615
 21
37.814033
  0
LINE
  8
型材断面
  6
CONTINUOUS
 62
    47
 10
114.252947
 20
54.7807
 11
114.252947
 21
37.814033
  0
LINE
  8
型材断面
  6
CONTINUOUS
 10
114.658972
 20
54.3107
 11
114.658972
 21
37.814033
  0
LINE
  8
型材断面
  6
CONTINUOUS
 10
114.758972
 20
55.094035
 11
114.758972
 21
37.814033
  0
LINE
  8
型材断面
  6
CONTINUOUS
 62
    47
 10
115.092308
 20
55.094035
 11
115.092308
 21
37.814033
  0
LINE
  8
型材断面
  6
CONTINUOUS
 10
112.419615
 20
54.7807
 11
112.419615
 21
37.814033
  0
LINE
  8
型材断面
  6
CONTINUOUS
 10
23.469735
 20
20.747365
 11
23.68307
 21
20.53403
  0
LINE
  8
型材断面
  6
CONTINUOUS
 10
23.68307
 20
20.53403
 11
-11.930265
 21
20.53403
  0
LINE
  8
型材断面
  6
CONTINUOUS
 10
23.68307
 20
20.53403
 11
23.68307
 21
37.814033
  0
LINE
  8
型材断面
  6
CONTINUOUS
 10
23.469735
 20
54.8807
 11
23.68307
 21
55.094035
  0
LINE
  8
型材断面
  6
CONTINUOUS
 10
23.68307
 20
55.094035
 11
-11.930265
 21
55.094035
  0
LINE
  8
型材断面
  6
CONTINUOUS
 10
23.68307
 20
55.094035
 11
23.68307
 21
37.814033
  0
LINE
  8
型材断面
  6
CONTINUOUS
 10
-47.330265
 20
54.8807
 11
-47.5436
 21
55.094035
  0
LINE
  8
型材断面
  6
CONTINUOUS
 10
-47.5436
 20
55.094035
 11
-11.930265
 21
55.094035
  0
LINE
  8
型材断面
  6
CONTINUOUS
 10
-47.5436
 20
55.094035
 11
-47.5436
 21
37.814033
  0
LINE
  8
型材断面
  6
CONTINUOUS
 10
-47.330265
 20
20.747365
 11
-47.5436
 21
20.53403
  0
LINE
  8
型材断面
  6
CONTINUOUS
 10
-47.5436
 20
20.53403
 11
-11.930265
 21
20.53403
  0
LINE
  8
型材断面
  6
CONTINUOUS
 10
-47.5436
 20
20.53403
 11
-47.5436
 21
37.814033
  0
LINE
  8
型材断面
  6
DASHDOT
 10
-45.263598
 20
-71.242897
 11
-45.263598
 21
-77.262962
  0
LINE
  8
型材断面
  6
CONTINUOUS
 62
    47
 10
22.799733
 20
-73.52623
 11
22.019732
 21
-73.52623
  0
LINE
  8
型材断面
  6
CONTINUOUS
 10
22.899733
 20
-71.692897
 11
22.899733
 21
-71.242897
  0
LINE
  8
型材断面
  6
CONTINUOUS
 62
    47
 10
23.683067
 20
-74.36559
 11
23.683067
 21
-74.032255
  0
LINE
  8
型材断面
  6
CONTINUOUS
 62
    47
 10
23.683067
 20
-74.032255
 11
22.899733
 21
-73.932255
  0
LINE
  8
型材断面
  6
CONTINUOUS
 62
    47
 10
22.899733
 20
-73.52623
 11
22.899733
 21
-73.932255
  0
LINE
  8
型材断面
  6
CONTINUOUS
 62
    47
 10
23.369732
 20
-73.52623
 11
23.369732
 21
-71.692897
  0
LINE
  8
型材断面
  6
CONTINUOUS
 62
    47
 10
22.803067
 20
-77.492897
 11
22.803067
 21
-76.992897
  0
LINE
  8
型材断面
  6
CONTINUOUS
 62
    47
 10
23.369732
 20
-76.992897
 11
23.369732
 21
-74.36559
  0
LINE
  8
型材断面
  6
CONTINUOUS
 10
23.369732
 20
-71.692897
 11
-11.930265
 21
-71.692897
  0
LINE
  8
型材断面
  6
CONTINUOUS
 62
    47
 10
23.369732
 20
-73.52623
 11
-11.930265
 21
-73.52623
  0
LINE
  8
型材断面
  6
CONTINUOUS
 10
22.899733
 20
-73.932255
 11
-11.930265
 21
-73.932255
  0
LINE
  8
型材断面
  6
CONTINUOUS
 10
23.683067
 20
-74.032255
 11
-11.930265
 21
-74.032255
  0
LINE
  8
型材断面
  6
CONTINUOUS
 62
    47
 10
23.683067
 20
-74.36559
 11
-11.930265
 21
-74.36559
  0
LINE
  8
型材断面
  6
CONTINUOUS
 62
    47
 10
22.803067
 20
-77.492897
 11
-11.930265
 21
-77.492897
  0
LINE
  8
型材断面
  6
CONTINUOUS
 62
    47
 10
23.369732
 20
-76.992897
 11
-11.930265
 21
-76.992897
  0
LINE
  8
型材断面
  6
CONTINUOUS
 62
    47
 10
-46.660263
 20
-73.52623
 11
-45.880263
 21
-73.52623
  0
LINE
  8
型材断面
  6
CONTINUOUS
 10
-46.760263
 20
-71.692897
 11
-46.760263
 21
-71.242897
  0
LINE
  8
型材断面
  6
CONTINUOUS
 62
    47
 10
-47.543598
 20
-74.36559
 11
-47.543598
 21
-74.032255
  0
LINE
  8
型材断面
  6
CONTINUOUS
 62
    47
 10
-47.543598
 20
-74.032255
 11
-46.760263
 21
-73.932255
  0
LINE
  8
型材断面
  6
CONTINUOUS
 62
    47
 10
-46.760263
 20
-73.52623
 11
-46.760263
 21
-73.932255
  0
LINE
  8
型材断面
  6
CONTINUOUS
 62
    47
 10
-47.230263
 20
-73.52623
 11
-47.230263
 21
-71.692897
  0
LINE
  8
型材断面
  6
CONTINUOUS
 62
    47
 10
-46.663598
 20
-77.492897
 11
-46.663598
 21
-76.992897
  0
LINE
  8
型材断面
  6
CONTINUOUS
 62
    47
 10
-47.230263
 20
-76.992897
 11
-47.230263
 21
-74.36559
  0
LINE
  8
型材断面
  6
CONTINUOUS
 10
-47.230263
 20
-71.692897
 11
-11.930265
 21
-71.692897
  0
LINE
  8
型材断面
  6
CONTINUOUS
 62
    47
 10
-47.230263
 20
-73.52623
 11
-11.930265
 21
-73.52623
  0
LINE
  8
型材断面
  6
CONTINUOUS
 10
-46.760263
 20
-73.932255
 11
-11.930265
 21
-73.932255
  0
LINE
  8
型材断面
  6
CONTINUOUS
 10
-47.543598
 20
-74.032255
 11
-11.930265
 21
-74.032255
  0
LINE
  8
型材断面
  6
CONTINUOUS
 62
    47
 10
-47.543598
 20
-74.36559
 11
-11.930265
 21
-74.36559
  0
LINE
  8
型材断面
  6
CONTINUOUS
 62
    47
 10
-46.663598
 20
-77.492897
 11
-11.930265
 21
-77.492897
  0
LINE
  8
型材断面
  6
CONTINUOUS
 62
    47
 10
-47.230263
 20
-76.992897
 11
-11.930265
 21
-76.992897
  0
LINE
  8
型材断面
  6
DOT
 62
    47
 10
22.799733
 20
-63.52623
 11
22.019732
 21
-63.52623
  0
LINE
  8
型材断面
  6
DOT
 10
22.899733
 20
-61.692897
 11
22.899733
 21
-61.242897
  0
LINE
  8
型材断面
  6
DOT
 62
    47
 10
23.683067
 20
-64.36559
 11
23.683067
 21
-64.032255
  0
LINE
  8
型材断面
  6
DOT
 62
    47
 10
23.683067
 20
-64.032255
 11
22.899733
 21
-63.932255
  0
LINE
  8
型材断面
  6
DOT
 62
    47
 10
22.899733
 20
-63.52623
 11
22.899733
 21
-63.932255
  0
LINE
  8
型材断面
  6
DOT
 62
    47
 10
23.369732
 20
-63.52623
 11
23.369732
 21
-61.692897
  0
LINE
  8
型材断面
  6
DOT
 10
23.369732
 20
-61.692897
 11
-11.930265
 21
-61.692897
  0
LINE
  8
型材断面
  6
DOT
 62
    47
 10
23.369732
 20
-63.52623
 11
-11.930265
 21
-63.52623
  0
LINE
  8
型材断面
  6
DOT
 10
22.899733
 20
-63.932255
 11
-11.930265
 21
-63.932255
  0
LINE
  8
型材断面
  6
DOT
 10
23.683067
 20
-64.032255
 11
-11.930265
 21
-64.032255
  0
LINE
  8
型材断面
  6
DOT
 62
    47
 10
23.683067
 20
-64.36559
 11
-11.930265
 21
-64.36559
  0
LINE
  8
型材断面
  6
DOT
 62
    47
 10
-46.660263
 20
-63.52623
 11
-45.880263
 21
-63.52623
  0
LINE
  8
型材断面
  6
DOT
 10
-46.760263
 20
-61.692897
 11
-46.760263
 21
-61.242897
  0
LINE
  8
型材断面
  6
DOT
 62
    47
 10
-47.543598
 20
-64.36559
 11
-47.543598
 21
-64.032255
  0
LINE
  8
型材断面
  6
DOT
 62
    47
 10
-47.543598
 20
-64.032255
 11
-46.760263
 21
-63.932255
  0
LINE
  8
型材断面
  6
DOT
 62
    47
 10
-46.760263
 20
-63.52623
 11
-46.760263
 21
-63.932255
  0
LINE
  8
型材断面
  6
DOT
 62
    47
 10
-47.230263
 20
-63.52623
 11
-47.230263
 21
-61.692897
  0
LINE
  8
型材断面
  6
DOT
 10
-47.230263
 20
-61.692897
 11
-11.930265
 21
-61.692897
  0
LINE
  8
型材断面
  6
DOT
 62
    47
 10
-47.230263
 20
-63.52623
 11
-11.930265
 21
-63.52623
  0
LINE
  8
型材断面
  6
DOT
 10
-46.760263
 20
-63.932255
 11
-11.930265
 21
-63.932255
  0
LINE
  8
型材断面
  6
DOT
 10
-47.543598
 20
-64.032255
 11
-11.930265
 21
-64.032255
  0
LINE
  8
型材断面
  6
DOT
 62
    47
 10
-47.543598
 20
-64.36559
 11
-11.930265
 21
-64.36559
  0
LINE
  8
型材断面
  6
CONTINUOUS
 10
24.033195
 20
48.914033
 11
26.623703
 21
48.317975
  0
LINE
  8
型材断面
  6
CONTINUOUS
 10
24.033195
 20
48.914033
 11
26.623703
 21
49.51009
  0
LINE
  8
型材断面
  6
CONTINUOUS
 10
26.623703
 20
49.51009
 11
26.623703
 21
48.317975
  0
LINE
  8
型材断面
  6
CONTINUOUS
 10
24.033195
 20
26.714033
 11
26.623703
 21
27.31009
  0
LINE
  8
型材断面
  6
CONTINUOUS
 10
24.033195
 20
26.714033
 11
26.623703
 21
26.117975
  0
LINE
  8
型材断面
  6
CONTINUOUS
 10
26.623703
 20
26.117975
 11
26.623703
 21
27.31009
  0
LINE
  8
型材断面
  6
CONTINUOUS
 10
-47.893725
 20
48.914033
 11
-50.484232
 21
48.317975
  0
LINE
  8
型材断面
  6
CONTINUOUS
 10
-47.893725
 20
48.914033
 11
-50.484232
 21
49.51009
  0
LINE
  8
型材断面
  6
CONTINUOUS
 10
-50.484232
 20
49.51009
 11
-50.484232
 21
48.317975
  0
LINE
  8
型材断面
  6
CONTINUOUS
 10
-47.893725
 20
26.714033
 11
-50.484232
 21
27.31009
  0
LINE
  8
型材断面
  6
CONTINUOUS
 10
-47.893725
 20
26.714033
 11
-50.484232
 21
26.117975
  0
LINE
  8
型材断面
  6
CONTINUOUS
 10
-50.484232
 20
26.117975
 11
-50.484232
 21
27.31009
  0
LINE
  8
型材断面
  6
CONTINUOUS
 10
-105.16471
 20
73.34604
 11
-58.922933
 21
73.34604
  0
TEXT
  7
TextStyle03
  8
文字
  6
CONTINUOUS
 10
97.975
 20
-76.7
  1
網入り6.8t
 40
3.0
 72
     5
 11
114.6625
 21
-76.7
  0
TEXT
  7
TextStyle03
  8
文字
  6
CONTINUOUS
 10
104.65
 20
-81.375
  1
×２枚
 40
3.0
 72
     5
 11
114.4
 21
-81.375
  0
TEXT
  7
TextStyle03
  8
文字
  6
CONTINUOUS
 10
-20.0
 20
9.325
  1
可動装置側
 40
3.0
 72
     5
 11
-3.5
 21
9.325
  0
TEXT
  7
TextStyle03
  8
文字
  6
CONTINUOUS
 10
-20.0
 20
63.275
  1
可動装置側
 40
3.0
 72
     5
 11
-3.5
 21
63.275
  0
TEXT
  7
TextStyle03
  8
文字
  6
CONTINUOUS
 10
-96.375
 20
89.4
  1
はケーシング位置を示す
 40
3.0
 72
     5
 11
-59.625
 21
89.4
  0
TEXT
  7
TextStyle03
  8
文字
  6
CONTINUOUS
 10
-96.375
 20
86.025
  1
４ヶ所中1ヶ所に設定
 40
3.0
 72
     5
 11
-64.6875
 21
86.025
  0
TEXT
  7
TextStyle03
  8
文字
  6
CONTINUOUS
 10
-96.375
 20
94.925
  1
は排水穴位置を示す
 40
3.0
 72
     5
 11
-66.375
 21
94.925
  0
TEXT
  7
TextStyle03
  8
文字
  6
CONTINUOUS
 10
-66.275
 20
16.275
  1
アンカーピッチ
 40
3.0
 50
90.0
 72
     5
 11
-66.275
 21
39.525
  0
TEXT
  7
TextStyle03
  8
文字
  6
CONTINUOUS
 10
-37.825
 20
89.675
  1
アンカーピッチ
 40
3.0
 72
     5
 11
-14.575
 21
89.675
  0
TEXT
  7
TextStyle03
  8
文字
  6
CONTINUOUS
 10
-100.1
 20
80.05
  1
アンカー数量　１０ヶ所
 40
3.0
 72
     5
 11
-63.35
 21
80.05
  0
TEXT
  7
TextStyle03
  8
文字
  6
CONTINUOUS
 10
-100.15
 20
74.3
  1
アームユニット数　２ヶ所
 40
3.0
 72
     5
 11
-60.025
 21
74.3
  0
TEXT
  7
TextStyle03
  8
文字
  6
CONTINUOUS
 10
78.1
 20
125.25
  1
シリーズ：ＳＴＤＬ
 40
5.0
 72
     5
 11
128.1
 21
125.25
  0
TEXT
  7
TextStyle03
  8
文字
  6
CONTINUOUS
 10
78.1
 20
119.625
  1
　　　　　（上下可動）900×2000タイプ
 40
5.0
 72
     5
 11
181.5375
 21
119.625
  0
TEXT
  7
TextStyle03
  8
文字
  6
CONTINUOUS
 10
78.1
 20
114.0
  1
図面名　：外観姿図
 40
5.0
 72
     5
 11
128.1
 21
114.0
  0
TEXT
  7
TextStyle03
  8
文字
  6
CONTINUOUS
 10
78.1
 20
108.375
  1
　　　　　　
 40
5.0
 72
     5
 11
111.225
 21
108.375
  0
TEXT
  7
TextStyle03
  8
文字
  6
CONTINUOUS
 10
77.425
 20
103.975
  1
ＮＳコード：ＮＳＤＳＬ
 40
5.0
 72
     5
 11
138.675
 21
103.975
  0
INSERT
  2
*DIM_0002
  8
寸法
  6
CONTINUOUS
 10
0.0
 20
0.0
  0
INSERT
  2
*DIM_0003
  8
寸法
  6
CONTINUOUS
 10
0.0
 20
0.0
  0
INSERT
  2
*DIM_0004
  8
寸法
  6
CONTINUOUS
 10
0.0
 20
0.0
  0
INSERT
  2
*DIM_0005
  8
寸法
  6
CONTINUOUS
 10
0.0
 20
0.0
  0
INSERT
  2
*DIM_0006
  8
寸法
  6
CONTINUOUS
 10
0.0
 20
0.0
  0
INSERT
  2
*DIM_0007
  8
寸法
  6
CONTINUOUS
 10
0.0
 20
0.0
  0
INSERT
  2
*DIM_0008
  8
寸法
  6
CONTINUOUS
 10
0.0
 20
0.0
  0
INSERT
  2
*DIM_0009
  8
寸法
  6
CONTINUOUS
 10
0.0
 20
0.0
  0
INSERT
  2
*DIM_0010
  8
寸法
  6
CONTINUOUS
 10
0.0
 20
0.0
  0
INSERT
  2
*DIM_0011
  8
寸法
  6
CONTINUOUS
 10
0.0
 20
0.0
  0
INSERT
  2
*DIM_0012
  8
寸法
  6
CONTINUOUS
 10
0.0
 20
0.0
  0
INSERT
  2
*DIM_0013
  8
寸法
  6
CONTINUOUS
 10
0.0
 20
0.0
  0
INSERT
  2
*DIM_0014
  8
寸法
  6
CONTINUOUS
 10
0.0
 20
0.0
  0
INSERT
  2
*DIM_0015
  8
寸法
  6
CONTINUOUS
 10
0.0
 20
0.0
  0
INSERT
  2
*DIM_0016
  8
寸法
  6
CONTINUOUS
 10
0.0
 20
0.0
  0
INSERT
  2
*DIM_0018
  8
寸法
  6
CONTINUOUS
 10
0.0
 20
0.0
  0
INSERT
  2
*DIM_0019
  8
寸法
  6
CONTINUOUS
 10
0.0
 20
0.0
  0
INSERT
  2
*DIM_0020
  8
寸法
  6
CONTINUOUS
 10
0.0
 20
0.0
  0
INSERT
  2
*DIM_0021
  8
寸法
  6
CONTINUOUS
 10
0.0
 20
0.0
  0
LINE
  8
別途部材
  6
CONTINUOUS
 10
23.469735
 20
20.747365
 11
23.069735
 21
21.147365
  0
LINE
  8
別途部材
  6
CONTINUOUS
 10
21.403067
 20
22.814033
 11
13.343813
 21
30.87329
  0
LINE
  8
別途部材
  6
CONTINUOUS
 62
    96
 10
110.936333
 20
21.147365
 11
111.936333
 21
20.747365
  0
LINE
  8
別途部材
  6
CONTINUOUS
 10
23.069735
 20
21.147365
 11
23.069735
 21
37.814033
  0
LINE
  8
別途部材
  6
CONTINUOUS
 10
23.469735
 20
20.747365
 11
23.469735
 21
37.814033
  0
LINE
  8
別途部材
  6
CONTINUOUS
 10
23.469735
 20
54.8807
 11
23.069735
 21
54.4807
  0
LINE
  8
別途部材
  6
CONTINUOUS
 10
21.403067
 20
52.814033
 11
13.343813
 21
44.754775
  0
LINE
  8
別途部材
  6
CONTINUOUS
 10
23.069735
 20
54.4807
 11
23.069735
 21
37.814033
  0
LINE
  8
別途部材
  6
CONTINUOUS
 10
23.469735
 20
54.8807
 11
23.469735
 21
37.814033
  0
LINE
  8
別途部材
  6
CONTINUOUS
 62
    96
 10
110.936333
 20
21.147365
 11
110.936333
 21
37.814033
  0
LINE
  8
別途部材
  6
CONTINUOUS
 10
111.936333
 20
20.747365
 11
111.936333
 21
37.814033
  0
LINE
  8
別途部材
  6
CONTINUOUS
 62
    96
 10
110.936333
 20
54.4807
 11
111.936333
 21
54.8807
  0
LINE
  8
別途部材
  6
CONTINUOUS
 62
    96
 10
110.936333
 20
54.4807
 11
110.936333
 21
37.814033
  0
LINE
  8
別途部材
  6
CONTINUOUS
 10
111.936333
 20
54.8807
 11
111.936333
 21
37.814033
  0
ARC
  8
別途部材
  6
CONTINUOUS
 10
120.269665
 20
37.814033
 40
17.666667
 50
121.890796
 51
238.109204
  0
LINE
  8
別途部材
  6
CONTINUOUS
 10
23.069735
 20
21.147365
 11
-11.930265
 21
21.147365
  0
LINE
  8
別途部材
  6
CONTINUOUS
 10
23.469735
 20
20.747365
 11
-11.930265
 21
20.747365
  0
LINE
  8
別途部材
  6
CONTINUOUS
 10
23.069735
 20
54.4807
 11
-11.930265
 21
54.4807
  0
LINE
  8
別途部材
  6
CONTINUOUS
 10
23.469735
 20
54.8807
 11
-11.930265
 21
54.8807
  0
LINE
  8
別途部材
  6
CONTINUOUS
 10
-47.330265
 20
20.747365
 11
-46.930265
 21
21.147365
  0
LINE
  8
別途部材
  6
CONTINUOUS
 10
-45.263598
 20
22.814033
 11
-37.204342
 21
30.87329
  0
LINE
  8
別途部材
  6
CONTINUOUS
 10
-46.930265
 20
21.147365
 11
-46.930265
 21
37.814033
  0
LINE
  8
別途部材
  6
CONTINUOUS
 10
-47.330265
 20
20.747365
 11
-47.330265
 21
37.814033
  0
LINE
  8
別途部材
  6
CONTINUOUS
 10
-47.330265
 20
54.8807
 11
-46.930265
 21
54.4807
  0
LINE
  8
別途部材
  6
CONTINUOUS
 10
-45.263598
 20
52.814033
 11
-37.204342
 21
44.754775
  0
LINE
  8
別途部材
  6
CONTINUOUS
 10
-46.930265
 20
54.4807
 11
-46.930265
 21
37.814033
  0
LINE
  8
別途部材
  6
CONTINUOUS
 10
-47.330265
 20
54.8807
 11
-47.330265
 21
37.814033
  0
LINE
  8
別途部材
  6
CONTINUOUS
 10
-46.930265
 20
21.147365
 11
-11.930265
 21
21.147365
  0
LINE
  8
別途部材
  6
CONTINUOUS
 10
-47.330265
 20
20.747365
 11
-11.930265
 21
20.747365
  0
LINE
  8
別途部材
  6
CONTINUOUS
 10
-46.930265
 20
54.4807
 11
-11.930265
 21
54.4807
  0
LINE
  8
別途部材
  6
CONTINUOUS
 10
-47.330265
 20
54.8807
 11
-11.930265
 21
54.8807
  0
LINE
  8
別途部材
  6
DOT
 62
    96
 10
23.069735
 20
-60.209613
 11
23.469735
 21
-61.209613
  0
ARC
  8
別途部材
  6
DOT
 10
6.403065
 20
-69.542947
 40
17.666667
 50
31.890796
 51
90.0
  0
LINE
  8
別途部材
  6
DOT
 10
6.403067
 20
-51.87628
 11
-11.930265
 21
-51.87628
  0
LINE
  8
別途部材
  6
DOT
 10
23.469735
 20
-61.209613
 11
-11.930265
 21
-61.209613
  0
LINE
  8
別途部材
  6
DOT
 62
    96
 10
23.069735
 20
-60.209613
 11
-11.930265
 21
-60.209613
  0
LINE
  8
別途部材
  6
DOT
 62
    96
 10
-46.930265
 20
-60.209613
 11
-47.330265
 21
-61.209613
  0
ARC
  8
別途部材
  6
DOT
 10
-30.263595
 20
-69.542947
 40
17.666667
 50
90.0
 51
148.109204
  0
LINE
  8
別途部材
  6
DOT
 10
-30.263598
 20
-51.87628
 11
-11.930265
 21
-51.87628
  0
LINE
  8
別途部材
  6
DOT
 10
-47.330265
 20
-61.209613
 11
-11.930265
 21
-61.209613
  0
LINE
  8
別途部材
  6
DOT
 62
    96
 10
-46.930265
 20
-60.209613
 11
-11.930265
 21
-60.209613
  0
INSERT
  2
*GRP_0017
  8
別途部材
  6
CONTINUOUS
 10
0.0
 20
0.0
  0
INSERT
  2
*GRP_0022
  8
別途部材
  6
DOT
 10
0.0
 20
0.0
  0
INSERT
  2
*GRP_0023
  8
別途部材
  6
DOT
 10
0.0
 20
0.0
  0
INSERT
  2
*GRP_0024
  8
別途部材
  6
DOT
 10
0.0
 20
0.0
  0
INSERT
  2
*GRP_0025
  8
別途部材
  6
DOT
 10
0.0
 20
0.0
  0
INSERT
  2
*GRP_0026
  8
別途部材
  6
DOT
 10
0.0
 20
0.0
  0
INSERT
  2
*GRP_0027
  8
別途部材
  6
DOT
 10
0.0
 20
0.0
  0
LINE
  8
曲げ物
  6
CONTINUOUS
 10
84.022955
 20
-83.118728
 11
84.022955
 21
-53.785395
  0
LINE
  8
曲げ物
  6
CONTINUOUS
 10
84.022955
 20
-53.785395
 11
116.356287
 21
-53.785395
  0
LINE
  8
曲げ物
  6
CONTINUOUS
 10
116.356287
 20
-53.785395
 11
116.356287
 21
-83.118728
  0
LINE
  8
曲げ物
  6
CONTINUOUS
 10
84.022955
 20
-83.118728
 11
116.356287
 21
-83.118728
  0
ENDSEC
  0
EOF
