  0
SECTION
  2
HEADER
  9
$EXTMIN
 10
-210.0
 20
-148.5
  9
$EXTMAX
 10
210.0
 20
148.5
  9
$PDMODE
 70
    32
  9
$PDSIZE
 40
1.5
  9
$LTSCALE
 40
10.0
  0
ENDSEC
  0
SECTION
  2
TABLES
  0
TABLE
  2
LTYPE
 70
    15
  0
LTYPE
  2
CONTINUOUS
 70
    64
  3
実線
 72
    65
 73
     0
 40
0.0
  0
LTYPE
  2
DASHED
 70
    64
  3
破線A
 72
    65
 73
     2
 40
0.6
 49
0.4
 49
-0.2
  0
LTYPE
  2
DASHEDX2
 70
    64
  3
破線B
 72
    65
 73
     2
 40
1.3
 49
0.9
 49
-0.4
  0
LTYPE
  2
DASHDOT
 70
    64
  3
１点鎖線A
 72
    65
 73
     4
 40
0.5375
 49
0.375
 49
-0.05
 49
0.0625
 49
-0.05
  0
LTYPE
  2
DASHDOTX2
 70
    64
  3
１点鎖線B
 72
    65
 73
     4
 40
1.075
 49
0.75
 49
-0.1
 49
0.125
 49
-0.1
  0
LTYPE
  2
DIVIDE2
 70
    64
  3
２点鎖線A
 72
    65
 73
     6
 40
0.5125
 49
0.3
 49
-0.0375
 49
0.05
 49
-0.0375
 49
0.05
 49
-0.0375
  0
LTYPE
  2
DIVIDE
 70
    64
  3
２点鎖線B
 72
    65
 73
     6
 40
1.05
 49
0.55
 49
-0.1
 49
0.1
 49
-0.1
 49
0.1
 49
-0.1
  0
LTYPE
  2
DOT
 70
    64
  3
点線A
 72
    65
 73
     2
 40
0.1125
 49
0.0625
 49
-0.05
  0
LTYPE
  2
DOTX2
 70
    64
  3
点線B
 72
    65
 73
     2
 40
0.275
 49
0.15
 49
-0.125
  0
LTYPE
  2
CONTINUOUS
 70
    64
  3
実線
 72
    65
 73
     0
 40
0.0
  0
LTYPE
  2
CONTINUOUS
 70
    64
  3
実線
 72
    65
 73
     0
 40
0.0
  0
LTYPE
  2
CONTINUOUS
 70
    64
  3
実線
 72
    65
 73
     0
 40
0.0
  0
LTYPE
  2
CONTINUOUS
 70
    64
  3
実線
 72
    65
 73
     0
 40
0.0
  0
LTYPE
  2
CONTINUOUS
 70
    64
  3
実線
 72
    65
 73
     0
 40
0.0
  0
LTYPE
  2
CONTINUOUS
 70
    64
  3
実線
 72
    65
 73
     0
 40
0.0
  0
ENDTAB
  0
TABLE
  2
LAYER
 70
    34
  0
LAYER
  2
通り芯
 70
     0
 62
    15
  6
CONTINUOUS
  0
LAYER
  2
補助線
 70
     0
 62
    16
  6
DOT
  0
LAYER
  2
躯体
 70
     0
 62
    31
  6
CONTINUOUS
  0
LAYER
  2
型材
 70
     0
 62
    32
  6
CONTINUOUS
  0
LAYER
  2
型材断面
 70
     0
 62
    47
  6
CONTINUOUS
  0
LAYER
  2
ガラス
 70
     0
 62
    48
  6
CONTINUOUS
  0
LAYER
  2
ゴム等
 70
     0
 62
    63
  6
CONTINUOUS
  0
LAYER
  2
ボルト／ビス
 70
     0
 62
    64
  6
CONTINUOUS
  0
LAYER
  2
文字
 70
     0
 62
    79
  6
CONTINUOUS
  0
LAYER
  2
寸法
 70
     0
 62
    80
  6
CONTINUOUS
  0
LAYER
  2
ﾊｯﾁﾝｸﾞ
 70
     0
 62
    95
  6
CONTINUOUS
  0
LAYER
  2
別途部材
 70
     0
 62
    96
  6
CONTINUOUS
  0
LAYER
  2
曲げ物
 70
     0
 62
   111
  6
CONTINUOUS
  0
LAYER
  2
鉄骨等
 70
     0
 62
   112
  6
CONTINUOUS
  0
LAYER
  2
St
 70
     0
 62
   127
  6
CONTINUOUS
  0
LAYER
  2
その他部品等
 70
     0
 62
   128
  6
CONTINUOUS
  0
LAYER
  2
ｶﾞｽｹｯﾄ
 70
     0
 62
   143
  6
CONTINUOUS
  0
LAYER
  2
ｽｹｯﾁ
 70
     0
 62
    14
  6
CONTINUOUS
  0
LAYER
  2
0
 70
     0
 62
    17
  6
CONTINUOUS
  0
LAYER
  2
1
 70
     0
 62
    30
  6
CONTINUOUS
  0
LAYER
  2
4
 70
     0
 62
    33
  6
CONTINUOUS
  0
LAYER
  2
ﾚｲﾔ3
 70
     0
 62
    46
  6
CONTINUOUS
  0
LAYER
  2
外形線
 70
     0
 62
    49
  6
CONTINUOUS
  0
LAYER
  2
部品
 70
     0
 62
    14
  6
CONTINUOUS
  0
LAYER
  2
サッシ芯
 70
     0
 62
    17
  6
DASHDOTX2
  0
LAYER
  2
寸法線
 70
     0
 62
    62
  6
CONTINUOUS
  0
LAYER
  2
姿図外形線
 70
     0
 62
    65
  6
CONTINUOUS
  0
LAYER
  2
姿補助線
 70
     0
 62
    30
  6
CONTINUOUS
  0
LAYER
  2
透視線
 70
     0
 62
    78
  6
DOT
  0
LAYER
  2
用紙
 70
     0
 62
    81
  6
CONTINUOUS
  0
LAYER
  2
実線図枠
 70
     0
 62
    94
  6
CONTINUOUS
  0
LAYER
  2
補助図枠
 70
     0
 62
    97
  6
CONTINUOUS
  0
LAYER
  2
建具記号
 70
     0
 62
   110
  6
CONTINUOUS
  0
LAYER
  2
補助文字
 70
     0
 62
   113
  6
CONTINUOUS
  0
ENDTAB
  0
TABLE
  2
STYLE
 70
    10
  0
STYLE
  2
STANDARD
 70
     0
 40
1.0
 41
1.0
 42
1.0
 50
0.0
 71
     0
  3
TXT
  4
BIGFONT
  0
STYLE
  2
TATE
 70
     4
 40
1.0
 41
1.0
 42
1.0
 50
0.0
 71
     0
  3
TXT
  4
BIGFONT
  0
STYLE
  2
TextStyle03
 70
     0
 40
1.0
 41
1.0
 42
1.0
 50
0.0
 71
     0
  3
MONOTXT
  4
BIGFONT
  0
STYLE
  2
TextStyle04
 70
     0
 40
1.0
 41
1.0
 42
1.0
 50
0.0
 71
     0
  3
MONOTXT
  4
BIGFONT
  0
STYLE
  2
TextStyle05
 70
     0
 40
1.0
 41
1.0
 42
1.0
 50
0.0
 71
     0
  3
MONOTXT
  4
BIGFONT
  0
STYLE
  2
TextStyle06
 70
     0
 40
1.0
 41
1.0
 42
1.0
 50
0.0
 71
     0
  3
MONOTXT
  4
BIGFONT
  0
STYLE
  2
TextStyle07
 70
     0
 40
1.0
 41
1.0
 42
1.0
 50
0.0
 71
     0
  3
MONOTXT
  4
BIGFONT
  0
STYLE
  2
TextStyle08
 70
     0
 40
1.0
 41
1.0
 42
1.0
 50
0.0
 71
     0
  3
MONOTXT
  4
BIGFONT
  0
STYLE
  2
TextStyle09
 70
     0
 40
1.0
 41
1.0
 42
1.0
 50
0.0
 71
     0
  3
MONOTXT
  4
BIGFONT
  0
STYLE
  2
TextStyle10
 70
     0
 40
1.0
 41
1.0
 42
1.0
 50
0.0
 71
     0
  3
MONOTXT
  4
BIGFONT
  0
ENDTAB
  0
ENDSEC
  0
SECTION
  2
BLOCKS
  0
BLOCK
  2
*GRP_0001
 70
    65
 10
0.0
 20
0.0
  0
LINE
  8
型材断面
  6
CONTINUOUS
 10
195.0
 20
133.5
 11
195.0
 21
-133.5
  0
LINE
  8
型材断面
  6
CONTINUOUS
 10
195.0
 20
-133.5
 11
-185.0
 21
-133.5
  0
LINE
  8
型材断面
  6
CONTINUOUS
 10
-185.0
 20
-133.5
 11
-185.0
 21
133.5
  0
LINE
  8
型材断面
  6
CONTINUOUS
 10
195.0
 20
133.5
 11
-185.0
 21
133.5
  0
LINE
  8
型材断面
  6
CONTINUOUS
 10
145.0
 20
-133.5
 11
145.0
 21
-118.5
  0
LINE
  8
型材断面
  6
CONTINUOUS
 10
195.0
 20
-118.5
 11
145.0
 21
-118.5
  0
ENDBLK
  0
BLOCK
  2
*DIM_0002
 70
    65
 10
0.0
 20
0.0
  0
LINE
  8
寸法
  6
BYBLOCK
 62
     0
 10
37.224393
 20
-64.87628
 11
62.194043
 21
-64.87628
  0
LINE
  8
寸法
  6
BYBLOCK
 62
     0
 10
62.194043
 20
-70.209613
 11
62.194043
 21
-64.87628
  0
POINT
  8
寸法
 62
     0
 10
62.194043
 20
-70.209613
  0
POINT
  8
寸法
 62
     0
 10
62.194043
 20
-64.87628
  0
TEXT
  7
TextStyle03
  8
寸法
  6
CONTINUOUS
 62
     0
 10
61.8
 20
-69.9875
  1
160
 40
3.0
 50
90.0
 72
     5
 11
61.8
 21
-65.1125
  0
ENDBLK
  0
BLOCK
  2
*DIM_0003
 70
    65
 10
0.0
 20
0.0
  0
LINE
  8
寸法
  6
BYBLOCK
 62
     0
 10
142.310947
 20
-63.785395
 11
150.422478
 21
-63.785395
  0
LINE
  8
寸法
  6
BYBLOCK
 62
     0
 10
142.310947
 20
-83.118728
 11
150.422478
 21
-83.118728
  0
LINE
  8
寸法
  6
BYBLOCK
 62
     0
 10
150.422478
 20
-63.785395
 11
150.422478
 21
-83.118728
  0
POINT
  8
寸法
 62
     0
 10
150.422478
 20
-63.785395
  0
POINT
  8
寸法
 62
     0
 10
150.422478
 20
-83.118728
  0
TEXT
  7
TextStyle03
  8
寸法
  6
CONTINUOUS
 62
     0
 10
150.025
 20
-75.9125
  1
580
 40
3.0
 50
90.0
 72
     5
 11
150.025
 21
-71.0375
  0
ENDBLK
  0
BLOCK
  2
*DIM_0004
 70
    65
 10
0.0
 20
0.0
  0
LINE
  8
寸法
  6
BYBLOCK
 62
     0
 10
46.224393
 20
-13.121378
 11
-120.442275
 21
-13.121378
  0
POINT
  8
寸法
 62
     0
 10
46.224393
 20
-13.121378
  0
POINT
  8
寸法
 62
     0
 10
-120.442275
 20
-13.121378
  0
TEXT
  7
TextStyle03
  8
寸法
  6
CONTINUOUS
 62
     0
 10
-48.84375
 20
-12.75
  1
呼称寸法　5000
 40
3.0
 72
     5
 11
-25.40625
 21
-12.75
  0
ENDBLK
  0
BLOCK
  2
*DIM_0005
 70
    65
 10
0.0
 20
0.0
  0
LINE
  8
寸法
  6
BYBLOCK
 62
     0
 10
-103.775608
 20
19.183902
 11
-103.775608
 21
14.041447
  0
LINE
  8
寸法
  6
BYBLOCK
 62
     0
 10
-37.10894
 20
19.183905
 11
-37.10894
 21
14.041447
  0
LINE
  8
寸法
  6
BYBLOCK
 62
     0
 10
-103.775608
 20
14.041447
 11
-37.10894
 21
14.041447
  0
POINT
  8
寸法
 62
     0
 10
-103.775608
 20
14.041447
  0
POINT
  8
寸法
 62
     0
 10
-37.10894
 20
14.041447
  0
TEXT
  7
TextStyle03
  8
寸法
  6
CONTINUOUS
 62
     0
 10
-73.73125
 20
14.4
  1
2000
 40
3.0
 72
     5
 11
-67.16875
 21
14.4
  0
ENDBLK
  0
BLOCK
  2
*DIM_0006
 70
    65
 10
0.0
 20
0.0
  0
LINE
  8
寸法
  6
BYBLOCK
 62
     0
 10
29.557727
 20
19.183902
 11
29.557727
 21
14.041447
  0
LINE
  8
寸法
  6
BYBLOCK
 62
     0
 10
-37.10894
 20
14.041447
 11
29.557727
 21
14.041447
  0
POINT
  8
寸法
 62
     0
 10
29.557727
 20
14.041447
  0
TEXT
  7
TextStyle03
  8
寸法
  6
CONTINUOUS
 62
     0
 10
-7.08125
 20
14.4
  1
2000
 40
3.0
 72
     5
 11
-0.51875
 21
14.4
  0
ENDBLK
  0
BLOCK
  2
*DIM_0007
 70
    65
 10
0.0
 20
0.0
  0
LINE
  8
寸法
  6
BYBLOCK
 62
     0
 10
80.244043
 20
22.814033
 11
80.244043
 21
42.814033
  0
POINT
  8
寸法
 62
     0
 10
80.244043
 20
22.814033
  0
POINT
  8
寸法
 62
     0
 10
80.244043
 20
42.814033
  0
TEXT
  7
TextStyle03
  8
寸法
  6
CONTINUOUS
 62
     0
 10
79.85
 20
21.925
  1
呼称寸法　600
 40
3.0
 50
90.0
 72
     5
 11
79.85
 21
43.675
  0
ENDBLK
  0
BLOCK
  2
*DIM_0008
 70
    65
 10
0.0
 20
0.0
  0
LINE
  8
寸法
  6
BYBLOCK
 62
     0
 10
130.424325
 20
33.814033
 11
130.424325
 21
60.666798
  0
LINE
  8
寸法
  6
BYBLOCK
 62
     0
 10
135.757657
 20
60.666798
 11
130.424325
 21
60.666798
  0
POINT
  8
寸法
 62
     0
 10
135.757657
 20
60.666798
  0
POINT
  8
寸法
 62
     0
 10
130.424325
 20
60.666798
  0
TEXT
  7
TextStyle03
  8
寸法
  6
CONTINUOUS
 62
     0
 10
130.6375
 20
61.025
  1
160
 40
3.0
 72
     5
 11
135.5125
 21
61.025
  0
ENDBLK
  0
BLOCK
  2
*DIM_0009
 70
    65
 10
0.0
 20
0.0
  0
LINE
  8
寸法
  6
BYBLOCK
 62
     0
 10
135.757657
 20
45.4807
 11
135.757657
 21
60.666798
  0
LINE
  8
寸法
  6
BYBLOCK
 62
     0
 10
142.54094
 20
45.7807
 11
142.54094
 21
60.666798
  0
LINE
  8
寸法
  6
BYBLOCK
 62
     0
 10
135.757657
 20
60.666798
 11
142.54094
 21
60.666798
  0
POINT
  8
寸法
 62
     0
 10
135.757657
 20
60.666798
  0
POINT
  8
寸法
 62
     0
 10
142.54094
 20
60.666798
  0
TEXT
  7
TextStyle03
  8
寸法
  6
CONTINUOUS
 62
     0
 10
143.425
 20
61.025
  1
203.5
 40
3.0
 72
     5
 11
151.675
 21
61.025
  0
ENDBLK
  0
BLOCK
  2
*DIM_0010
 70
    65
 10
0.0
 20
0.0
  0
LINE
  8
寸法
  6
BYBLOCK
 62
     0
 10
138.580298
 20
45.094035
 11
80.244043
 21
45.094035
  0
LINE
  8
寸法
  6
BYBLOCK
 62
     0
 10
80.244043
 20
42.814033
 11
80.244043
 21
45.094035
  0
POINT
  8
寸法
 62
     0
 10
80.244043
 20
42.814033
  0
POINT
  8
寸法
 62
     0
 10
80.244043
 20
45.094035
  0
TEXT
  7
TextStyle03
  8
寸法
  6
CONTINUOUS
 62
     0
 10
79.85
 20
47.41875
  1
68.4
 40
3.0
 50
90.0
 72
     5
 11
79.85
 21
53.98125
  0
ENDBLK
  0
BLOCK
  2
*DIM_0011
 70
    65
 10
0.0
 20
0.0
  0
LINE
  8
寸法
  6
BYBLOCK
 62
     0
 10
138.580298
 20
20.53403
 11
80.244043
 21
20.53403
  0
LINE
  8
寸法
  6
BYBLOCK
 62
     0
 10
80.244043
 20
22.814033
 11
80.244043
 21
20.53403
  0
POINT
  8
寸法
 62
     0
 10
80.244043
 20
22.814033
  0
POINT
  8
寸法
 62
     0
 10
80.244043
 20
20.53403
  0
TEXT
  7
TextStyle03
  8
寸法
  6
CONTINUOUS
 62
     0
 10
79.85
 20
11.61875
  1
68.4
 40
3.0
 50
90.0
 72
     5
 11
79.85
 21
18.18125
  0
ENDBLK
  0
BLOCK
  2
*DIM_0012
 70
    65
 10
0.0
 20
0.0
  0
LINE
  8
寸法
  6
BYBLOCK
 62
     0
 10
48.89106
 20
-70.209613
 11
62.194043
 21
-70.209613
  0
LINE
  8
寸法
  6
BYBLOCK
 62
     0
 10
49.19106
 20
-76.992895
 11
62.194043
 21
-76.992895
  0
LINE
  8
寸法
  6
BYBLOCK
 62
     0
 10
62.194043
 20
-70.209613
 11
62.194043
 21
-76.992895
  0
POINT
  8
寸法
 62
     0
 10
62.194043
 20
-70.209613
  0
POINT
  8
寸法
 62
     0
 10
62.194043
 20
-76.992895
  0
TEXT
  7
TextStyle03
  8
寸法
  6
CONTINUOUS
 62
     0
 10
61.8
 20
-86.175
  1
203.5
 40
3.0
 50
90.0
 72
     5
 11
61.8
 21
-77.925
  0
ENDBLK
  0
BLOCK
  2
*DIM_0013
 70
    65
 10
0.0
 20
0.0
  0
LINE
  8
寸法
  6
BYBLOCK
 62
     0
 10
48.504395
 20
-73.032252
 11
48.504395
 21
-13.121378
  0
LINE
  8
寸法
  6
BYBLOCK
 62
     0
 10
46.224393
 20
-13.121378
 11
48.504395
 21
-13.121378
  0
POINT
  8
寸法
 62
     0
 10
46.224393
 20
-13.121378
  0
POINT
  8
寸法
 62
     0
 10
48.504395
 20
-13.121378
  0
TEXT
  7
TextStyle03
  8
寸法
  6
CONTINUOUS
 62
     0
 10
50.81875
 20
-12.75
  1
68.4
 40
3.0
 72
     5
 11
57.38125
 21
-12.75
  0
ENDBLK
  0
BLOCK
  2
*DIM_0014
 70
    65
 10
0.0
 20
0.0
  0
LINE
  8
寸法
  6
BYBLOCK
 62
     0
 10
-122.722275
 20
-73.032252
 11
-122.722275
 21
-13.121378
  0
LINE
  8
寸法
  6
BYBLOCK
 62
     0
 10
-120.442275
 20
-13.121378
 11
-122.722275
 21
-13.121378
  0
POINT
  8
寸法
 62
     0
 10
-120.442275
 20
-13.121378
  0
POINT
  8
寸法
 62
     0
 10
-122.722275
 20
-13.121378
  0
TEXT
  7
TextStyle03
  8
寸法
  6
CONTINUOUS
 62
     0
 10
-131.63125
 20
-12.75
  1
68.4
 40
3.0
 72
     5
 11
-125.06875
 21
-12.75
  0
ENDBLK
  0
BLOCK
  2
*DIM_0015
 70
    65
 10
0.0
 20
0.0
  0
LINE
  8
寸法
  6
BYBLOCK
 62
     0
 10
109.177615
 20
-62.785395
 11
109.177615
 21
-56.346975
  0
LINE
  8
寸法
  6
BYBLOCK
 62
     0
 10
141.310947
 20
-62.785395
 11
141.310947
 21
-56.346975
  0
LINE
  8
寸法
  6
BYBLOCK
 62
     0
 10
109.177615
 20
-56.346975
 11
141.310947
 21
-56.346975
  0
POINT
  8
寸法
 62
     0
 10
109.177615
 20
-56.346975
  0
POINT
  8
寸法
 62
     0
 10
141.310947
 20
-56.346975
  0
TEXT
  7
TextStyle03
  8
寸法
  6
CONTINUOUS
 62
     0
 10
122.7875
 20
-55.975
  1
964
 40
3.0
 72
     5
 11
127.6625
 21
-55.975
  0
ENDBLK
  0
BLOCK
  2
*DIM_0016
 70
    65
 10
0.0
 20
0.0
  0
LINE
  8
寸法
  6
BYBLOCK
 62
     0
 10
49.85452
 20
38.914033
 11
56.631812
 21
38.914033
  0
LINE
  8
寸法
  6
BYBLOCK
 62
     0
 10
56.631812
 20
42.814033
 11
56.631812
 21
38.914033
  0
POINT
  8
寸法
 62
     0
 10
56.631812
 20
42.814033
  0
POINT
  8
寸法
 62
     0
 10
56.631812
 20
38.914033
  0
TEXT
  7
TextStyle03
  8
寸法
  6
CONTINUOUS
 62
     0
 10
56.375
 20
43.4875
  1
117
 40
3.0
 50
90.0
 72
     5
 11
56.375
 21
48.3625
  0
ENDBLK
  0
BLOCK
  2
*DIM_0017
 70
    65
 10
0.0
 20
0.0
  0
LINE
  8
寸法
  6
BYBLOCK
 62
     0
 10
49.85452
 20
26.714033
 11
56.631812
 21
26.714033
  0
LINE
  8
寸法
  6
BYBLOCK
 62
     0
 10
56.631812
 20
22.814033
 11
56.631812
 21
26.714033
  0
POINT
  8
寸法
 62
     0
 10
56.631812
 20
22.814033
  0
POINT
  8
寸法
 62
     0
 10
56.631812
 20
26.714033
  0
TEXT
  7
TextStyle03
  8
寸法
  6
CONTINUOUS
 62
     0
 10
56.55
 20
17.0125
  1
117
 40
3.0
 50
90.0
 72
     5
 11
56.55
 21
21.8875
  0
ENDBLK
  0
BLOCK
  2
*GRP_0018
 70
    65
 10
0.0
 20
0.0
  0
LINE
  8
別途部材
  6
CONTINUOUS
 62
    96
 10
-122.10894
 20
-70.209613
 11
-122.50894
 21
-71.209613
  0
ARC
  8
別途部材
  6
CONTINUOUS
 10
-110.442273
 20
-76.917944
 40
12.041668
 50
90.0
 51
146.144967
  0
LINE
  8
別途部材
  6
CONTINUOUS
 62
    96
 10
-122.10894
 20
-70.209613
 11
-37.10894
 21
-70.209613
  0
LINE
  8
別途部材
  6
CONTINUOUS
 10
-122.50894
 20
-71.209613
 11
-37.10894
 21
-71.209613
  0
LINE
  8
別途部材
  6
CONTINUOUS
 10
-37.60894
 20
-63.87628
 11
-38.60894
 21
-64.87628
  0
LINE
  8
別途部材
  6
CONTINUOUS
 10
-39.60894
 20
-64.87628
 11
-40.60894
 21
-63.87628
  0
LINE
  8
別途部材
  6
CONTINUOUS
 10
-41.60894
 20
-63.87628
 11
-42.60894
 21
-64.87628
  0
LINE
  8
別途部材
  6
CONTINUOUS
 10
-40.60894
 20
-63.87628
 11
-41.60894
 21
-63.87628
  0
LINE
  8
別途部材
  6
CONTINUOUS
 10
-37.60894
 20
-63.87628
 11
-37.10894
 21
-63.87628
  0
LINE
  8
別途部材
  6
CONTINUOUS
 10
-43.60894
 20
-64.87628
 11
-44.60894
 21
-63.87628
  0
LINE
  8
別途部材
  6
CONTINUOUS
 10
-45.60894
 20
-63.87628
 11
-46.60894
 21
-64.87628
  0
LINE
  8
別途部材
  6
CONTINUOUS
 10
-44.60894
 20
-63.87628
 11
-45.60894
 21
-63.87628
  0
LINE
  8
別途部材
  6
CONTINUOUS
 10
-47.60894
 20
-64.87628
 11
-48.60894
 21
-63.87628
  0
LINE
  8
別途部材
  6
CONTINUOUS
 10
-49.60894
 20
-63.87628
 11
-50.60894
 21
-64.87628
  0
LINE
  8
別途部材
  6
CONTINUOUS
 10
-48.60894
 20
-63.87628
 11
-49.60894
 21
-63.87628
  0
LINE
  8
別途部材
  6
CONTINUOUS
 10
-51.60894
 20
-64.87628
 11
-52.60894
 21
-63.87628
  0
LINE
  8
別途部材
  6
CONTINUOUS
 10
-53.60894
 20
-63.87628
 11
-54.60894
 21
-64.87628
  0
LINE
  8
別途部材
  6
CONTINUOUS
 10
-52.60894
 20
-63.87628
 11
-53.60894
 21
-63.87628
  0
LINE
  8
別途部材
  6
CONTINUOUS
 10
-55.60894
 20
-64.87628
 11
-56.60894
 21
-63.87628
  0
LINE
  8
別途部材
  6
CONTINUOUS
 10
-57.60894
 20
-63.87628
 11
-58.60894
 21
-64.87628
  0
LINE
  8
別途部材
  6
CONTINUOUS
 10
-56.60894
 20
-63.87628
 11
-57.60894
 21
-63.87628
  0
LINE
  8
別途部材
  6
CONTINUOUS
 10
-59.60894
 20
-64.87628
 11
-60.60894
 21
-63.87628
  0
LINE
  8
別途部材
  6
CONTINUOUS
 10
-61.60894
 20
-63.87628
 11
-62.60894
 21
-64.87628
  0
LINE
  8
別途部材
  6
CONTINUOUS
 10
-60.60894
 20
-63.87628
 11
-61.60894
 21
-63.87628
  0
LINE
  8
別途部材
  6
CONTINUOUS
 10
-63.60894
 20
-64.87628
 11
-64.60894
 21
-63.87628
  0
LINE
  8
別途部材
  6
CONTINUOUS
 10
-65.60894
 20
-63.87628
 11
-66.60894
 21
-64.87628
  0
LINE
  8
別途部材
  6
CONTINUOUS
 10
-64.60894
 20
-63.87628
 11
-65.60894
 21
-63.87628
  0
LINE
  8
別途部材
  6
CONTINUOUS
 10
-67.60894
 20
-64.87628
 11
-68.60894
 21
-63.87628
  0
LINE
  8
別途部材
  6
CONTINUOUS
 10
-69.60894
 20
-63.87628
 11
-70.60894
 21
-64.87628
  0
LINE
  8
別途部材
  6
CONTINUOUS
 10
-68.60894
 20
-63.87628
 11
-69.60894
 21
-63.87628
  0
LINE
  8
別途部材
  6
CONTINUOUS
 10
-71.60894
 20
-64.87628
 11
-72.60894
 21
-63.87628
  0
LINE
  8
別途部材
  6
CONTINUOUS
 10
-73.60894
 20
-63.87628
 11
-74.60894
 21
-64.87628
  0
LINE
  8
別途部材
  6
CONTINUOUS
 10
-72.60894
 20
-63.87628
 11
-73.60894
 21
-63.87628
  0
LINE
  8
別途部材
  6
CONTINUOUS
 10
-75.60894
 20
-64.87628
 11
-76.60894
 21
-63.87628
  0
LINE
  8
別途部材
  6
CONTINUOUS
 10
-77.60894
 20
-63.87628
 11
-78.60894
 21
-64.87628
  0
LINE
  8
別途部材
  6
CONTINUOUS
 10
-76.60894
 20
-63.87628
 11
-77.60894
 21
-63.87628
  0
LINE
  8
別途部材
  6
CONTINUOUS
 10
-79.60894
 20
-64.87628
 11
-80.60894
 21
-63.87628
  0
LINE
  8
別途部材
  6
CONTINUOUS
 10
-81.60894
 20
-63.87628
 11
-82.60894
 21
-64.87628
  0
LINE
  8
別途部材
  6
CONTINUOUS
 10
-80.60894
 20
-63.87628
 11
-81.60894
 21
-63.87628
  0
LINE
  8
別途部材
  6
CONTINUOUS
 10
-78.60894
 20
-64.87628
 11
-79.60894
 21
-64.87628
  0
LINE
  8
別途部材
  6
CONTINUOUS
 10
-74.60894
 20
-64.87628
 11
-75.60894
 21
-64.87628
  0
LINE
  8
別途部材
  6
CONTINUOUS
 10
-70.60894
 20
-64.87628
 11
-71.60894
 21
-64.87628
  0
LINE
  8
別途部材
  6
CONTINUOUS
 10
-66.60894
 20
-64.87628
 11
-67.60894
 21
-64.87628
  0
LINE
  8
別途部材
  6
CONTINUOUS
 10
-62.60894
 20
-64.87628
 11
-63.60894
 21
-64.87628
  0
LINE
  8
別途部材
  6
CONTINUOUS
 10
-58.60894
 20
-64.87628
 11
-59.60894
 21
-64.87628
  0
LINE
  8
別途部材
  6
CONTINUOUS
 10
-54.60894
 20
-64.87628
 11
-55.60894
 21
-64.87628
  0
LINE
  8
別途部材
  6
CONTINUOUS
 10
-50.60894
 20
-64.87628
 11
-51.60894
 21
-64.87628
  0
LINE
  8
別途部材
  6
CONTINUOUS
 10
-46.60894
 20
-64.87628
 11
-47.60894
 21
-64.87628
  0
LINE
  8
別途部材
  6
CONTINUOUS
 10
-42.60894
 20
-64.87628
 11
-43.60894
 21
-64.87628
  0
LINE
  8
別途部材
  6
CONTINUOUS
 10
-39.60894
 20
-64.87628
 11
-38.60894
 21
-64.87628
  0
LINE
  8
別途部材
  6
CONTINUOUS
 10
-83.60894
 20
-64.87628
 11
-84.60894
 21
-63.87628
  0
LINE
  8
別途部材
  6
CONTINUOUS
 10
-85.60894
 20
-63.87628
 11
-86.60894
 21
-64.87628
  0
LINE
  8
別途部材
  6
CONTINUOUS
 10
-84.60894
 20
-63.87628
 11
-85.60894
 21
-63.87628
  0
LINE
  8
別途部材
  6
CONTINUOUS
 10
-87.60894
 20
-64.87628
 11
-88.60894
 21
-63.87628
  0
LINE
  8
別途部材
  6
CONTINUOUS
 10
-89.60894
 20
-63.87628
 11
-90.60894
 21
-64.87628
  0
LINE
  8
別途部材
  6
CONTINUOUS
 10
-88.60894
 20
-63.87628
 11
-89.60894
 21
-63.87628
  0
LINE
  8
別途部材
  6
CONTINUOUS
 10
-91.60894
 20
-64.87628
 11
-92.60894
 21
-63.87628
  0
LINE
  8
別途部材
  6
CONTINUOUS
 10
-93.60894
 20
-63.87628
 11
-94.60894
 21
-64.87628
  0
LINE
  8
別途部材
  6
CONTINUOUS
 10
-92.60894
 20
-63.87628
 11
-93.60894
 21
-63.87628
  0
LINE
  8
別途部材
  6
CONTINUOUS
 10
-95.60894
 20
-64.87628
 11
-96.60894
 21
-63.87628
  0
LINE
  8
別途部材
  6
CONTINUOUS
 10
-97.60894
 20
-63.87628
 11
-98.60894
 21
-64.87628
  0
LINE
  8
別途部材
  6
CONTINUOUS
 10
-96.60894
 20
-63.87628
 11
-97.60894
 21
-63.87628
  0
LINE
  8
別途部材
  6
CONTINUOUS
 10
-99.60894
 20
-64.87628
 11
-100.60894
 21
-63.87628
  0
LINE
  8
別途部材
  6
CONTINUOUS
 10
-101.60894
 20
-63.87628
 11
-102.60894
 21
-64.87628
  0
LINE
  8
別途部材
  6
CONTINUOUS
 10
-100.60894
 20
-63.87628
 11
-101.60894
 21
-63.87628
  0
LINE
  8
別途部材
  6
CONTINUOUS
 10
-103.60894
 20
-64.87628
 11
-104.60894
 21
-63.87628
  0
LINE
  8
別途部材
  6
CONTINUOUS
 10
-105.60894
 20
-63.87628
 11
-106.60894
 21
-64.87628
  0
LINE
  8
別途部材
  6
CONTINUOUS
 10
-104.60894
 20
-63.87628
 11
-105.60894
 21
-63.87628
  0
LINE
  8
別途部材
  6
CONTINUOUS
 10
-107.60894
 20
-64.87628
 11
-108.60894
 21
-63.87628
  0
LINE
  8
別途部材
  6
CONTINUOUS
 10
-109.60894
 20
-63.87628
 11
-110.60894
 21
-64.87628
  0
LINE
  8
別途部材
  6
CONTINUOUS
 10
-108.60894
 20
-63.87628
 11
-109.60894
 21
-63.87628
  0
LINE
  8
別途部材
  6
CONTINUOUS
 10
-106.60894
 20
-64.87628
 11
-107.60894
 21
-64.87628
  0
LINE
  8
別途部材
  6
CONTINUOUS
 10
-102.60894
 20
-64.87628
 11
-103.60894
 21
-64.87628
  0
LINE
  8
別途部材
  6
CONTINUOUS
 10
-98.60894
 20
-64.87628
 11
-99.60894
 21
-64.87628
  0
LINE
  8
別途部材
  6
CONTINUOUS
 10
-94.60894
 20
-64.87628
 11
-95.60894
 21
-64.87628
  0
LINE
  8
別途部材
  6
CONTINUOUS
 10
-90.60894
 20
-64.87628
 11
-91.60894
 21
-64.87628
  0
LINE
  8
別途部材
  6
CONTINUOUS
 10
-86.60894
 20
-64.87628
 11
-87.60894
 21
-64.87628
  0
LINE
  8
別途部材
  6
CONTINUOUS
 10
-82.60894
 20
-64.87628
 11
-83.60894
 21
-64.87628
  0
LINE
  8
別途部材
  6
CONTINUOUS
 10
-110.60894
 20
-64.87628
 11
-110.60894
 21
-70.209613
  0
LINE
  8
別途部材
  6
CONTINUOUS
 10
-109.60894
 20
-63.87628
 11
-109.60894
 21
-70.209613
  0
LINE
  8
別途部材
  6
CONTINUOUS
 10
-107.60894
 20
-64.87628
 11
-107.60894
 21
-70.209613
  0
LINE
  8
別途部材
  6
CONTINUOUS
 10
-108.60894
 20
-63.87628
 11
-108.60894
 21
-70.209613
  0
LINE
  8
別途部材
  6
CONTINUOUS
 10
-105.60894
 20
-63.87628
 11
-105.60894
 21
-70.209613
  0
LINE
  8
別途部材
  6
CONTINUOUS
 10
-106.60894
 20
-64.87628
 11
-106.60894
 21
-70.209613
  0
LINE
  8
別途部材
  6
CONTINUOUS
 10
-104.60894
 20
-63.87628
 11
-104.60894
 21
-70.209613
  0
LINE
  8
別途部材
  6
CONTINUOUS
 10
-103.60894
 20
-64.87628
 11
-103.60894
 21
-70.209613
  0
LINE
  8
別途部材
  6
CONTINUOUS
 10
-101.60894
 20
-63.87628
 11
-101.60894
 21
-70.209613
  0
LINE
  8
別途部材
  6
CONTINUOUS
 10
-102.60894
 20
-64.87628
 11
-102.60894
 21
-70.209613
  0
LINE
  8
別途部材
  6
CONTINUOUS
 10
-99.60894
 20
-64.87628
 11
-99.60894
 21
-70.209613
  0
LINE
  8
別途部材
  6
CONTINUOUS
 10
-100.60894
 20
-63.87628
 11
-100.60894
 21
-70.209613
  0
LINE
  8
別途部材
  6
CONTINUOUS
 10
-98.60894
 20
-64.87628
 11
-98.60894
 21
-70.209613
  0
LINE
  8
別途部材
  6
CONTINUOUS
 10
-96.60894
 20
-63.87628
 11
-96.60894
 21
-70.209613
  0
LINE
  8
別途部材
  6
CONTINUOUS
 10
-97.60894
 20
-63.87628
 11
-97.60894
 21
-70.209613
  0
LINE
  8
別途部材
  6
CONTINUOUS
 10
-95.60894
 20
-64.87628
 11
-95.60894
 21
-70.209613
  0
LINE
  8
別途部材
  6
CONTINUOUS
 10
-94.60894
 20
-64.87628
 11
-94.60894
 21
-70.209613
  0
LINE
  8
別途部材
  6
CONTINUOUS
 10
-93.60894
 20
-63.87628
 11
-93.60894
 21
-70.209613
  0
LINE
  8
別途部材
  6
CONTINUOUS
 10
-92.60894
 20
-63.87628
 11
-92.60894
 21
-70.209613
  0
LINE
  8
別途部材
  6
CONTINUOUS
 10
-89.60894
 20
-63.87628
 11
-89.60894
 21
-70.209613
  0
LINE
  8
別途部材
  6
CONTINUOUS
 10
-87.60894
 20
-64.87628
 11
-87.60894
 21
-70.209613
  0
LINE
  8
別途部材
  6
CONTINUOUS
 10
-88.60894
 20
-63.87628
 11
-88.60894
 21
-70.209613
  0
LINE
  8
別途部材
  6
CONTINUOUS
 10
-90.60894
 20
-64.87628
 11
-90.60894
 21
-70.209613
  0
LINE
  8
別途部材
  6
CONTINUOUS
 10
-91.60894
 20
-64.87628
 11
-91.60894
 21
-70.209613
  0
LINE
  8
別途部材
  6
CONTINUOUS
 10
-86.60894
 20
-64.87628
 11
-86.60894
 21
-70.209613
  0
LINE
  8
別途部材
  6
CONTINUOUS
 10
-84.60894
 20
-63.87628
 11
-84.60894
 21
-70.209613
  0
LINE
  8
別途部材
  6
CONTINUOUS
 10
-85.60894
 20
-63.87628
 11
-85.60894
 21
-70.209613
  0
LINE
  8
別途部材
  6
CONTINUOUS
 10
-83.60894
 20
-64.87628
 11
-83.60894
 21
-70.209613
  0
LINE
  8
別途部材
  6
CONTINUOUS
 10
-81.60894
 20
-63.87628
 11
-81.60894
 21
-70.209613
  0
LINE
  8
別途部材
  6
CONTINUOUS
 10
-82.60894
 20
-64.87628
 11
-82.60894
 21
-70.209613
  0
LINE
  8
別途部材
  6
CONTINUOUS
 10
-80.60894
 20
-63.87628
 11
-80.60894
 21
-70.209613
  0
LINE
  8
別途部材
  6
CONTINUOUS
 10
-79.60894
 20
-64.87628
 11
-79.60894
 21
-70.209613
  0
LINE
  8
別途部材
  6
CONTINUOUS
 10
-77.60894
 20
-63.87628
 11
-77.60894
 21
-70.209613
  0
LINE
  8
別途部材
  6
CONTINUOUS
 10
-78.60894
 20
-64.87628
 11
-78.60894
 21
-70.209613
  0
LINE
  8
別途部材
  6
CONTINUOUS
 10
-74.60894
 20
-64.87628
 11
-74.60894
 21
-70.209613
  0
LINE
  8
別途部材
  6
CONTINUOUS
 10
-75.60894
 20
-64.87628
 11
-75.60894
 21
-70.209613
  0
LINE
  8
別途部材
  6
CONTINUOUS
 10
-76.60894
 20
-63.87628
 11
-76.60894
 21
-70.209613
  0
LINE
  8
別途部材
  6
CONTINUOUS
 10
-73.60894
 20
-63.87628
 11
-73.60894
 21
-70.209613
  0
LINE
  8
別途部材
  6
CONTINUOUS
 10
-72.60894
 20
-63.87628
 11
-72.60894
 21
-70.209613
  0
LINE
  8
別途部材
  6
CONTINUOUS
 10
-71.60894
 20
-64.87628
 11
-71.60894
 21
-70.209613
  0
LINE
  8
別途部材
  6
CONTINUOUS
 10
-69.60894
 20
-63.87628
 11
-69.60894
 21
-70.209613
  0
LINE
  8
別途部材
  6
CONTINUOUS
 10
-65.60894
 20
-63.87628
 11
-65.60894
 21
-70.209613
  0
LINE
  8
別途部材
  6
CONTINUOUS
 10
-66.60894
 20
-64.87628
 11
-66.60894
 21
-70.209613
  0
LINE
  8
別途部材
  6
CONTINUOUS
 10
-67.60894
 20
-64.87628
 11
-67.60894
 21
-70.209613
  0
LINE
  8
別途部材
  6
CONTINUOUS
 10
-68.60894
 20
-63.87628
 11
-68.60894
 21
-70.209613
  0
LINE
  8
別途部材
  6
CONTINUOUS
 10
-70.60894
 20
-64.87628
 11
-70.60894
 21
-70.209613
  0
LINE
  8
別途部材
  6
CONTINUOUS
 10
-63.60894
 20
-64.87628
 11
-63.60894
 21
-70.209613
  0
LINE
  8
別途部材
  6
CONTINUOUS
 10
-64.60894
 20
-63.87628
 11
-64.60894
 21
-70.209613
  0
LINE
  8
別途部材
  6
CONTINUOUS
 10
-62.60894
 20
-64.87628
 11
-62.60894
 21
-70.209613
  0
LINE
  8
別途部材
  6
CONTINUOUS
 10
-61.60894
 20
-63.87628
 11
-61.60894
 21
-70.209613
  0
LINE
  8
別途部材
  6
CONTINUOUS
 10
-57.60894
 20
-63.87628
 11
-57.60894
 21
-70.209613
  0
LINE
  8
別途部材
  6
CONTINUOUS
 10
-56.60894
 20
-63.87628
 11
-56.60894
 21
-70.209613
  0
LINE
  8
別途部材
  6
CONTINUOUS
 10
-58.60894
 20
-64.87628
 11
-58.60894
 21
-70.209613
  0
LINE
  8
別途部材
  6
CONTINUOUS
 10
-59.60894
 20
-64.87628
 11
-59.60894
 21
-70.209613
  0
LINE
  8
別途部材
  6
CONTINUOUS
 10
-60.60894
 20
-63.87628
 11
-60.60894
 21
-70.209613
  0
LINE
  8
別途部材
  6
CONTINUOUS
 10
-55.60894
 20
-64.87628
 11
-55.60894
 21
-70.209613
  0
LINE
  8
別途部材
  6
CONTINUOUS
 10
-53.60894
 20
-63.87628
 11
-53.60894
 21
-70.209613
  0
LINE
  8
別途部材
  6
CONTINUOUS
 10
-52.60894
 20
-63.87628
 11
-52.60894
 21
-70.209613
  0
LINE
  8
別途部材
  6
CONTINUOUS
 10
-51.60894
 20
-64.87628
 11
-51.60894
 21
-70.209613
  0
LINE
  8
別途部材
  6
CONTINUOUS
 10
-50.60894
 20
-64.87628
 11
-50.60894
 21
-70.209613
  0
LINE
  8
別途部材
  6
CONTINUOUS
 10
-49.60894
 20
-63.87628
 11
-49.60894
 21
-70.209613
  0
LINE
  8
別途部材
  6
CONTINUOUS
 10
-54.60894
 20
-64.87628
 11
-54.60894
 21
-70.209613
  0
LINE
  8
別途部材
  6
CONTINUOUS
 10
-48.60894
 20
-63.87628
 11
-48.60894
 21
-70.209613
  0
LINE
  8
別途部材
  6
CONTINUOUS
 10
-47.60894
 20
-64.87628
 11
-47.60894
 21
-70.209613
  0
LINE
  8
別途部材
  6
CONTINUOUS
 10
-46.60894
 20
-64.87628
 11
-46.60894
 21
-70.209613
  0
LINE
  8
別途部材
  6
CONTINUOUS
 10
-44.60894
 20
-63.87628
 11
-44.60894
 21
-70.209613
  0
LINE
  8
別途部材
  6
CONTINUOUS
 10
-42.60894
 20
-64.87628
 11
-42.60894
 21
-70.209613
  0
LINE
  8
別途部材
  6
CONTINUOUS
 10
-41.60894
 20
-63.87628
 11
-41.60894
 21
-70.209613
  0
LINE
  8
別途部材
  6
CONTINUOUS
 10
-39.60894
 20
-64.87628
 11
-39.60894
 21
-70.209613
  0
LINE
  8
別途部材
  6
CONTINUOUS
 10
-38.60894
 20
-64.87628
 11
-38.60894
 21
-70.209613
  0
LINE
  8
別途部材
  6
CONTINUOUS
 10
-37.60894
 20
-63.87628
 11
-37.60894
 21
-70.209613
  0
LINE
  8
別途部材
  6
CONTINUOUS
 10
-40.60894
 20
-63.87628
 11
-40.60894
 21
-70.209613
  0
LINE
  8
別途部材
  6
CONTINUOUS
 10
-43.60894
 20
-64.87628
 11
-43.60894
 21
-70.209613
  0
LINE
  8
別途部材
  6
CONTINUOUS
 10
-45.60894
 20
-63.87628
 11
-45.60894
 21
-70.209613
  0
LINE
  8
別途部材
  6
CONTINUOUS
 62
    96
 10
47.89106
 20
-70.209613
 11
48.29106
 21
-71.209613
  0
ARC
  8
別途部材
  6
CONTINUOUS
 10
36.224393
 20
-76.917944
 40
12.041668
 50
33.855033
 51
90.0
  0
LINE
  8
別途部材
  6
CONTINUOUS
 62
    96
 10
47.89106
 20
-70.209613
 11
-37.10894
 21
-70.209613
  0
LINE
  8
別途部材
  6
CONTINUOUS
 10
48.29106
 20
-71.209613
 11
-37.10894
 21
-71.209613
  0
LINE
  8
別途部材
  6
CONTINUOUS
 10
-36.60894
 20
-63.87628
 11
-35.60894
 21
-64.87628
  0
LINE
  8
別途部材
  6
CONTINUOUS
 10
-34.60894
 20
-64.87628
 11
-33.60894
 21
-63.87628
  0
LINE
  8
別途部材
  6
CONTINUOUS
 10
-32.60894
 20
-63.87628
 11
-31.60894
 21
-64.87628
  0
LINE
  8
別途部材
  6
CONTINUOUS
 10
-33.60894
 20
-63.87628
 11
-32.60894
 21
-63.87628
  0
LINE
  8
別途部材
  6
CONTINUOUS
 10
-36.60894
 20
-63.87628
 11
-37.10894
 21
-63.87628
  0
LINE
  8
別途部材
  6
CONTINUOUS
 10
-30.60894
 20
-64.87628
 11
-29.60894
 21
-63.87628
  0
LINE
  8
別途部材
  6
CONTINUOUS
 10
-28.60894
 20
-63.87628
 11
-27.60894
 21
-64.87628
  0
LINE
  8
別途部材
  6
CONTINUOUS
 10
-29.60894
 20
-63.87628
 11
-28.60894
 21
-63.87628
  0
LINE
  8
別途部材
  6
CONTINUOUS
 10
-26.60894
 20
-64.87628
 11
-25.60894
 21
-63.87628
  0
LINE
  8
別途部材
  6
CONTINUOUS
 10
-24.60894
 20
-63.87628
 11
-23.60894
 21
-64.87628
  0
LINE
  8
別途部材
  6
CONTINUOUS
 10
-25.60894
 20
-63.87628
 11
-24.60894
 21
-63.87628
  0
LINE
  8
別途部材
  6
CONTINUOUS
 10
-22.60894
 20
-64.87628
 11
-21.60894
 21
-63.87628
  0
LINE
  8
別途部材
  6
CONTINUOUS
 10
-20.60894
 20
-63.87628
 11
-19.60894
 21
-64.87628
  0
LINE
  8
別途部材
  6
CONTINUOUS
 10
-21.60894
 20
-63.87628
 11
-20.60894
 21
-63.87628
  0
LINE
  8
別途部材
  6
CONTINUOUS
 10
-18.60894
 20
-64.87628
 11
-17.60894
 21
-63.87628
  0
LINE
  8
別途部材
  6
CONTINUOUS
 10
-16.60894
 20
-63.87628
 11
-15.60894
 21
-64.87628
  0
LINE
  8
別途部材
  6
CONTINUOUS
 10
-17.60894
 20
-63.87628
 11
-16.60894
 21
-63.87628
  0
LINE
  8
別途部材
  6
CONTINUOUS
 10
-14.60894
 20
-64.87628
 11
-13.60894
 21
-63.87628
  0
LINE
  8
別途部材
  6
CONTINUOUS
 10
-12.60894
 20
-63.87628
 11
-11.60894
 21
-64.87628
  0
LINE
  8
別途部材
  6
CONTINUOUS
 10
-13.60894
 20
-63.87628
 11
-12.60894
 21
-63.87628
  0
LINE
  8
別途部材
  6
CONTINUOUS
 10
-10.60894
 20
-64.87628
 11
-9.60894
 21
-63.87628
  0
LINE
  8
別途部材
  6
CONTINUOUS
 10
-8.60894
 20
-63.87628
 11
-7.60894
 21
-64.87628
  0
LINE
  8
別途部材
  6
CONTINUOUS
 10
-9.60894
 20
-63.87628
 11
-8.60894
 21
-63.87628
  0
LINE
  8
別途部材
  6
CONTINUOUS
 10
-6.60894
 20
-64.87628
 11
-5.60894
 21
-63.87628
  0
LINE
  8
別途部材
  6
CONTINUOUS
 10
-4.60894
 20
-63.87628
 11
-3.60894
 21
-64.87628
  0
LINE
  8
別途部材
  6
CONTINUOUS
 10
-5.60894
 20
-63.87628
 11
-4.60894
 21
-63.87628
  0
LINE
  8
別途部材
  6
CONTINUOUS
 10
-2.60894
 20
-64.87628
 11
-1.60894
 21
-63.87628
  0
LINE
  8
別途部材
  6
CONTINUOUS
 10
-0.60894
 20
-63.87628
 11
0.39106
 21
-64.87628
  0
LINE
  8
別途部材
  6
CONTINUOUS
 10
-1.60894
 20
-63.87628
 11
-0.60894
 21
-63.87628
  0
LINE
  8
別途部材
  6
CONTINUOUS
 10
1.39106
 20
-64.87628
 11
2.39106
 21
-63.87628
  0
LINE
  8
別途部材
  6
CONTINUOUS
 10
3.39106
 20
-63.87628
 11
4.39106
 21
-64.87628
  0
LINE
  8
別途部材
  6
CONTINUOUS
 10
2.39106
 20
-63.87628
 11
3.39106
 21
-63.87628
  0
LINE
  8
別途部材
  6
CONTINUOUS
 10
5.39106
 20
-64.87628
 11
6.39106
 21
-63.87628
  0
LINE
  8
別途部材
  6
CONTINUOUS
 10
7.39106
 20
-63.87628
 11
8.39106
 21
-64.87628
  0
LINE
  8
別途部材
  6
CONTINUOUS
 10
6.39106
 20
-63.87628
 11
7.39106
 21
-63.87628
  0
LINE
  8
別途部材
  6
CONTINUOUS
 10
4.39106
 20
-64.87628
 11
5.39106
 21
-64.87628
  0
LINE
  8
別途部材
  6
CONTINUOUS
 10
0.39106
 20
-64.87628
 11
1.39106
 21
-64.87628
  0
LINE
  8
別途部材
  6
CONTINUOUS
 10
-3.60894
 20
-64.87628
 11
-2.60894
 21
-64.87628
  0
LINE
  8
別途部材
  6
CONTINUOUS
 10
-7.60894
 20
-64.87628
 11
-6.60894
 21
-64.87628
  0
LINE
  8
別途部材
  6
CONTINUOUS
 10
-11.60894
 20
-64.87628
 11
-10.60894
 21
-64.87628
  0
LINE
  8
別途部材
  6
CONTINUOUS
 10
-15.60894
 20
-64.87628
 11
-14.60894
 21
-64.87628
  0
LINE
  8
別途部材
  6
CONTINUOUS
 10
-19.60894
 20
-64.87628
 11
-18.60894
 21
-64.87628
  0
LINE
  8
別途部材
  6
CONTINUOUS
 10
-23.60894
 20
-64.87628
 11
-22.60894
 21
-64.87628
  0
LINE
  8
別途部材
  6
CONTINUOUS
 10
-27.60894
 20
-64.87628
 11
-26.60894
 21
-64.87628
  0
LINE
  8
別途部材
  6
CONTINUOUS
 10
-31.60894
 20
-64.87628
 11
-30.60894
 21
-64.87628
  0
LINE
  8
別途部材
  6
CONTINUOUS
 10
-34.60894
 20
-64.87628
 11
-35.60894
 21
-64.87628
  0
LINE
  8
別途部材
  6
CONTINUOUS
 10
9.39106
 20
-64.87628
 11
10.39106
 21
-63.87628
  0
LINE
  8
別途部材
  6
CONTINUOUS
 10
11.39106
 20
-63.87628
 11
12.39106
 21
-64.87628
  0
LINE
  8
別途部材
  6
CONTINUOUS
 10
10.39106
 20
-63.87628
 11
11.39106
 21
-63.87628
  0
LINE
  8
別途部材
  6
CONTINUOUS
 10
13.39106
 20
-64.87628
 11
14.39106
 21
-63.87628
  0
LINE
  8
別途部材
  6
CONTINUOUS
 10
15.39106
 20
-63.87628
 11
16.39106
 21
-64.87628
  0
LINE
  8
別途部材
  6
CONTINUOUS
 10
14.39106
 20
-63.87628
 11
15.39106
 21
-63.87628
  0
LINE
  8
別途部材
  6
CONTINUOUS
 10
17.39106
 20
-64.87628
 11
18.39106
 21
-63.87628
  0
LINE
  8
別途部材
  6
CONTINUOUS
 10
19.39106
 20
-63.87628
 11
20.39106
 21
-64.87628
  0
LINE
  8
別途部材
  6
CONTINUOUS
 10
18.39106
 20
-63.87628
 11
19.39106
 21
-63.87628
  0
LINE
  8
別途部材
  6
CONTINUOUS
 10
21.39106
 20
-64.87628
 11
22.39106
 21
-63.87628
  0
LINE
  8
別途部材
  6
CONTINUOUS
 10
23.39106
 20
-63.87628
 11
24.39106
 21
-64.87628
  0
LINE
  8
別途部材
  6
CONTINUOUS
 10
22.39106
 20
-63.87628
 11
23.39106
 21
-63.87628
  0
LINE
  8
別途部材
  6
CONTINUOUS
 10
25.39106
 20
-64.87628
 11
26.39106
 21
-63.87628
  0
LINE
  8
別途部材
  6
CONTINUOUS
 10
27.39106
 20
-63.87628
 11
28.39106
 21
-64.87628
  0
LINE
  8
別途部材
  6
CONTINUOUS
 10
26.39106
 20
-63.87628
 11
27.39106
 21
-63.87628
  0
LINE
  8
別途部材
  6
CONTINUOUS
 10
29.39106
 20
-64.87628
 11
30.39106
 21
-63.87628
  0
LINE
  8
別途部材
  6
CONTINUOUS
 10
31.39106
 20
-63.87628
 11
32.39106
 21
-64.87628
  0
LINE
  8
別途部材
  6
CONTINUOUS
 10
30.39106
 20
-63.87628
 11
31.39106
 21
-63.87628
  0
LINE
  8
別途部材
  6
CONTINUOUS
 10
33.39106
 20
-64.87628
 11
34.39106
 21
-63.87628
  0
LINE
  8
別途部材
  6
CONTINUOUS
 10
35.39106
 20
-63.87628
 11
36.39106
 21
-64.87628
  0
LINE
  8
別途部材
  6
CONTINUOUS
 10
34.39106
 20
-63.87628
 11
35.39106
 21
-63.87628
  0
LINE
  8
別途部材
  6
CONTINUOUS
 10
32.39106
 20
-64.87628
 11
33.39106
 21
-64.87628
  0
LINE
  8
別途部材
  6
CONTINUOUS
 10
28.39106
 20
-64.87628
 11
29.39106
 21
-64.87628
  0
LINE
  8
別途部材
  6
CONTINUOUS
 10
24.39106
 20
-64.87628
 11
25.39106
 21
-64.87628
  0
LINE
  8
別途部材
  6
CONTINUOUS
 10
20.39106
 20
-64.87628
 11
21.39106
 21
-64.87628
  0
LINE
  8
別途部材
  6
CONTINUOUS
 10
16.39106
 20
-64.87628
 11
17.39106
 21
-64.87628
  0
LINE
  8
別途部材
  6
CONTINUOUS
 10
12.39106
 20
-64.87628
 11
13.39106
 21
-64.87628
  0
LINE
  8
別途部材
  6
CONTINUOUS
 10
8.39106
 20
-64.87628
 11
9.39106
 21
-64.87628
  0
LINE
  8
別途部材
  6
CONTINUOUS
 10
36.39106
 20
-64.87628
 11
36.39106
 21
-70.209613
  0
LINE
  8
別途部材
  6
CONTINUOUS
 10
35.39106
 20
-63.87628
 11
35.39106
 21
-70.209613
  0
LINE
  8
別途部材
  6
CONTINUOUS
 10
33.39106
 20
-64.87628
 11
33.39106
 21
-70.209613
  0
LINE
  8
別途部材
  6
CONTINUOUS
 10
34.39106
 20
-63.87628
 11
34.39106
 21
-70.209613
  0
LINE
  8
別途部材
  6
CONTINUOUS
 10
31.39106
 20
-63.87628
 11
31.39106
 21
-70.209613
  0
LINE
  8
別途部材
  6
CONTINUOUS
 10
32.39106
 20
-64.87628
 11
32.39106
 21
-70.209613
  0
LINE
  8
別途部材
  6
CONTINUOUS
 10
30.39106
 20
-63.87628
 11
30.39106
 21
-70.209613
  0
LINE
  8
別途部材
  6
CONTINUOUS
 10
29.39106
 20
-64.87628
 11
29.39106
 21
-70.209613
  0
LINE
  8
別途部材
  6
CONTINUOUS
 10
27.39106
 20
-63.87628
 11
27.39106
 21
-70.209613
  0
LINE
  8
別途部材
  6
CONTINUOUS
 10
28.39106
 20
-64.87628
 11
28.39106
 21
-70.209613
  0
LINE
  8
別途部材
  6
CONTINUOUS
 10
25.39106
 20
-64.87628
 11
25.39106
 21
-70.209613
  0
LINE
  8
別途部材
  6
CONTINUOUS
 10
26.39106
 20
-63.87628
 11
26.39106
 21
-70.209613
  0
LINE
  8
別途部材
  6
CONTINUOUS
 10
24.39106
 20
-64.87628
 11
24.39106
 21
-70.209613
  0
LINE
  8
別途部材
  6
CONTINUOUS
 10
22.39106
 20
-63.87628
 11
22.39106
 21
-70.209613
  0
LINE
  8
別途部材
  6
CONTINUOUS
 10
23.39106
 20
-63.87628
 11
23.39106
 21
-70.209613
  0
LINE
  8
別途部材
  6
CONTINUOUS
 10
21.39106
 20
-64.87628
 11
21.39106
 21
-70.209613
  0
LINE
  8
別途部材
  6
CONTINUOUS
 10
20.39106
 20
-64.87628
 11
20.39106
 21
-70.209613
  0
LINE
  8
別途部材
  6
CONTINUOUS
 10
19.39106
 20
-63.87628
 11
19.39106
 21
-70.209613
  0
LINE
  8
別途部材
  6
CONTINUOUS
 10
18.39106
 20
-63.87628
 11
18.39106
 21
-70.209613
  0
LINE
  8
別途部材
  6
CONTINUOUS
 10
15.39106
 20
-63.87628
 11
15.39106
 21
-70.209613
  0
LINE
  8
別途部材
  6
CONTINUOUS
 10
13.39106
 20
-64.87628
 11
13.39106
 21
-70.209613
  0
LINE
  8
別途部材
  6
CONTINUOUS
 10
14.39106
 20
-63.87628
 11
14.39106
 21
-70.209613
  0
LINE
  8
別途部材
  6
CONTINUOUS
 10
16.39106
 20
-64.87628
 11
16.39106
 21
-70.209613
  0
LINE
  8
別途部材
  6
CONTINUOUS
 10
17.39106
 20
-64.87628
 11
17.39106
 21
-70.209613
  0
LINE
  8
別途部材
  6
CONTINUOUS
 10
12.39106
 20
-64.87628
 11
12.39106
 21
-70.209613
  0
LINE
  8
別途部材
  6
CONTINUOUS
 10
10.39106
 20
-63.87628
 11
10.39106
 21
-70.209613
  0
LINE
  8
別途部材
  6
CONTINUOUS
 10
11.39106
 20
-63.87628
 11
11.39106
 21
-70.209613
  0
LINE
  8
別途部材
  6
CONTINUOUS
 10
9.39106
 20
-64.87628
 11
9.39106
 21
-70.209613
  0
LINE
  8
別途部材
  6
CONTINUOUS
 10
7.39106
 20
-63.87628
 11
7.39106
 21
-70.209613
  0
LINE
  8
別途部材
  6
CONTINUOUS
 10
8.39106
 20
-64.87628
 11
8.39106
 21
-70.209613
  0
LINE
  8
別途部材
  6
CONTINUOUS
 10
6.39106
 20
-63.87628
 11
6.39106
 21
-70.209613
  0
LINE
  8
別途部材
  6
CONTINUOUS
 10
5.39106
 20
-64.87628
 11
5.39106
 21
-70.209613
  0
LINE
  8
別途部材
  6
CONTINUOUS
 10
3.39106
 20
-63.87628
 11
3.39106
 21
-70.209613
  0
LINE
  8
別途部材
  6
CONTINUOUS
 10
4.39106
 20
-64.87628
 11
4.39106
 21
-70.209613
  0
LINE
  8
別途部材
  6
CONTINUOUS
 10
0.39106
 20
-64.87628
 11
0.39106
 21
-70.209613
  0
LINE
  8
別途部材
  6
CONTINUOUS
 10
1.39106
 20
-64.87628
 11
1.39106
 21
-70.209613
  0
LINE
  8
別途部材
  6
CONTINUOUS
 10
2.39106
 20
-63.87628
 11
2.39106
 21
-70.209613
  0
LINE
  8
別途部材
  6
CONTINUOUS
 10
-0.60894
 20
-63.87628
 11
-0.60894
 21
-70.209613
  0
LINE
  8
別途部材
  6
CONTINUOUS
 10
-1.60894
 20
-63.87628
 11
-1.60894
 21
-70.209613
  0
LINE
  8
別途部材
  6
CONTINUOUS
 10
-2.60894
 20
-64.87628
 11
-2.60894
 21
-70.209613
  0
LINE
  8
別途部材
  6
CONTINUOUS
 10
-4.60894
 20
-63.87628
 11
-4.60894
 21
-70.209613
  0
LINE
  8
別途部材
  6
CONTINUOUS
 10
-8.60894
 20
-63.87628
 11
-8.60894
 21
-70.209613
  0
LINE
  8
別途部材
  6
CONTINUOUS
 10
-7.60894
 20
-64.87628
 11
-7.60894
 21
-70.209613
  0
LINE
  8
別途部材
  6
CONTINUOUS
 10
-6.60894
 20
-64.87628
 11
-6.60894
 21
-70.209613
  0
LINE
  8
別途部材
  6
CONTINUOUS
 10
-5.60894
 20
-63.87628
 11
-5.60894
 21
-70.209613
  0
LINE
  8
別途部材
  6
CONTINUOUS
 10
-3.60894
 20
-64.87628
 11
-3.60894
 21
-70.209613
  0
LINE
  8
別途部材
  6
CONTINUOUS
 10
-10.60894
 20
-64.87628
 11
-10.60894
 21
-70.209613
  0
LINE
  8
別途部材
  6
CONTINUOUS
 10
-9.60894
 20
-63.87628
 11
-9.60894
 21
-70.209613
  0
LINE
  8
別途部材
  6
CONTINUOUS
 10
-11.60894
 20
-64.87628
 11
-11.60894
 21
-70.209613
  0
LINE
  8
別途部材
  6
CONTINUOUS
 10
-12.60894
 20
-63.87628
 11
-12.60894
 21
-70.209613
  0
LINE
  8
別途部材
  6
CONTINUOUS
 10
-16.60894
 20
-63.87628
 11
-16.60894
 21
-70.209613
  0
LINE
  8
別途部材
  6
CONTINUOUS
 10
-17.60894
 20
-63.87628
 11
-17.60894
 21
-70.209613
  0
LINE
  8
別途部材
  6
CONTINUOUS
 10
-15.60894
 20
-64.87628
 11
-15.60894
 21
-70.209613
  0
LINE
  8
別途部材
  6
CONTINUOUS
 10
-14.60894
 20
-64.87628
 11
-14.60894
 21
-70.209613
  0
LINE
  8
別途部材
  6
CONTINUOUS
 10
-13.60894
 20
-63.87628
 11
-13.60894
 21
-70.209613
  0
LINE
  8
別途部材
  6
CONTINUOUS
 10
-18.60894
 20
-64.87628
 11
-18.60894
 21
-70.209613
  0
LINE
  8
別途部材
  6
CONTINUOUS
 10
-20.60894
 20
-63.87628
 11
-20.60894
 21
-70.209613
  0
LINE
  8
別途部材
  6
CONTINUOUS
 10
-21.60894
 20
-63.87628
 11
-21.60894
 21
-70.209613
  0
LINE
  8
別途部材
  6
CONTINUOUS
 10
-22.60894
 20
-64.87628
 11
-22.60894
 21
-70.209613
  0
LINE
  8
別途部材
  6
CONTINUOUS
 10
-23.60894
 20
-64.87628
 11
-23.60894
 21
-70.209613
  0
LINE
  8
別途部材
  6
CONTINUOUS
 10
-24.60894
 20
-63.87628
 11
-24.60894
 21
-70.209613
  0
LINE
  8
別途部材
  6
CONTINUOUS
 10
-19.60894
 20
-64.87628
 11
-19.60894
 21
-70.209613
  0
LINE
  8
別途部材
  6
CONTINUOUS
 10
-25.60894
 20
-63.87628
 11
-25.60894
 21
-70.209613
  0
LINE
  8
別途部材
  6
CONTINUOUS
 10
-26.60894
 20
-64.87628
 11
-26.60894
 21
-70.209613
  0
LINE
  8
別途部材
  6
CONTINUOUS
 10
-27.60894
 20
-64.87628
 11
-27.60894
 21
-70.209613
  0
LINE
  8
別途部材
  6
CONTINUOUS
 10
-29.60894
 20
-63.87628
 11
-29.60894
 21
-70.209613
  0
LINE
  8
別途部材
  6
CONTINUOUS
 10
-31.60894
 20
-64.87628
 11
-31.60894
 21
-70.209613
  0
LINE
  8
別途部材
  6
CONTINUOUS
 10
-32.60894
 20
-63.87628
 11
-32.60894
 21
-70.209613
  0
LINE
  8
別途部材
  6
CONTINUOUS
 10
-34.60894
 20
-64.87628
 11
-34.60894
 21
-70.209613
  0
LINE
  8
別途部材
  6
CONTINUOUS
 10
-35.60894
 20
-64.87628
 11
-35.60894
 21
-70.209613
  0
LINE
  8
別途部材
  6
CONTINUOUS
 10
-36.60894
 20
-63.87628
 11
-36.60894
 21
-70.209613
  0
LINE
  8
別途部材
  6
CONTINUOUS
 10
-33.60894
 20
-63.87628
 11
-33.60894
 21
-70.209613
  0
LINE
  8
別途部材
  6
CONTINUOUS
 10
-30.60894
 20
-64.87628
 11
-30.60894
 21
-70.209613
  0
LINE
  8
別途部材
  6
CONTINUOUS
 10
-28.60894
 20
-63.87628
 11
-28.60894
 21
-70.209613
  0
ENDBLK
  0
BLOCK
  2
*GRP_0019
 70
    65
 10
0.0
 20
0.0
  0
LINE
  8
補助線
  6
BYBLOCK
 62
    64
 10
-117.034477
 20
-75.132365
 11
-117.183403
 21
-75.20719
  0
LINE
  8
補助線
  6
BYBLOCK
 62
    64
 10
-117.146353
 20
-75.095313
 11
-117.071527
 21
-75.24424
  0
LINE
  8
補助線
  6
BYBLOCK
 62
    64
 10
-107.115997
 20
-70.149007
 11
-107.264925
 21
-70.223833
  0
LINE
  8
補助線
  6
BYBLOCK
 62
    64
 10
-107.227875
 20
-70.111955
 11
-107.15305
 21
-70.260883
  0
LINE
  8
補助線
  6
BYBLOCK
 62
    64
 10
-97.346447
 20
-65.240475
 11
-97.19752
 21
-65.16565
  0
LINE
  8
補助線
  6
BYBLOCK
 62
    64
 10
-97.309397
 20
-65.128597
 11
-97.234573
 21
-65.277525
  0
LINE
  8
型材断面
  6
CONTINUOUS
 10
-117.780918
 20
-74.5748
 11
-118.00322
 21
-75.246053
  0
LINE
  8
型材断面
  6
CONTINUOUS
 10
-118.00322
 20
-75.246053
 11
-117.703917
 21
-75.841758
  0
LINE
  8
型材断面
  6
CONTINUOUS
 10
-117.703917
 20
-75.841758
 11
-117.032665
 21
-76.06406
  0
LINE
  8
型材断面
  6
CONTINUOUS
 10
-97.34826
 20
-64.308782
 11
-96.677005
 21
-64.531085
  0
LINE
  8
型材断面
  6
CONTINUOUS
 10
-96.677005
 20
-64.531085
 11
-96.377703
 21
-65.12679
  0
LINE
  8
型材断面
  6
CONTINUOUS
 10
-96.377703
 20
-65.12679
 11
-96.600007
 21
-65.798042
  0
LINE
  8
型材断面
  6
CONTINUOUS
 10
-117.780918
 20
-74.5748
 11
-97.34826
 21
-64.308782
  0
LINE
  8
型材断面
  6
CONTINUOUS
 10
-117.032665
 20
-76.06406
 11
-96.600007
 21
-65.798042
  0
CIRCLE
  8
ボルト／ビス
  6
CONTINUOUS
 10
-117.10894
 20
-75.169777
 40
0.250185
  0
CIRCLE
  8
ボルト／ビス
  6
CONTINUOUS
 10
-117.10894
 20
-75.169777
 40
0.301025
  0
LINE
  8
ボルト／ビス
  6
CONTINUOUS
 62
    64
 10
-117.358705
 20
-75.155275
 11
-117.22126
 21
-74.946225
  0
LINE
  8
ボルト／ビス
  6
CONTINUOUS
 62
    64
 10
-116.971495
 20
-74.960728
 11
-117.22126
 21
-74.946225
  0
LINE
  8
ボルト／ビス
  6
CONTINUOUS
 62
    64
 10
-117.246385
 20
-75.378827
 11
-116.99662
 21
-75.39333
  0
LINE
  8
ボルト／ビス
  6
CONTINUOUS
 62
    64
 10
-116.859175
 20
-75.18428
 11
-116.99662
 21
-75.39333
  0
LINE
  8
ボルト／ビス
  6
CONTINUOUS
 62
    64
 10
-117.358705
 20
-75.155275
 11
-117.246385
 21
-75.378827
  0
LINE
  8
ボルト／ビス
  6
CONTINUOUS
 62
    64
 10
-116.971495
 20
-74.960728
 11
-116.859175
 21
-75.18428
  0
CIRCLE
  8
ボルト／ビス
  6
CONTINUOUS
 62
    64
 10
-117.10894
 20
-75.169777
 40
0.216668
  0
CIRCLE
  8
ボルト／ビス
  6
CONTINUOUS
 10
-107.190463
 20
-70.18642
 40
0.250185
  0
CIRCLE
  8
ボルト／ビス
  6
CONTINUOUS
 10
-107.190463
 20
-70.18642
 40
0.301025
  0
LINE
  8
ボルト／ビス
  6
CONTINUOUS
 62
    64
 10
-107.440228
 20
-70.171915
 11
-107.302783
 21
-69.962865
  0
LINE
  8
ボルト／ビス
  6
CONTINUOUS
 62
    64
 10
-107.053017
 20
-69.977368
 11
-107.302783
 21
-69.962865
  0
LINE
  8
ボルト／ビス
  6
CONTINUOUS
 62
    64
 10
-107.327908
 20
-70.39547
 11
-107.07814
 21
-70.409975
  0
LINE
  8
ボルト／ビス
  6
CONTINUOUS
 62
    64
 10
-106.940697
 20
-70.200925
 11
-107.07814
 21
-70.409975
  0
LINE
  8
ボルト／ビス
  6
CONTINUOUS
 62
    64
 10
-107.440228
 20
-70.171915
 11
-107.327908
 21
-70.39547
  0
LINE
  8
ボルト／ビス
  6
CONTINUOUS
 62
    64
 10
-107.053017
 20
-69.977368
 11
-106.940697
 21
-70.200925
  0
CIRCLE
  8
ボルト／ビス
  6
CONTINUOUS
 62
    64
 10
-107.190463
 20
-70.18642
 40
0.216668
  0
CIRCLE
  8
ボルト／ビス
  6
CONTINUOUS
 10
-97.271985
 20
-65.203063
 40
0.250185
  0
CIRCLE
  8
ボルト／ビス
  6
CONTINUOUS
 10
-97.271985
 20
-65.203063
 40
0.301025
  0
LINE
  8
ボルト／ビス
  6
CONTINUOUS
 62
    64
 10
-97.13454
 20
-64.994013
 11
-97.384305
 21
-64.97951
  0
LINE
  8
ボルト／ビス
  6
CONTINUOUS
 62
    64
 10
-97.52175
 20
-65.18856
 11
-97.384305
 21
-64.97951
  0
LINE
  8
ボルト／ビス
  6
CONTINUOUS
 62
    64
 10
-97.02222
 20
-65.217568
 11
-97.159663
 21
-65.426615
  0
LINE
  8
ボルト／ビス
  6
CONTINUOUS
 62
    64
 10
-97.40943
 20
-65.412112
 11
-97.159663
 21
-65.426615
  0
LINE
  8
ボルト／ビス
  6
CONTINUOUS
 62
    64
 10
-97.13454
 20
-64.994013
 11
-97.02222
 21
-65.217568
  0
LINE
  8
ボルト／ビス
  6
CONTINUOUS
 62
    64
 10
-97.52175
 20
-65.18856
 11
-97.40943
 21
-65.412112
  0
CIRCLE
  8
ボルト／ビス
  6
CONTINUOUS
 62
    64
 10
-97.271985
 20
-65.203063
 40
0.216668
  0
ENDBLK
  0
BLOCK
  2
*GRP_0020
 70
    65
 10
0.0
 20
0.0
  0
LINE
  8
補助線
  6
BYBLOCK
 62
    64
 10
-97.346447
 20
-75.132365
 11
-97.197523
 21
-75.20719
  0
LINE
  8
補助線
  6
BYBLOCK
 62
    64
 10
-97.234573
 20
-75.095313
 11
-97.309397
 21
-75.24424
  0
LINE
  8
補助線
  6
BYBLOCK
 62
    64
 10
-107.264927
 20
-70.149007
 11
-107.116
 21
-70.223833
  0
LINE
  8
補助線
  6
BYBLOCK
 62
    64
 10
-107.15305
 20
-70.111955
 11
-107.227875
 21
-70.260883
  0
LINE
  8
補助線
  6
BYBLOCK
 62
    64
 10
-117.034477
 20
-65.240475
 11
-117.183405
 21
-65.16565
  0
LINE
  8
補助線
  6
BYBLOCK
 62
    64
 10
-117.071527
 20
-65.128597
 11
-117.146353
 21
-65.277525
  0
LINE
  8
型材断面
  6
CONTINUOUS
 10
-96.600007
 20
-74.5748
 11
-96.377705
 21
-75.246053
  0
LINE
  8
型材断面
  6
CONTINUOUS
 10
-96.377705
 20
-75.246053
 11
-96.677008
 21
-75.841758
  0
LINE
  8
型材断面
  6
CONTINUOUS
 10
-96.677008
 20
-75.841758
 11
-97.34826
 21
-76.06406
  0
LINE
  8
型材断面
  6
CONTINUOUS
 10
-117.032665
 20
-64.308782
 11
-117.70392
 21
-64.531085
  0
LINE
  8
型材断面
  6
CONTINUOUS
 10
-117.70392
 20
-64.531085
 11
-118.003222
 21
-65.12679
  0
LINE
  8
型材断面
  6
CONTINUOUS
 10
-118.003222
 20
-65.12679
 11
-117.780918
 21
-65.798042
  0
LINE
  8
型材断面
  6
CONTINUOUS
 10
-96.600007
 20
-74.5748
 11
-117.032665
 21
-64.308782
  0
LINE
  8
型材断面
  6
CONTINUOUS
 10
-97.34826
 20
-76.06406
 11
-117.780918
 21
-65.798042
  0
CIRCLE
  8
ボルト／ビス
  6
CONTINUOUS
 10
-97.271985
 20
-75.169777
 40
0.250185
  0
CIRCLE
  8
ボルト／ビス
  6
CONTINUOUS
 10
-97.271985
 20
-75.169777
 40
0.301025
  0
LINE
  8
ボルト／ビス
  6
CONTINUOUS
 62
    64
 10
-97.02222
 20
-75.155275
 11
-97.159665
 21
-74.946225
  0
LINE
  8
ボルト／ビス
  6
CONTINUOUS
 62
    64
 10
-97.40943
 20
-74.960728
 11
-97.159665
 21
-74.946225
  0
LINE
  8
ボルト／ビス
  6
CONTINUOUS
 62
    64
 10
-97.13454
 20
-75.378827
 11
-97.384305
 21
-75.39333
  0
LINE
  8
ボルト／ビス
  6
CONTINUOUS
 62
    64
 10
-97.52175
 20
-75.18428
 11
-97.384305
 21
-75.39333
  0
LINE
  8
ボルト／ビス
  6
CONTINUOUS
 62
    64
 10
-97.02222
 20
-75.155275
 11
-97.13454
 21
-75.378827
  0
LINE
  8
ボルト／ビス
  6
CONTINUOUS
 62
    64
 10
-97.40943
 20
-74.960728
 11
-97.52175
 21
-75.18428
  0
CIRCLE
  8
ボルト／ビス
  6
CONTINUOUS
 62
    64
 10
-97.271985
 20
-75.169777
 40
0.216668
  0
CIRCLE
  8
ボルト／ビス
  6
CONTINUOUS
 10
-107.190463
 20
-70.18642
 40
0.250185
  0
CIRCLE
  8
ボルト／ビス
  6
CONTINUOUS
 10
-107.190463
 20
-70.18642
 40
0.301025
  0
LINE
  8
ボルト／ビス
  6
CONTINUOUS
 62
    64
 10
-106.940697
 20
-70.171915
 11
-107.078143
 21
-69.962865
  0
LINE
  8
ボルト／ビス
  6
CONTINUOUS
 62
    64
 10
-107.327908
 20
-69.977368
 11
-107.078143
 21
-69.962865
  0
LINE
  8
ボルト／ビス
  6
CONTINUOUS
 62
    64
 10
-107.053017
 20
-70.39547
 11
-107.302785
 21
-70.409975
  0
LINE
  8
ボルト／ビス
  6
CONTINUOUS
 62
    64
 10
-107.440228
 20
-70.200925
 11
-107.302785
 21
-70.409975
  0
LINE
  8
ボルト／ビス
  6
CONTINUOUS
 62
    64
 10
-106.940697
 20
-70.171915
 11
-107.053017
 21
-70.39547
  0
LINE
  8
ボルト／ビス
  6
CONTINUOUS
 62
    64
 10
-107.327908
 20
-69.977368
 11
-107.440228
 21
-70.200925
  0
CIRCLE
  8
ボルト／ビス
  6
CONTINUOUS
 62
    64
 10
-107.190463
 20
-70.18642
 40
0.216668
  0
CIRCLE
  8
ボルト／ビス
  6
CONTINUOUS
 10
-117.10894
 20
-65.203063
 40
0.250185
  0
CIRCLE
  8
ボルト／ビス
  6
CONTINUOUS
 10
-117.10894
 20
-65.203063
 40
0.301025
  0
LINE
  8
ボルト／ビス
  6
CONTINUOUS
 62
    64
 10
-117.246385
 20
-64.994013
 11
-116.99662
 21
-64.97951
  0
LINE
  8
ボルト／ビス
  6
CONTINUOUS
 62
    64
 10
-116.859175
 20
-65.18856
 11
-116.99662
 21
-64.97951
  0
LINE
  8
ボルト／ビス
  6
CONTINUOUS
 62
    64
 10
-117.358705
 20
-65.217568
 11
-117.221263
 21
-65.426615
  0
LINE
  8
ボルト／ビス
  6
CONTINUOUS
 62
    64
 10
-116.971495
 20
-65.412112
 11
-117.221263
 21
-65.426615
  0
LINE
  8
ボルト／ビス
  6
CONTINUOUS
 62
    64
 10
-117.246385
 20
-64.994013
 11
-117.358705
 21
-65.217568
  0
LINE
  8
ボルト／ビス
  6
CONTINUOUS
 62
    64
 10
-116.859175
 20
-65.18856
 11
-116.971495
 21
-65.412112
  0
CIRCLE
  8
ボルト／ビス
  6
CONTINUOUS
 62
    64
 10
-117.10894
 20
-65.203063
 40
0.216668
  0
ENDBLK
  0
BLOCK
  2
*GRP_0021
 70
    65
 10
0.0
 20
0.0
  0
LINE
  8
補助線
  6
BYBLOCK
 62
    64
 10
42.816597
 20
-75.132365
 11
42.965523
 21
-75.20719
  0
LINE
  8
補助線
  6
BYBLOCK
 62
    64
 10
42.928472
 20
-75.095313
 11
42.853648
 21
-75.24424
  0
LINE
  8
補助線
  6
BYBLOCK
 62
    64
 10
32.898118
 20
-70.149007
 11
33.047045
 21
-70.223833
  0
LINE
  8
補助線
  6
BYBLOCK
 62
    64
 10
33.009995
 20
-70.111955
 11
32.93517
 21
-70.260883
  0
LINE
  8
補助線
  6
BYBLOCK
 62
    64
 10
23.128567
 20
-65.240475
 11
22.97964
 21
-65.16565
  0
LINE
  8
補助線
  6
BYBLOCK
 62
    64
 10
23.091518
 20
-65.128597
 11
23.016692
 21
-65.277525
  0
LINE
  8
型材断面
  6
CONTINUOUS
 10
43.563038
 20
-74.5748
 11
43.78534
 21
-75.246053
  0
LINE
  8
型材断面
  6
CONTINUOUS
 10
43.78534
 20
-75.246053
 11
43.486038
 21
-75.841758
  0
LINE
  8
型材断面
  6
CONTINUOUS
 10
43.486038
 20
-75.841758
 11
42.814785
 21
-76.06406
  0
LINE
  8
型材断面
  6
CONTINUOUS
 10
23.13038
 20
-64.308782
 11
22.459125
 21
-64.531085
  0
LINE
  8
型材断面
  6
CONTINUOUS
 10
22.459125
 20
-64.531085
 11
22.159822
 21
-65.12679
  0
LINE
  8
型材断面
  6
CONTINUOUS
 10
22.159822
 20
-65.12679
 11
22.382128
 21
-65.798042
  0
LINE
  8
型材断面
  6
CONTINUOUS
 10
43.563038
 20
-74.5748
 11
23.13038
 21
-64.308782
  0
LINE
  8
型材断面
  6
CONTINUOUS
 10
42.814785
 20
-76.06406
 11
22.382128
 21
-65.798042
  0
CIRCLE
  8
ボルト／ビス
  6
CONTINUOUS
 10
42.89106
 20
-75.169777
 40
0.250185
  0
CIRCLE
  8
ボルト／ビス
  6
CONTINUOUS
 10
42.89106
 20
-75.169777
 40
0.301025
  0
LINE
  8
ボルト／ビス
  6
CONTINUOUS
 62
    64
 10
43.140825
 20
-75.155275
 11
43.00338
 21
-74.946225
  0
LINE
  8
ボルト／ビス
  6
CONTINUOUS
 62
    64
 10
42.753615
 20
-74.960728
 11
43.00338
 21
-74.946225
  0
LINE
  8
ボルト／ビス
  6
CONTINUOUS
 62
    64
 10
43.028505
 20
-75.378827
 11
42.77874
 21
-75.39333
  0
LINE
  8
ボルト／ビス
  6
CONTINUOUS
 62
    64
 10
42.641295
 20
-75.18428
 11
42.77874
 21
-75.39333
  0
LINE
  8
ボルト／ビス
  6
CONTINUOUS
 62
    64
 10
43.140825
 20
-75.155275
 11
43.028505
 21
-75.378827
  0
LINE
  8
ボルト／ビス
  6
CONTINUOUS
 62
    64
 10
42.753615
 20
-74.960728
 11
42.641295
 21
-75.18428
  0
CIRCLE
  8
ボルト／ビス
  6
CONTINUOUS
 62
    64
 10
42.89106
 20
-75.169777
 40
0.216668
  0
CIRCLE
  8
ボルト／ビス
  6
CONTINUOUS
 10
32.972582
 20
-70.18642
 40
0.250185
  0
CIRCLE
  8
ボルト／ビス
  6
CONTINUOUS
 10
32.972582
 20
-70.18642
 40
0.301025
  0
LINE
  8
ボルト／ビス
  6
CONTINUOUS
 62
    64
 10
33.222348
 20
-70.171915
 11
33.084902
 21
-69.962865
  0
LINE
  8
ボルト／ビス
  6
CONTINUOUS
 62
    64
 10
32.835138
 20
-69.977368
 11
33.084902
 21
-69.962865
  0
LINE
  8
ボルト／ビス
  6
CONTINUOUS
 62
    64
 10
33.110028
 20
-70.39547
 11
32.86026
 21
-70.409975
  0
LINE
  8
ボルト／ビス
  6
CONTINUOUS
 62
    64
 10
32.722818
 20
-70.200925
 11
32.86026
 21
-70.409975
  0
LINE
  8
ボルト／ビス
  6
CONTINUOUS
 62
    64
 10
33.222348
 20
-70.171915
 11
33.110028
 21
-70.39547
  0
LINE
  8
ボルト／ビス
  6
CONTINUOUS
 62
    64
 10
32.835138
 20
-69.977368
 11
32.722818
 21
-70.200925
  0
CIRCLE
  8
ボルト／ビス
  6
CONTINUOUS
 62
    64
 10
32.972582
 20
-70.18642
 40
0.216668
  0
CIRCLE
  8
ボルト／ビス
  6
CONTINUOUS
 10
23.054105
 20
-65.203063
 40
0.250185
  0
CIRCLE
  8
ボルト／ビス
  6
CONTINUOUS
 10
23.054105
 20
-65.203063
 40
0.301025
  0
LINE
  8
ボルト／ビス
  6
CONTINUOUS
 62
    64
 10
22.91666
 20
-64.994013
 11
23.166425
 21
-64.97951
  0
LINE
  8
ボルト／ビス
  6
CONTINUOUS
 62
    64
 10
23.30387
 20
-65.18856
 11
23.166425
 21
-64.97951
  0
LINE
  8
ボルト／ビス
  6
CONTINUOUS
 62
    64
 10
22.80434
 20
-65.217568
 11
22.941783
 21
-65.426615
  0
LINE
  8
ボルト／ビス
  6
CONTINUOUS
 62
    64
 10
23.19155
 20
-65.412112
 11
22.941783
 21
-65.426615
  0
LINE
  8
ボルト／ビス
  6
CONTINUOUS
 62
    64
 10
22.91666
 20
-64.994013
 11
22.80434
 21
-65.217568
  0
LINE
  8
ボルト／ビス
  6
CONTINUOUS
 62
    64
 10
23.30387
 20
-65.18856
 11
23.19155
 21
-65.412112
  0
CIRCLE
  8
ボルト／ビス
  6
CONTINUOUS
 62
    64
 10
23.054105
 20
-65.203063
 40
0.216668
  0
ENDBLK
  0
BLOCK
  2
*GRP_0022
 70
    65
 10
0.0
 20
0.0
  0
LINE
  8
補助線
  6
BYBLOCK
 62
    64
 10
23.128567
 20
-75.132365
 11
22.979643
 21
-75.20719
  0
LINE
  8
補助線
  6
BYBLOCK
 62
    64
 10
23.016692
 20
-75.095313
 11
23.091518
 21
-75.24424
  0
LINE
  8
補助線
  6
BYBLOCK
 62
    64
 10
33.047048
 20
-70.149007
 11
32.89812
 21
-70.223833
  0
LINE
  8
補助線
  6
BYBLOCK
 62
    64
 10
32.93517
 20
-70.111955
 11
33.009995
 21
-70.260883
  0
LINE
  8
補助線
  6
BYBLOCK
 62
    64
 10
42.816597
 20
-65.240475
 11
42.965525
 21
-65.16565
  0
LINE
  8
補助線
  6
BYBLOCK
 62
    64
 10
42.853648
 20
-65.128597
 11
42.928472
 21
-65.277525
  0
LINE
  8
型材断面
  6
CONTINUOUS
 10
22.382128
 20
-74.5748
 11
22.159825
 21
-75.246053
  0
LINE
  8
型材断面
  6
CONTINUOUS
 10
22.159825
 20
-75.246053
 11
22.459128
 21
-75.841758
  0
LINE
  8
型材断面
  6
CONTINUOUS
 10
22.459128
 20
-75.841758
 11
23.13038
 21
-76.06406
  0
LINE
  8
型材断面
  6
CONTINUOUS
 10
42.814785
 20
-64.308782
 11
43.48604
 21
-64.531085
  0
LINE
  8
型材断面
  6
CONTINUOUS
 10
43.48604
 20
-64.531085
 11
43.785342
 21
-65.12679
  0
LINE
  8
型材断面
  6
CONTINUOUS
 10
43.785342
 20
-65.12679
 11
43.563038
 21
-65.798042
  0
LINE
  8
型材断面
  6
CONTINUOUS
 10
22.382128
 20
-74.5748
 11
42.814785
 21
-64.308782
  0
LINE
  8
型材断面
  6
CONTINUOUS
 10
23.13038
 20
-76.06406
 11
43.563038
 21
-65.798042
  0
CIRCLE
  8
ボルト／ビス
  6
CONTINUOUS
 10
23.054105
 20
-75.169777
 40
0.250185
  0
CIRCLE
  8
ボルト／ビス
  6
CONTINUOUS
 10
23.054105
 20
-75.169777
 40
0.301025
  0
LINE
  8
ボルト／ビス
  6
CONTINUOUS
 62
    64
 10
22.80434
 20
-75.155275
 11
22.941785
 21
-74.946225
  0
LINE
  8
ボルト／ビス
  6
CONTINUOUS
 62
    64
 10
23.19155
 20
-74.960728
 11
22.941785
 21
-74.946225
  0
LINE
  8
ボルト／ビス
  6
CONTINUOUS
 62
    64
 10
22.91666
 20
-75.378827
 11
23.166425
 21
-75.39333
  0
LINE
  8
ボルト／ビス
  6
CONTINUOUS
 62
    64
 10
23.30387
 20
-75.18428
 11
23.166425
 21
-75.39333
  0
LINE
  8
ボルト／ビス
  6
CONTINUOUS
 62
    64
 10
22.80434
 20
-75.155275
 11
22.91666
 21
-75.378827
  0
LINE
  8
ボルト／ビス
  6
CONTINUOUS
 62
    64
 10
23.19155
 20
-74.960728
 11
23.30387
 21
-75.18428
  0
CIRCLE
  8
ボルト／ビス
  6
CONTINUOUS
 62
    64
 10
23.054105
 20
-75.169777
 40
0.216668
  0
CIRCLE
  8
ボルト／ビス
  6
CONTINUOUS
 10
32.972582
 20
-70.18642
 40
0.250185
  0
CIRCLE
  8
ボルト／ビス
  6
CONTINUOUS
 10
32.972582
 20
-70.18642
 40
0.301025
  0
LINE
  8
ボルト／ビス
  6
CONTINUOUS
 62
    64
 10
32.722818
 20
-70.171915
 11
32.860262
 21
-69.962865
  0
LINE
  8
ボルト／ビス
  6
CONTINUOUS
 62
    64
 10
33.110028
 20
-69.977368
 11
32.860262
 21
-69.962865
  0
LINE
  8
ボルト／ビス
  6
CONTINUOUS
 62
    64
 10
32.835138
 20
-70.39547
 11
33.084905
 21
-70.409975
  0
LINE
  8
ボルト／ビス
  6
CONTINUOUS
 62
    64
 10
33.222348
 20
-70.200925
 11
33.084905
 21
-70.409975
  0
LINE
  8
ボルト／ビス
  6
CONTINUOUS
 62
    64
 10
32.722818
 20
-70.171915
 11
32.835138
 21
-70.39547
  0
LINE
  8
ボルト／ビス
  6
CONTINUOUS
 62
    64
 10
33.110028
 20
-69.977368
 11
33.222348
 21
-70.200925
  0
CIRCLE
  8
ボルト／ビス
  6
CONTINUOUS
 62
    64
 10
32.972582
 20
-70.18642
 40
0.216668
  0
CIRCLE
  8
ボルト／ビス
  6
CONTINUOUS
 10
42.89106
 20
-65.203063
 40
0.250185
  0
CIRCLE
  8
ボルト／ビス
  6
CONTINUOUS
 10
42.89106
 20
-65.203063
 40
0.301025
  0
LINE
  8
ボルト／ビス
  6
CONTINUOUS
 62
    64
 10
43.028505
 20
-64.994013
 11
42.77874
 21
-64.97951
  0
LINE
  8
ボルト／ビス
  6
CONTINUOUS
 62
    64
 10
42.641295
 20
-65.18856
 11
42.77874
 21
-64.97951
  0
LINE
  8
ボルト／ビス
  6
CONTINUOUS
 62
    64
 10
43.140825
 20
-65.217568
 11
43.003383
 21
-65.426615
  0
LINE
  8
ボルト／ビス
  6
CONTINUOUS
 62
    64
 10
42.753615
 20
-65.412112
 11
43.003383
 21
-65.426615
  0
LINE
  8
ボルト／ビス
  6
CONTINUOUS
 62
    64
 10
43.028505
 20
-64.994013
 11
43.140825
 21
-65.217568
  0
LINE
  8
ボルト／ビス
  6
CONTINUOUS
 62
    64
 10
42.641295
 20
-65.18856
 11
42.753615
 21
-65.412112
  0
CIRCLE
  8
ボルト／ビス
  6
CONTINUOUS
 62
    64
 10
42.89106
 20
-65.203063
 40
0.216668
  0
ENDBLK
  0
BLOCK
  2
*DIM_0023
 70
    65
 10
0.0
 20
0.0
  0
LINE
  8
寸法
  6
BYBLOCK
 62
     0
 10
-123.442275
 20
39.4807
 11
-136.735113
 21
39.4807
  0
LINE
  8
寸法
  6
BYBLOCK
 62
     0
 10
-123.442275
 20
26.147365
 11
-136.735113
 21
26.147365
  0
LINE
  8
寸法
  6
BYBLOCK
 62
     0
 10
-136.735113
 20
39.4807
 11
-136.735113
 21
26.147365
  0
POINT
  8
寸法
 62
     0
 10
-136.735113
 20
39.4807
  0
POINT
  8
寸法
 62
     0
 10
-136.735113
 20
26.147365
  0
TEXT
  7
TextStyle03
  8
寸法
  6
CONTINUOUS
 62
     0
 10
-137.05
 20
30.3625
  1
400
 40
3.0
 50
90.0
 72
     5
 11
-137.05
 21
35.2375
  0
ENDBLK
  0
BLOCK
  2
*DIM_0024
 70
    65
 10
0.0
 20
0.0
  0
LINE
  8
寸法
  6
BYBLOCK
 62
     0
 10
-112.10894
 20
45.814033
 11
-112.10894
 21
74.922105
  0
LINE
  8
寸法
  6
BYBLOCK
 62
     0
 10
-87.10894
 20
45.814033
 11
-87.10894
 21
74.922105
  0
LINE
  8
寸法
  6
BYBLOCK
 62
     0
 10
-112.10894
 20
74.922105
 11
-87.10894
 21
74.922105
  0
POINT
  8
寸法
 62
     0
 10
-112.10894
 20
74.922105
  0
POINT
  8
寸法
 62
     0
 10
-87.10894
 20
74.922105
  0
TEXT
  7
TextStyle03
  8
寸法
  6
CONTINUOUS
 62
     0
 10
-102.0625
 20
75.3
  1
750
 40
3.0
 72
     5
 11
-97.1875
 21
75.3
  0
ENDBLK
  0
BLOCK
  2
*DIM_0025
 70
    65
 10
0.0
 20
0.0
  0
LINE
  8
寸法
  6
BYBLOCK
 62
     0
 10
-62.10894
 20
45.814033
 11
-62.10894
 21
74.922105
  0
LINE
  8
寸法
  6
BYBLOCK
 62
     0
 10
-87.10894
 20
74.922105
 11
-62.10894
 21
74.922105
  0
POINT
  8
寸法
 62
     0
 10
-62.10894
 20
74.922105
  0
TEXT
  7
TextStyle03
  8
寸法
  6
CONTINUOUS
 62
     0
 10
-77.0625
 20
75.3
  1
750
 40
3.0
 72
     5
 11
-72.1875
 21
75.3
  0
ENDBLK
  0
BLOCK
  2
*DIM_0026
 70
    65
 10
0.0
 20
0.0
  0
LINE
  8
寸法
  6
BYBLOCK
 62
     0
 10
-37.10894
 20
45.814033
 11
-37.10894
 21
74.922105
  0
LINE
  8
寸法
  6
BYBLOCK
 62
     0
 10
-62.10894
 20
74.922105
 11
-37.10894
 21
74.922105
  0
POINT
  8
寸法
 62
     0
 10
-37.10894
 20
74.922105
  0
TEXT
  7
TextStyle03
  8
寸法
  6
CONTINUOUS
 62
     0
 10
-52.0625
 20
75.3
  1
750
 40
3.0
 72
     5
 11
-47.1875
 21
75.3
  0
ENDBLK
  0
BLOCK
  2
*DIM_0027
 70
    65
 10
0.0
 20
0.0
  0
LINE
  8
寸法
  6
BYBLOCK
 62
     0
 10
-12.10894
 20
45.814033
 11
-12.10894
 21
74.922105
  0
LINE
  8
寸法
  6
BYBLOCK
 62
     0
 10
-37.10894
 20
74.922105
 11
-12.10894
 21
74.922105
  0
POINT
  8
寸法
 62
     0
 10
-12.10894
 20
74.922105
  0
TEXT
  7
TextStyle03
  8
寸法
  6
CONTINUOUS
 62
     0
 10
-27.0625
 20
75.3
  1
750
 40
3.0
 72
     5
 11
-22.1875
 21
75.3
  0
ENDBLK
  0
BLOCK
  2
*DIM_0028
 70
    65
 10
0.0
 20
0.0
  0
LINE
  8
寸法
  6
BYBLOCK
 62
     0
 10
12.89106
 20
45.814033
 11
12.89106
 21
74.922105
  0
LINE
  8
寸法
  6
BYBLOCK
 62
     0
 10
-12.10894
 20
74.922105
 11
12.89106
 21
74.922105
  0
POINT
  8
寸法
 62
     0
 10
12.89106
 20
74.922105
  0
TEXT
  7
TextStyle03
  8
寸法
  6
CONTINUOUS
 62
     0
 10
-2.0625
 20
75.3
  1
750
 40
3.0
 72
     5
 11
2.8125
 21
75.3
  0
ENDBLK
  0
BLOCK
  2
*DIM_0029
 70
    65
 10
0.0
 20
0.0
  0
LINE
  8
寸法
  6
BYBLOCK
 62
     0
 10
37.89106
 20
45.814033
 11
37.89106
 21
74.922105
  0
LINE
  8
寸法
  6
BYBLOCK
 62
     0
 10
12.89106
 20
74.922105
 11
37.89106
 21
74.922105
  0
POINT
  8
寸法
 62
     0
 10
37.89106
 20
74.922105
  0
TEXT
  7
TextStyle03
  8
寸法
  6
CONTINUOUS
 62
     0
 10
22.9375
 20
75.3
  1
750
 40
3.0
 72
     5
 11
27.8125
 21
75.3
  0
ENDBLK
  0
BLOCK
  2
*DIM_0030
 70
    65
 10
0.0
 20
0.0
  0
LINE
  8
寸法
  6
BYBLOCK
 62
     0
 10
39.224393
 20
-57.542947
 11
62.194043
 21
-57.542947
  0
LINE
  8
寸法
  6
BYBLOCK
 62
     0
 10
62.194043
 20
-64.87628
 11
62.194043
 21
-57.542947
  0
POINT
  8
寸法
 62
     0
 10
62.194043
 20
-64.87628
  0
POINT
  8
寸法
 62
     0
 10
62.194043
 20
-57.542947
  0
TEXT
  7
TextStyle03
  8
寸法
  6
CONTINUOUS
 62
     0
 10
67.4
 20
-70.76875
  1
上昇207以上
 40
3.0
 50
90.0
 72
     5
 11
67.4
 21
-52.58125
  0
ENDBLK
  0
BLOCK
  2
*GRP_0031
 70
    65
 10
0.0
 20
0.0
  0
LINE
  8
ボルト／ビス
  6
CONTINUOUS
 10
135.757657
 20
22.147365
 11
135.290992
 21
22.147365
  0
LINE
  8
ボルト／ビス
  6
CONTINUOUS
 10
135.757657
 20
21.7807
 11
135.690992
 21
21.7807
  0
LINE
  8
ボルト／ビス
  6
CONTINUOUS
 10
135.690992
 20
21.7807
 11
135.690992
 21
22.514033
  0
LINE
  8
ボルト／ビス
  6
CONTINUOUS
 10
135.690992
 20
22.514033
 11
135.757657
 21
22.514033
  0
LINE
  8
ボルト／ビス
  6
CONTINUOUS
 10
135.757657
 20
21.7807
 11
135.757657
 21
22.514033
  0
LINE
  8
ボルト／ビス
  6
CONTINUOUS
 10
135.657657
 20
21.847365
 11
135.690992
 21
21.847365
  0
LINE
  8
ボルト／ビス
  6
CONTINUOUS
 10
135.657657
 20
21.847365
 11
135.657657
 21
22.447365
  0
LINE
  8
ボルト／ビス
  6
CONTINUOUS
 10
135.657657
 20
22.447365
 11
135.690992
 21
22.447365
  0
LINE
  8
ボルト／ビス
  6
CONTINUOUS
 62
    64
 10
135.457657
 20
21.98699
 11
135.469333
 21
21.954915
  0
ARC
  8
ボルト／ビス
  6
CONTINUOUS
 62
    64
 10
135.562634
 20
22.003031
 40
0.104978
 50
152.721967
 51
180.0
  0
ARC
  8
ボルト／ビス
  6
CONTINUOUS
 62
    64
 10
135.860058
 20
22.147368
 40
0.402402
 50
166.165002
 51
193.834985
  0
LINE
  8
ボルト／ビス
  6
CONTINUOUS
 62
    64
 10
135.457657
 20
22.30774
 11
135.469333
 21
22.339815
  0
ARC
  8
ボルト／ビス
  6
CONTINUOUS
 62
    64
 10
135.562634
 20
22.291706
 40
0.104978
 50
180.0
 51
207.278033
  0
LINE
  8
ボルト／ビス
  6
CONTINUOUS
 62
    64
 10
135.457657
 20
21.98699
 11
135.457657
 21
22.30774
  0
LINE
  8
ボルト／ビス
  6
CONTINUOUS
 62
    64
 10
135.469333
 20
22.339815
 11
135.590993
 21
22.339815
  0
LINE
  8
ボルト／ビス
  6
CONTINUOUS
 62
    64
 10
135.469333
 20
22.24359
 11
135.590993
 21
22.24359
  0
LINE
  8
ボルト／ビス
  6
CONTINUOUS
 62
    64
 10
135.469333
 20
21.954915
 11
135.590993
 21
21.954915
  0
LINE
  8
ボルト／ビス
  6
CONTINUOUS
 62
    64
 10
135.469333
 20
22.05114
 11
135.590993
 21
22.05114
  0
LINE
  8
ボルト／ビス
  6
CONTINUOUS
 10
135.590993
 20
21.954915
 11
135.590993
 21
22.339815
  0
LINE
  8
ボルト／ビス
  6
CONTINUOUS
 10
135.590993
 20
21.947365
 11
135.657657
 21
21.947365
  0
LINE
  8
ボルト／ビス
  6
CONTINUOUS
 10
135.590993
 20
21.947365
 11
135.590993
 21
22.347365
  0
LINE
  8
ボルト／ビス
  6
CONTINUOUS
 10
135.590993
 20
22.347365
 11
135.657657
 21
22.347365
  0
ENDBLK
  0
BLOCK
  2
*GRP_0032
 70
    65
 10
0.0
 20
0.0
  0
LINE
  8
ボルト／ビス
  6
CONTINUOUS
 10
135.757657
 20
43.4807
 11
135.290992
 21
43.4807
  0
LINE
  8
ボルト／ビス
  6
CONTINUOUS
 10
135.757657
 20
43.114035
 11
135.690992
 21
43.114035
  0
LINE
  8
ボルト／ビス
  6
CONTINUOUS
 10
135.690992
 20
43.114035
 11
135.690992
 21
43.847367
  0
LINE
  8
ボルト／ビス
  6
CONTINUOUS
 10
135.690992
 20
43.847367
 11
135.757657
 21
43.847367
  0
LINE
  8
ボルト／ビス
  6
CONTINUOUS
 10
135.757657
 20
43.114035
 11
135.757657
 21
43.847367
  0
LINE
  8
ボルト／ビス
  6
CONTINUOUS
 10
135.657657
 20
43.1807
 11
135.690992
 21
43.1807
  0
LINE
  8
ボルト／ビス
  6
CONTINUOUS
 10
135.657657
 20
43.1807
 11
135.657657
 21
43.7807
  0
LINE
  8
ボルト／ビス
  6
CONTINUOUS
 10
135.657657
 20
43.7807
 11
135.690992
 21
43.7807
  0
LINE
  8
ボルト／ビス
  6
CONTINUOUS
 62
    64
 10
135.457657
 20
43.320325
 11
135.469333
 21
43.28825
  0
ARC
  8
ボルト／ビス
  6
CONTINUOUS
 62
    64
 10
135.562634
 20
43.336366
 40
0.104978
 50
152.721967
 51
180.0
  0
ARC
  8
ボルト／ビス
  6
CONTINUOUS
 62
    64
 10
135.860058
 20
43.480703
 40
0.402402
 50
166.165002
 51
193.834985
  0
LINE
  8
ボルト／ビス
  6
CONTINUOUS
 62
    64
 10
135.457657
 20
43.641075
 11
135.469333
 21
43.67315
  0
ARC
  8
ボルト／ビス
  6
CONTINUOUS
 62
    64
 10
135.562634
 20
43.625041
 40
0.104978
 50
180.0
 51
207.278033
  0
LINE
  8
ボルト／ビス
  6
CONTINUOUS
 62
    64
 10
135.457657
 20
43.320325
 11
135.457657
 21
43.641075
  0
LINE
  8
ボルト／ビス
  6
CONTINUOUS
 62
    64
 10
135.469333
 20
43.67315
 11
135.590993
 21
43.67315
  0
LINE
  8
ボルト／ビス
  6
CONTINUOUS
 62
    64
 10
135.469333
 20
43.576925
 11
135.590993
 21
43.576925
  0
LINE
  8
ボルト／ビス
  6
CONTINUOUS
 62
    64
 10
135.469333
 20
43.28825
 11
135.590993
 21
43.28825
  0
LINE
  8
ボルト／ビス
  6
CONTINUOUS
 62
    64
 10
135.469333
 20
43.384475
 11
135.590993
 21
43.384475
  0
LINE
  8
ボルト／ビス
  6
CONTINUOUS
 10
135.590993
 20
43.28825
 11
135.590993
 21
43.67315
  0
LINE
  8
ボルト／ビス
  6
CONTINUOUS
 10
135.590993
 20
43.2807
 11
135.657657
 21
43.2807
  0
LINE
  8
ボルト／ビス
  6
CONTINUOUS
 10
135.590993
 20
43.2807
 11
135.590993
 21
43.6807
  0
LINE
  8
ボルト／ビス
  6
CONTINUOUS
 10
135.590993
 20
43.6807
 11
135.657657
 21
43.6807
  0
ENDBLK
  0
BLOCK
  2
*GRP_0033
 70
    65
 10
0.0
 20
0.0
  0
LINE
  8
ボルト／ビス
  6
CONTINUOUS
 10
46.89106
 20
-70.209613
 11
46.89106
 21
-69.742947
  0
LINE
  8
ボルト／ビス
  6
CONTINUOUS
 10
46.524395
 20
-70.209613
 11
46.524395
 21
-70.142947
  0
LINE
  8
ボルト／ビス
  6
CONTINUOUS
 10
46.524395
 20
-70.142947
 11
47.257727
 21
-70.142947
  0
LINE
  8
ボルト／ビス
  6
CONTINUOUS
 10
47.257727
 20
-70.142947
 11
47.257727
 21
-70.209613
  0
LINE
  8
ボルト／ビス
  6
CONTINUOUS
 10
46.524395
 20
-70.209613
 11
47.257727
 21
-70.209613
  0
LINE
  8
ボルト／ビス
  6
CONTINUOUS
 10
46.59106
 20
-70.109612
 11
46.59106
 21
-70.142947
  0
LINE
  8
ボルト／ビス
  6
CONTINUOUS
 10
46.59106
 20
-70.109612
 11
47.19106
 21
-70.109612
  0
LINE
  8
ボルト／ビス
  6
CONTINUOUS
 10
47.19106
 20
-70.109612
 11
47.19106
 21
-70.142947
  0
LINE
  8
ボルト／ビス
  6
CONTINUOUS
 62
    64
 10
46.730685
 20
-69.909613
 11
46.69861
 21
-69.921288
  0
ARC
  8
ボルト／ビス
  6
CONTINUOUS
 62
    64
 10
46.746725
 20
-70.014591
 40
0.104978
 50
62.721967
 51
90.0
  0
ARC
  8
ボルト／ビス
  6
CONTINUOUS
 62
    64
 10
46.891063
 20
-70.312015
 40
0.402402
 50
76.165002
 51
103.834985
  0
LINE
  8
ボルト／ビス
  6
CONTINUOUS
 62
    64
 10
47.051435
 20
-69.909613
 11
47.08351
 21
-69.921288
  0
ARC
  8
ボルト／ビス
  6
CONTINUOUS
 62
    64
 10
47.0354
 20
-70.014591
 40
0.104978
 50
90.0
 51
117.278033
  0
LINE
  8
ボルト／ビス
  6
CONTINUOUS
 62
    64
 10
46.730685
 20
-69.909613
 11
47.051435
 21
-69.909613
  0
LINE
  8
ボルト／ビス
  6
CONTINUOUS
 62
    64
 10
47.08351
 20
-69.921288
 11
47.08351
 21
-70.042947
  0
LINE
  8
ボルト／ビス
  6
CONTINUOUS
 62
    64
 10
46.987285
 20
-69.921288
 11
46.987285
 21
-70.042947
  0
LINE
  8
ボルト／ビス
  6
CONTINUOUS
 62
    64
 10
46.69861
 20
-69.921288
 11
46.69861
 21
-70.042947
  0
LINE
  8
ボルト／ビス
  6
CONTINUOUS
 62
    64
 10
46.794835
 20
-69.921288
 11
46.794835
 21
-70.042947
  0
LINE
  8
ボルト／ビス
  6
CONTINUOUS
 10
46.69861
 20
-70.042947
 11
47.08351
 21
-70.042947
  0
LINE
  8
ボルト／ビス
  6
CONTINUOUS
 10
46.69106
 20
-70.042947
 11
46.69106
 21
-70.109612
  0
LINE
  8
ボルト／ビス
  6
CONTINUOUS
 10
46.69106
 20
-70.042947
 11
47.09106
 21
-70.042947
  0
LINE
  8
ボルト／ビス
  6
CONTINUOUS
 10
47.09106
 20
-70.042947
 11
47.09106
 21
-70.109612
  0
ENDBLK
  0
BLOCK
  2
*GRP_0034
 70
    65
 10
0.0
 20
0.0
  0
LINE
  8
ボルト／ビス
  6
DOT
 10
46.89106
 20
-62.87628
 11
46.89106
 21
-62.409615
  0
LINE
  8
ボルト／ビス
  6
DOT
 10
46.524395
 20
-62.87628
 11
46.524395
 21
-62.809615
  0
LINE
  8
ボルト／ビス
  6
DOT
 10
46.524395
 20
-62.809615
 11
47.257727
 21
-62.809615
  0
LINE
  8
ボルト／ビス
  6
DOT
 10
47.257727
 20
-62.809615
 11
47.257727
 21
-62.87628
  0
LINE
  8
ボルト／ビス
  6
DOT
 10
46.524395
 20
-62.87628
 11
47.257727
 21
-62.87628
  0
LINE
  8
ボルト／ビス
  6
DOT
 10
46.59106
 20
-62.77628
 11
46.59106
 21
-62.809615
  0
LINE
  8
ボルト／ビス
  6
DOT
 10
46.59106
 20
-62.77628
 11
47.19106
 21
-62.77628
  0
LINE
  8
ボルト／ビス
  6
DOT
 10
47.19106
 20
-62.77628
 11
47.19106
 21
-62.809615
  0
LINE
  8
ボルト／ビス
  6
DOT
 62
    64
 10
46.730685
 20
-62.57628
 11
46.69861
 21
-62.587955
  0
ARC
  8
ボルト／ビス
  6
DOT
 62
    64
 10
46.746725
 20
-62.681259
 40
0.104978
 50
62.721967
 51
90.0
  0
ARC
  8
ボルト／ビス
  6
DOT
 62
    64
 10
46.891063
 20
-62.978683
 40
0.402402
 50
76.165002
 51
103.834985
  0
LINE
  8
ボルト／ビス
  6
DOT
 62
    64
 10
47.051435
 20
-62.57628
 11
47.08351
 21
-62.587955
  0
ARC
  8
ボルト／ビス
  6
DOT
 62
    64
 10
47.0354
 20
-62.681259
 40
0.104978
 50
90.0
 51
117.278033
  0
LINE
  8
ボルト／ビス
  6
DOT
 62
    64
 10
46.730685
 20
-62.57628
 11
47.051435
 21
-62.57628
  0
LINE
  8
ボルト／ビス
  6
DOT
 62
    64
 10
47.08351
 20
-62.587955
 11
47.08351
 21
-62.709615
  0
LINE
  8
ボルト／ビス
  6
DOT
 62
    64
 10
46.987285
 20
-62.587955
 11
46.987285
 21
-62.709615
  0
LINE
  8
ボルト／ビス
  6
DOT
 62
    64
 10
46.69861
 20
-62.587955
 11
46.69861
 21
-62.709615
  0
LINE
  8
ボルト／ビス
  6
DOT
 62
    64
 10
46.794835
 20
-62.587955
 11
46.794835
 21
-62.709615
  0
LINE
  8
ボルト／ビス
  6
DOT
 10
46.69861
 20
-62.709615
 11
47.08351
 21
-62.709615
  0
LINE
  8
ボルト／ビス
  6
DOT
 10
46.69106
 20
-62.709615
 11
46.69106
 21
-62.77628
  0
LINE
  8
ボルト／ビス
  6
DOT
 10
46.69106
 20
-62.709615
 11
47.09106
 21
-62.709615
  0
LINE
  8
ボルト／ビス
  6
DOT
 10
47.09106
 20
-62.709615
 11
47.09106
 21
-62.77628
  0
ENDBLK
  0
BLOCK
  2
*GRP_0035
 70
    65
 10
0.0
 20
0.0
  0
LINE
  8
ボルト／ビス
  6
CONTINUOUS
 10
-121.10894
 20
-70.209613
 11
-121.10894
 21
-69.742947
  0
LINE
  8
ボルト／ビス
  6
CONTINUOUS
 10
-121.475605
 20
-70.209613
 11
-121.475605
 21
-70.142947
  0
LINE
  8
ボルト／ビス
  6
CONTINUOUS
 10
-121.475605
 20
-70.142947
 11
-120.742273
 21
-70.142947
  0
LINE
  8
ボルト／ビス
  6
CONTINUOUS
 10
-120.742273
 20
-70.142947
 11
-120.742273
 21
-70.209613
  0
LINE
  8
ボルト／ビス
  6
CONTINUOUS
 10
-121.475605
 20
-70.209613
 11
-120.742273
 21
-70.209613
  0
LINE
  8
ボルト／ビス
  6
CONTINUOUS
 10
-121.40894
 20
-70.109612
 11
-121.40894
 21
-70.142947
  0
LINE
  8
ボルト／ビス
  6
CONTINUOUS
 10
-121.40894
 20
-70.109612
 11
-120.80894
 21
-70.109612
  0
LINE
  8
ボルト／ビス
  6
CONTINUOUS
 10
-120.80894
 20
-70.109612
 11
-120.80894
 21
-70.142947
  0
LINE
  8
ボルト／ビス
  6
CONTINUOUS
 62
    64
 10
-121.269315
 20
-69.909613
 11
-121.30139
 21
-69.921288
  0
ARC
  8
ボルト／ビス
  6
CONTINUOUS
 62
    64
 10
-121.253275
 20
-70.014591
 40
0.104978
 50
62.721967
 51
90.0
  0
ARC
  8
ボルト／ビス
  6
CONTINUOUS
 62
    64
 10
-121.108937
 20
-70.312015
 40
0.402402
 50
76.165002
 51
103.834985
  0
LINE
  8
ボルト／ビス
  6
CONTINUOUS
 62
    64
 10
-120.948565
 20
-69.909613
 11
-120.91649
 21
-69.921288
  0
ARC
  8
ボルト／ビス
  6
CONTINUOUS
 62
    64
 10
-120.9646
 20
-70.014591
 40
0.104978
 50
90.0
 51
117.278033
  0
LINE
  8
ボルト／ビス
  6
CONTINUOUS
 62
    64
 10
-121.269315
 20
-69.909613
 11
-120.948565
 21
-69.909613
  0
LINE
  8
ボルト／ビス
  6
CONTINUOUS
 62
    64
 10
-120.91649
 20
-69.921288
 11
-120.91649
 21
-70.042947
  0
LINE
  8
ボルト／ビス
  6
CONTINUOUS
 62
    64
 10
-121.012715
 20
-69.921288
 11
-121.012715
 21
-70.042947
  0
LINE
  8
ボルト／ビス
  6
CONTINUOUS
 62
    64
 10
-121.30139
 20
-69.921288
 11
-121.30139
 21
-70.042947
  0
LINE
  8
ボルト／ビス
  6
CONTINUOUS
 62
    64
 10
-121.205165
 20
-69.921288
 11
-121.205165
 21
-70.042947
  0
LINE
  8
ボルト／ビス
  6
CONTINUOUS
 10
-121.30139
 20
-70.042947
 11
-120.91649
 21
-70.042947
  0
LINE
  8
ボルト／ビス
  6
CONTINUOUS
 10
-121.30894
 20
-70.042947
 11
-121.30894
 21
-70.109612
  0
LINE
  8
ボルト／ビス
  6
CONTINUOUS
 10
-121.30894
 20
-70.042947
 11
-120.90894
 21
-70.042947
  0
LINE
  8
ボルト／ビス
  6
CONTINUOUS
 10
-120.90894
 20
-70.042947
 11
-120.90894
 21
-70.109612
  0
ENDBLK
  0
BLOCK
  2
*GRP_0036
 70
    65
 10
0.0
 20
0.0
  0
LINE
  8
ボルト／ビス
  6
DOT
 10
-121.10894
 20
-62.87628
 11
-121.10894
 21
-62.409615
  0
LINE
  8
ボルト／ビス
  6
DOT
 10
-121.475605
 20
-62.87628
 11
-121.475605
 21
-62.809615
  0
LINE
  8
ボルト／ビス
  6
DOT
 10
-121.475605
 20
-62.809615
 11
-120.742273
 21
-62.809615
  0
LINE
  8
ボルト／ビス
  6
DOT
 10
-120.742273
 20
-62.809615
 11
-120.742273
 21
-62.87628
  0
LINE
  8
ボルト／ビス
  6
DOT
 10
-121.475605
 20
-62.87628
 11
-120.742273
 21
-62.87628
  0
LINE
  8
ボルト／ビス
  6
DOT
 10
-121.40894
 20
-62.77628
 11
-121.40894
 21
-62.809615
  0
LINE
  8
ボルト／ビス
  6
DOT
 10
-121.40894
 20
-62.77628
 11
-120.80894
 21
-62.77628
  0
LINE
  8
ボルト／ビス
  6
DOT
 10
-120.80894
 20
-62.77628
 11
-120.80894
 21
-62.809615
  0
LINE
  8
ボルト／ビス
  6
DOT
 62
    64
 10
-121.269315
 20
-62.57628
 11
-121.30139
 21
-62.587955
  0
ARC
  8
ボルト／ビス
  6
DOT
 62
    64
 10
-121.253275
 20
-62.681259
 40
0.104978
 50
62.721967
 51
90.0
  0
ARC
  8
ボルト／ビス
  6
DOT
 62
    64
 10
-121.108937
 20
-62.978683
 40
0.402402
 50
76.165002
 51
103.834985
  0
LINE
  8
ボルト／ビス
  6
DOT
 62
    64
 10
-120.948565
 20
-62.57628
 11
-120.91649
 21
-62.587955
  0
ARC
  8
ボルト／ビス
  6
DOT
 62
    64
 10
-120.9646
 20
-62.681259
 40
0.104978
 50
90.0
 51
117.278033
  0
LINE
  8
ボルト／ビス
  6
DOT
 62
    64
 10
-121.269315
 20
-62.57628
 11
-120.948565
 21
-62.57628
  0
LINE
  8
ボルト／ビス
  6
DOT
 62
    64
 10
-120.91649
 20
-62.587955
 11
-120.91649
 21
-62.709615
  0
LINE
  8
ボルト／ビス
  6
DOT
 62
    64
 10
-121.012715
 20
-62.587955
 11
-121.012715
 21
-62.709615
  0
LINE
  8
ボルト／ビス
  6
DOT
 62
    64
 10
-121.30139
 20
-62.587955
 11
-121.30139
 21
-62.709615
  0
LINE
  8
ボルト／ビス
  6
DOT
 62
    64
 10
-121.205165
 20
-62.587955
 11
-121.205165
 21
-62.709615
  0
LINE
  8
ボルト／ビス
  6
DOT
 10
-121.30139
 20
-62.709615
 11
-120.91649
 21
-62.709615
  0
LINE
  8
ボルト／ビス
  6
DOT
 10
-121.30894
 20
-62.709615
 11
-121.30894
 21
-62.77628
  0
LINE
  8
ボルト／ビス
  6
DOT
 10
-121.30894
 20
-62.709615
 11
-120.90894
 21
-62.709615
  0
LINE
  8
ボルト／ビス
  6
DOT
 10
-120.90894
 20
-62.709615
 11
-120.90894
 21
-62.77628
  0
ENDBLK
  0
ENDSEC
  0
SECTION
  2
ENTITIES
  0
POLYLINE
  8
通り芯
  6
CONTINUOUS
 66
     1
 70
     1
  0
VERTEX
  8
通り芯
 10
-210.0
 20
-148.5
  0
VERTEX
  8
通り芯
 10
210.0
 20
-148.5
  0
VERTEX
  8
通り芯
 10
210.0
 20
148.5
  0
VERTEX
  8
通り芯
 10
-210.0
 20
148.5
  0
SEQEND
  0
INSERT
  2
*GRP_0001
  8
型材断面
  6
CONTINUOUS
 10
0.0
 20
0.0
  0
LINE
  8
型材断面
  6
DASHDOT
 10
46.224393
 20
-77.836442
 11
46.224393
 21
42.814033
  0
LINE
  8
型材断面
  6
DASHDOT
 10
-37.10894
 20
-77.836442
 11
-37.10894
 21
42.814033
  0
LINE
  8
型材断面
  6
DASHDOT
 10
-120.442275
 20
-77.836442
 11
-120.442275
 21
42.814033
  0
LINE
  8
型材断面
  6
DASHDOT
 10
143.901155
 20
22.814033
 11
-120.442275
 21
22.814033
  0
LINE
  8
型材断面
  6
DASHDOT
 10
143.901155
 20
32.814033
 11
-120.442275
 21
32.814033
  0
LINE
  8
型材断面
  6
DASHDOT
 10
143.901155
 20
42.814033
 11
-120.442275
 21
42.814033
  0
POLYLINE
  8
型材断面
  6
CONTINUOUS
 66
     1
 70
     1
  0
VERTEX
  8
型材断面
 10
-27.309977
 20
13.03811
  0
VERTEX
  8
型材断面
 10
-46.081908
 20
13.03811
  0
VERTEX
  8
型材断面
 10
-46.081908
 20
8.301267
  0
VERTEX
  8
型材断面
 10
-27.309977
 20
8.301267
  0
SEQEND
  0
POLYLINE
  8
型材断面
  6
CONTINUOUS
 66
     1
 70
     1
  0
VERTEX
  8
型材断面
 10
-27.309977
 20
52.589955
  0
VERTEX
  8
型材断面
 10
-46.081908
 20
52.589955
  0
VERTEX
  8
型材断面
 10
-46.081908
 20
57.326798
  0
VERTEX
  8
型材断面
 10
-27.309977
 20
57.326798
  0
SEQEND
  0
LINE
  8
型材断面
  6
CONTINUOUS
 10
-103.775608
 20
45.444162
 11
-105.271238
 21
48.03467
  0
LINE
  8
型材断面
  6
CONTINUOUS
 10
-103.775608
 20
45.444162
 11
-102.279978
 21
48.03467
  0
LINE
  8
型材断面
  6
CONTINUOUS
 10
-102.279978
 20
48.03467
 11
-105.271238
 21
48.03467
  0
LINE
  8
型材断面
  6
CONTINUOUS
 10
-161.294482
 20
80.791505
 11
-160.698427
 21
78.200998
  0
LINE
  8
型材断面
  6
CONTINUOUS
 10
-161.294482
 20
80.791505
 11
-161.89054
 21
78.200998
  0
LINE
  8
型材断面
  6
CONTINUOUS
 10
-161.89054
 20
78.200998
 11
-160.698427
 21
78.200998
  0
LINE
  8
型材断面
  6
CONTINUOUS
 10
-167.31707
 20
74.922105
 11
-121.075292
 21
74.922105
  0
LINE
  8
型材断面
  6
CONTINUOUS
 10
-161.294482
 20
87.32138
 11
-162.790113
 21
84.730873
  0
LINE
  8
型材断面
  6
CONTINUOUS
 10
-161.294482
 20
87.32138
 11
-159.798852
 21
84.730873
  0
LINE
  8
型材断面
  6
CONTINUOUS
 10
-159.798852
 20
84.730873
 11
-162.790113
 21
84.730873
  0
LINE
  8
型材断面
  6
CONTINUOUS
 10
-167.31707
 20
83.792277
 11
-121.075292
 21
83.792277
  0
LINE
  8
型材断面
  6
CONTINUOUS
 10
-167.31707
 20
69.134073
 11
-121.075292
 21
69.134073
  0
LINE
  8
型材断面
  6
CONTINUOUS
 10
-123.072405
 20
32.814033
 11
-125.662913
 21
34.309663
  0
LINE
  8
型材断面
  6
CONTINUOUS
 10
-123.072405
 20
32.814033
 11
-125.662913
 21
31.318403
  0
LINE
  8
型材断面
  6
CONTINUOUS
 10
-125.662913
 20
31.318403
 11
-125.662913
 21
34.309663
  0
LINE
  8
型材断面
  6
CONTINUOUS
 10
-103.775608
 20
20.183902
 11
-105.271238
 21
17.593395
  0
LINE
  8
型材断面
  6
CONTINUOUS
 10
-103.775608
 20
20.183902
 11
-102.279978
 21
17.593395
  0
LINE
  8
型材断面
  6
CONTINUOUS
 10
-102.279978
 20
17.593395
 11
-105.271238
 21
17.593395
  0
LINE
  8
型材断面
  6
CONTINUOUS
 10
29.557727
 20
45.444162
 11
31.053357
 21
48.03467
  0
LINE
  8
型材断面
  6
CONTINUOUS
 10
29.557727
 20
45.444162
 11
28.062097
 21
48.03467
  0
LINE
  8
型材断面
  6
CONTINUOUS
 10
28.062097
 20
48.03467
 11
31.053357
 21
48.03467
  0
LINE
  8
型材断面
  6
CONTINUOUS
 10
48.854525
 20
32.814033
 11
51.445032
 21
34.309663
  0
LINE
  8
型材断面
  6
CONTINUOUS
 10
48.854525
 20
32.814033
 11
51.445032
 21
31.318403
  0
LINE
  8
型材断面
  6
CONTINUOUS
 10
51.445032
 20
31.318403
 11
51.445032
 21
34.309663
  0
LINE
  8
型材断面
  6
CONTINUOUS
 10
29.557727
 20
20.183902
 11
31.053357
 21
17.593395
  0
LINE
  8
型材断面
  6
CONTINUOUS
 10
29.557727
 20
20.183902
 11
28.062097
 21
17.593395
  0
LINE
  8
型材断面
  6
CONTINUOUS
 10
28.062097
 20
17.593395
 11
31.053357
 21
17.593395
  0
LINE
  8
型材断面
  6
CONTINUOUS
 10
-37.10894
 20
45.44416
 11
-35.61331
 21
48.034668
  0
LINE
  8
型材断面
  6
CONTINUOUS
 10
-37.10894
 20
45.44416
 11
-38.60457
 21
48.034668
  0
LINE
  8
型材断面
  6
CONTINUOUS
 10
-38.60457
 20
48.034668
 11
-35.61331
 21
48.034668
  0
LINE
  8
型材断面
  6
CONTINUOUS
 10
-37.10894
 20
20.1839
 11
-35.61331
 21
17.593392
  0
LINE
  8
型材断面
  6
CONTINUOUS
 10
-37.10894
 20
20.1839
 11
-38.60457
 21
17.593392
  0
LINE
  8
型材断面
  6
CONTINUOUS
 10
-38.60457
 20
17.593392
 11
-35.61331
 21
17.593392
  0
LINE
  8
型材断面
  6
DASHDOT
 10
136.79094
 20
22.81403
 11
142.811005
 21
22.81403
  0
LINE
  8
型材断面
  6
CONTINUOUS
 62
    47
 10
139.074273
 20
21.417365
 11
139.074273
 21
22.197365
  0
LINE
  8
型材断面
  6
CONTINUOUS
 10
137.24094
 20
21.317365
 11
136.79094
 21
21.317365
  0
LINE
  8
型材断面
  6
CONTINUOUS
 62
    47
 10
139.913632
 20
20.53403
 11
139.580298
 21
20.53403
  0
LINE
  8
型材断面
  6
CONTINUOUS
 62
    47
 10
139.580298
 20
20.53403
 11
139.480298
 21
21.317365
  0
LINE
  8
型材断面
  6
CONTINUOUS
 62
    47
 10
139.074273
 20
21.317365
 11
139.480298
 21
21.317365
  0
LINE
  8
型材断面
  6
CONTINUOUS
 62
    47
 10
139.074273
 20
20.847365
 11
137.24094
 21
20.847365
  0
LINE
  8
型材断面
  6
CONTINUOUS
 62
    47
 10
143.04094
 20
21.41403
 11
142.54094
 21
21.41403
  0
LINE
  8
型材断面
  6
CONTINUOUS
 62
    47
 10
142.54094
 20
20.847365
 11
139.913632
 21
20.847365
  0
LINE
  8
型材断面
  6
CONTINUOUS
 62
    47
 10
142.54094
 20
20.847365
 11
142.54094
 21
32.814033
  0
LINE
  8
型材断面
  6
CONTINUOUS
 62
    47
 10
143.04094
 20
21.41403
 11
143.04094
 21
32.814033
  0
LINE
  8
型材断面
  6
CONTINUOUS
 10
139.480298
 20
21.317365
 11
139.480298
 21
32.814033
  0
LINE
  8
型材断面
  6
CONTINUOUS
 10
139.580298
 20
20.53403
 11
139.580298
 21
32.814033
  0
LINE
  8
型材断面
  6
CONTINUOUS
 62
    47
 10
139.074273
 20
20.847365
 11
139.074273
 21
32.814033
  0
LINE
  8
型材断面
  6
CONTINUOUS
 62
    47
 10
139.913632
 20
20.53403
 11
139.913632
 21
32.814033
  0
LINE
  8
型材断面
  6
CONTINUOUS
 10
137.24094
 20
20.847365
 11
137.24094
 21
32.814033
  0
LINE
  8
型材断面
  6
DASHDOT
 10
136.79094
 20
42.814035
 11
142.811005
 21
42.814035
  0
LINE
  8
型材断面
  6
CONTINUOUS
 62
    47
 10
139.074273
 20
44.2107
 11
139.074273
 21
43.4307
  0
LINE
  8
型材断面
  6
CONTINUOUS
 10
137.24094
 20
44.3107
 11
136.79094
 21
44.3107
  0
LINE
  8
型材断面
  6
CONTINUOUS
 62
    47
 10
139.913632
 20
45.094035
 11
139.580298
 21
45.094035
  0
LINE
  8
型材断面
  6
CONTINUOUS
 62
    47
 10
139.580298
 20
45.094035
 11
139.480298
 21
44.3107
  0
LINE
  8
型材断面
  6
CONTINUOUS
 62
    47
 10
139.074273
 20
44.3107
 11
139.480298
 21
44.3107
  0
LINE
  8
型材断面
  6
CONTINUOUS
 62
    47
 10
139.074273
 20
44.7807
 11
137.24094
 21
44.7807
  0
LINE
  8
型材断面
  6
CONTINUOUS
 62
    47
 10
143.04094
 20
44.214035
 11
142.54094
 21
44.214035
  0
LINE
  8
型材断面
  6
CONTINUOUS
 62
    47
 10
142.54094
 20
44.7807
 11
139.913632
 21
44.7807
  0
LINE
  8
型材断面
  6
CONTINUOUS
 62
    47
 10
142.54094
 20
44.7807
 11
142.54094
 21
32.814033
  0
LINE
  8
型材断面
  6
CONTINUOUS
 62
    47
 10
143.04094
 20
44.214035
 11
143.04094
 21
32.814033
  0
LINE
  8
型材断面
  6
CONTINUOUS
 10
139.480298
 20
44.3107
 11
139.480298
 21
32.814033
  0
LINE
  8
型材断面
  6
CONTINUOUS
 10
139.580298
 20
45.094035
 11
139.580298
 21
32.814033
  0
LINE
  8
型材断面
  6
CONTINUOUS
 62
    47
 10
139.074273
 20
44.7807
 11
139.074273
 21
32.814033
  0
LINE
  8
型材断面
  6
CONTINUOUS
 62
    47
 10
139.913632
 20
45.094035
 11
139.913632
 21
32.814033
  0
LINE
  8
型材断面
  6
CONTINUOUS
 10
137.24094
 20
44.7807
 11
137.24094
 21
32.814033
  0
LINE
  8
型材断面
  6
DASHDOT
 10
46.224395
 20
-71.242895
 11
46.224395
 21
-77.26296
  0
LINE
  8
型材断面
  6
CONTINUOUS
 62
    47
 10
47.62106
 20
-73.526228
 11
46.84106
 21
-73.526228
  0
LINE
  8
型材断面
  6
CONTINUOUS
 10
47.72106
 20
-71.692895
 11
47.72106
 21
-71.242895
  0
LINE
  8
型材断面
  6
CONTINUOUS
 62
    47
 10
48.504395
 20
-74.365588
 11
48.504395
 21
-74.032252
  0
LINE
  8
型材断面
  6
CONTINUOUS
 62
    47
 10
48.504395
 20
-74.032252
 11
47.72106
 21
-73.932252
  0
LINE
  8
型材断面
  6
CONTINUOUS
 62
    47
 10
47.72106
 20
-73.526228
 11
47.72106
 21
-73.932252
  0
LINE
  8
型材断面
  6
CONTINUOUS
 62
    47
 10
48.19106
 20
-73.526228
 11
48.19106
 21
-71.692895
  0
LINE
  8
型材断面
  6
CONTINUOUS
 62
    47
 10
47.624395
 20
-77.492895
 11
47.624395
 21
-76.992895
  0
LINE
  8
型材断面
  6
CONTINUOUS
 62
    47
 10
48.19106
 20
-76.992895
 11
48.19106
 21
-74.365588
  0
LINE
  8
型材断面
  6
CONTINUOUS
 10
48.29106
 20
20.747365
 11
48.504395
 21
20.53403
  0
LINE
  8
型材断面
  6
CONTINUOUS
 10
48.504395
 20
20.53403
 11
48.504395
 21
32.814033
  0
LINE
  8
型材断面
  6
CONTINUOUS
 10
48.19106
 20
-71.692895
 11
-37.10894
 21
-71.692895
  0
LINE
  8
型材断面
  6
CONTINUOUS
 62
    47
 10
48.504395
 20
-74.365588
 11
-37.10894
 21
-74.365588
  0
LINE
  8
型材断面
  6
CONTINUOUS
 10
48.504395
 20
-74.032252
 11
-37.10894
 21
-74.032252
  0
LINE
  8
型材断面
  6
CONTINUOUS
 10
47.72106
 20
-73.932252
 11
-37.10894
 21
-73.932252
  0
LINE
  8
型材断面
  6
CONTINUOUS
 62
    47
 10
48.19106
 20
-73.526228
 11
-37.10894
 21
-73.526228
  0
LINE
  8
型材断面
  6
CONTINUOUS
 62
    47
 10
47.624395
 20
-77.492895
 11
-37.10894
 21
-77.492895
  0
LINE
  8
型材断面
  6
CONTINUOUS
 62
    47
 10
48.19106
 20
-76.992895
 11
-37.10894
 21
-76.992895
  0
LINE
  8
型材断面
  6
DASHDOT
 10
-120.442275
 20
-71.242895
 11
-120.442275
 21
-77.26296
  0
LINE
  8
型材断面
  6
CONTINUOUS
 62
    47
 10
-121.83894
 20
-73.526228
 11
-121.05894
 21
-73.526228
  0
LINE
  8
型材断面
  6
CONTINUOUS
 10
-121.93894
 20
-71.692895
 11
-121.93894
 21
-71.242895
  0
LINE
  8
型材断面
  6
CONTINUOUS
 62
    47
 10
-122.722275
 20
-74.365588
 11
-122.722275
 21
-74.032252
  0
LINE
  8
型材断面
  6
CONTINUOUS
 62
    47
 10
-122.722275
 20
-74.032252
 11
-121.93894
 21
-73.932252
  0
LINE
  8
型材断面
  6
CONTINUOUS
 62
    47
 10
-121.93894
 20
-73.526228
 11
-121.93894
 21
-73.932252
  0
LINE
  8
型材断面
  6
CONTINUOUS
 62
    47
 10
-122.40894
 20
-73.526228
 11
-122.40894
 21
-71.692895
  0
LINE
  8
型材断面
  6
CONTINUOUS
 62
    47
 10
-121.842275
 20
-77.492895
 11
-121.842275
 21
-76.992895
  0
LINE
  8
型材断面
  6
CONTINUOUS
 62
    47
 10
-122.40894
 20
-76.992895
 11
-122.40894
 21
-74.365588
  0
LINE
  8
型材断面
  6
CONTINUOUS
 10
-122.40894
 20
-71.692895
 11
-37.10894
 21
-71.692895
  0
LINE
  8
型材断面
  6
CONTINUOUS
 62
    47
 10
-122.722275
 20
-74.365588
 11
-37.10894
 21
-74.365588
  0
LINE
  8
型材断面
  6
CONTINUOUS
 10
-122.722275
 20
-74.032252
 11
-37.10894
 21
-74.032252
  0
LINE
  8
型材断面
  6
CONTINUOUS
 10
-121.93894
 20
-73.932252
 11
-37.10894
 21
-73.932252
  0
LINE
  8
型材断面
  6
CONTINUOUS
 62
    47
 10
-122.40894
 20
-73.526228
 11
-37.10894
 21
-73.526228
  0
LINE
  8
型材断面
  6
CONTINUOUS
 62
    47
 10
-121.842275
 20
-77.492895
 11
-37.10894
 21
-77.492895
  0
LINE
  8
型材断面
  6
CONTINUOUS
 62
    47
 10
-122.40894
 20
-76.992895
 11
-37.10894
 21
-76.992895
  0
LINE
  8
型材断面
  6
DOT
 62
    47
 10
47.62106
 20
-66.192895
 11
46.84106
 21
-66.192895
  0
LINE
  8
型材断面
  6
DOT
 10
47.72106
 20
-64.359562
 11
47.72106
 21
-63.909562
  0
LINE
  8
型材断面
  6
DOT
 62
    47
 10
48.504395
 20
-67.032255
 11
48.504395
 21
-66.69892
  0
LINE
  8
型材断面
  6
DOT
 62
    47
 10
48.504395
 20
-66.69892
 11
47.72106
 21
-66.59892
  0
LINE
  8
型材断面
  6
DOT
 62
    47
 10
47.72106
 20
-66.192895
 11
47.72106
 21
-66.59892
  0
LINE
  8
型材断面
  6
DOT
 62
    47
 10
48.19106
 20
-66.192895
 11
48.19106
 21
-64.359562
  0
LINE
  8
型材断面
  6
DOT
 10
48.19106
 20
-64.359562
 11
-37.10894
 21
-64.359562
  0
LINE
  8
型材断面
  6
DOT
 62
    47
 10
48.504395
 20
-67.032255
 11
-37.10894
 21
-67.032255
  0
LINE
  8
型材断面
  6
DOT
 10
48.504395
 20
-66.69892
 11
-37.10894
 21
-66.69892
  0
LINE
  8
型材断面
  6
DOT
 10
47.72106
 20
-66.59892
 11
-37.10894
 21
-66.59892
  0
LINE
  8
型材断面
  6
DOT
 62
    47
 10
48.19106
 20
-66.192895
 11
-37.10894
 21
-66.192895
  0
LINE
  8
型材断面
  6
DOT
 62
    47
 10
-121.83894
 20
-66.192895
 11
-121.05894
 21
-66.192895
  0
LINE
  8
型材断面
  6
DOT
 10
-121.93894
 20
-64.359562
 11
-121.93894
 21
-63.909562
  0
LINE
  8
型材断面
  6
DOT
 62
    47
 10
-122.722275
 20
-67.032255
 11
-122.722275
 21
-66.69892
  0
LINE
  8
型材断面
  6
DOT
 62
    47
 10
-122.722275
 20
-66.69892
 11
-121.93894
 21
-66.59892
  0
LINE
  8
型材断面
  6
DOT
 62
    47
 10
-121.93894
 20
-66.192895
 11
-121.93894
 21
-66.59892
  0
LINE
  8
型材断面
  6
DOT
 62
    47
 10
-122.40894
 20
-66.192895
 11
-122.40894
 21
-64.359562
  0
LINE
  8
型材断面
  6
DOT
 10
-122.40894
 20
-64.359562
 11
-37.10894
 21
-64.359562
  0
LINE
  8
型材断面
  6
DOT
 62
    47
 10
-122.722275
 20
-67.032255
 11
-37.10894
 21
-67.032255
  0
LINE
  8
型材断面
  6
DOT
 10
-122.722275
 20
-66.69892
 11
-37.10894
 21
-66.69892
  0
LINE
  8
型材断面
  6
DOT
 10
-121.93894
 20
-66.59892
 11
-37.10894
 21
-66.59892
  0
LINE
  8
型材断面
  6
DOT
 62
    47
 10
-122.40894
 20
-66.192895
 11
-37.10894
 21
-66.192895
  0
LINE
  8
型材断面
  6
CONTINUOUS
 10
48.504395
 20
20.53403
 11
-37.10894
 21
20.53403
  0
LINE
  8
型材断面
  6
CONTINUOUS
 10
48.29106
 20
44.8807
 11
48.504395
 21
45.094035
  0
LINE
  8
型材断面
  6
CONTINUOUS
 10
48.504395
 20
45.094035
 11
48.504395
 21
32.814033
  0
LINE
  8
型材断面
  6
CONTINUOUS
 10
48.504395
 20
45.094035
 11
-37.10894
 21
45.094035
  0
LINE
  8
型材断面
  6
CONTINUOUS
 10
-122.50894
 20
44.8807
 11
-122.722275
 21
45.094035
  0
LINE
  8
型材断面
  6
CONTINUOUS
 10
-122.722275
 20
45.094035
 11
-122.722275
 21
32.814033
  0
LINE
  8
型材断面
  6
CONTINUOUS
 10
-122.722275
 20
45.094035
 11
-37.10894
 21
45.094035
  0
LINE
  8
型材断面
  6
CONTINUOUS
 10
-122.50894
 20
20.747365
 11
-122.722275
 21
20.53403
  0
LINE
  8
型材断面
  6
CONTINUOUS
 10
-122.722275
 20
20.53403
 11
-122.722275
 21
32.814033
  0
LINE
  8
型材断面
  6
CONTINUOUS
 10
-122.722275
 20
20.53403
 11
-37.10894
 21
20.53403
  0
LINE
  8
型材断面
  6
CONTINUOUS
 10
48.85452
 20
38.914033
 11
51.445027
 21
38.317975
  0
LINE
  8
型材断面
  6
CONTINUOUS
 10
48.85452
 20
38.914033
 11
51.445027
 21
39.51009
  0
LINE
  8
型材断面
  6
CONTINUOUS
 10
51.445027
 20
39.51009
 11
51.445027
 21
38.317975
  0
LINE
  8
型材断面
  6
CONTINUOUS
 10
48.85452
 20
26.714033
 11
51.445027
 21
27.31009
  0
LINE
  8
型材断面
  6
CONTINUOUS
 10
48.85452
 20
26.714033
 11
51.445027
 21
26.117975
  0
LINE
  8
型材断面
  6
CONTINUOUS
 10
51.445027
 20
26.117975
 11
51.445027
 21
27.31009
  0
LINE
  8
型材断面
  6
CONTINUOUS
 10
-123.0724
 20
38.914033
 11
-125.662907
 21
38.317975
  0
LINE
  8
型材断面
  6
CONTINUOUS
 10
-123.0724
 20
38.914033
 11
-125.662907
 21
39.51009
  0
LINE
  8
型材断面
  6
CONTINUOUS
 10
-125.662907
 20
39.51009
 11
-125.662907
 21
38.317975
  0
LINE
  8
型材断面
  6
CONTINUOUS
 10
-123.0724
 20
26.714033
 11
-125.662907
 21
27.31009
  0
LINE
  8
型材断面
  6
CONTINUOUS
 10
-123.0724
 20
26.714033
 11
-125.662907
 21
26.117975
  0
LINE
  8
型材断面
  6
CONTINUOUS
 10
-125.662907
 20
26.117975
 11
-125.662907
 21
27.31009
  0
INSERT
  2
*GRP_0019
  8
型材断面
  6
CONTINUOUS
 10
0.0
 20
0.0
  0
INSERT
  2
*GRP_0020
  8
型材断面
  6
CONTINUOUS
 10
0.0
 20
0.0
  0
INSERT
  2
*GRP_0021
  8
型材断面
  6
CONTINUOUS
 10
0.0
 20
0.0
  0
INSERT
  2
*GRP_0022
  8
型材断面
  6
CONTINUOUS
 10
0.0
 20
0.0
  0
LINE
  8
型材断面
  6
CONTINUOUS
 10
-167.31707
 20
63.34604
 11
-121.075292
 21
63.34604
  0
LINE
  8
型材断面
  6
DOT
 10
-86.062943
 20
22.814033
 11
-86.062943
 21
42.814033
  0
LINE
  8
型材断面
  6
DASHDOT
 10
-87.312943
 20
22.814033
 11
-87.312943
 21
42.814033
  0
LINE
  8
型材断面
  6
DOT
 10
-88.562943
 20
22.814033
 11
-88.562943
 21
42.814033
  0
LINE
  8
型材断面
  6
DOT
 10
-52.59361
 20
22.814033
 11
-52.59361
 21
42.814033
  0
LINE
  8
型材断面
  6
DASHDOT
 10
-53.84361
 20
22.814033
 11
-53.84361
 21
42.814033
  0
LINE
  8
型材断面
  6
DOT
 10
-55.09361
 20
22.814033
 11
-55.09361
 21
42.814033
  0
LINE
  8
型材断面
  6
DOT
 10
11.845062
 20
22.814033
 11
11.845062
 21
42.814033
  0
LINE
  8
型材断面
  6
DASHDOT
 10
13.095062
 20
22.814033
 11
13.095062
 21
42.814033
  0
LINE
  8
型材断面
  6
DOT
 10
14.345062
 20
22.814033
 11
14.345062
 21
42.814033
  0
LINE
  8
型材断面
  6
DOT
 10
-21.62427
 20
22.814033
 11
-21.62427
 21
42.814033
  0
LINE
  8
型材断面
  6
DASHDOT
 10
-20.37427
 20
22.814033
 11
-20.37427
 21
42.814033
  0
LINE
  8
型材断面
  6
DOT
 10
-19.12427
 20
22.814033
 11
-19.12427
 21
42.814033
  0
TEXT
  7
TextStyle03
  8
文字
  6
CONTINUOUS
 10
122.775
 20
-76.7
  1
網入り6.8t
 40
3.0
 72
     5
 11
139.4625
 21
-76.7
  0
TEXT
  7
TextStyle03
  8
文字
  6
CONTINUOUS
 10
129.45
 20
-81.375
  1
×５枚
 40
3.0
 72
     5
 11
139.2
 21
-81.375
  0
TEXT
  7
TextStyle03
  8
文字
  6
CONTINUOUS
 10
-45.025
 20
9.325
  1
可動装置側
 40
3.0
 72
     5
 11
-28.525
 21
9.325
  0
TEXT
  7
TextStyle03
  8
文字
  6
CONTINUOUS
 10
-45.025
 20
53.3
  1
可動装置側
 40
3.0
 72
     5
 11
-28.525
 21
53.3
  0
TEXT
  7
TextStyle03
  8
文字
  6
CONTINUOUS
 10
-158.45
 20
79.425
  1
はケーシング位置を示す
 40
3.0
 72
     5
 11
-121.7
 21
79.425
  0
TEXT
  7
TextStyle03
  8
文字
  6
CONTINUOUS
 10
-158.45
 20
76.05
  1
４ヶ所中1ヶ所に設定
 40
3.0
 72
     5
 11
-126.7625
 21
76.05
  0
TEXT
  7
TextStyle03
  8
文字
  6
CONTINUOUS
 10
-158.45
 20
84.95
  1
は排水穴位置を示す
 40
3.0
 72
     5
 11
-128.45
 21
84.95
  0
TEXT
  7
TextStyle03
  8
文字
  6
CONTINUOUS
 10
-141.4
 20
11.275
  1
アンカーピッチ
 40
3.0
 50
90.0
 72
     5
 11
-141.4
 21
34.525
  0
TEXT
  7
TextStyle03
  8
文字
  6
CONTINUOUS
 10
-109.7
 20
80.275
  1
アンカーピッチ
 40
3.0
 72
     5
 11
-86.45
 21
80.275
  0
TEXT
  7
TextStyle03
  8
文字
  6
CONTINUOUS
 10
-162.175
 20
70.075
  1
アンカー数量　１８ヶ所
 40
3.0
 72
     5
 11
-125.425
 21
70.075
  0
TEXT
  7
TextStyle03
  8
文字
  6
CONTINUOUS
 10
-162.25
 20
64.3
  1
アームユニット数　４ヶ所
 40
3.0
 72
     5
 11
-122.125
 21
64.3
  0
TEXT
  7
TextStyle03
  8
文字
  6
CONTINUOUS
 10
78.1
 20
125.25
  1
シリーズ：ＳＴＤＬ
 40
5.0
 72
     5
 11
128.1
 21
125.25
  0
TEXT
  7
TextStyle03
  8
文字
  6
CONTINUOUS
 10
78.1
 20
119.625
  1
　　　　　（上下可動）600×5000タイプ
 40
5.0
 72
     5
 11
181.5375
 21
119.625
  0
TEXT
  7
TextStyle03
  8
文字
  6
CONTINUOUS
 10
78.1
 20
114.0
  1
図面名　：外観姿図
 40
5.0
 72
     5
 11
128.1
 21
114.0
  0
TEXT
  7
TextStyle03
  8
文字
  6
CONTINUOUS
 10
78.1
 20
108.375
  1
　　　　　　
 40
5.0
 72
     5
 11
111.225
 21
108.375
  0
TEXT
  7
TextStyle03
  8
文字
  6
CONTINUOUS
 10
77.425
 20
103.975
  1
ＮＳコード：ＮＳＤＳＬ
 40
5.0
 72
     5
 11
138.675
 21
103.975
  0
INSERT
  2
*DIM_0002
  8
寸法
  6
CONTINUOUS
 10
0.0
 20
0.0
  0
INSERT
  2
*DIM_0003
  8
寸法
  6
CONTINUOUS
 10
0.0
 20
0.0
  0
INSERT
  2
*DIM_0004
  8
寸法
  6
CONTINUOUS
 10
0.0
 20
0.0
  0
INSERT
  2
*DIM_0005
  8
寸法
  6
CONTINUOUS
 10
0.0
 20
0.0
  0
INSERT
  2
*DIM_0006
  8
寸法
  6
CONTINUOUS
 10
0.0
 20
0.0
  0
INSERT
  2
*DIM_0007
  8
寸法
  6
CONTINUOUS
 10
0.0
 20
0.0
  0
INSERT
  2
*DIM_0008
  8
寸法
  6
CONTINUOUS
 10
0.0
 20
0.0
  0
INSERT
  2
*DIM_0009
  8
寸法
  6
CONTINUOUS
 10
0.0
 20
0.0
  0
INSERT
  2
*DIM_0010
  8
寸法
  6
CONTINUOUS
 10
0.0
 20
0.0
  0
INSERT
  2
*DIM_0011
  8
寸法
  6
CONTINUOUS
 10
0.0
 20
0.0
  0
INSERT
  2
*DIM_0012
  8
寸法
  6
CONTINUOUS
 10
0.0
 20
0.0
  0
INSERT
  2
*DIM_0013
  8
寸法
  6
CONTINUOUS
 10
0.0
 20
0.0
  0
INSERT
  2
*DIM_0014
  8
寸法
  6
CONTINUOUS
 10
0.0
 20
0.0
  0
INSERT
  2
*DIM_0015
  8
寸法
  6
CONTINUOUS
 10
0.0
 20
0.0
  0
INSERT
  2
*DIM_0016
  8
寸法
  6
CONTINUOUS
 10
0.0
 20
0.0
  0
INSERT
  2
*DIM_0017
  8
寸法
  6
CONTINUOUS
 10
0.0
 20
0.0
  0
INSERT
  2
*DIM_0023
  8
寸法
  6
CONTINUOUS
 10
0.0
 20
0.0
  0
INSERT
  2
*DIM_0024
  8
寸法
  6
CONTINUOUS
 10
0.0
 20
0.0
  0
INSERT
  2
*DIM_0025
  8
寸法
  6
CONTINUOUS
 10
0.0
 20
0.0
  0
INSERT
  2
*DIM_0026
  8
寸法
  6
CONTINUOUS
 10
0.0
 20
0.0
  0
INSERT
  2
*DIM_0027
  8
寸法
  6
CONTINUOUS
 10
0.0
 20
0.0
  0
INSERT
  2
*DIM_0028
  8
寸法
  6
CONTINUOUS
 10
0.0
 20
0.0
  0
INSERT
  2
*DIM_0029
  8
寸法
  6
CONTINUOUS
 10
0.0
 20
0.0
  0
INSERT
  2
*DIM_0030
  8
寸法
  6
CONTINUOUS
 10
0.0
 20
0.0
  0
LINE
  8
別途部材
  6
CONTINUOUS
 10
48.29106
 20
20.747365
 11
47.89106
 21
21.147365
  0
LINE
  8
別途部材
  6
CONTINUOUS
 10
46.224393
 20
22.814033
 11
38.165137
 21
30.87329
  0
LINE
  8
別途部材
  6
CONTINUOUS
 10
47.89106
 20
21.147365
 11
47.89106
 21
32.814033
  0
LINE
  8
別途部材
  6
CONTINUOUS
 10
48.29106
 20
20.747365
 11
48.29106
 21
32.814033
  0
LINE
  8
別途部材
  6
CONTINUOUS
 10
48.29106
 20
44.8807
 11
47.89106
 21
44.4807
  0
LINE
  8
別途部材
  6
CONTINUOUS
 10
46.224393
 20
42.814033
 11
38.165137
 21
34.754775
  0
LINE
  8
別途部材
  6
CONTINUOUS
 10
47.89106
 20
44.4807
 11
47.89106
 21
32.814033
  0
LINE
  8
別途部材
  6
CONTINUOUS
 10
48.29106
 20
44.8807
 11
48.29106
 21
32.814033
  0
LINE
  8
別途部材
  6
CONTINUOUS
 10
47.89106
 20
44.4807
 11
-37.10894
 21
44.4807
  0
LINE
  8
別途部材
  6
CONTINUOUS
 10
48.29106
 20
44.8807
 11
-37.10894
 21
44.8807
  0
LINE
  8
別途部材
  6
CONTINUOUS
 10
48.29106
 20
20.747365
 11
-37.10894
 21
20.747365
  0
LINE
  8
別途部材
  6
CONTINUOUS
 10
47.89106
 20
21.147365
 11
-37.10894
 21
21.147365
  0
LINE
  8
別途部材
  6
CONTINUOUS
 10
-122.50894
 20
20.747365
 11
-122.10894
 21
21.147365
  0
LINE
  8
別途部材
  6
CONTINUOUS
 10
-120.442273
 20
22.814033
 11
-112.383018
 21
30.87329
  0
LINE
  8
別途部材
  6
CONTINUOUS
 10
-122.10894
 20
21.147365
 11
-122.10894
 21
32.814033
  0
LINE
  8
別途部材
  6
CONTINUOUS
 10
-122.50894
 20
20.747365
 11
-122.50894
 21
32.814033
  0
LINE
  8
別途部材
  6
CONTINUOUS
 10
-122.50894
 20
44.8807
 11
-122.10894
 21
44.4807
  0
LINE
  8
別途部材
  6
CONTINUOUS
 10
-120.442273
 20
42.814033
 11
-112.383018
 21
34.754775
  0
LINE
  8
別途部材
  6
CONTINUOUS
 10
-122.10894
 20
44.4807
 11
-122.10894
 21
32.814033
  0
LINE
  8
別途部材
  6
CONTINUOUS
 10
-122.50894
 20
44.8807
 11
-122.50894
 21
32.814033
  0
LINE
  8
別途部材
  6
CONTINUOUS
 10
-122.10894
 20
44.4807
 11
-37.10894
 21
44.4807
  0
LINE
  8
別途部材
  6
CONTINUOUS
 10
-122.50894
 20
44.8807
 11
-37.10894
 21
44.8807
  0
LINE
  8
別途部材
  6
CONTINUOUS
 10
-122.50894
 20
20.747365
 11
-37.10894
 21
20.747365
  0
LINE
  8
別途部材
  6
CONTINUOUS
 10
-122.10894
 20
21.147365
 11
-37.10894
 21
21.147365
  0
LINE
  8
別途部材
  6
CONTINUOUS
 62
    96
 10
135.757657
 20
21.147365
 11
136.757657
 21
20.747365
  0
LINE
  8
別途部材
  6
CONTINUOUS
 62
    96
 10
135.757657
 20
21.147365
 11
135.757657
 21
32.814033
  0
LINE
  8
別途部材
  6
CONTINUOUS
 10
136.757657
 20
20.747365
 11
136.757657
 21
32.814033
  0
LINE
  8
別途部材
  6
CONTINUOUS
 62
    96
 10
135.757657
 20
44.4807
 11
136.757657
 21
44.8807
  0
LINE
  8
別途部材
  6
CONTINUOUS
 62
    96
 10
135.757657
 20
44.4807
 11
135.757657
 21
32.814033
  0
LINE
  8
別途部材
  6
CONTINUOUS
 10
136.757657
 20
44.8807
 11
136.757657
 21
32.814033
  0
ARC
  8
別途部材
  6
CONTINUOUS
 10
142.465993
 20
32.814033
 40
12.041667
 50
123.855033
 51
236.144967
  0
LINE
  8
別途部材
  6
DOT
 62
    96
 10
47.89106
 20
-62.87628
 11
48.29106
 21
-63.87628
  0
ARC
  8
別途部材
  6
DOT
 10
36.224392
 20
-69.584615
 40
12.041667
 50
33.855033
 51
90.0
  0
LINE
  8
別途部材
  6
DOT
 10
36.224393
 20
-57.542947
 11
-37.10894
 21
-57.542947
  0
LINE
  8
別途部材
  6
DOT
 62
    96
 10
47.89106
 20
-62.87628
 11
-37.10894
 21
-62.87628
  0
LINE
  8
別途部材
  6
DOT
 10
48.29106
 20
-63.87628
 11
-37.10894
 21
-63.87628
  0
LINE
  8
別途部材
  6
DOT
 62
    96
 10
-122.10894
 20
-62.87628
 11
-122.50894
 21
-63.87628
  0
ARC
  8
別途部材
  6
DOT
 10
-110.442272
 20
-69.584615
 40
12.041667
 50
90.0
 51
146.144967
  0
LINE
  8
別途部材
  6
DOT
 10
-110.442273
 20
-57.542947
 11
-37.10894
 21
-57.542947
  0
LINE
  8
別途部材
  6
DOT
 62
    96
 10
-122.10894
 20
-62.87628
 11
-37.10894
 21
-62.87628
  0
LINE
  8
別途部材
  6
DOT
 10
-122.50894
 20
-63.87628
 11
-37.10894
 21
-63.87628
  0
INSERT
  2
*GRP_0018
  8
別途部材
  6
CONTINUOUS
 10
0.0
 20
0.0
  0
INSERT
  2
*GRP_0031
  8
別途部材
  6
DOT
 10
0.0
 20
0.0
  0
INSERT
  2
*GRP_0032
  8
別途部材
  6
DOT
 10
0.0
 20
0.0
  0
INSERT
  2
*GRP_0033
  8
別途部材
  6
DOT
 10
0.0
 20
0.0
  0
INSERT
  2
*GRP_0034
  8
別途部材
  6
DOT
 10
0.0
 20
0.0
  0
INSERT
  2
*GRP_0035
  8
別途部材
  6
DOT
 10
0.0
 20
0.0
  0
INSERT
  2
*GRP_0036
  8
別途部材
  6
DOT
 10
0.0
 20
0.0
  0
LINE
  8
曲げ物
  6
CONTINUOUS
 10
141.310947
 20
-83.118728
 11
141.310947
 21
-63.785395
  0
LINE
  8
曲げ物
  6
CONTINUOUS
 10
141.310947
 20
-63.785395
 11
109.177615
 21
-63.785395
  0
LINE
  8
曲げ物
  6
CONTINUOUS
 10
109.177615
 20
-63.785395
 11
109.177615
 21
-83.118728
  0
LINE
  8
曲げ物
  6
CONTINUOUS
 10
141.310947
 20
-83.118728
 11
109.177615
 21
-83.118728
  0
ENDSEC
  0
EOF
