  0
SECTION
  2
HEADER
  9
$EXTMIN
 10
-210.0
 20
-148.5
  9
$EXTMAX
 10
210.0
 20
148.5
  9
$PDMODE
 70
    32
  9
$PDSIZE
 40
1.5
  9
$LTSCALE
 40
10.0
  0
ENDSEC
  0
SECTION
  2
TABLES
  0
TABLE
  2
LTYPE
 70
    15
  0
LTYPE
  2
CONTINUOUS
 70
    64
  3
実線
 72
    65
 73
     0
 40
0.0
  0
LTYPE
  2
DASHED
 70
    64
  3
破線A
 72
    65
 73
     2
 40
0.6
 49
0.4
 49
-0.2
  0
LTYPE
  2
DASHEDX2
 70
    64
  3
破線B
 72
    65
 73
     2
 40
1.3
 49
0.9
 49
-0.4
  0
LTYPE
  2
DASHDOT
 70
    64
  3
１点鎖線A
 72
    65
 73
     4
 40
0.5375
 49
0.375
 49
-0.05
 49
0.0625
 49
-0.05
  0
LTYPE
  2
DASHDOTX2
 70
    64
  3
１点鎖線B
 72
    65
 73
     4
 40
1.075
 49
0.75
 49
-0.1
 49
0.125
 49
-0.1
  0
LTYPE
  2
DIVIDE2
 70
    64
  3
２点鎖線A
 72
    65
 73
     6
 40
0.5125
 49
0.3
 49
-0.0375
 49
0.05
 49
-0.0375
 49
0.05
 49
-0.0375
  0
LTYPE
  2
DIVIDE
 70
    64
  3
２点鎖線B
 72
    65
 73
     6
 40
1.05
 49
0.55
 49
-0.1
 49
0.1
 49
-0.1
 49
0.1
 49
-0.1
  0
LTYPE
  2
DOT
 70
    64
  3
点線A
 72
    65
 73
     2
 40
0.1125
 49
0.0625
 49
-0.05
  0
LTYPE
  2
DOTX2
 70
    64
  3
点線B
 72
    65
 73
     2
 40
0.275
 49
0.15
 49
-0.125
  0
LTYPE
  2
CONTINUOUS
 70
    64
  3
実線
 72
    65
 73
     0
 40
0.0
  0
LTYPE
  2
CONTINUOUS
 70
    64
  3
実線
 72
    65
 73
     0
 40
0.0
  0
LTYPE
  2
CONTINUOUS
 70
    64
  3
実線
 72
    65
 73
     0
 40
0.0
  0
LTYPE
  2
CONTINUOUS
 70
    64
  3
実線
 72
    65
 73
     0
 40
0.0
  0
LTYPE
  2
CONTINUOUS
 70
    64
  3
実線
 72
    65
 73
     0
 40
0.0
  0
LTYPE
  2
CONTINUOUS
 70
    64
  3
実線
 72
    65
 73
     0
 40
0.0
  0
ENDTAB
  0
TABLE
  2
LAYER
 70
    34
  0
LAYER
  2
通り芯
 70
     0
 62
    15
  6
CONTINUOUS
  0
LAYER
  2
補助線
 70
     0
 62
    16
  6
DOT
  0
LAYER
  2
躯体
 70
     0
 62
    31
  6
CONTINUOUS
  0
LAYER
  2
型材
 70
     0
 62
    32
  6
CONTINUOUS
  0
LAYER
  2
型材断面
 70
     0
 62
    47
  6
CONTINUOUS
  0
LAYER
  2
ガラス
 70
     0
 62
    48
  6
CONTINUOUS
  0
LAYER
  2
ゴム等
 70
     0
 62
    63
  6
CONTINUOUS
  0
LAYER
  2
ボルト／ビス
 70
     0
 62
    64
  6
CONTINUOUS
  0
LAYER
  2
文字
 70
     0
 62
    79
  6
CONTINUOUS
  0
LAYER
  2
寸法
 70
     0
 62
    80
  6
CONTINUOUS
  0
LAYER
  2
ﾊｯﾁﾝｸﾞ
 70
     0
 62
    95
  6
CONTINUOUS
  0
LAYER
  2
別途部材
 70
     0
 62
    96
  6
CONTINUOUS
  0
LAYER
  2
曲げ物
 70
     0
 62
   111
  6
CONTINUOUS
  0
LAYER
  2
鉄骨等
 70
     0
 62
   112
  6
CONTINUOUS
  0
LAYER
  2
St
 70
     0
 62
   127
  6
CONTINUOUS
  0
LAYER
  2
その他部品等
 70
     0
 62
   128
  6
CONTINUOUS
  0
LAYER
  2
ｶﾞｽｹｯﾄ
 70
     0
 62
   143
  6
CONTINUOUS
  0
LAYER
  2
ｽｹｯﾁ
 70
     0
 62
    14
  6
CONTINUOUS
  0
LAYER
  2
0
 70
     0
 62
    17
  6
CONTINUOUS
  0
LAYER
  2
1
 70
     0
 62
    30
  6
CONTINUOUS
  0
LAYER
  2
4
 70
     0
 62
    33
  6
CONTINUOUS
  0
LAYER
  2
ﾚｲﾔ3
 70
     0
 62
    46
  6
CONTINUOUS
  0
LAYER
  2
外形線
 70
     0
 62
    49
  6
CONTINUOUS
  0
LAYER
  2
部品
 70
     0
 62
    14
  6
CONTINUOUS
  0
LAYER
  2
サッシ芯
 70
     0
 62
    17
  6
DASHDOTX2
  0
LAYER
  2
寸法線
 70
     0
 62
    62
  6
CONTINUOUS
  0
LAYER
  2
姿図外形線
 70
     0
 62
    65
  6
CONTINUOUS
  0
LAYER
  2
姿補助線
 70
     0
 62
    30
  6
CONTINUOUS
  0
LAYER
  2
透視線
 70
     0
 62
    78
  6
DOT
  0
LAYER
  2
用紙
 70
     0
 62
    81
  6
CONTINUOUS
  0
LAYER
  2
実線図枠
 70
     0
 62
    94
  6
CONTINUOUS
  0
LAYER
  2
補助図枠
 70
     0
 62
    97
  6
CONTINUOUS
  0
LAYER
  2
建具記号
 70
     0
 62
   110
  6
CONTINUOUS
  0
LAYER
  2
補助文字
 70
     0
 62
   113
  6
CONTINUOUS
  0
ENDTAB
  0
TABLE
  2
STYLE
 70
    10
  0
STYLE
  2
STANDARD
 70
     0
 40
1.0
 41
1.0
 42
1.0
 50
0.0
 71
     0
  3
TXT
  4
BIGFONT
  0
STYLE
  2
TATE
 70
     4
 40
1.0
 41
1.0
 42
1.0
 50
0.0
 71
     0
  3
TXT
  4
BIGFONT
  0
STYLE
  2
TextStyle03
 70
     0
 40
1.0
 41
1.0
 42
1.0
 50
0.0
 71
     0
  3
MONOTXT
  4
BIGFONT
  0
STYLE
  2
TextStyle04
 70
     0
 40
1.0
 41
1.0
 42
1.0
 50
0.0
 71
     0
  3
MONOTXT
  4
BIGFONT
  0
STYLE
  2
TextStyle05
 70
     0
 40
1.0
 41
1.0
 42
1.0
 50
0.0
 71
     0
  3
MONOTXT
  4
BIGFONT
  0
STYLE
  2
TextStyle06
 70
     0
 40
1.0
 41
1.0
 42
1.0
 50
0.0
 71
     0
  3
MONOTXT
  4
BIGFONT
  0
STYLE
  2
TextStyle07
 70
     0
 40
1.0
 41
1.0
 42
1.0
 50
0.0
 71
     0
  3
MONOTXT
  4
BIGFONT
  0
STYLE
  2
TextStyle08
 70
     0
 40
1.0
 41
1.0
 42
1.0
 50
0.0
 71
     0
  3
MONOTXT
  4
BIGFONT
  0
STYLE
  2
TextStyle09
 70
     0
 40
1.0
 41
1.0
 42
1.0
 50
0.0
 71
     0
  3
MONOTXT
  4
BIGFONT
  0
STYLE
  2
TextStyle10
 70
     0
 40
1.0
 41
1.0
 42
1.0
 50
0.0
 71
     0
  3
MONOTXT
  4
BIGFONT
  0
ENDTAB
  0
ENDSEC
  0
SECTION
  2
BLOCKS
  0
BLOCK
  2
*GRP_0001
 70
    65
 10
0.0
 20
0.0
  0
LINE
  8
型材断面
  6
CONTINUOUS
 10
195.0
 20
133.5
 11
195.0
 21
-133.5
  0
LINE
  8
型材断面
  6
CONTINUOUS
 10
195.0
 20
-133.5
 11
-185.0
 21
-133.5
  0
LINE
  8
型材断面
  6
CONTINUOUS
 10
-185.0
 20
-133.5
 11
-185.0
 21
133.5
  0
LINE
  8
型材断面
  6
CONTINUOUS
 10
195.0
 20
133.5
 11
-185.0
 21
133.5
  0
LINE
  8
型材断面
  6
CONTINUOUS
 10
145.0
 20
-133.5
 11
145.0
 21
-118.5
  0
LINE
  8
型材断面
  6
CONTINUOUS
 10
195.0
 20
-118.5
 11
145.0
 21
-118.5
  0
ENDBLK
  0
BLOCK
  2
*DIM_0002
 70
    65
 10
0.0
 20
0.0
  0
LINE
  8
寸法
  6
BYBLOCK
 62
     0
 10
-4.287135
 20
-64.87628
 11
20.682515
 21
-64.87628
  0
LINE
  8
寸法
  6
BYBLOCK
 62
     0
 10
20.682515
 20
-70.209613
 11
20.682515
 21
-64.87628
  0
POINT
  8
寸法
 62
     0
 10
20.682515
 20
-70.209613
  0
POINT
  8
寸法
 62
     0
 10
20.682515
 20
-64.87628
  0
TEXT
  7
TextStyle03
  8
寸法
  6
CONTINUOUS
 62
     0
 10
20.3
 20
-69.9875
  1
160
 40
3.0
 50
90.0
 72
     5
 11
20.3
 21
-65.1125
  0
ENDBLK
  0
BLOCK
  2
*DIM_0003
 70
    65
 10
0.0
 20
0.0
  0
LINE
  8
寸法
  6
BYBLOCK
 62
     0
 10
4.712865
 20
-13.121378
 11
-78.620467
 21
-13.121378
  0
POINT
  8
寸法
 62
     0
 10
4.712865
 20
-13.121378
  0
POINT
  8
寸法
 62
     0
 10
-78.620467
 20
-13.121378
  0
TEXT
  7
TextStyle03
  8
寸法
  6
CONTINUOUS
 62
     0
 10
-48.69375
 20
-12.75
  1
呼称寸法　2500
 40
3.0
 72
     5
 11
-25.25625
 21
-12.75
  0
ENDBLK
  0
BLOCK
  2
*DIM_0004
 70
    65
 10
0.0
 20
0.0
  0
LINE
  8
寸法
  6
BYBLOCK
 62
     0
 10
-61.9538
 20
19.183902
 11
-61.9538
 21
14.01842
  0
LINE
  8
寸法
  6
BYBLOCK
 62
     0
 10
-11.953805
 20
19.183902
 11
-11.953805
 21
14.01842
  0
LINE
  8
寸法
  6
BYBLOCK
 62
     0
 10
-61.9538
 20
14.01842
 11
-11.953805
 21
14.01842
  0
POINT
  8
寸法
 62
     0
 10
-61.9538
 20
14.01842
  0
POINT
  8
寸法
 62
     0
 10
-11.953805
 20
14.01842
  0
TEXT
  7
TextStyle03
  8
寸法
  6
CONTINUOUS
 62
     0
 10
-40.23125
 20
14.375
  1
1500
 40
3.0
 72
     5
 11
-33.66875
 21
14.375
  0
ENDBLK
  0
BLOCK
  2
*DIM_0005
 70
    65
 10
0.0
 20
0.0
  0
LINE
  8
寸法
  6
BYBLOCK
 62
     0
 10
38.732515
 20
22.814033
 11
38.732515
 21
42.814033
  0
POINT
  8
寸法
 62
     0
 10
38.732515
 20
22.814033
  0
POINT
  8
寸法
 62
     0
 10
38.732515
 20
42.814033
  0
TEXT
  7
TextStyle03
  8
寸法
  6
CONTINUOUS
 62
     0
 10
38.35
 20
21.925
  1
呼称寸法　600
 40
3.0
 50
90.0
 72
     5
 11
38.35
 21
43.675
  0
ENDBLK
  0
BLOCK
  2
*DIM_0006
 70
    65
 10
0.0
 20
0.0
  0
LINE
  8
寸法
  6
BYBLOCK
 62
     0
 10
88.912797
 20
33.814033
 11
88.912797
 21
60.666798
  0
LINE
  8
寸法
  6
BYBLOCK
 62
     0
 10
94.24613
 20
60.666798
 11
88.912797
 21
60.666798
  0
POINT
  8
寸法
 62
     0
 10
94.24613
 20
60.666798
  0
POINT
  8
寸法
 62
     0
 10
88.912797
 20
60.666798
  0
TEXT
  7
TextStyle03
  8
寸法
  6
CONTINUOUS
 62
     0
 10
89.1375
 20
61.025
  1
160
 40
3.0
 72
     5
 11
94.0125
 21
61.025
  0
ENDBLK
  0
BLOCK
  2
*DIM_0007
 70
    65
 10
0.0
 20
0.0
  0
LINE
  8
寸法
  6
BYBLOCK
 62
     0
 10
94.24613
 20
45.4807
 11
94.24613
 21
60.666798
  0
LINE
  8
寸法
  6
BYBLOCK
 62
     0
 10
101.029413
 20
45.7807
 11
101.029413
 21
60.666798
  0
LINE
  8
寸法
  6
BYBLOCK
 62
     0
 10
94.24613
 20
60.666798
 11
101.029413
 21
60.666798
  0
POINT
  8
寸法
 62
     0
 10
94.24613
 20
60.666798
  0
POINT
  8
寸法
 62
     0
 10
101.029413
 20
60.666798
  0
TEXT
  7
TextStyle03
  8
寸法
  6
CONTINUOUS
 62
     0
 10
101.925
 20
61.025
  1
203.5
 40
3.0
 72
     5
 11
110.175
 21
61.025
  0
ENDBLK
  0
BLOCK
  2
*DIM_0008
 70
    65
 10
0.0
 20
0.0
  0
LINE
  8
寸法
  6
BYBLOCK
 62
     0
 10
97.06877
 20
45.094035
 11
38.732515
 21
45.094035
  0
LINE
  8
寸法
  6
BYBLOCK
 62
     0
 10
38.732515
 20
42.814033
 11
38.732515
 21
45.094035
  0
POINT
  8
寸法
 62
     0
 10
38.732515
 20
42.814033
  0
POINT
  8
寸法
 62
     0
 10
38.732515
 20
45.094035
  0
TEXT
  7
TextStyle03
  8
寸法
  6
CONTINUOUS
 62
     0
 10
38.35
 20
47.41875
  1
68.4
 40
3.0
 50
90.0
 72
     5
 11
38.35
 21
53.98125
  0
ENDBLK
  0
BLOCK
  2
*DIM_0009
 70
    65
 10
0.0
 20
0.0
  0
LINE
  8
寸法
  6
BYBLOCK
 62
     0
 10
97.06877
 20
20.53403
 11
38.732515
 21
20.53403
  0
LINE
  8
寸法
  6
BYBLOCK
 62
     0
 10
38.732515
 20
22.814033
 11
38.732515
 21
20.53403
  0
POINT
  8
寸法
 62
     0
 10
38.732515
 20
22.814033
  0
POINT
  8
寸法
 62
     0
 10
38.732515
 20
20.53403
  0
TEXT
  7
TextStyle03
  8
寸法
  6
CONTINUOUS
 62
     0
 10
38.35
 20
11.61875
  1
68.4
 40
3.0
 50
90.0
 72
     5
 11
38.35
 21
18.18125
  0
ENDBLK
  0
BLOCK
  2
*DIM_0010
 70
    65
 10
0.0
 20
0.0
  0
LINE
  8
寸法
  6
BYBLOCK
 62
     0
 10
7.379532
 20
-70.209613
 11
20.682515
 21
-70.209613
  0
LINE
  8
寸法
  6
BYBLOCK
 62
     0
 10
7.679532
 20
-76.992895
 11
20.682515
 21
-76.992895
  0
LINE
  8
寸法
  6
BYBLOCK
 62
     0
 10
20.682515
 20
-70.209613
 11
20.682515
 21
-76.992895
  0
POINT
  8
寸法
 62
     0
 10
20.682515
 20
-70.209613
  0
POINT
  8
寸法
 62
     0
 10
20.682515
 20
-76.992895
  0
TEXT
  7
TextStyle03
  8
寸法
  6
CONTINUOUS
 62
     0
 10
20.3
 20
-86.175
  1
203.5
 40
3.0
 50
90.0
 72
     5
 11
20.3
 21
-77.925
  0
ENDBLK
  0
BLOCK
  2
*DIM_0011
 70
    65
 10
0.0
 20
0.0
  0
LINE
  8
寸法
  6
BYBLOCK
 62
     0
 10
6.992867
 20
-73.032252
 11
6.992867
 21
-13.121378
  0
LINE
  8
寸法
  6
BYBLOCK
 62
     0
 10
4.712865
 20
-13.121378
 11
6.992867
 21
-13.121378
  0
POINT
  8
寸法
 62
     0
 10
4.712865
 20
-13.121378
  0
POINT
  8
寸法
 62
     0
 10
6.992867
 20
-13.121378
  0
TEXT
  7
TextStyle03
  8
寸法
  6
CONTINUOUS
 62
     0
 10
9.31875
 20
-12.75
  1
68.4
 40
3.0
 72
     5
 11
15.88125
 21
-12.75
  0
ENDBLK
  0
BLOCK
  2
*DIM_0012
 70
    65
 10
0.0
 20
0.0
  0
LINE
  8
寸法
  6
BYBLOCK
 62
     0
 10
-80.900472
 20
-73.032252
 11
-80.900472
 21
-13.121378
  0
LINE
  8
寸法
  6
BYBLOCK
 62
     0
 10
-78.620467
 20
-13.121378
 11
-80.900472
 21
-13.121378
  0
POINT
  8
寸法
 62
     0
 10
-78.620467
 20
-13.121378
  0
POINT
  8
寸法
 62
     0
 10
-80.900472
 20
-13.121378
  0
TEXT
  7
TextStyle03
  8
寸法
  6
CONTINUOUS
 62
     0
 10
-89.80625
 20
-12.75
  1
68.4
 40
3.0
 72
     5
 11
-83.24375
 21
-12.75
  0
ENDBLK
  0
BLOCK
  2
*DIM_0013
 70
    65
 10
0.0
 20
0.0
  0
LINE
  8
寸法
  6
BYBLOCK
 62
     0
 10
58.99942
 20
-62.785395
 11
58.99942
 21
-51.936743
  0
LINE
  8
寸法
  6
BYBLOCK
 62
     0
 10
99.666087
 20
-62.785395
 11
99.666087
 21
-51.936743
  0
LINE
  8
寸法
  6
BYBLOCK
 62
     0
 10
58.99942
 20
-51.936743
 11
99.666087
 21
-51.936743
  0
POINT
  8
寸法
 62
     0
 10
58.99942
 20
-51.936743
  0
POINT
  8
寸法
 62
     0
 10
99.666087
 20
-51.936743
  0
TEXT
  7
TextStyle03
  8
寸法
  6
CONTINUOUS
 62
     0
 10
76.04375
 20
-51.575
  1
1220
 40
3.0
 72
     5
 11
82.60625
 21
-51.575
  0
ENDBLK
  0
BLOCK
  2
*DIM_0014
 70
    65
 10
0.0
 20
0.0
  0
LINE
  8
寸法
  6
BYBLOCK
 62
     0
 10
100.666087
 20
-63.785395
 11
110.131918
 21
-63.785395
  0
LINE
  8
寸法
  6
BYBLOCK
 62
     0
 10
100.666087
 20
-83.118728
 11
110.131918
 21
-83.118728
  0
LINE
  8
寸法
  6
BYBLOCK
 62
     0
 10
110.131918
 20
-63.785395
 11
110.131918
 21
-83.118728
  0
POINT
  8
寸法
 62
     0
 10
110.131918
 20
-63.785395
  0
POINT
  8
寸法
 62
     0
 10
110.131918
 20
-83.118728
  0
TEXT
  7
TextStyle03
  8
寸法
  6
CONTINUOUS
 62
     0
 10
109.75
 20
-75.9125
  1
580
 40
3.0
 50
90.0
 72
     5
 11
109.75
 21
-71.0375
  0
ENDBLK
  0
BLOCK
  2
*DIM_0015
 70
    65
 10
0.0
 20
0.0
  0
LINE
  8
寸法
  6
BYBLOCK
 62
     0
 10
8.342993
 20
38.914033
 11
15.120285
 21
38.914033
  0
LINE
  8
寸法
  6
BYBLOCK
 62
     0
 10
15.120285
 20
42.814033
 11
15.120285
 21
38.914033
  0
POINT
  8
寸法
 62
     0
 10
15.120285
 20
42.814033
  0
POINT
  8
寸法
 62
     0
 10
15.120285
 20
38.914033
  0
TEXT
  7
TextStyle03
  8
寸法
  6
CONTINUOUS
 62
     0
 10
14.875
 20
43.4875
  1
117
 40
3.0
 50
90.0
 72
     5
 11
14.875
 21
48.3625
  0
ENDBLK
  0
BLOCK
  2
*DIM_0016
 70
    65
 10
0.0
 20
0.0
  0
LINE
  8
寸法
  6
BYBLOCK
 62
     0
 10
8.342993
 20
26.714033
 11
15.120285
 21
26.714033
  0
LINE
  8
寸法
  6
BYBLOCK
 62
     0
 10
15.120285
 20
22.814033
 11
15.120285
 21
26.714033
  0
POINT
  8
寸法
 62
     0
 10
15.120285
 20
22.814033
  0
POINT
  8
寸法
 62
     0
 10
15.120285
 20
26.714033
  0
TEXT
  7
TextStyle03
  8
寸法
  6
CONTINUOUS
 62
     0
 10
15.05
 20
17.0125
  1
117
 40
3.0
 50
90.0
 72
     5
 11
15.05
 21
21.8875
  0
ENDBLK
  0
BLOCK
  2
*GRP_0017
 70
    65
 10
0.0
 20
0.0
  0
LINE
  8
別途部材
  6
CONTINUOUS
 62
    96
 10
-80.287135
 20
-70.209613
 11
-80.687135
 21
-71.209613
  0
ARC
  8
別途部材
  6
CONTINUOUS
 10
-68.62047
 20
-76.917948
 40
12.041668
 50
90.0
 51
146.144967
  0
LINE
  8
別途部材
  6
CONTINUOUS
 10
-80.687135
 20
-71.209613
 11
-36.9538
 21
-71.209613
  0
LINE
  8
別途部材
  6
CONTINUOUS
 62
    96
 10
-80.287135
 20
-70.209613
 11
-36.9538
 21
-70.209613
  0
LINE
  8
別途部材
  6
CONTINUOUS
 10
-37.4538
 20
-63.87628
 11
-38.4538
 21
-64.87628
  0
LINE
  8
別途部材
  6
CONTINUOUS
 10
-39.4538
 20
-64.87628
 11
-40.4538
 21
-63.87628
  0
LINE
  8
別途部材
  6
CONTINUOUS
 10
-41.4538
 20
-63.87628
 11
-42.4538
 21
-64.87628
  0
LINE
  8
別途部材
  6
CONTINUOUS
 10
-40.4538
 20
-63.87628
 11
-41.4538
 21
-63.87628
  0
LINE
  8
別途部材
  6
CONTINUOUS
 10
-37.4538
 20
-63.87628
 11
-36.9538
 21
-63.87628
  0
LINE
  8
別途部材
  6
CONTINUOUS
 10
-43.4538
 20
-64.87628
 11
-44.4538
 21
-63.87628
  0
LINE
  8
別途部材
  6
CONTINUOUS
 10
-45.4538
 20
-63.87628
 11
-46.4538
 21
-64.87628
  0
LINE
  8
別途部材
  6
CONTINUOUS
 10
-44.4538
 20
-63.87628
 11
-45.4538
 21
-63.87628
  0
LINE
  8
別途部材
  6
CONTINUOUS
 10
-47.4538
 20
-64.87628
 11
-48.4538
 21
-63.87628
  0
LINE
  8
別途部材
  6
CONTINUOUS
 10
-49.4538
 20
-63.87628
 11
-50.4538
 21
-64.87628
  0
LINE
  8
別途部材
  6
CONTINUOUS
 10
-48.4538
 20
-63.87628
 11
-49.4538
 21
-63.87628
  0
LINE
  8
別途部材
  6
CONTINUOUS
 10
-51.4538
 20
-64.87628
 11
-52.4538
 21
-63.87628
  0
LINE
  8
別途部材
  6
CONTINUOUS
 10
-53.4538
 20
-63.87628
 11
-54.4538
 21
-64.87628
  0
LINE
  8
別途部材
  6
CONTINUOUS
 10
-52.4538
 20
-63.87628
 11
-53.4538
 21
-63.87628
  0
LINE
  8
別途部材
  6
CONTINUOUS
 10
-55.4538
 20
-64.87628
 11
-56.4538
 21
-63.87628
  0
LINE
  8
別途部材
  6
CONTINUOUS
 10
-57.4538
 20
-63.87628
 11
-58.4538
 21
-64.87628
  0
LINE
  8
別途部材
  6
CONTINUOUS
 10
-56.4538
 20
-63.87628
 11
-57.4538
 21
-63.87628
  0
LINE
  8
別途部材
  6
CONTINUOUS
 10
-59.4538
 20
-64.87628
 11
-60.4538
 21
-63.87628
  0
LINE
  8
別途部材
  6
CONTINUOUS
 10
-61.4538
 20
-63.87628
 11
-62.4538
 21
-64.87628
  0
LINE
  8
別途部材
  6
CONTINUOUS
 10
-60.4538
 20
-63.87628
 11
-61.4538
 21
-63.87628
  0
LINE
  8
別途部材
  6
CONTINUOUS
 10
-63.4538
 20
-64.87628
 11
-64.4538
 21
-63.87628
  0
LINE
  8
別途部材
  6
CONTINUOUS
 10
-65.4538
 20
-63.87628
 11
-66.4538
 21
-64.87628
  0
LINE
  8
別途部材
  6
CONTINUOUS
 10
-64.4538
 20
-63.87628
 11
-65.4538
 21
-63.87628
  0
LINE
  8
別途部材
  6
CONTINUOUS
 10
-62.4538
 20
-64.87628
 11
-63.4538
 21
-64.87628
  0
LINE
  8
別途部材
  6
CONTINUOUS
 10
-58.4538
 20
-64.87628
 11
-59.4538
 21
-64.87628
  0
LINE
  8
別途部材
  6
CONTINUOUS
 10
-54.4538
 20
-64.87628
 11
-55.4538
 21
-64.87628
  0
LINE
  8
別途部材
  6
CONTINUOUS
 10
-50.4538
 20
-64.87628
 11
-51.4538
 21
-64.87628
  0
LINE
  8
別途部材
  6
CONTINUOUS
 10
-46.4538
 20
-64.87628
 11
-47.4538
 21
-64.87628
  0
LINE
  8
別途部材
  6
CONTINUOUS
 10
-42.4538
 20
-64.87628
 11
-43.4538
 21
-64.87628
  0
LINE
  8
別途部材
  6
CONTINUOUS
 10
-39.4538
 20
-64.87628
 11
-38.4538
 21
-64.87628
  0
LINE
  8
別途部材
  6
CONTINUOUS
 10
-65.4538
 20
-63.87628
 11
-65.4538
 21
-70.209613
  0
LINE
  8
別途部材
  6
CONTINUOUS
 10
-66.4538
 20
-64.87628
 11
-66.4538
 21
-70.209613
  0
LINE
  8
別途部材
  6
CONTINUOUS
 10
-63.4538
 20
-64.87628
 11
-63.4538
 21
-70.209613
  0
LINE
  8
別途部材
  6
CONTINUOUS
 10
-64.4538
 20
-63.87628
 11
-64.4538
 21
-70.209613
  0
LINE
  8
別途部材
  6
CONTINUOUS
 10
-62.4538
 20
-64.87628
 11
-62.4538
 21
-70.209613
  0
LINE
  8
別途部材
  6
CONTINUOUS
 10
-61.4538
 20
-63.87628
 11
-61.4538
 21
-70.209613
  0
LINE
  8
別途部材
  6
CONTINUOUS
 10
-57.4538
 20
-63.87628
 11
-57.4538
 21
-70.209613
  0
LINE
  8
別途部材
  6
CONTINUOUS
 10
-56.4538
 20
-63.87628
 11
-56.4538
 21
-70.209613
  0
LINE
  8
別途部材
  6
CONTINUOUS
 10
-58.4538
 20
-64.87628
 11
-58.4538
 21
-70.209613
  0
LINE
  8
別途部材
  6
CONTINUOUS
 10
-59.4538
 20
-64.87628
 11
-59.4538
 21
-70.209613
  0
LINE
  8
別途部材
  6
CONTINUOUS
 10
-60.4538
 20
-63.87628
 11
-60.4538
 21
-70.209613
  0
LINE
  8
別途部材
  6
CONTINUOUS
 10
-55.4538
 20
-64.87628
 11
-55.4538
 21
-70.209613
  0
LINE
  8
別途部材
  6
CONTINUOUS
 10
-53.4538
 20
-63.87628
 11
-53.4538
 21
-70.209613
  0
LINE
  8
別途部材
  6
CONTINUOUS
 10
-52.4538
 20
-63.87628
 11
-52.4538
 21
-70.209613
  0
LINE
  8
別途部材
  6
CONTINUOUS
 10
-51.4538
 20
-64.87628
 11
-51.4538
 21
-70.209613
  0
LINE
  8
別途部材
  6
CONTINUOUS
 10
-50.4538
 20
-64.87628
 11
-50.4538
 21
-70.209613
  0
LINE
  8
別途部材
  6
CONTINUOUS
 10
-49.4538
 20
-63.87628
 11
-49.4538
 21
-70.209613
  0
LINE
  8
別途部材
  6
CONTINUOUS
 10
-54.4538
 20
-64.87628
 11
-54.4538
 21
-70.209613
  0
LINE
  8
別途部材
  6
CONTINUOUS
 10
-48.4538
 20
-63.87628
 11
-48.4538
 21
-70.209613
  0
LINE
  8
別途部材
  6
CONTINUOUS
 10
-47.4538
 20
-64.87628
 11
-47.4538
 21
-70.209613
  0
LINE
  8
別途部材
  6
CONTINUOUS
 10
-46.4538
 20
-64.87628
 11
-46.4538
 21
-70.209613
  0
LINE
  8
別途部材
  6
CONTINUOUS
 10
-44.4538
 20
-63.87628
 11
-44.4538
 21
-70.209613
  0
LINE
  8
別途部材
  6
CONTINUOUS
 10
-42.4538
 20
-64.87628
 11
-42.4538
 21
-70.209613
  0
LINE
  8
別途部材
  6
CONTINUOUS
 10
-41.4538
 20
-63.87628
 11
-41.4538
 21
-70.209613
  0
LINE
  8
別途部材
  6
CONTINUOUS
 10
-39.4538
 20
-64.87628
 11
-39.4538
 21
-70.209613
  0
LINE
  8
別途部材
  6
CONTINUOUS
 10
-38.4538
 20
-64.87628
 11
-38.4538
 21
-70.209613
  0
LINE
  8
別途部材
  6
CONTINUOUS
 10
-37.4538
 20
-63.87628
 11
-37.4538
 21
-70.209613
  0
LINE
  8
別途部材
  6
CONTINUOUS
 10
-40.4538
 20
-63.87628
 11
-40.4538
 21
-70.209613
  0
LINE
  8
別途部材
  6
CONTINUOUS
 10
-43.4538
 20
-64.87628
 11
-43.4538
 21
-70.209613
  0
LINE
  8
別途部材
  6
CONTINUOUS
 10
-45.4538
 20
-63.87628
 11
-45.4538
 21
-70.209613
  0
LINE
  8
別途部材
  6
CONTINUOUS
 10
-66.4538
 20
-64.87628
 11
-68.620467
 21
-64.87628
  0
LINE
  8
別途部材
  6
CONTINUOUS
 62
    96
 10
6.379532
 20
-70.209613
 11
6.779532
 21
-71.209613
  0
ARC
  8
別途部材
  6
CONTINUOUS
 10
-5.287131
 20
-76.917948
 40
12.041668
 50
33.855033
 51
90.0
  0
LINE
  8
別途部材
  6
CONTINUOUS
 10
6.779532
 20
-71.209613
 11
-36.9538
 21
-71.209613
  0
LINE
  8
別途部材
  6
CONTINUOUS
 62
    96
 10
6.379532
 20
-70.209613
 11
-36.9538
 21
-70.209613
  0
LINE
  8
別途部材
  6
CONTINUOUS
 10
-36.4538
 20
-63.87628
 11
-35.4538
 21
-64.87628
  0
LINE
  8
別途部材
  6
CONTINUOUS
 10
-34.4538
 20
-64.87628
 11
-33.4538
 21
-63.87628
  0
LINE
  8
別途部材
  6
CONTINUOUS
 10
-32.4538
 20
-63.87628
 11
-31.4538
 21
-64.87628
  0
LINE
  8
別途部材
  6
CONTINUOUS
 10
-33.4538
 20
-63.87628
 11
-32.4538
 21
-63.87628
  0
LINE
  8
別途部材
  6
CONTINUOUS
 10
-36.4538
 20
-63.87628
 11
-36.9538
 21
-63.87628
  0
LINE
  8
別途部材
  6
CONTINUOUS
 10
-30.4538
 20
-64.87628
 11
-29.4538
 21
-63.87628
  0
LINE
  8
別途部材
  6
CONTINUOUS
 10
-28.4538
 20
-63.87628
 11
-27.4538
 21
-64.87628
  0
LINE
  8
別途部材
  6
CONTINUOUS
 10
-29.4538
 20
-63.87628
 11
-28.4538
 21
-63.87628
  0
LINE
  8
別途部材
  6
CONTINUOUS
 10
-26.4538
 20
-64.87628
 11
-25.4538
 21
-63.87628
  0
LINE
  8
別途部材
  6
CONTINUOUS
 10
-24.4538
 20
-63.87628
 11
-23.4538
 21
-64.87628
  0
LINE
  8
別途部材
  6
CONTINUOUS
 10
-25.4538
 20
-63.87628
 11
-24.4538
 21
-63.87628
  0
LINE
  8
別途部材
  6
CONTINUOUS
 10
-22.4538
 20
-64.87628
 11
-21.4538
 21
-63.87628
  0
LINE
  8
別途部材
  6
CONTINUOUS
 10
-20.4538
 20
-63.87628
 11
-19.4538
 21
-64.87628
  0
LINE
  8
別途部材
  6
CONTINUOUS
 10
-21.4538
 20
-63.87628
 11
-20.4538
 21
-63.87628
  0
LINE
  8
別途部材
  6
CONTINUOUS
 10
-18.4538
 20
-64.87628
 11
-17.4538
 21
-63.87628
  0
LINE
  8
別途部材
  6
CONTINUOUS
 10
-16.4538
 20
-63.87628
 11
-15.4538
 21
-64.87628
  0
LINE
  8
別途部材
  6
CONTINUOUS
 10
-17.4538
 20
-63.87628
 11
-16.4538
 21
-63.87628
  0
LINE
  8
別途部材
  6
CONTINUOUS
 10
-14.4538
 20
-64.87628
 11
-13.4538
 21
-63.87628
  0
LINE
  8
別途部材
  6
CONTINUOUS
 10
-12.4538
 20
-63.87628
 11
-11.4538
 21
-64.87628
  0
LINE
  8
別途部材
  6
CONTINUOUS
 10
-13.4538
 20
-63.87628
 11
-12.4538
 21
-63.87628
  0
LINE
  8
別途部材
  6
CONTINUOUS
 10
-10.4538
 20
-64.87628
 11
-9.4538
 21
-63.87628
  0
LINE
  8
別途部材
  6
CONTINUOUS
 10
-8.4538
 20
-63.87628
 11
-7.4538
 21
-64.87628
  0
LINE
  8
別途部材
  6
CONTINUOUS
 10
-9.4538
 20
-63.87628
 11
-8.4538
 21
-63.87628
  0
LINE
  8
別途部材
  6
CONTINUOUS
 10
-11.4538
 20
-64.87628
 11
-10.4538
 21
-64.87628
  0
LINE
  8
別途部材
  6
CONTINUOUS
 10
-15.4538
 20
-64.87628
 11
-14.4538
 21
-64.87628
  0
LINE
  8
別途部材
  6
CONTINUOUS
 10
-19.4538
 20
-64.87628
 11
-18.4538
 21
-64.87628
  0
LINE
  8
別途部材
  6
CONTINUOUS
 10
-23.4538
 20
-64.87628
 11
-22.4538
 21
-64.87628
  0
LINE
  8
別途部材
  6
CONTINUOUS
 10
-27.4538
 20
-64.87628
 11
-26.4538
 21
-64.87628
  0
LINE
  8
別途部材
  6
CONTINUOUS
 10
-31.4538
 20
-64.87628
 11
-30.4538
 21
-64.87628
  0
LINE
  8
別途部材
  6
CONTINUOUS
 10
-34.4538
 20
-64.87628
 11
-35.4538
 21
-64.87628
  0
LINE
  8
別途部材
  6
CONTINUOUS
 10
-8.4538
 20
-63.87628
 11
-8.4538
 21
-70.209613
  0
LINE
  8
別途部材
  6
CONTINUOUS
 10
-7.4538
 20
-64.87628
 11
-7.4538
 21
-70.209613
  0
LINE
  8
別途部材
  6
CONTINUOUS
 10
-10.4538
 20
-64.87628
 11
-10.4538
 21
-70.209613
  0
LINE
  8
別途部材
  6
CONTINUOUS
 10
-9.4538
 20
-63.87628
 11
-9.4538
 21
-70.209613
  0
LINE
  8
別途部材
  6
CONTINUOUS
 10
-11.4538
 20
-64.87628
 11
-11.4538
 21
-70.209613
  0
LINE
  8
別途部材
  6
CONTINUOUS
 10
-12.4538
 20
-63.87628
 11
-12.4538
 21
-70.209613
  0
LINE
  8
別途部材
  6
CONTINUOUS
 10
-16.4538
 20
-63.87628
 11
-16.4538
 21
-70.209613
  0
LINE
  8
別途部材
  6
CONTINUOUS
 10
-17.4538
 20
-63.87628
 11
-17.4538
 21
-70.209613
  0
LINE
  8
別途部材
  6
CONTINUOUS
 10
-15.4538
 20
-64.87628
 11
-15.4538
 21
-70.209613
  0
LINE
  8
別途部材
  6
CONTINUOUS
 10
-14.4538
 20
-64.87628
 11
-14.4538
 21
-70.209613
  0
LINE
  8
別途部材
  6
CONTINUOUS
 10
-13.4538
 20
-63.87628
 11
-13.4538
 21
-70.209613
  0
LINE
  8
別途部材
  6
CONTINUOUS
 10
-18.4538
 20
-64.87628
 11
-18.4538
 21
-70.209613
  0
LINE
  8
別途部材
  6
CONTINUOUS
 10
-20.4538
 20
-63.87628
 11
-20.4538
 21
-70.209613
  0
LINE
  8
別途部材
  6
CONTINUOUS
 10
-21.4538
 20
-63.87628
 11
-21.4538
 21
-70.209613
  0
LINE
  8
別途部材
  6
CONTINUOUS
 10
-22.4538
 20
-64.87628
 11
-22.4538
 21
-70.209613
  0
LINE
  8
別途部材
  6
CONTINUOUS
 10
-23.4538
 20
-64.87628
 11
-23.4538
 21
-70.209613
  0
LINE
  8
別途部材
  6
CONTINUOUS
 10
-24.4538
 20
-63.87628
 11
-24.4538
 21
-70.209613
  0
LINE
  8
別途部材
  6
CONTINUOUS
 10
-19.4538
 20
-64.87628
 11
-19.4538
 21
-70.209613
  0
LINE
  8
別途部材
  6
CONTINUOUS
 10
-25.4538
 20
-63.87628
 11
-25.4538
 21
-70.209613
  0
LINE
  8
別途部材
  6
CONTINUOUS
 10
-26.4538
 20
-64.87628
 11
-26.4538
 21
-70.209613
  0
LINE
  8
別途部材
  6
CONTINUOUS
 10
-27.4538
 20
-64.87628
 11
-27.4538
 21
-70.209613
  0
LINE
  8
別途部材
  6
CONTINUOUS
 10
-29.4538
 20
-63.87628
 11
-29.4538
 21
-70.209613
  0
LINE
  8
別途部材
  6
CONTINUOUS
 10
-31.4538
 20
-64.87628
 11
-31.4538
 21
-70.209613
  0
LINE
  8
別途部材
  6
CONTINUOUS
 10
-32.4538
 20
-63.87628
 11
-32.4538
 21
-70.209613
  0
LINE
  8
別途部材
  6
CONTINUOUS
 10
-34.4538
 20
-64.87628
 11
-34.4538
 21
-70.209613
  0
LINE
  8
別途部材
  6
CONTINUOUS
 10
-35.4538
 20
-64.87628
 11
-35.4538
 21
-70.209613
  0
LINE
  8
別途部材
  6
CONTINUOUS
 10
-36.4538
 20
-63.87628
 11
-36.4538
 21
-70.209613
  0
LINE
  8
別途部材
  6
CONTINUOUS
 10
-33.4538
 20
-63.87628
 11
-33.4538
 21
-70.209613
  0
LINE
  8
別途部材
  6
CONTINUOUS
 10
-30.4538
 20
-64.87628
 11
-30.4538
 21
-70.209613
  0
LINE
  8
別途部材
  6
CONTINUOUS
 10
-28.4538
 20
-63.87628
 11
-28.4538
 21
-70.209613
  0
LINE
  8
別途部材
  6
CONTINUOUS
 10
-7.4538
 20
-64.87628
 11
-5.287135
 21
-64.87628
  0
ENDBLK
  0
BLOCK
  2
*GRP_0018
 70
    65
 10
0.0
 20
0.0
  0
LINE
  8
補助線
  6
BYBLOCK
 62
    64
 10
-75.212675
 20
-75.132365
 11
-75.3616
 21
-75.20719
  0
LINE
  8
補助線
  6
BYBLOCK
 62
    64
 10
-75.32455
 20
-75.095313
 11
-75.249725
 21
-75.24424
  0
LINE
  8
補助線
  6
BYBLOCK
 62
    64
 10
-65.294195
 20
-70.149007
 11
-65.443123
 21
-70.223833
  0
LINE
  8
補助線
  6
BYBLOCK
 62
    64
 10
-65.406073
 20
-70.111955
 11
-65.331247
 21
-70.260883
  0
LINE
  8
補助線
  6
BYBLOCK
 62
    64
 10
-55.524645
 20
-65.240475
 11
-55.375717
 21
-65.16565
  0
LINE
  8
補助線
  6
BYBLOCK
 62
    64
 10
-55.487595
 20
-65.128597
 11
-55.41277
 21
-65.277525
  0
LINE
  8
型材断面
  6
CONTINUOUS
 10
-75.959115
 20
-74.5748
 11
-76.181418
 21
-75.246053
  0
LINE
  8
型材断面
  6
CONTINUOUS
 10
-76.181418
 20
-75.246053
 11
-75.882115
 21
-75.841758
  0
LINE
  8
型材断面
  6
CONTINUOUS
 10
-75.882115
 20
-75.841758
 11
-75.210862
 21
-76.06406
  0
LINE
  8
型材断面
  6
CONTINUOUS
 10
-55.526458
 20
-64.308782
 11
-54.855202
 21
-64.531085
  0
LINE
  8
型材断面
  6
CONTINUOUS
 10
-54.855202
 20
-64.531085
 11
-54.5559
 21
-65.12679
  0
LINE
  8
型材断面
  6
CONTINUOUS
 10
-54.5559
 20
-65.12679
 11
-54.778205
 21
-65.798042
  0
LINE
  8
型材断面
  6
CONTINUOUS
 10
-75.959115
 20
-74.5748
 11
-55.526458
 21
-64.308782
  0
LINE
  8
型材断面
  6
CONTINUOUS
 10
-75.210862
 20
-76.06406
 11
-54.778205
 21
-65.798042
  0
CIRCLE
  8
ボルト／ビス
  6
CONTINUOUS
 10
-75.287137
 20
-75.169777
 40
0.250185
  0
CIRCLE
  8
ボルト／ビス
  6
CONTINUOUS
 10
-75.287137
 20
-75.169777
 40
0.301025
  0
LINE
  8
ボルト／ビス
  6
CONTINUOUS
 62
    64
 10
-75.536902
 20
-75.155275
 11
-75.399457
 21
-74.946225
  0
LINE
  8
ボルト／ビス
  6
CONTINUOUS
 62
    64
 10
-75.149693
 20
-74.960728
 11
-75.399457
 21
-74.946225
  0
LINE
  8
ボルト／ビス
  6
CONTINUOUS
 62
    64
 10
-75.424583
 20
-75.378827
 11
-75.174817
 21
-75.39333
  0
LINE
  8
ボルト／ビス
  6
CONTINUOUS
 62
    64
 10
-75.037373
 20
-75.18428
 11
-75.174817
 21
-75.39333
  0
LINE
  8
ボルト／ビス
  6
CONTINUOUS
 62
    64
 10
-75.536902
 20
-75.155275
 11
-75.424583
 21
-75.378827
  0
LINE
  8
ボルト／ビス
  6
CONTINUOUS
 62
    64
 10
-75.149693
 20
-74.960728
 11
-75.037373
 21
-75.18428
  0
CIRCLE
  8
ボルト／ビス
  6
CONTINUOUS
 62
    64
 10
-75.287137
 20
-75.169777
 40
0.216668
  0
CIRCLE
  8
ボルト／ビス
  6
CONTINUOUS
 10
-65.36866
 20
-70.18642
 40
0.250185
  0
CIRCLE
  8
ボルト／ビス
  6
CONTINUOUS
 10
-65.36866
 20
-70.18642
 40
0.301025
  0
LINE
  8
ボルト／ビス
  6
CONTINUOUS
 62
    64
 10
-65.618425
 20
-70.171915
 11
-65.48098
 21
-69.962865
  0
LINE
  8
ボルト／ビス
  6
CONTINUOUS
 62
    64
 10
-65.231215
 20
-69.977368
 11
-65.48098
 21
-69.962865
  0
LINE
  8
ボルト／ビス
  6
CONTINUOUS
 62
    64
 10
-65.506105
 20
-70.39547
 11
-65.256337
 21
-70.409975
  0
LINE
  8
ボルト／ビス
  6
CONTINUOUS
 62
    64
 10
-65.118895
 20
-70.200925
 11
-65.256337
 21
-70.409975
  0
LINE
  8
ボルト／ビス
  6
CONTINUOUS
 62
    64
 10
-65.618425
 20
-70.171915
 11
-65.506105
 21
-70.39547
  0
LINE
  8
ボルト／ビス
  6
CONTINUOUS
 62
    64
 10
-65.231215
 20
-69.977368
 11
-65.118895
 21
-70.200925
  0
CIRCLE
  8
ボルト／ビス
  6
CONTINUOUS
 62
    64
 10
-65.36866
 20
-70.18642
 40
0.216668
  0
CIRCLE
  8
ボルト／ビス
  6
CONTINUOUS
 10
-55.450183
 20
-65.203063
 40
0.250185
  0
CIRCLE
  8
ボルト／ビス
  6
CONTINUOUS
 10
-55.450183
 20
-65.203063
 40
0.301025
  0
LINE
  8
ボルト／ビス
  6
CONTINUOUS
 62
    64
 10
-55.312738
 20
-64.994013
 11
-55.562503
 21
-64.97951
  0
LINE
  8
ボルト／ビス
  6
CONTINUOUS
 62
    64
 10
-55.699947
 20
-65.18856
 11
-55.562503
 21
-64.97951
  0
LINE
  8
ボルト／ビス
  6
CONTINUOUS
 62
    64
 10
-55.200418
 20
-65.217568
 11
-55.33786
 21
-65.426615
  0
LINE
  8
ボルト／ビス
  6
CONTINUOUS
 62
    64
 10
-55.587627
 20
-65.412112
 11
-55.33786
 21
-65.426615
  0
LINE
  8
ボルト／ビス
  6
CONTINUOUS
 62
    64
 10
-55.312738
 20
-64.994013
 11
-55.200418
 21
-65.217568
  0
LINE
  8
ボルト／ビス
  6
CONTINUOUS
 62
    64
 10
-55.699947
 20
-65.18856
 11
-55.587627
 21
-65.412112
  0
CIRCLE
  8
ボルト／ビス
  6
CONTINUOUS
 62
    64
 10
-55.450183
 20
-65.203063
 40
0.216668
  0
ENDBLK
  0
BLOCK
  2
*GRP_0019
 70
    65
 10
0.0
 20
0.0
  0
LINE
  8
補助線
  6
BYBLOCK
 62
    64
 10
-55.524645
 20
-75.132365
 11
-55.37572
 21
-75.20719
  0
LINE
  8
補助線
  6
BYBLOCK
 62
    64
 10
-55.41277
 20
-75.095313
 11
-55.487595
 21
-75.24424
  0
LINE
  8
補助線
  6
BYBLOCK
 62
    64
 10
-65.443125
 20
-70.149007
 11
-65.294197
 21
-70.223833
  0
LINE
  8
補助線
  6
BYBLOCK
 62
    64
 10
-65.331247
 20
-70.111955
 11
-65.406073
 21
-70.260883
  0
LINE
  8
補助線
  6
BYBLOCK
 62
    64
 10
-75.212675
 20
-65.240475
 11
-75.361603
 21
-65.16565
  0
LINE
  8
補助線
  6
BYBLOCK
 62
    64
 10
-75.249725
 20
-65.128597
 11
-75.32455
 21
-65.277525
  0
LINE
  8
型材断面
  6
CONTINUOUS
 10
-54.778205
 20
-74.5748
 11
-54.555902
 21
-75.246053
  0
LINE
  8
型材断面
  6
CONTINUOUS
 10
-54.555902
 20
-75.246053
 11
-54.855205
 21
-75.841758
  0
LINE
  8
型材断面
  6
CONTINUOUS
 10
-54.855205
 20
-75.841758
 11
-55.526458
 21
-76.06406
  0
LINE
  8
型材断面
  6
CONTINUOUS
 10
-75.210862
 20
-64.308782
 11
-75.882118
 21
-64.531085
  0
LINE
  8
型材断面
  6
CONTINUOUS
 10
-75.882118
 20
-64.531085
 11
-76.18142
 21
-65.12679
  0
LINE
  8
型材断面
  6
CONTINUOUS
 10
-76.18142
 20
-65.12679
 11
-75.959115
 21
-65.798042
  0
LINE
  8
型材断面
  6
CONTINUOUS
 10
-54.778205
 20
-74.5748
 11
-75.210862
 21
-64.308782
  0
LINE
  8
型材断面
  6
CONTINUOUS
 10
-55.526458
 20
-76.06406
 11
-75.959115
 21
-65.798042
  0
CIRCLE
  8
ボルト／ビス
  6
CONTINUOUS
 10
-55.450183
 20
-75.169777
 40
0.250185
  0
CIRCLE
  8
ボルト／ビス
  6
CONTINUOUS
 10
-55.450183
 20
-75.169777
 40
0.301025
  0
LINE
  8
ボルト／ビス
  6
CONTINUOUS
 62
    64
 10
-55.200418
 20
-75.155275
 11
-55.337863
 21
-74.946225
  0
LINE
  8
ボルト／ビス
  6
CONTINUOUS
 62
    64
 10
-55.587627
 20
-74.960728
 11
-55.337863
 21
-74.946225
  0
LINE
  8
ボルト／ビス
  6
CONTINUOUS
 62
    64
 10
-55.312738
 20
-75.378827
 11
-55.562503
 21
-75.39333
  0
LINE
  8
ボルト／ビス
  6
CONTINUOUS
 62
    64
 10
-55.699947
 20
-75.18428
 11
-55.562503
 21
-75.39333
  0
LINE
  8
ボルト／ビス
  6
CONTINUOUS
 62
    64
 10
-55.200418
 20
-75.155275
 11
-55.312738
 21
-75.378827
  0
LINE
  8
ボルト／ビス
  6
CONTINUOUS
 62
    64
 10
-55.587627
 20
-74.960728
 11
-55.699947
 21
-75.18428
  0
CIRCLE
  8
ボルト／ビス
  6
CONTINUOUS
 62
    64
 10
-55.450183
 20
-75.169777
 40
0.216668
  0
CIRCLE
  8
ボルト／ビス
  6
CONTINUOUS
 10
-65.36866
 20
-70.18642
 40
0.250185
  0
CIRCLE
  8
ボルト／ビス
  6
CONTINUOUS
 10
-65.36866
 20
-70.18642
 40
0.301025
  0
LINE
  8
ボルト／ビス
  6
CONTINUOUS
 62
    64
 10
-65.118895
 20
-70.171915
 11
-65.25634
 21
-69.962865
  0
LINE
  8
ボルト／ビス
  6
CONTINUOUS
 62
    64
 10
-65.506105
 20
-69.977368
 11
-65.25634
 21
-69.962865
  0
LINE
  8
ボルト／ビス
  6
CONTINUOUS
 62
    64
 10
-65.231215
 20
-70.39547
 11
-65.480983
 21
-70.409975
  0
LINE
  8
ボルト／ビス
  6
CONTINUOUS
 62
    64
 10
-65.618425
 20
-70.200925
 11
-65.480983
 21
-70.409975
  0
LINE
  8
ボルト／ビス
  6
CONTINUOUS
 62
    64
 10
-65.118895
 20
-70.171915
 11
-65.231215
 21
-70.39547
  0
LINE
  8
ボルト／ビス
  6
CONTINUOUS
 62
    64
 10
-65.506105
 20
-69.977368
 11
-65.618425
 21
-70.200925
  0
CIRCLE
  8
ボルト／ビス
  6
CONTINUOUS
 62
    64
 10
-65.36866
 20
-70.18642
 40
0.216668
  0
CIRCLE
  8
ボルト／ビス
  6
CONTINUOUS
 10
-75.287137
 20
-65.203063
 40
0.250185
  0
CIRCLE
  8
ボルト／ビス
  6
CONTINUOUS
 10
-75.287137
 20
-65.203063
 40
0.301025
  0
LINE
  8
ボルト／ビス
  6
CONTINUOUS
 62
    64
 10
-75.424583
 20
-64.994013
 11
-75.174817
 21
-64.97951
  0
LINE
  8
ボルト／ビス
  6
CONTINUOUS
 62
    64
 10
-75.037373
 20
-65.18856
 11
-75.174817
 21
-64.97951
  0
LINE
  8
ボルト／ビス
  6
CONTINUOUS
 62
    64
 10
-75.536902
 20
-65.217568
 11
-75.39946
 21
-65.426615
  0
LINE
  8
ボルト／ビス
  6
CONTINUOUS
 62
    64
 10
-75.149693
 20
-65.412112
 11
-75.39946
 21
-65.426615
  0
LINE
  8
ボルト／ビス
  6
CONTINUOUS
 62
    64
 10
-75.424583
 20
-64.994013
 11
-75.536902
 21
-65.217568
  0
LINE
  8
ボルト／ビス
  6
CONTINUOUS
 62
    64
 10
-75.037373
 20
-65.18856
 11
-75.149693
 21
-65.412112
  0
CIRCLE
  8
ボルト／ビス
  6
CONTINUOUS
 62
    64
 10
-75.287137
 20
-65.203063
 40
0.216668
  0
ENDBLK
  0
BLOCK
  2
*GRP_0020
 70
    65
 10
0.0
 20
0.0
  0
LINE
  8
補助線
  6
BYBLOCK
 62
    64
 10
1.30507
 20
-75.132365
 11
1.453995
 21
-75.20719
  0
LINE
  8
補助線
  6
BYBLOCK
 62
    64
 10
1.416945
 20
-75.095313
 11
1.34212
 21
-75.24424
  0
LINE
  8
補助線
  6
BYBLOCK
 62
    64
 10
-8.61341
 20
-70.149007
 11
-8.464483
 21
-70.223833
  0
LINE
  8
補助線
  6
BYBLOCK
 62
    64
 10
-8.501533
 20
-70.111955
 11
-8.576357
 21
-70.260883
  0
LINE
  8
補助線
  6
BYBLOCK
 62
    64
 10
-18.38296
 20
-65.240475
 11
-18.531887
 21
-65.16565
  0
LINE
  8
補助線
  6
BYBLOCK
 62
    64
 10
-18.42001
 20
-65.128597
 11
-18.494835
 21
-65.277525
  0
LINE
  8
型材断面
  6
CONTINUOUS
 10
2.05151
 20
-74.5748
 11
2.273812
 21
-75.246053
  0
LINE
  8
型材断面
  6
CONTINUOUS
 10
2.273812
 20
-75.246053
 11
1.97451
 21
-75.841758
  0
LINE
  8
型材断面
  6
CONTINUOUS
 10
1.97451
 20
-75.841758
 11
1.303257
 21
-76.06406
  0
LINE
  8
型材断面
  6
CONTINUOUS
 10
-18.381148
 20
-64.308782
 11
-19.052402
 21
-64.531085
  0
LINE
  8
型材断面
  6
CONTINUOUS
 10
-19.052402
 20
-64.531085
 11
-19.351705
 21
-65.12679
  0
LINE
  8
型材断面
  6
CONTINUOUS
 10
-19.351705
 20
-65.12679
 11
-19.1294
 21
-65.798042
  0
LINE
  8
型材断面
  6
CONTINUOUS
 10
2.05151
 20
-74.5748
 11
-18.381148
 21
-64.308782
  0
LINE
  8
型材断面
  6
CONTINUOUS
 10
1.303257
 20
-76.06406
 11
-19.1294
 21
-65.798042
  0
CIRCLE
  8
ボルト／ビス
  6
CONTINUOUS
 10
1.379532
 20
-75.169777
 40
0.250185
  0
CIRCLE
  8
ボルト／ビス
  6
CONTINUOUS
 10
1.379532
 20
-75.169777
 40
0.301025
  0
LINE
  8
ボルト／ビス
  6
CONTINUOUS
 62
    64
 10
1.629298
 20
-75.155275
 11
1.491852
 21
-74.946225
  0
LINE
  8
ボルト／ビス
  6
CONTINUOUS
 62
    64
 10
1.242087
 20
-74.960728
 11
1.491852
 21
-74.946225
  0
LINE
  8
ボルト／ビス
  6
CONTINUOUS
 62
    64
 10
1.516978
 20
-75.378827
 11
1.267212
 21
-75.39333
  0
LINE
  8
ボルト／ビス
  6
CONTINUOUS
 62
    64
 10
1.129767
 20
-75.18428
 11
1.267212
 21
-75.39333
  0
LINE
  8
ボルト／ビス
  6
CONTINUOUS
 62
    64
 10
1.629298
 20
-75.155275
 11
1.516978
 21
-75.378827
  0
LINE
  8
ボルト／ビス
  6
CONTINUOUS
 62
    64
 10
1.242087
 20
-74.960728
 11
1.129767
 21
-75.18428
  0
CIRCLE
  8
ボルト／ビス
  6
CONTINUOUS
 62
    64
 10
1.379532
 20
-75.169777
 40
0.216668
  0
CIRCLE
  8
ボルト／ビス
  6
CONTINUOUS
 10
-8.538945
 20
-70.18642
 40
0.250185
  0
CIRCLE
  8
ボルト／ビス
  6
CONTINUOUS
 10
-8.538945
 20
-70.18642
 40
0.301025
  0
LINE
  8
ボルト／ビス
  6
CONTINUOUS
 62
    64
 10
-8.28918
 20
-70.171915
 11
-8.426625
 21
-69.962865
  0
LINE
  8
ボルト／ビス
  6
CONTINUOUS
 62
    64
 10
-8.67639
 20
-69.977368
 11
-8.426625
 21
-69.962865
  0
LINE
  8
ボルト／ビス
  6
CONTINUOUS
 62
    64
 10
-8.4015
 20
-70.39547
 11
-8.651267
 21
-70.409975
  0
LINE
  8
ボルト／ビス
  6
CONTINUOUS
 62
    64
 10
-8.78871
 20
-70.200925
 11
-8.651267
 21
-70.409975
  0
LINE
  8
ボルト／ビス
  6
CONTINUOUS
 62
    64
 10
-8.28918
 20
-70.171915
 11
-8.4015
 21
-70.39547
  0
LINE
  8
ボルト／ビス
  6
CONTINUOUS
 62
    64
 10
-8.67639
 20
-69.977368
 11
-8.78871
 21
-70.200925
  0
CIRCLE
  8
ボルト／ビス
  6
CONTINUOUS
 62
    64
 10
-8.538945
 20
-70.18642
 40
0.216668
  0
CIRCLE
  8
ボルト／ビス
  6
CONTINUOUS
 10
-18.457423
 20
-65.203063
 40
0.250185
  0
CIRCLE
  8
ボルト／ビス
  6
CONTINUOUS
 10
-18.457423
 20
-65.203063
 40
0.301025
  0
LINE
  8
ボルト／ビス
  6
CONTINUOUS
 62
    64
 10
-18.594867
 20
-64.994013
 11
-18.345103
 21
-64.97951
  0
LINE
  8
ボルト／ビス
  6
CONTINUOUS
 62
    64
 10
-18.207658
 20
-65.18856
 11
-18.345103
 21
-64.97951
  0
LINE
  8
ボルト／ビス
  6
CONTINUOUS
 62
    64
 10
-18.707187
 20
-65.217568
 11
-18.569745
 21
-65.426615
  0
LINE
  8
ボルト／ビス
  6
CONTINUOUS
 62
    64
 10
-18.319978
 20
-65.412112
 11
-18.569745
 21
-65.426615
  0
LINE
  8
ボルト／ビス
  6
CONTINUOUS
 62
    64
 10
-18.594867
 20
-64.994013
 11
-18.707187
 21
-65.217568
  0
LINE
  8
ボルト／ビス
  6
CONTINUOUS
 62
    64
 10
-18.207658
 20
-65.18856
 11
-18.319978
 21
-65.412112
  0
CIRCLE
  8
ボルト／ビス
  6
CONTINUOUS
 62
    64
 10
-18.457423
 20
-65.203063
 40
0.216668
  0
ENDBLK
  0
BLOCK
  2
*GRP_0021
 70
    65
 10
0.0
 20
0.0
  0
LINE
  8
補助線
  6
BYBLOCK
 62
    64
 10
-18.38296
 20
-75.132365
 11
-18.531885
 21
-75.20719
  0
LINE
  8
補助線
  6
BYBLOCK
 62
    64
 10
-18.494835
 20
-75.095313
 11
-18.42001
 21
-75.24424
  0
LINE
  8
補助線
  6
BYBLOCK
 62
    64
 10
-8.46448
 20
-70.149007
 11
-8.613407
 21
-70.223833
  0
LINE
  8
補助線
  6
BYBLOCK
 62
    64
 10
-8.576357
 20
-70.111955
 11
-8.501533
 21
-70.260883
  0
LINE
  8
補助線
  6
BYBLOCK
 62
    64
 10
1.30507
 20
-65.240475
 11
1.453997
 21
-65.16565
  0
LINE
  8
補助線
  6
BYBLOCK
 62
    64
 10
1.34212
 20
-65.128597
 11
1.416945
 21
-65.277525
  0
LINE
  8
型材断面
  6
CONTINUOUS
 10
-19.1294
 20
-74.5748
 11
-19.351703
 21
-75.246053
  0
LINE
  8
型材断面
  6
CONTINUOUS
 10
-19.351703
 20
-75.246053
 11
-19.0524
 21
-75.841758
  0
LINE
  8
型材断面
  6
CONTINUOUS
 10
-19.0524
 20
-75.841758
 11
-18.381148
 21
-76.06406
  0
LINE
  8
型材断面
  6
CONTINUOUS
 10
1.303257
 20
-64.308782
 11
1.974512
 21
-64.531085
  0
LINE
  8
型材断面
  6
CONTINUOUS
 10
1.974512
 20
-64.531085
 11
2.273815
 21
-65.12679
  0
LINE
  8
型材断面
  6
CONTINUOUS
 10
2.273815
 20
-65.12679
 11
2.05151
 21
-65.798042
  0
LINE
  8
型材断面
  6
CONTINUOUS
 10
-19.1294
 20
-74.5748
 11
1.303257
 21
-64.308782
  0
LINE
  8
型材断面
  6
CONTINUOUS
 10
-18.381148
 20
-76.06406
 11
2.05151
 21
-65.798042
  0
CIRCLE
  8
ボルト／ビス
  6
CONTINUOUS
 10
-18.457423
 20
-75.169777
 40
0.250185
  0
CIRCLE
  8
ボルト／ビス
  6
CONTINUOUS
 10
-18.457423
 20
-75.169777
 40
0.301025
  0
LINE
  8
ボルト／ビス
  6
CONTINUOUS
 62
    64
 10
-18.707187
 20
-75.155275
 11
-18.569743
 21
-74.946225
  0
LINE
  8
ボルト／ビス
  6
CONTINUOUS
 62
    64
 10
-18.319978
 20
-74.960728
 11
-18.569743
 21
-74.946225
  0
LINE
  8
ボルト／ビス
  6
CONTINUOUS
 62
    64
 10
-18.594867
 20
-75.378827
 11
-18.345103
 21
-75.39333
  0
LINE
  8
ボルト／ビス
  6
CONTINUOUS
 62
    64
 10
-18.207658
 20
-75.18428
 11
-18.345103
 21
-75.39333
  0
LINE
  8
ボルト／ビス
  6
CONTINUOUS
 62
    64
 10
-18.707187
 20
-75.155275
 11
-18.594867
 21
-75.378827
  0
LINE
  8
ボルト／ビス
  6
CONTINUOUS
 62
    64
 10
-18.319978
 20
-74.960728
 11
-18.207658
 21
-75.18428
  0
CIRCLE
  8
ボルト／ビス
  6
CONTINUOUS
 62
    64
 10
-18.457423
 20
-75.169777
 40
0.216668
  0
CIRCLE
  8
ボルト／ビス
  6
CONTINUOUS
 10
-8.538945
 20
-70.18642
 40
0.250185
  0
CIRCLE
  8
ボルト／ビス
  6
CONTINUOUS
 10
-8.538945
 20
-70.18642
 40
0.301025
  0
LINE
  8
ボルト／ビス
  6
CONTINUOUS
 62
    64
 10
-8.78871
 20
-70.171915
 11
-8.651265
 21
-69.962865
  0
LINE
  8
ボルト／ビス
  6
CONTINUOUS
 62
    64
 10
-8.4015
 20
-69.977368
 11
-8.651265
 21
-69.962865
  0
LINE
  8
ボルト／ビス
  6
CONTINUOUS
 62
    64
 10
-8.67639
 20
-70.39547
 11
-8.426623
 21
-70.409975
  0
LINE
  8
ボルト／ビス
  6
CONTINUOUS
 62
    64
 10
-8.28918
 20
-70.200925
 11
-8.426623
 21
-70.409975
  0
LINE
  8
ボルト／ビス
  6
CONTINUOUS
 62
    64
 10
-8.78871
 20
-70.171915
 11
-8.67639
 21
-70.39547
  0
LINE
  8
ボルト／ビス
  6
CONTINUOUS
 62
    64
 10
-8.4015
 20
-69.977368
 11
-8.28918
 21
-70.200925
  0
CIRCLE
  8
ボルト／ビス
  6
CONTINUOUS
 62
    64
 10
-8.538945
 20
-70.18642
 40
0.216668
  0
CIRCLE
  8
ボルト／ビス
  6
CONTINUOUS
 10
1.379532
 20
-65.203063
 40
0.250185
  0
CIRCLE
  8
ボルト／ビス
  6
CONTINUOUS
 10
1.379532
 20
-65.203063
 40
0.301025
  0
LINE
  8
ボルト／ビス
  6
CONTINUOUS
 62
    64
 10
1.516978
 20
-64.994013
 11
1.267212
 21
-64.97951
  0
LINE
  8
ボルト／ビス
  6
CONTINUOUS
 62
    64
 10
1.129767
 20
-65.18856
 11
1.267212
 21
-64.97951
  0
LINE
  8
ボルト／ビス
  6
CONTINUOUS
 62
    64
 10
1.629298
 20
-65.217568
 11
1.491855
 21
-65.426615
  0
LINE
  8
ボルト／ビス
  6
CONTINUOUS
 62
    64
 10
1.242087
 20
-65.412112
 11
1.491855
 21
-65.426615
  0
LINE
  8
ボルト／ビス
  6
CONTINUOUS
 62
    64
 10
1.516978
 20
-64.994013
 11
1.629298
 21
-65.217568
  0
LINE
  8
ボルト／ビス
  6
CONTINUOUS
 62
    64
 10
1.129767
 20
-65.18856
 11
1.242087
 21
-65.412112
  0
CIRCLE
  8
ボルト／ビス
  6
CONTINUOUS
 62
    64
 10
1.379532
 20
-65.203063
 40
0.216668
  0
ENDBLK
  0
BLOCK
  2
*DIM_0022
 70
    65
 10
0.0
 20
0.0
  0
LINE
  8
寸法
  6
BYBLOCK
 62
     0
 10
-81.620467
 20
39.4807
 11
-94.913305
 21
39.4807
  0
LINE
  8
寸法
  6
BYBLOCK
 62
     0
 10
-81.620467
 20
26.147365
 11
-94.913305
 21
26.147365
  0
LINE
  8
寸法
  6
BYBLOCK
 62
     0
 10
-94.913305
 20
39.4807
 11
-94.913305
 21
26.147365
  0
POINT
  8
寸法
 62
     0
 10
-94.913305
 20
39.4807
  0
POINT
  8
寸法
 62
     0
 10
-94.913305
 20
26.147365
  0
TEXT
  7
TextStyle03
  8
寸法
  6
CONTINUOUS
 62
     0
 10
-95.275
 20
30.3625
  1
400
 40
3.0
 50
90.0
 72
     5
 11
-95.275
 21
35.2375
  0
ENDBLK
  0
BLOCK
  2
*DIM_0023
 70
    65
 10
0.0
 20
0.0
  0
LINE
  8
寸法
  6
BYBLOCK
 62
     0
 10
-71.953802
 20
45.814033
 11
-71.953802
 21
75.561652
  0
LINE
  8
寸法
  6
BYBLOCK
 62
     0
 10
-48.62047
 20
45.814033
 11
-48.62047
 21
75.561652
  0
LINE
  8
寸法
  6
BYBLOCK
 62
     0
 10
-71.953802
 20
75.561652
 11
-48.62047
 21
75.561652
  0
POINT
  8
寸法
 62
     0
 10
-71.953802
 20
75.561652
  0
POINT
  8
寸法
 62
     0
 10
-48.62047
 20
75.561652
  0
TEXT
  7
TextStyle03
  8
寸法
  6
CONTINUOUS
 62
     0
 10
-62.7125
 20
75.95
  1
700
 40
3.0
 72
     5
 11
-57.8375
 21
75.95
  0
ENDBLK
  0
BLOCK
  2
*DIM_0024
 70
    65
 10
0.0
 20
0.0
  0
LINE
  8
寸法
  6
BYBLOCK
 62
     0
 10
-25.287135
 20
45.814033
 11
-25.287135
 21
75.561652
  0
LINE
  8
寸法
  6
BYBLOCK
 62
     0
 10
-48.62047
 20
75.561652
 11
-25.287135
 21
75.561652
  0
POINT
  8
寸法
 62
     0
 10
-25.287135
 20
75.561652
  0
TEXT
  7
TextStyle03
  8
寸法
  6
CONTINUOUS
 62
     0
 10
-39.3875
 20
75.95
  1
700
 40
3.0
 72
     5
 11
-34.5125
 21
75.95
  0
ENDBLK
  0
BLOCK
  2
*DIM_0025
 70
    65
 10
0.0
 20
0.0
  0
LINE
  8
寸法
  6
BYBLOCK
 62
     0
 10
-1.953802
 20
45.814033
 11
-1.953802
 21
75.561652
  0
LINE
  8
寸法
  6
BYBLOCK
 62
     0
 10
-25.287135
 20
75.561652
 11
-1.953802
 21
75.561652
  0
POINT
  8
寸法
 62
     0
 10
-1.953802
 20
75.561652
  0
TEXT
  7
TextStyle03
  8
寸法
  6
CONTINUOUS
 62
     0
 10
-16.0375
 20
75.95
  1
700
 40
3.0
 72
     5
 11
-11.1625
 21
75.95
  0
ENDBLK
  0
BLOCK
  2
*DIM_0026
 70
    65
 10
0.0
 20
0.0
  0
LINE
  8
寸法
  6
BYBLOCK
 62
     0
 10
-2.287135
 20
-57.542947
 11
20.682515
 21
-57.542947
  0
LINE
  8
寸法
  6
BYBLOCK
 62
     0
 10
20.682515
 20
-64.87628
 11
20.682515
 21
-57.542947
  0
POINT
  8
寸法
 62
     0
 10
20.682515
 20
-64.87628
  0
POINT
  8
寸法
 62
     0
 10
20.682515
 20
-57.542947
  0
TEXT
  7
TextStyle03
  8
寸法
  6
CONTINUOUS
 62
     0
 10
25.35
 20
-70.46875
  1
上昇179以上
 40
3.0
 50
90.0
 72
     5
 11
25.35
 21
-52.28125
  0
ENDBLK
  0
BLOCK
  2
*GRP_0027
 70
    65
 10
0.0
 20
0.0
  0
LINE
  8
ボルト／ビス
  6
CONTINUOUS
 10
5.379532
 20
-70.209613
 11
5.379532
 21
-69.742947
  0
LINE
  8
ボルト／ビス
  6
CONTINUOUS
 10
5.012867
 20
-70.209613
 11
5.012867
 21
-70.142947
  0
LINE
  8
ボルト／ビス
  6
CONTINUOUS
 10
5.012867
 20
-70.142947
 11
5.7462
 21
-70.142947
  0
LINE
  8
ボルト／ビス
  6
CONTINUOUS
 10
5.7462
 20
-70.142947
 11
5.7462
 21
-70.209613
  0
LINE
  8
ボルト／ビス
  6
CONTINUOUS
 10
5.012867
 20
-70.209613
 11
5.7462
 21
-70.209613
  0
LINE
  8
ボルト／ビス
  6
CONTINUOUS
 10
5.079532
 20
-70.109612
 11
5.079532
 21
-70.142947
  0
LINE
  8
ボルト／ビス
  6
CONTINUOUS
 10
5.079532
 20
-70.109612
 11
5.679532
 21
-70.109612
  0
LINE
  8
ボルト／ビス
  6
CONTINUOUS
 10
5.679532
 20
-70.109612
 11
5.679532
 21
-70.142947
  0
LINE
  8
ボルト／ビス
  6
CONTINUOUS
 62
    64
 10
5.219158
 20
-69.909613
 11
5.187082
 21
-69.921288
  0
ARC
  8
ボルト／ビス
  6
CONTINUOUS
 62
    64
 10
5.235196
 20
-70.01459
 40
0.104978
 50
62.721967
 51
90.0
  0
ARC
  8
ボルト／ビス
  6
CONTINUOUS
 62
    64
 10
5.379534
 20
-70.312014
 40
0.402402
 50
76.165002
 51
103.834985
  0
LINE
  8
ボルト／ビス
  6
CONTINUOUS
 62
    64
 10
5.539907
 20
-69.909613
 11
5.571983
 21
-69.921288
  0
ARC
  8
ボルト／ビス
  6
CONTINUOUS
 62
    64
 10
5.523872
 20
-70.01459
 40
0.104978
 50
90.0
 51
117.278033
  0
LINE
  8
ボルト／ビス
  6
CONTINUOUS
 62
    64
 10
5.219158
 20
-69.909613
 11
5.539907
 21
-69.909613
  0
LINE
  8
ボルト／ビス
  6
CONTINUOUS
 62
    64
 10
5.571983
 20
-69.921288
 11
5.571983
 21
-70.042947
  0
LINE
  8
ボルト／ビス
  6
CONTINUOUS
 62
    64
 10
5.475757
 20
-69.921288
 11
5.475757
 21
-70.042947
  0
LINE
  8
ボルト／ビス
  6
CONTINUOUS
 62
    64
 10
5.187082
 20
-69.921288
 11
5.187082
 21
-70.042947
  0
LINE
  8
ボルト／ビス
  6
CONTINUOUS
 62
    64
 10
5.283308
 20
-69.921288
 11
5.283308
 21
-70.042947
  0
LINE
  8
ボルト／ビス
  6
CONTINUOUS
 10
5.187082
 20
-70.042947
 11
5.571983
 21
-70.042947
  0
LINE
  8
ボルト／ビス
  6
CONTINUOUS
 10
5.179532
 20
-70.042947
 11
5.179532
 21
-70.109612
  0
LINE
  8
ボルト／ビス
  6
CONTINUOUS
 10
5.179532
 20
-70.042947
 11
5.579532
 21
-70.042947
  0
LINE
  8
ボルト／ビス
  6
CONTINUOUS
 10
5.579532
 20
-70.042947
 11
5.579532
 21
-70.109612
  0
ENDBLK
  0
BLOCK
  2
*GRP_0028
 70
    65
 10
0.0
 20
0.0
  0
LINE
  8
ボルト／ビス
  6
DOT
 10
5.379532
 20
-62.87628
 11
5.379532
 21
-62.409615
  0
LINE
  8
ボルト／ビス
  6
DOT
 10
5.012867
 20
-62.87628
 11
5.012867
 21
-62.809615
  0
LINE
  8
ボルト／ビス
  6
DOT
 10
5.012867
 20
-62.809615
 11
5.7462
 21
-62.809615
  0
LINE
  8
ボルト／ビス
  6
DOT
 10
5.7462
 20
-62.809615
 11
5.7462
 21
-62.87628
  0
LINE
  8
ボルト／ビス
  6
DOT
 10
5.012867
 20
-62.87628
 11
5.7462
 21
-62.87628
  0
LINE
  8
ボルト／ビス
  6
DOT
 10
5.079532
 20
-62.77628
 11
5.079532
 21
-62.809615
  0
LINE
  8
ボルト／ビス
  6
DOT
 10
5.079532
 20
-62.77628
 11
5.679532
 21
-62.77628
  0
LINE
  8
ボルト／ビス
  6
DOT
 10
5.679532
 20
-62.77628
 11
5.679532
 21
-62.809615
  0
LINE
  8
ボルト／ビス
  6
DOT
 62
    64
 10
5.219158
 20
-62.57628
 11
5.187082
 21
-62.587955
  0
ARC
  8
ボルト／ビス
  6
DOT
 62
    64
 10
5.235196
 20
-62.681257
 40
0.104978
 50
62.721967
 51
90.0
  0
ARC
  8
ボルト／ビス
  6
DOT
 62
    64
 10
5.379534
 20
-62.978681
 40
0.402402
 50
76.165002
 51
103.834985
  0
LINE
  8
ボルト／ビス
  6
DOT
 62
    64
 10
5.539907
 20
-62.57628
 11
5.571983
 21
-62.587955
  0
ARC
  8
ボルト／ビス
  6
DOT
 62
    64
 10
5.523872
 20
-62.681257
 40
0.104978
 50
90.0
 51
117.278033
  0
LINE
  8
ボルト／ビス
  6
DOT
 62
    64
 10
5.219158
 20
-62.57628
 11
5.539907
 21
-62.57628
  0
LINE
  8
ボルト／ビス
  6
DOT
 62
    64
 10
5.571983
 20
-62.587955
 11
5.571983
 21
-62.709615
  0
LINE
  8
ボルト／ビス
  6
DOT
 62
    64
 10
5.475757
 20
-62.587955
 11
5.475757
 21
-62.709615
  0
LINE
  8
ボルト／ビス
  6
DOT
 62
    64
 10
5.187082
 20
-62.587955
 11
5.187082
 21
-62.709615
  0
LINE
  8
ボルト／ビス
  6
DOT
 62
    64
 10
5.283308
 20
-62.587955
 11
5.283308
 21
-62.709615
  0
LINE
  8
ボルト／ビス
  6
DOT
 10
5.187082
 20
-62.709615
 11
5.571983
 21
-62.709615
  0
LINE
  8
ボルト／ビス
  6
DOT
 10
5.179532
 20
-62.709615
 11
5.179532
 21
-62.77628
  0
LINE
  8
ボルト／ビス
  6
DOT
 10
5.179532
 20
-62.709615
 11
5.579532
 21
-62.709615
  0
LINE
  8
ボルト／ビス
  6
DOT
 10
5.579532
 20
-62.709615
 11
5.579532
 21
-62.77628
  0
ENDBLK
  0
BLOCK
  2
*GRP_0029
 70
    65
 10
0.0
 20
0.0
  0
LINE
  8
ボルト／ビス
  6
CONTINUOUS
 10
-79.287137
 20
-70.209613
 11
-79.287137
 21
-69.742947
  0
LINE
  8
ボルト／ビス
  6
CONTINUOUS
 10
-79.653802
 20
-70.209613
 11
-79.653802
 21
-70.142947
  0
LINE
  8
ボルト／ビス
  6
CONTINUOUS
 10
-79.653802
 20
-70.142947
 11
-78.92047
 21
-70.142947
  0
LINE
  8
ボルト／ビス
  6
CONTINUOUS
 10
-78.92047
 20
-70.142947
 11
-78.92047
 21
-70.209613
  0
LINE
  8
ボルト／ビス
  6
CONTINUOUS
 10
-79.653802
 20
-70.209613
 11
-78.92047
 21
-70.209613
  0
LINE
  8
ボルト／ビス
  6
CONTINUOUS
 10
-79.587137
 20
-70.109612
 11
-79.587137
 21
-70.142947
  0
LINE
  8
ボルト／ビス
  6
CONTINUOUS
 10
-79.587137
 20
-70.109612
 11
-78.987137
 21
-70.109612
  0
LINE
  8
ボルト／ビス
  6
CONTINUOUS
 10
-78.987137
 20
-70.109612
 11
-78.987137
 21
-70.142947
  0
LINE
  8
ボルト／ビス
  6
CONTINUOUS
 62
    64
 10
-79.447512
 20
-69.909613
 11
-79.479587
 21
-69.921288
  0
ARC
  8
ボルト／ビス
  6
CONTINUOUS
 62
    64
 10
-79.431473
 20
-70.01459
 40
0.104978
 50
62.721967
 51
90.0
  0
ARC
  8
ボルト／ビス
  6
CONTINUOUS
 62
    64
 10
-79.287136
 20
-70.312014
 40
0.402402
 50
76.165002
 51
103.834985
  0
LINE
  8
ボルト／ビス
  6
CONTINUOUS
 62
    64
 10
-79.126763
 20
-69.909613
 11
-79.094687
 21
-69.921288
  0
ARC
  8
ボルト／ビス
  6
CONTINUOUS
 62
    64
 10
-79.142798
 20
-70.01459
 40
0.104978
 50
90.0
 51
117.278033
  0
LINE
  8
ボルト／ビス
  6
CONTINUOUS
 62
    64
 10
-79.447512
 20
-69.909613
 11
-79.126763
 21
-69.909613
  0
LINE
  8
ボルト／ビス
  6
CONTINUOUS
 62
    64
 10
-79.094687
 20
-69.921288
 11
-79.094687
 21
-70.042947
  0
LINE
  8
ボルト／ビス
  6
CONTINUOUS
 62
    64
 10
-79.190913
 20
-69.921288
 11
-79.190913
 21
-70.042947
  0
LINE
  8
ボルト／ビス
  6
CONTINUOUS
 62
    64
 10
-79.479587
 20
-69.921288
 11
-79.479587
 21
-70.042947
  0
LINE
  8
ボルト／ビス
  6
CONTINUOUS
 62
    64
 10
-79.383363
 20
-69.921288
 11
-79.383363
 21
-70.042947
  0
LINE
  8
ボルト／ビス
  6
CONTINUOUS
 10
-79.479587
 20
-70.042947
 11
-79.094687
 21
-70.042947
  0
LINE
  8
ボルト／ビス
  6
CONTINUOUS
 10
-79.487137
 20
-70.042947
 11
-79.487137
 21
-70.109612
  0
LINE
  8
ボルト／ビス
  6
CONTINUOUS
 10
-79.487137
 20
-70.042947
 11
-79.087137
 21
-70.042947
  0
LINE
  8
ボルト／ビス
  6
CONTINUOUS
 10
-79.087137
 20
-70.042947
 11
-79.087137
 21
-70.109612
  0
ENDBLK
  0
BLOCK
  2
*GRP_0030
 70
    65
 10
0.0
 20
0.0
  0
LINE
  8
ボルト／ビス
  6
DOT
 10
-79.287137
 20
-62.87628
 11
-79.287137
 21
-62.409615
  0
LINE
  8
ボルト／ビス
  6
DOT
 10
-79.653802
 20
-62.87628
 11
-79.653802
 21
-62.809615
  0
LINE
  8
ボルト／ビス
  6
DOT
 10
-79.653802
 20
-62.809615
 11
-78.92047
 21
-62.809615
  0
LINE
  8
ボルト／ビス
  6
DOT
 10
-78.92047
 20
-62.809615
 11
-78.92047
 21
-62.87628
  0
LINE
  8
ボルト／ビス
  6
DOT
 10
-79.653802
 20
-62.87628
 11
-78.92047
 21
-62.87628
  0
LINE
  8
ボルト／ビス
  6
DOT
 10
-79.587137
 20
-62.77628
 11
-79.587137
 21
-62.809615
  0
LINE
  8
ボルト／ビス
  6
DOT
 10
-79.587137
 20
-62.77628
 11
-78.987137
 21
-62.77628
  0
LINE
  8
ボルト／ビス
  6
DOT
 10
-78.987137
 20
-62.77628
 11
-78.987137
 21
-62.809615
  0
LINE
  8
ボルト／ビス
  6
DOT
 62
    64
 10
-79.447512
 20
-62.57628
 11
-79.479587
 21
-62.587955
  0
ARC
  8
ボルト／ビス
  6
DOT
 62
    64
 10
-79.431473
 20
-62.681258
 40
0.104978
 50
62.721967
 51
90.0
  0
ARC
  8
ボルト／ビス
  6
DOT
 62
    64
 10
-79.287136
 20
-62.978682
 40
0.402402
 50
76.165002
 51
103.834985
  0
LINE
  8
ボルト／ビス
  6
DOT
 62
    64
 10
-79.126763
 20
-62.57628
 11
-79.094687
 21
-62.587955
  0
ARC
  8
ボルト／ビス
  6
DOT
 62
    64
 10
-79.142798
 20
-62.681258
 40
0.104978
 50
90.0
 51
117.278033
  0
LINE
  8
ボルト／ビス
  6
DOT
 62
    64
 10
-79.447512
 20
-62.57628
 11
-79.126763
 21
-62.57628
  0
LINE
  8
ボルト／ビス
  6
DOT
 62
    64
 10
-79.094687
 20
-62.587955
 11
-79.094687
 21
-62.709615
  0
LINE
  8
ボルト／ビス
  6
DOT
 62
    64
 10
-79.190913
 20
-62.587955
 11
-79.190913
 21
-62.709615
  0
LINE
  8
ボルト／ビス
  6
DOT
 62
    64
 10
-79.479587
 20
-62.587955
 11
-79.479587
 21
-62.709615
  0
LINE
  8
ボルト／ビス
  6
DOT
 62
    64
 10
-79.383363
 20
-62.587955
 11
-79.383363
 21
-62.709615
  0
LINE
  8
ボルト／ビス
  6
DOT
 10
-79.479587
 20
-62.709615
 11
-79.094687
 21
-62.709615
  0
LINE
  8
ボルト／ビス
  6
DOT
 10
-79.487137
 20
-62.709615
 11
-79.487137
 21
-62.77628
  0
LINE
  8
ボルト／ビス
  6
DOT
 10
-79.487137
 20
-62.709615
 11
-79.087137
 21
-62.709615
  0
LINE
  8
ボルト／ビス
  6
DOT
 10
-79.087137
 20
-62.709615
 11
-79.087137
 21
-62.77628
  0
ENDBLK
  0
BLOCK
  2
*GRP_0031
 70
    65
 10
0.0
 20
0.0
  0
LINE
  8
ボルト／ビス
  6
CONTINUOUS
 10
94.24613
 20
22.147365
 11
93.779465
 21
22.147365
  0
LINE
  8
ボルト／ビス
  6
CONTINUOUS
 10
94.24613
 20
21.7807
 11
94.179465
 21
21.7807
  0
LINE
  8
ボルト／ビス
  6
CONTINUOUS
 10
94.179465
 20
21.7807
 11
94.179465
 21
22.514033
  0
LINE
  8
ボルト／ビス
  6
CONTINUOUS
 10
94.179465
 20
22.514033
 11
94.24613
 21
22.514033
  0
LINE
  8
ボルト／ビス
  6
CONTINUOUS
 10
94.24613
 20
21.7807
 11
94.24613
 21
22.514033
  0
LINE
  8
ボルト／ビス
  6
CONTINUOUS
 10
94.14613
 20
21.847365
 11
94.179465
 21
21.847365
  0
LINE
  8
ボルト／ビス
  6
CONTINUOUS
 10
94.14613
 20
21.847365
 11
94.14613
 21
22.447365
  0
LINE
  8
ボルト／ビス
  6
CONTINUOUS
 10
94.14613
 20
22.447365
 11
94.179465
 21
22.447365
  0
LINE
  8
ボルト／ビス
  6
CONTINUOUS
 62
    64
 10
93.94613
 20
21.98699
 11
93.957805
 21
21.954915
  0
ARC
  8
ボルト／ビス
  6
CONTINUOUS
 62
    64
 10
94.051107
 20
22.003031
 40
0.104978
 50
152.721967
 51
180.0
  0
ARC
  8
ボルト／ビス
  6
CONTINUOUS
 62
    64
 10
94.348531
 20
22.147368
 40
0.402402
 50
166.165002
 51
193.834985
  0
LINE
  8
ボルト／ビス
  6
CONTINUOUS
 62
    64
 10
93.94613
 20
22.30774
 11
93.957805
 21
22.339815
  0
ARC
  8
ボルト／ビス
  6
CONTINUOUS
 62
    64
 10
94.051107
 20
22.291706
 40
0.104978
 50
180.0
 51
207.278033
  0
LINE
  8
ボルト／ビス
  6
CONTINUOUS
 62
    64
 10
93.94613
 20
21.98699
 11
93.94613
 21
22.30774
  0
LINE
  8
ボルト／ビス
  6
CONTINUOUS
 62
    64
 10
93.957805
 20
22.339815
 11
94.079465
 21
22.339815
  0
LINE
  8
ボルト／ビス
  6
CONTINUOUS
 62
    64
 10
93.957805
 20
22.24359
 11
94.079465
 21
22.24359
  0
LINE
  8
ボルト／ビス
  6
CONTINUOUS
 62
    64
 10
93.957805
 20
21.954915
 11
94.079465
 21
21.954915
  0
LINE
  8
ボルト／ビス
  6
CONTINUOUS
 62
    64
 10
93.957805
 20
22.05114
 11
94.079465
 21
22.05114
  0
LINE
  8
ボルト／ビス
  6
CONTINUOUS
 10
94.079465
 20
21.954915
 11
94.079465
 21
22.339815
  0
LINE
  8
ボルト／ビス
  6
CONTINUOUS
 10
94.079465
 20
21.947365
 11
94.14613
 21
21.947365
  0
LINE
  8
ボルト／ビス
  6
CONTINUOUS
 10
94.079465
 20
21.947365
 11
94.079465
 21
22.347365
  0
LINE
  8
ボルト／ビス
  6
CONTINUOUS
 10
94.079465
 20
22.347365
 11
94.14613
 21
22.347365
  0
ENDBLK
  0
BLOCK
  2
*GRP_0032
 70
    65
 10
0.0
 20
0.0
  0
LINE
  8
ボルト／ビス
  6
CONTINUOUS
 10
94.24613
 20
43.4807
 11
93.779465
 21
43.4807
  0
LINE
  8
ボルト／ビス
  6
CONTINUOUS
 10
94.24613
 20
43.114035
 11
94.179465
 21
43.114035
  0
LINE
  8
ボルト／ビス
  6
CONTINUOUS
 10
94.179465
 20
43.114035
 11
94.179465
 21
43.847367
  0
LINE
  8
ボルト／ビス
  6
CONTINUOUS
 10
94.179465
 20
43.847367
 11
94.24613
 21
43.847367
  0
LINE
  8
ボルト／ビス
  6
CONTINUOUS
 10
94.24613
 20
43.114035
 11
94.24613
 21
43.847367
  0
LINE
  8
ボルト／ビス
  6
CONTINUOUS
 10
94.14613
 20
43.1807
 11
94.179465
 21
43.1807
  0
LINE
  8
ボルト／ビス
  6
CONTINUOUS
 10
94.14613
 20
43.1807
 11
94.14613
 21
43.7807
  0
LINE
  8
ボルト／ビス
  6
CONTINUOUS
 10
94.14613
 20
43.7807
 11
94.179465
 21
43.7807
  0
LINE
  8
ボルト／ビス
  6
CONTINUOUS
 62
    64
 10
93.94613
 20
43.320325
 11
93.957805
 21
43.28825
  0
ARC
  8
ボルト／ビス
  6
CONTINUOUS
 62
    64
 10
94.051107
 20
43.336366
 40
0.104978
 50
152.721967
 51
180.0
  0
ARC
  8
ボルト／ビス
  6
CONTINUOUS
 62
    64
 10
94.348531
 20
43.480703
 40
0.402402
 50
166.165002
 51
193.834985
  0
LINE
  8
ボルト／ビス
  6
CONTINUOUS
 62
    64
 10
93.94613
 20
43.641075
 11
93.957805
 21
43.67315
  0
ARC
  8
ボルト／ビス
  6
CONTINUOUS
 62
    64
 10
94.051107
 20
43.625041
 40
0.104978
 50
180.0
 51
207.278033
  0
LINE
  8
ボルト／ビス
  6
CONTINUOUS
 62
    64
 10
93.94613
 20
43.320325
 11
93.94613
 21
43.641075
  0
LINE
  8
ボルト／ビス
  6
CONTINUOUS
 62
    64
 10
93.957805
 20
43.67315
 11
94.079465
 21
43.67315
  0
LINE
  8
ボルト／ビス
  6
CONTINUOUS
 62
    64
 10
93.957805
 20
43.576925
 11
94.079465
 21
43.576925
  0
LINE
  8
ボルト／ビス
  6
CONTINUOUS
 62
    64
 10
93.957805
 20
43.28825
 11
94.079465
 21
43.28825
  0
LINE
  8
ボルト／ビス
  6
CONTINUOUS
 62
    64
 10
93.957805
 20
43.384475
 11
94.079465
 21
43.384475
  0
LINE
  8
ボルト／ビス
  6
CONTINUOUS
 10
94.079465
 20
43.28825
 11
94.079465
 21
43.67315
  0
LINE
  8
ボルト／ビス
  6
CONTINUOUS
 10
94.079465
 20
43.2807
 11
94.14613
 21
43.2807
  0
LINE
  8
ボルト／ビス
  6
CONTINUOUS
 10
94.079465
 20
43.2807
 11
94.079465
 21
43.6807
  0
LINE
  8
ボルト／ビス
  6
CONTINUOUS
 10
94.079465
 20
43.6807
 11
94.14613
 21
43.6807
  0
ENDBLK
  0
ENDSEC
  0
SECTION
  2
ENTITIES
  0
POLYLINE
  8
通り芯
  6
CONTINUOUS
 66
     1
 70
     1
  0
VERTEX
  8
通り芯
 10
-210.0
 20
-148.5
  0
VERTEX
  8
通り芯
 10
210.0
 20
-148.5
  0
VERTEX
  8
通り芯
 10
210.0
 20
148.5
  0
VERTEX
  8
通り芯
 10
-210.0
 20
148.5
  0
SEQEND
  0
INSERT
  2
*GRP_0001
  8
型材断面
  6
CONTINUOUS
 10
0.0
 20
0.0
  0
LINE
  8
型材断面
  6
DASHDOT
 10
4.712865
 20
-77.836442
 11
4.712865
 21
42.814033
  0
LINE
  8
型材断面
  6
DASHDOT
 10
-36.953802
 20
-77.836442
 11
-36.953802
 21
42.814033
  0
LINE
  8
型材断面
  6
DASHDOT
 10
-78.620467
 20
-77.836442
 11
-78.620467
 21
42.814033
  0
LINE
  8
型材断面
  6
DASHDOT
 10
102.389627
 20
42.814033
 11
-78.620467
 21
42.814033
  0
LINE
  8
型材断面
  6
DASHDOT
 10
102.389627
 20
32.814033
 11
-78.620467
 21
32.814033
  0
LINE
  8
型材断面
  6
DASHDOT
 10
102.389627
 20
22.814033
 11
-78.620467
 21
22.814033
  0
LINE
  8
型材断面
  6
DOT
 10
-35.703802
 20
22.814033
 11
-35.703802
 21
42.814033
  0
LINE
  8
型材断面
  6
DASHDOT
 10
-36.953802
 20
22.814033
 11
-36.953802
 21
42.814033
  0
LINE
  8
型材断面
  6
DOT
 10
-38.203802
 20
22.814033
 11
-38.203802
 21
42.814033
  0
POLYLINE
  8
型材断面
  6
CONTINUOUS
 66
     1
 70
     1
  0
VERTEX
  8
型材断面
 10
-27.384055
 20
13.03811
  0
VERTEX
  8
型材断面
 10
-46.155985
 20
13.03811
  0
VERTEX
  8
型材断面
 10
-46.155985
 20
8.301267
  0
VERTEX
  8
型材断面
 10
-27.384055
 20
8.301267
  0
SEQEND
  0
POLYLINE
  8
型材断面
  6
CONTINUOUS
 66
     1
 70
     1
  0
VERTEX
  8
型材断面
 10
-27.384055
 20
52.589955
  0
VERTEX
  8
型材断面
 10
-46.155985
 20
52.589955
  0
VERTEX
  8
型材断面
 10
-46.155985
 20
57.326798
  0
VERTEX
  8
型材断面
 10
-27.384055
 20
57.326798
  0
SEQEND
  0
LINE
  8
型材断面
  6
CONTINUOUS
 10
-61.9538
 20
45.444162
 11
-63.44943
 21
48.03467
  0
LINE
  8
型材断面
  6
CONTINUOUS
 10
-61.9538
 20
45.444162
 11
-60.45817
 21
48.03467
  0
LINE
  8
型材断面
  6
CONTINUOUS
 10
-60.45817
 20
48.03467
 11
-63.44943
 21
48.03467
  0
LINE
  8
型材断面
  6
CONTINUOUS
 10
-119.472675
 20
80.791505
 11
-118.87662
 21
78.200998
  0
LINE
  8
型材断面
  6
CONTINUOUS
 10
-119.472675
 20
80.791505
 11
-120.068732
 21
78.200998
  0
LINE
  8
型材断面
  6
CONTINUOUS
 10
-120.068732
 20
78.200998
 11
-118.87662
 21
78.200998
  0
LINE
  8
型材断面
  6
CONTINUOUS
 10
-125.495263
 20
74.922105
 11
-79.253485
 21
74.922105
  0
LINE
  8
型材断面
  6
CONTINUOUS
 10
-119.472675
 20
87.32138
 11
-120.968305
 21
84.730873
  0
LINE
  8
型材断面
  6
CONTINUOUS
 10
-119.472675
 20
87.32138
 11
-117.977045
 21
84.730873
  0
LINE
  8
型材断面
  6
CONTINUOUS
 10
-117.977045
 20
84.730873
 11
-120.968305
 21
84.730873
  0
LINE
  8
型材断面
  6
CONTINUOUS
 10
-125.495263
 20
83.792277
 11
-79.253485
 21
83.792277
  0
LINE
  8
型材断面
  6
CONTINUOUS
 10
-125.495263
 20
69.134073
 11
-79.253485
 21
69.134073
  0
LINE
  8
型材断面
  6
CONTINUOUS
 10
-81.250597
 20
32.814033
 11
-83.841105
 21
34.309663
  0
LINE
  8
型材断面
  6
CONTINUOUS
 10
-81.250597
 20
32.814033
 11
-83.841105
 21
31.318403
  0
LINE
  8
型材断面
  6
CONTINUOUS
 10
-83.841105
 20
31.318403
 11
-83.841105
 21
34.309663
  0
LINE
  8
型材断面
  6
CONTINUOUS
 10
-61.9538
 20
20.183902
 11
-63.44943
 21
17.593395
  0
LINE
  8
型材断面
  6
CONTINUOUS
 10
-61.9538
 20
20.183902
 11
-60.45817
 21
17.593395
  0
LINE
  8
型材断面
  6
CONTINUOUS
 10
-60.45817
 20
17.593395
 11
-63.44943
 21
17.593395
  0
LINE
  8
型材断面
  6
CONTINUOUS
 10
-11.953805
 20
45.444162
 11
-10.458175
 21
48.03467
  0
LINE
  8
型材断面
  6
CONTINUOUS
 10
-11.953805
 20
45.444162
 11
-13.449435
 21
48.03467
  0
LINE
  8
型材断面
  6
CONTINUOUS
 10
-13.449435
 20
48.03467
 11
-10.458175
 21
48.03467
  0
LINE
  8
型材断面
  6
CONTINUOUS
 10
7.342993
 20
32.814033
 11
9.9335
 21
34.309663
  0
LINE
  8
型材断面
  6
CONTINUOUS
 10
7.342993
 20
32.814033
 11
9.9335
 21
31.318403
  0
LINE
  8
型材断面
  6
CONTINUOUS
 10
9.9335
 20
31.318403
 11
9.9335
 21
34.309663
  0
LINE
  8
型材断面
  6
CONTINUOUS
 10
-11.953805
 20
20.183902
 11
-10.458175
 21
17.593395
  0
LINE
  8
型材断面
  6
CONTINUOUS
 10
-11.953805
 20
20.183902
 11
-13.449435
 21
17.593395
  0
LINE
  8
型材断面
  6
CONTINUOUS
 10
-13.449435
 20
17.593395
 11
-10.458175
 21
17.593395
  0
LINE
  8
型材断面
  6
DASHDOT
 10
95.279413
 20
22.81403
 11
101.299477
 21
22.81403
  0
LINE
  8
型材断面
  6
CONTINUOUS
 62
    47
 10
97.562745
 20
21.417365
 11
97.562745
 21
22.197365
  0
LINE
  8
型材断面
  6
CONTINUOUS
 10
95.729413
 20
21.317365
 11
95.279413
 21
21.317365
  0
LINE
  8
型材断面
  6
CONTINUOUS
 62
    47
 10
98.402105
 20
20.53403
 11
98.06877
 21
20.53403
  0
LINE
  8
型材断面
  6
CONTINUOUS
 62
    47
 10
98.06877
 20
20.53403
 11
97.96877
 21
21.317365
  0
LINE
  8
型材断面
  6
CONTINUOUS
 62
    47
 10
97.562745
 20
21.317365
 11
97.96877
 21
21.317365
  0
LINE
  8
型材断面
  6
CONTINUOUS
 62
    47
 10
97.562745
 20
20.847365
 11
95.729413
 21
20.847365
  0
LINE
  8
型材断面
  6
CONTINUOUS
 62
    47
 10
101.529413
 20
21.41403
 11
101.029413
 21
21.41403
  0
LINE
  8
型材断面
  6
CONTINUOUS
 62
    47
 10
101.029413
 20
20.847365
 11
98.402105
 21
20.847365
  0
LINE
  8
型材断面
  6
CONTINUOUS
 62
    47
 10
101.029413
 20
20.847365
 11
101.029413
 21
32.814033
  0
LINE
  8
型材断面
  6
CONTINUOUS
 62
    47
 10
101.529413
 20
21.41403
 11
101.529413
 21
32.814033
  0
LINE
  8
型材断面
  6
CONTINUOUS
 10
97.96877
 20
21.317365
 11
97.96877
 21
32.814033
  0
LINE
  8
型材断面
  6
CONTINUOUS
 10
98.06877
 20
20.53403
 11
98.06877
 21
32.814033
  0
LINE
  8
型材断面
  6
CONTINUOUS
 62
    47
 10
97.562745
 20
20.847365
 11
97.562745
 21
32.814033
  0
LINE
  8
型材断面
  6
CONTINUOUS
 62
    47
 10
98.402105
 20
20.53403
 11
98.402105
 21
32.814033
  0
LINE
  8
型材断面
  6
CONTINUOUS
 10
95.729413
 20
20.847365
 11
95.729413
 21
32.814033
  0
LINE
  8
型材断面
  6
DASHDOT
 10
95.279413
 20
42.814035
 11
101.299477
 21
42.814035
  0
LINE
  8
型材断面
  6
CONTINUOUS
 62
    47
 10
97.562745
 20
44.2107
 11
97.562745
 21
43.4307
  0
LINE
  8
型材断面
  6
CONTINUOUS
 10
95.729413
 20
44.3107
 11
95.279413
 21
44.3107
  0
LINE
  8
型材断面
  6
CONTINUOUS
 62
    47
 10
98.402105
 20
45.094035
 11
98.06877
 21
45.094035
  0
LINE
  8
型材断面
  6
CONTINUOUS
 62
    47
 10
98.06877
 20
45.094035
 11
97.96877
 21
44.3107
  0
LINE
  8
型材断面
  6
CONTINUOUS
 62
    47
 10
97.562745
 20
44.3107
 11
97.96877
 21
44.3107
  0
LINE
  8
型材断面
  6
CONTINUOUS
 62
    47
 10
97.562745
 20
44.7807
 11
95.729413
 21
44.7807
  0
LINE
  8
型材断面
  6
CONTINUOUS
 62
    47
 10
101.529413
 20
44.214035
 11
101.029413
 21
44.214035
  0
LINE
  8
型材断面
  6
CONTINUOUS
 62
    47
 10
101.029413
 20
44.7807
 11
98.402105
 21
44.7807
  0
LINE
  8
型材断面
  6
CONTINUOUS
 62
    47
 10
101.029413
 20
44.7807
 11
101.029413
 21
32.814033
  0
LINE
  8
型材断面
  6
CONTINUOUS
 62
    47
 10
101.529413
 20
44.214035
 11
101.529413
 21
32.814033
  0
LINE
  8
型材断面
  6
CONTINUOUS
 10
97.96877
 20
44.3107
 11
97.96877
 21
32.814033
  0
LINE
  8
型材断面
  6
CONTINUOUS
 10
98.06877
 20
45.094035
 11
98.06877
 21
32.814033
  0
LINE
  8
型材断面
  6
CONTINUOUS
 62
    47
 10
97.562745
 20
44.7807
 11
97.562745
 21
32.814033
  0
LINE
  8
型材断面
  6
CONTINUOUS
 62
    47
 10
98.402105
 20
45.094035
 11
98.402105
 21
32.814033
  0
LINE
  8
型材断面
  6
CONTINUOUS
 10
95.729413
 20
44.7807
 11
95.729413
 21
32.814033
  0
LINE
  8
型材断面
  6
DASHDOT
 10
4.712867
 20
-71.242895
 11
4.712867
 21
-77.26296
  0
LINE
  8
型材断面
  6
CONTINUOUS
 62
    47
 10
6.109533
 20
-73.526228
 11
5.329532
 21
-73.526228
  0
LINE
  8
型材断面
  6
CONTINUOUS
 10
6.209533
 20
-71.692895
 11
6.209533
 21
-71.242895
  0
LINE
  8
型材断面
  6
CONTINUOUS
 62
    47
 10
6.992867
 20
-74.365588
 11
6.992867
 21
-74.032252
  0
LINE
  8
型材断面
  6
CONTINUOUS
 62
    47
 10
6.992867
 20
-74.032252
 11
6.209533
 21
-73.932252
  0
LINE
  8
型材断面
  6
CONTINUOUS
 62
    47
 10
6.209533
 20
-73.526228
 11
6.209533
 21
-73.932252
  0
LINE
  8
型材断面
  6
CONTINUOUS
 62
    47
 10
6.679532
 20
-73.526228
 11
6.679532
 21
-71.692895
  0
LINE
  8
型材断面
  6
CONTINUOUS
 62
    47
 10
6.112867
 20
-77.492895
 11
6.112867
 21
-76.992895
  0
LINE
  8
型材断面
  6
CONTINUOUS
 62
    47
 10
6.679532
 20
-76.992895
 11
6.679532
 21
-74.365588
  0
LINE
  8
型材断面
  6
CONTINUOUS
 10
6.779532
 20
20.747365
 11
6.992867
 21
20.53403
  0
LINE
  8
型材断面
  6
CONTINUOUS
 10
6.992867
 20
20.53403
 11
6.992867
 21
32.814033
  0
LINE
  8
型材断面
  6
CONTINUOUS
 10
6.679532
 20
-71.692895
 11
-36.953802
 21
-71.692895
  0
LINE
  8
型材断面
  6
CONTINUOUS
 62
    47
 10
6.679532
 20
-73.526228
 11
-36.953802
 21
-73.526228
  0
LINE
  8
型材断面
  6
CONTINUOUS
 10
6.992867
 20
-74.032252
 11
-36.953802
 21
-74.032252
  0
LINE
  8
型材断面
  6
CONTINUOUS
 10
6.209533
 20
-73.932252
 11
-36.953802
 21
-73.932252
  0
LINE
  8
型材断面
  6
CONTINUOUS
 62
    47
 10
6.992867
 20
-74.365588
 11
-36.953802
 21
-74.365588
  0
LINE
  8
型材断面
  6
CONTINUOUS
 62
    47
 10
6.679532
 20
-76.992895
 11
-36.953802
 21
-76.992895
  0
LINE
  8
型材断面
  6
CONTINUOUS
 62
    47
 10
6.112867
 20
-77.492895
 11
-36.953802
 21
-77.492895
  0
LINE
  8
型材断面
  6
DASHDOT
 10
-78.620472
 20
-71.242895
 11
-78.620472
 21
-77.26296
  0
LINE
  8
型材断面
  6
CONTINUOUS
 62
    47
 10
-80.017137
 20
-73.526228
 11
-79.237137
 21
-73.526228
  0
LINE
  8
型材断面
  6
CONTINUOUS
 10
-80.117137
 20
-71.692895
 11
-80.117137
 21
-71.242895
  0
LINE
  8
型材断面
  6
CONTINUOUS
 62
    47
 10
-80.900472
 20
-74.365588
 11
-80.900472
 21
-74.032252
  0
LINE
  8
型材断面
  6
CONTINUOUS
 62
    47
 10
-80.900472
 20
-74.032252
 11
-80.117137
 21
-73.932252
  0
LINE
  8
型材断面
  6
CONTINUOUS
 62
    47
 10
-80.117137
 20
-73.526228
 11
-80.117137
 21
-73.932252
  0
LINE
  8
型材断面
  6
CONTINUOUS
 62
    47
 10
-80.587137
 20
-73.526228
 11
-80.587137
 21
-71.692895
  0
LINE
  8
型材断面
  6
CONTINUOUS
 62
    47
 10
-80.020472
 20
-77.492895
 11
-80.020472
 21
-76.992895
  0
LINE
  8
型材断面
  6
CONTINUOUS
 62
    47
 10
-80.587137
 20
-76.992895
 11
-80.587137
 21
-74.365588
  0
LINE
  8
型材断面
  6
CONTINUOUS
 10
-80.587137
 20
-71.692895
 11
-36.953802
 21
-71.692895
  0
LINE
  8
型材断面
  6
CONTINUOUS
 62
    47
 10
-80.587137
 20
-73.526228
 11
-36.953802
 21
-73.526228
  0
LINE
  8
型材断面
  6
CONTINUOUS
 10
-80.900472
 20
-74.032252
 11
-36.953802
 21
-74.032252
  0
LINE
  8
型材断面
  6
CONTINUOUS
 10
-80.117137
 20
-73.932252
 11
-36.953802
 21
-73.932252
  0
LINE
  8
型材断面
  6
CONTINUOUS
 62
    47
 10
-80.900472
 20
-74.365588
 11
-36.953802
 21
-74.365588
  0
LINE
  8
型材断面
  6
CONTINUOUS
 62
    47
 10
-80.587137
 20
-76.992895
 11
-36.953802
 21
-76.992895
  0
LINE
  8
型材断面
  6
CONTINUOUS
 62
    47
 10
-80.020472
 20
-77.492895
 11
-36.953802
 21
-77.492895
  0
LINE
  8
型材断面
  6
DOT
 62
    47
 10
6.109533
 20
-66.192895
 11
5.329532
 21
-66.192895
  0
LINE
  8
型材断面
  6
DOT
 10
6.209533
 20
-64.359562
 11
6.209533
 21
-63.909562
  0
LINE
  8
型材断面
  6
DOT
 62
    47
 10
6.992867
 20
-67.032255
 11
6.992867
 21
-66.69892
  0
LINE
  8
型材断面
  6
DOT
 62
    47
 10
6.992867
 20
-66.69892
 11
6.209533
 21
-66.59892
  0
LINE
  8
型材断面
  6
DOT
 62
    47
 10
6.209533
 20
-66.192895
 11
6.209533
 21
-66.59892
  0
LINE
  8
型材断面
  6
DOT
 62
    47
 10
6.679532
 20
-66.192895
 11
6.679532
 21
-64.359562
  0
LINE
  8
型材断面
  6
DOT
 10
6.679532
 20
-64.359562
 11
-36.953802
 21
-64.359562
  0
LINE
  8
型材断面
  6
DOT
 62
    47
 10
6.679532
 20
-66.192895
 11
-36.953802
 21
-66.192895
  0
LINE
  8
型材断面
  6
DOT
 10
6.992867
 20
-66.69892
 11
-36.953802
 21
-66.69892
  0
LINE
  8
型材断面
  6
DOT
 10
6.209533
 20
-66.59892
 11
-36.953802
 21
-66.59892
  0
LINE
  8
型材断面
  6
DOT
 62
    47
 10
6.992867
 20
-67.032255
 11
-36.953802
 21
-67.032255
  0
LINE
  8
型材断面
  6
DOT
 62
    47
 10
-80.017137
 20
-66.192895
 11
-79.237137
 21
-66.192895
  0
LINE
  8
型材断面
  6
DOT
 10
-80.117137
 20
-64.359562
 11
-80.117137
 21
-63.909562
  0
LINE
  8
型材断面
  6
DOT
 62
    47
 10
-80.900472
 20
-67.032255
 11
-80.900472
 21
-66.69892
  0
LINE
  8
型材断面
  6
DOT
 62
    47
 10
-80.900472
 20
-66.69892
 11
-80.117137
 21
-66.59892
  0
LINE
  8
型材断面
  6
DOT
 62
    47
 10
-80.117137
 20
-66.192895
 11
-80.117137
 21
-66.59892
  0
LINE
  8
型材断面
  6
DOT
 62
    47
 10
-80.587137
 20
-66.192895
 11
-80.587137
 21
-64.359562
  0
LINE
  8
型材断面
  6
DOT
 10
-80.587137
 20
-64.359562
 11
-36.953802
 21
-64.359562
  0
LINE
  8
型材断面
  6
DOT
 62
    47
 10
-80.587137
 20
-66.192895
 11
-36.953802
 21
-66.192895
  0
LINE
  8
型材断面
  6
DOT
 10
-80.900472
 20
-66.69892
 11
-36.953802
 21
-66.69892
  0
LINE
  8
型材断面
  6
DOT
 10
-80.117137
 20
-66.59892
 11
-36.953802
 21
-66.59892
  0
LINE
  8
型材断面
  6
DOT
 62
    47
 10
-80.900472
 20
-67.032255
 11
-36.953802
 21
-67.032255
  0
LINE
  8
型材断面
  6
CONTINUOUS
 10
6.992867
 20
20.53403
 11
-36.953802
 21
20.53403
  0
LINE
  8
型材断面
  6
CONTINUOUS
 10
6.779532
 20
44.8807
 11
6.992867
 21
45.094035
  0
LINE
  8
型材断面
  6
CONTINUOUS
 10
6.992867
 20
45.094035
 11
6.992867
 21
32.814033
  0
LINE
  8
型材断面
  6
CONTINUOUS
 10
6.992867
 20
45.094035
 11
-36.953802
 21
45.094035
  0
LINE
  8
型材断面
  6
CONTINUOUS
 10
-80.687137
 20
44.8807
 11
-80.900472
 21
45.094035
  0
LINE
  8
型材断面
  6
CONTINUOUS
 10
-80.900472
 20
45.094035
 11
-80.900472
 21
32.814033
  0
LINE
  8
型材断面
  6
CONTINUOUS
 10
-80.900472
 20
45.094035
 11
-36.953802
 21
45.094035
  0
LINE
  8
型材断面
  6
CONTINUOUS
 10
-80.687137
 20
20.747365
 11
-80.900472
 21
20.53403
  0
LINE
  8
型材断面
  6
CONTINUOUS
 10
-80.900472
 20
20.53403
 11
-80.900472
 21
32.814033
  0
LINE
  8
型材断面
  6
CONTINUOUS
 10
-80.900472
 20
20.53403
 11
-36.953802
 21
20.53403
  0
LINE
  8
型材断面
  6
CONTINUOUS
 10
7.342993
 20
38.914033
 11
9.9335
 21
38.317975
  0
LINE
  8
型材断面
  6
CONTINUOUS
 10
7.342993
 20
38.914033
 11
9.9335
 21
39.51009
  0
LINE
  8
型材断面
  6
CONTINUOUS
 10
9.9335
 20
39.51009
 11
9.9335
 21
38.317975
  0
LINE
  8
型材断面
  6
CONTINUOUS
 10
7.342993
 20
26.714033
 11
9.9335
 21
27.31009
  0
LINE
  8
型材断面
  6
CONTINUOUS
 10
7.342993
 20
26.714033
 11
9.9335
 21
26.117975
  0
LINE
  8
型材断面
  6
CONTINUOUS
 10
9.9335
 20
26.117975
 11
9.9335
 21
27.31009
  0
LINE
  8
型材断面
  6
CONTINUOUS
 10
-81.250597
 20
38.914033
 11
-83.841105
 21
38.317975
  0
LINE
  8
型材断面
  6
CONTINUOUS
 10
-81.250597
 20
38.914033
 11
-83.841105
 21
39.51009
  0
LINE
  8
型材断面
  6
CONTINUOUS
 10
-83.841105
 20
39.51009
 11
-83.841105
 21
38.317975
  0
LINE
  8
型材断面
  6
CONTINUOUS
 10
-81.250597
 20
26.714033
 11
-83.841105
 21
27.31009
  0
LINE
  8
型材断面
  6
CONTINUOUS
 10
-81.250597
 20
26.714033
 11
-83.841105
 21
26.117975
  0
LINE
  8
型材断面
  6
CONTINUOUS
 10
-83.841105
 20
26.117975
 11
-83.841105
 21
27.31009
  0
INSERT
  2
*GRP_0018
  8
型材断面
  6
CONTINUOUS
 10
0.0
 20
0.0
  0
INSERT
  2
*GRP_0019
  8
型材断面
  6
CONTINUOUS
 10
0.0
 20
0.0
  0
INSERT
  2
*GRP_0020
  8
型材断面
  6
CONTINUOUS
 10
0.0
 20
0.0
  0
INSERT
  2
*GRP_0021
  8
型材断面
  6
CONTINUOUS
 10
0.0
 20
0.0
  0
LINE
  8
型材断面
  6
CONTINUOUS
 10
-125.495263
 20
63.34604
 11
-79.253485
 21
63.34604
  0
TEXT
  7
TextStyle03
  8
文字
  6
CONTINUOUS
 10
81.275
 20
-76.7
  1
網入り6.8t
 40
3.0
 72
     5
 11
97.9625
 21
-76.7
  0
TEXT
  7
TextStyle03
  8
文字
  6
CONTINUOUS
 10
87.95
 20
-81.375
  1
×２枚
 40
3.0
 72
     5
 11
97.7
 21
-81.375
  0
TEXT
  7
TextStyle03
  8
文字
  6
CONTINUOUS
 10
-45.175
 20
9.325
  1
可動装置側
 40
3.0
 72
     5
 11
-28.675
 21
9.325
  0
TEXT
  7
TextStyle03
  8
文字
  6
CONTINUOUS
 10
-45.175
 20
53.3
  1
可動装置側
 40
3.0
 72
     5
 11
-28.675
 21
53.3
  0
TEXT
  7
TextStyle03
  8
文字
  6
CONTINUOUS
 10
-116.675
 20
79.425
  1
はケーシング位置を示す
 40
3.0
 72
     5
 11
-79.925
 21
79.425
  0
TEXT
  7
TextStyle03
  8
文字
  6
CONTINUOUS
 10
-116.675
 20
76.05
  1
４ヶ所中1ヶ所に設定
 40
3.0
 72
     5
 11
-84.9875
 21
76.05
  0
TEXT
  7
TextStyle03
  8
文字
  6
CONTINUOUS
 10
-116.675
 20
84.95
  1
は排水穴位置を示す
 40
3.0
 72
     5
 11
-86.675
 21
84.95
  0
TEXT
  7
TextStyle03
  8
文字
  6
CONTINUOUS
 10
-99.625
 20
11.275
  1
アンカーピッチ
 40
3.0
 50
90.0
 72
     5
 11
-99.625
 21
34.525
  0
TEXT
  7
TextStyle03
  8
文字
  6
CONTINUOUS
 10
-71.975
 20
80.85
  1
アンカーピッチ
 40
3.0
 72
     5
 11
-48.725
 21
80.85
  0
TEXT
  7
TextStyle03
  8
文字
  6
CONTINUOUS
 10
-120.4
 20
70.075
  1
アンカー数量　１２ヶ所
 40
3.0
 72
     5
 11
-83.65
 21
70.075
  0
TEXT
  7
TextStyle03
  8
文字
  6
CONTINUOUS
 10
-125.4
 20
59.35
  1
※重量に依るのでご相談ください
 40
3.0
 72
     5
 11
-75.15
 21
59.35
  0
TEXT
  7
TextStyle03
  8
文字
  6
CONTINUOUS
 10
-125.4
 20
64.3
  1
アームユニット数　※２～４ヶ所
 40
3.0
 72
     5
 11
-75.15
 21
64.3
  0
TEXT
  7
TextStyle03
  8
文字
  6
CONTINUOUS
 10
78.1
 20
125.25
  1
シリーズ：ＳＴＤＬ
 40
5.0
 72
     5
 11
128.1
 21
125.25
  0
TEXT
  7
TextStyle03
  8
文字
  6
CONTINUOUS
 10
78.1
 20
119.625
  1
　　　　　（上下可動）600×2500タイプ
 40
5.0
 72
     5
 11
181.5375
 21
119.625
  0
TEXT
  7
TextStyle03
  8
文字
  6
CONTINUOUS
 10
78.1
 20
114.0
  1
図面名　：外観姿図
 40
5.0
 72
     5
 11
128.1
 21
114.0
  0
TEXT
  7
TextStyle03
  8
文字
  6
CONTINUOUS
 10
78.1
 20
108.375
  1
　　　　　　
 40
5.0
 72
     5
 11
111.225
 21
108.375
  0
TEXT
  7
TextStyle03
  8
文字
  6
CONTINUOUS
 10
77.425
 20
103.975
  1
ＮＳコード：ＮＳＤＳＬ
 40
5.0
 72
     5
 11
138.675
 21
103.975
  0
INSERT
  2
*DIM_0002
  8
寸法
  6
CONTINUOUS
 10
0.0
 20
0.0
  0
INSERT
  2
*DIM_0003
  8
寸法
  6
CONTINUOUS
 10
0.0
 20
0.0
  0
INSERT
  2
*DIM_0004
  8
寸法
  6
CONTINUOUS
 10
0.0
 20
0.0
  0
INSERT
  2
*DIM_0005
  8
寸法
  6
CONTINUOUS
 10
0.0
 20
0.0
  0
INSERT
  2
*DIM_0006
  8
寸法
  6
CONTINUOUS
 10
0.0
 20
0.0
  0
INSERT
  2
*DIM_0007
  8
寸法
  6
CONTINUOUS
 10
0.0
 20
0.0
  0
INSERT
  2
*DIM_0008
  8
寸法
  6
CONTINUOUS
 10
0.0
 20
0.0
  0
INSERT
  2
*DIM_0009
  8
寸法
  6
CONTINUOUS
 10
0.0
 20
0.0
  0
INSERT
  2
*DIM_0010
  8
寸法
  6
CONTINUOUS
 10
0.0
 20
0.0
  0
INSERT
  2
*DIM_0011
  8
寸法
  6
CONTINUOUS
 10
0.0
 20
0.0
  0
INSERT
  2
*DIM_0012
  8
寸法
  6
CONTINUOUS
 10
0.0
 20
0.0
  0
INSERT
  2
*DIM_0013
  8
寸法
  6
CONTINUOUS
 10
0.0
 20
0.0
  0
INSERT
  2
*DIM_0014
  8
寸法
  6
CONTINUOUS
 10
0.0
 20
0.0
  0
INSERT
  2
*DIM_0015
  8
寸法
  6
CONTINUOUS
 10
0.0
 20
0.0
  0
INSERT
  2
*DIM_0016
  8
寸法
  6
CONTINUOUS
 10
0.0
 20
0.0
  0
INSERT
  2
*DIM_0022
  8
寸法
  6
CONTINUOUS
 10
0.0
 20
0.0
  0
INSERT
  2
*DIM_0023
  8
寸法
  6
CONTINUOUS
 10
0.0
 20
0.0
  0
INSERT
  2
*DIM_0024
  8
寸法
  6
CONTINUOUS
 10
0.0
 20
0.0
  0
INSERT
  2
*DIM_0025
  8
寸法
  6
CONTINUOUS
 10
0.0
 20
0.0
  0
INSERT
  2
*DIM_0026
  8
寸法
  6
CONTINUOUS
 10
0.0
 20
0.0
  0
LINE
  8
別途部材
  6
CONTINUOUS
 10
6.779532
 20
20.747365
 11
6.379532
 21
21.147365
  0
LINE
  8
別途部材
  6
CONTINUOUS
 10
4.712865
 20
22.814033
 11
-3.34639
 21
30.87329
  0
LINE
  8
別途部材
  6
CONTINUOUS
 10
6.379532
 20
21.147365
 11
6.379532
 21
32.814033
  0
LINE
  8
別途部材
  6
CONTINUOUS
 10
6.779532
 20
20.747365
 11
6.779532
 21
32.814033
  0
LINE
  8
別途部材
  6
CONTINUOUS
 10
6.779532
 20
44.8807
 11
6.379532
 21
44.4807
  0
LINE
  8
別途部材
  6
CONTINUOUS
 10
4.712865
 20
42.814033
 11
-3.34639
 21
34.754775
  0
LINE
  8
別途部材
  6
CONTINUOUS
 10
6.379532
 20
44.4807
 11
6.379532
 21
32.814033
  0
LINE
  8
別途部材
  6
CONTINUOUS
 10
6.779532
 20
44.8807
 11
6.779532
 21
32.814033
  0
LINE
  8
別途部材
  6
CONTINUOUS
 10
6.379532
 20
44.4807
 11
-36.953802
 21
44.4807
  0
LINE
  8
別途部材
  6
CONTINUOUS
 10
6.779532
 20
44.8807
 11
-36.953802
 21
44.8807
  0
LINE
  8
別途部材
  6
CONTINUOUS
 10
6.379532
 20
21.147365
 11
-36.953802
 21
21.147365
  0
LINE
  8
別途部材
  6
CONTINUOUS
 10
6.779532
 20
20.747365
 11
-36.953802
 21
20.747365
  0
LINE
  8
別途部材
  6
CONTINUOUS
 10
-80.687137
 20
20.747365
 11
-80.287137
 21
21.147365
  0
LINE
  8
別途部材
  6
CONTINUOUS
 10
-78.62047
 20
22.814033
 11
-70.561215
 21
30.87329
  0
LINE
  8
別途部材
  6
CONTINUOUS
 10
-80.287137
 20
21.147365
 11
-80.287137
 21
32.814033
  0
LINE
  8
別途部材
  6
CONTINUOUS
 10
-80.687137
 20
20.747365
 11
-80.687137
 21
32.814033
  0
LINE
  8
別途部材
  6
CONTINUOUS
 10
-80.687137
 20
44.8807
 11
-80.287137
 21
44.4807
  0
LINE
  8
別途部材
  6
CONTINUOUS
 10
-78.62047
 20
42.814033
 11
-70.561215
 21
34.754775
  0
LINE
  8
別途部材
  6
CONTINUOUS
 10
-80.287137
 20
44.4807
 11
-80.287137
 21
32.814033
  0
LINE
  8
別途部材
  6
CONTINUOUS
 10
-80.687137
 20
44.8807
 11
-80.687137
 21
32.814033
  0
LINE
  8
別途部材
  6
CONTINUOUS
 10
-80.287137
 20
44.4807
 11
-36.953802
 21
44.4807
  0
LINE
  8
別途部材
  6
CONTINUOUS
 10
-80.687137
 20
44.8807
 11
-36.953802
 21
44.8807
  0
LINE
  8
別途部材
  6
CONTINUOUS
 10
-80.287137
 20
21.147365
 11
-36.953802
 21
21.147365
  0
LINE
  8
別途部材
  6
CONTINUOUS
 10
-80.687137
 20
20.747365
 11
-36.953802
 21
20.747365
  0
LINE
  8
別途部材
  6
CONTINUOUS
 62
    96
 10
94.24613
 20
21.147365
 11
95.24613
 21
20.747365
  0
LINE
  8
別途部材
  6
CONTINUOUS
 62
    96
 10
94.24613
 20
21.147365
 11
94.24613
 21
32.814033
  0
LINE
  8
別途部材
  6
CONTINUOUS
 10
95.24613
 20
20.747365
 11
95.24613
 21
32.814033
  0
LINE
  8
別途部材
  6
CONTINUOUS
 62
    96
 10
94.24613
 20
44.4807
 11
95.24613
 21
44.8807
  0
LINE
  8
別途部材
  6
CONTINUOUS
 62
    96
 10
94.24613
 20
44.4807
 11
94.24613
 21
32.814033
  0
LINE
  8
別途部材
  6
CONTINUOUS
 10
95.24613
 20
44.8807
 11
95.24613
 21
32.814033
  0
ARC
  8
別途部材
  6
CONTINUOUS
 10
100.954465
 20
32.814033
 40
12.041667
 50
123.855033
 51
236.144967
  0
LINE
  8
別途部材
  6
DOT
 62
    96
 10
6.379532
 20
-62.87628
 11
6.779532
 21
-63.87628
  0
ARC
  8
別途部材
  6
DOT
 10
-5.287135
 20
-69.584615
 40
12.041667
 50
33.855033
 51
90.0
  0
LINE
  8
別途部材
  6
DOT
 10
6.779532
 20
-63.87628
 11
-36.953802
 21
-63.87628
  0
LINE
  8
別途部材
  6
DOT
 62
    96
 10
6.379532
 20
-62.87628
 11
-36.953802
 21
-62.87628
  0
LINE
  8
別途部材
  6
DOT
 10
-5.287135
 20
-57.542947
 11
-36.953802
 21
-57.542947
  0
LINE
  8
別途部材
  6
DOT
 62
    96
 10
-80.287137
 20
-62.87628
 11
-80.687137
 21
-63.87628
  0
ARC
  8
別途部材
  6
DOT
 10
-68.62047
 20
-69.584615
 40
12.041667
 50
90.0
 51
146.144967
  0
LINE
  8
別途部材
  6
DOT
 10
-80.687137
 20
-63.87628
 11
-36.953802
 21
-63.87628
  0
LINE
  8
別途部材
  6
DOT
 62
    96
 10
-80.287137
 20
-62.87628
 11
-36.953802
 21
-62.87628
  0
LINE
  8
別途部材
  6
DOT
 10
-68.62047
 20
-57.542947
 11
-36.953802
 21
-57.542947
  0
INSERT
  2
*GRP_0017
  8
別途部材
  6
CONTINUOUS
 10
0.0
 20
0.0
  0
INSERT
  2
*GRP_0027
  8
別途部材
  6
DOT
 10
0.0
 20
0.0
  0
INSERT
  2
*GRP_0028
  8
別途部材
  6
DOT
 10
0.0
 20
0.0
  0
INSERT
  2
*GRP_0029
  8
別途部材
  6
DOT
 10
0.0
 20
0.0
  0
INSERT
  2
*GRP_0030
  8
別途部材
  6
DOT
 10
0.0
 20
0.0
  0
INSERT
  2
*GRP_0031
  8
別途部材
  6
DOT
 10
0.0
 20
0.0
  0
INSERT
  2
*GRP_0032
  8
別途部材
  6
DOT
 10
0.0
 20
0.0
  0
LINE
  8
曲げ物
  6
CONTINUOUS
 10
58.99942
 20
-83.118728
 11
58.99942
 21
-63.785395
  0
LINE
  8
曲げ物
  6
CONTINUOUS
 10
58.99942
 20
-63.785395
 11
99.666087
 21
-63.785395
  0
LINE
  8
曲げ物
  6
CONTINUOUS
 10
99.666087
 20
-63.785395
 11
99.666087
 21
-83.118728
  0
LINE
  8
曲げ物
  6
CONTINUOUS
 10
58.99942
 20
-83.118728
 11
99.666087
 21
-83.118728
  0
ENDSEC
  0
EOF
