  0
SECTION
  2
HEADER
  9
$EXTMIN
 10
-210.0
 20
-148.5
  9
$EXTMAX
 10
210.0
 20
148.5
  9
$PDMODE
 70
    32
  9
$PDSIZE
 40
1.5
  9
$LTSCALE
 40
10.0
  0
ENDSEC
  0
SECTION
  2
TABLES
  0
TABLE
  2
LTYPE
 70
    15
  0
LTYPE
  2
CONTINUOUS
 70
    64
  3
実線
 72
    65
 73
     0
 40
0.0
  0
LTYPE
  2
DASHED
 70
    64
  3
破線A
 72
    65
 73
     2
 40
0.6
 49
0.4
 49
-0.2
  0
LTYPE
  2
DASHEDX2
 70
    64
  3
破線B
 72
    65
 73
     2
 40
1.3
 49
0.9
 49
-0.4
  0
LTYPE
  2
DASHDOT
 70
    64
  3
１点鎖線A
 72
    65
 73
     4
 40
0.5375
 49
0.375
 49
-0.05
 49
0.0625
 49
-0.05
  0
LTYPE
  2
DASHDOTX2
 70
    64
  3
１点鎖線B
 72
    65
 73
     4
 40
1.075
 49
0.75
 49
-0.1
 49
0.125
 49
-0.1
  0
LTYPE
  2
DIVIDE2
 70
    64
  3
２点鎖線A
 72
    65
 73
     6
 40
0.5125
 49
0.3
 49
-0.0375
 49
0.05
 49
-0.0375
 49
0.05
 49
-0.0375
  0
LTYPE
  2
DIVIDE
 70
    64
  3
２点鎖線B
 72
    65
 73
     6
 40
1.05
 49
0.55
 49
-0.1
 49
0.1
 49
-0.1
 49
0.1
 49
-0.1
  0
LTYPE
  2
DOT
 70
    64
  3
点線A
 72
    65
 73
     2
 40
0.1125
 49
0.0625
 49
-0.05
  0
LTYPE
  2
DOTX2
 70
    64
  3
点線B
 72
    65
 73
     2
 40
0.275
 49
0.15
 49
-0.125
  0
LTYPE
  2
CONTINUOUS
 70
    64
  3
実線
 72
    65
 73
     0
 40
0.0
  0
LTYPE
  2
CONTINUOUS
 70
    64
  3
実線
 72
    65
 73
     0
 40
0.0
  0
LTYPE
  2
CONTINUOUS
 70
    64
  3
実線
 72
    65
 73
     0
 40
0.0
  0
LTYPE
  2
CONTINUOUS
 70
    64
  3
実線
 72
    65
 73
     0
 40
0.0
  0
LTYPE
  2
CONTINUOUS
 70
    64
  3
実線
 72
    65
 73
     0
 40
0.0
  0
LTYPE
  2
CONTINUOUS
 70
    64
  3
実線
 72
    65
 73
     0
 40
0.0
  0
ENDTAB
  0
TABLE
  2
LAYER
 70
    34
  0
LAYER
  2
通り芯
 70
     0
 62
    15
  6
CONTINUOUS
  0
LAYER
  2
補助線
 70
     0
 62
    16
  6
DOT
  0
LAYER
  2
躯体
 70
     0
 62
    31
  6
CONTINUOUS
  0
LAYER
  2
型材
 70
     0
 62
    32
  6
CONTINUOUS
  0
LAYER
  2
型材断面
 70
     0
 62
    47
  6
CONTINUOUS
  0
LAYER
  2
ガラス
 70
     0
 62
    48
  6
CONTINUOUS
  0
LAYER
  2
ゴム等
 70
     0
 62
    63
  6
CONTINUOUS
  0
LAYER
  2
ボルト／ビス
 70
     0
 62
    64
  6
CONTINUOUS
  0
LAYER
  2
文字
 70
     0
 62
    79
  6
CONTINUOUS
  0
LAYER
  2
寸法
 70
     0
 62
    80
  6
CONTINUOUS
  0
LAYER
  2
ﾊｯﾁﾝｸﾞ
 70
     0
 62
    95
  6
CONTINUOUS
  0
LAYER
  2
別途部材
 70
     0
 62
    96
  6
CONTINUOUS
  0
LAYER
  2
曲げ物
 70
     0
 62
   111
  6
CONTINUOUS
  0
LAYER
  2
鉄骨等
 70
     0
 62
   112
  6
CONTINUOUS
  0
LAYER
  2
St
 70
     0
 62
   127
  6
CONTINUOUS
  0
LAYER
  2
その他部品等
 70
     0
 62
   128
  6
CONTINUOUS
  0
LAYER
  2
ｶﾞｽｹｯﾄ
 70
     0
 62
   143
  6
CONTINUOUS
  0
LAYER
  2
ｽｹｯﾁ
 70
     0
 62
    14
  6
CONTINUOUS
  0
LAYER
  2
0
 70
     0
 62
    17
  6
CONTINUOUS
  0
LAYER
  2
1
 70
     0
 62
    30
  6
CONTINUOUS
  0
LAYER
  2
4
 70
     0
 62
    33
  6
CONTINUOUS
  0
LAYER
  2
ﾚｲﾔ3
 70
     0
 62
    46
  6
CONTINUOUS
  0
LAYER
  2
外形線
 70
     0
 62
    49
  6
CONTINUOUS
  0
LAYER
  2
部品
 70
     0
 62
    14
  6
CONTINUOUS
  0
LAYER
  2
サッシ芯
 70
     0
 62
    17
  6
DASHDOTX2
  0
LAYER
  2
寸法線
 70
     0
 62
    62
  6
CONTINUOUS
  0
LAYER
  2
姿図外形線
 70
     0
 62
    65
  6
CONTINUOUS
  0
LAYER
  2
姿補助線
 70
     0
 62
    30
  6
CONTINUOUS
  0
LAYER
  2
透視線
 70
     0
 62
    78
  6
DOT
  0
LAYER
  2
用紙
 70
     0
 62
    81
  6
CONTINUOUS
  0
LAYER
  2
実線図枠
 70
     0
 62
    94
  6
CONTINUOUS
  0
LAYER
  2
補助図枠
 70
     0
 62
    97
  6
CONTINUOUS
  0
LAYER
  2
建具記号
 70
     0
 62
   110
  6
CONTINUOUS
  0
LAYER
  2
補助文字
 70
     0
 62
   113
  6
CONTINUOUS
  0
ENDTAB
  0
TABLE
  2
STYLE
 70
    10
  0
STYLE
  2
STANDARD
 70
     0
 40
1.0
 41
1.0
 42
1.0
 50
0.0
 71
     0
  3
TXT
  4
BIGFONT
  0
STYLE
  2
TATE
 70
     4
 40
1.0
 41
1.0
 42
1.0
 50
0.0
 71
     0
  3
TXT
  4
BIGFONT
  0
STYLE
  2
TextStyle03
 70
     0
 40
1.0
 41
1.0
 42
1.0
 50
0.0
 71
     0
  3
MONOTXT
  4
BIGFONT
  0
STYLE
  2
TextStyle04
 70
     0
 40
1.0
 41
1.0
 42
1.0
 50
0.0
 71
     0
  3
MONOTXT
  4
BIGFONT
  0
STYLE
  2
TextStyle05
 70
     0
 40
1.0
 41
1.0
 42
1.0
 50
0.0
 71
     0
  3
MONOTXT
  4
BIGFONT
  0
STYLE
  2
TextStyle06
 70
     0
 40
1.0
 41
1.0
 42
1.0
 50
0.0
 71
     0
  3
MONOTXT
  4
BIGFONT
  0
STYLE
  2
TextStyle07
 70
     0
 40
1.0
 41
1.0
 42
1.0
 50
0.0
 71
     0
  3
MONOTXT
  4
BIGFONT
  0
STYLE
  2
TextStyle08
 70
     0
 40
1.0
 41
1.0
 42
1.0
 50
0.0
 71
     0
  3
MONOTXT
  4
BIGFONT
  0
STYLE
  2
TextStyle09
 70
     0
 40
1.0
 41
1.0
 42
1.0
 50
0.0
 71
     0
  3
MONOTXT
  4
BIGFONT
  0
STYLE
  2
TextStyle10
 70
     0
 40
1.0
 41
1.0
 42
1.0
 50
0.0
 71
     0
  3
MONOTXT
  4
BIGFONT
  0
ENDTAB
  0
ENDSEC
  0
SECTION
  2
BLOCKS
  0
BLOCK
  2
*GRP_0001
 70
    65
 10
0.0
 20
0.0
  0
LINE
  8
型材断面
  6
CONTINUOUS
 10
195.0
 20
133.5
 11
195.0
 21
-133.5
  0
LINE
  8
型材断面
  6
CONTINUOUS
 10
195.0
 20
-133.5
 11
-185.0
 21
-133.5
  0
LINE
  8
型材断面
  6
CONTINUOUS
 10
-185.0
 20
-133.5
 11
-185.0
 21
133.5
  0
LINE
  8
型材断面
  6
CONTINUOUS
 10
195.0
 20
133.5
 11
-185.0
 21
133.5
  0
LINE
  8
型材断面
  6
CONTINUOUS
 10
145.0
 20
-133.5
 11
145.0
 21
-118.5
  0
LINE
  8
型材断面
  6
CONTINUOUS
 10
195.0
 20
-118.5
 11
145.0
 21
-118.5
  0
ENDBLK
  0
BLOCK
  2
*DIM_0002
 70
    65
 10
0.0
 20
0.0
  0
LINE
  8
寸法
  6
BYBLOCK
 62
     0
 10
38.923675
 20
-62.95793
 11
87.226657
 21
-62.95793
  0
LINE
  8
寸法
  6
BYBLOCK
 62
     0
 10
87.226657
 20
-79.624597
 11
87.226657
 21
-62.95793
  0
POINT
  8
寸法
 62
     0
 10
87.226657
 20
-62.95793
  0
TEXT
  7
TextStyle03
  8
寸法
  6
CONTINUOUS
 62
     0
 10
86.85
 20
-73.7375
  1
500
 40
3.0
 50
90.0
 72
     5
 11
86.85
 21
-68.8625
  0
ENDBLK
  0
BLOCK
  2
*DIM_0003
 70
    65
 10
0.0
 20
0.0
  0
LINE
  8
寸法
  6
BYBLOCK
 62
     0
 10
-112.076325
 20
-23.142105
 11
71.257007
 21
-23.142105
  0
POINT
  8
寸法
 62
     0
 10
-112.076325
 20
-23.142105
  0
POINT
  8
寸法
 62
     0
 10
71.257007
 20
-23.142105
  0
TEXT
  7
TextStyle03
  8
寸法
  6
CONTINUOUS
 62
     0
 10
-32.14375
 20
-22.775
  1
呼称寸法　5500
 40
3.0
 72
     5
 11
-8.70625
 21
-22.775
  0
ENDBLK
  0
BLOCK
  2
*DIM_0004
 70
    65
 10
0.0
 20
0.0
  0
LINE
  8
寸法
  6
BYBLOCK
 62
     0
 10
-95.409657
 20
-5.54017
 11
-95.409657
 21
-10.650658
  0
LINE
  8
寸法
  6
BYBLOCK
 62
     0
 10
-20.40966
 20
-5.54017
 11
-20.40966
 21
-10.650658
  0
LINE
  8
寸法
  6
BYBLOCK
 62
     0
 10
-95.409657
 20
-10.650658
 11
-20.40966
 21
-10.650658
  0
POINT
  8
寸法
 62
     0
 10
-95.409657
 20
-10.650658
  0
POINT
  8
寸法
 62
     0
 10
-20.40966
 20
-10.650658
  0
TEXT
  7
TextStyle03
  8
寸法
  6
CONTINUOUS
 62
     0
 10
-61.20625
 20
-10.3
  1
2250
 40
3.0
 72
     5
 11
-54.64375
 21
-10.3
  0
ENDBLK
  0
BLOCK
  2
*DIM_0005
 70
    65
 10
0.0
 20
0.0
  0
LINE
  8
寸法
  6
BYBLOCK
 62
     0
 10
54.590337
 20
-5.54017
 11
54.590337
 21
-10.650658
  0
LINE
  8
寸法
  6
BYBLOCK
 62
     0
 10
-20.40966
 20
-10.650658
 11
54.590337
 21
-10.650658
  0
POINT
  8
寸法
 62
     0
 10
54.590337
 20
-10.650658
  0
TEXT
  7
TextStyle03
  8
寸法
  6
CONTINUOUS
 62
     0
 10
13.79375
 20
-10.3
  1
2250
 40
3.0
 72
     5
 11
20.35625
 21
-10.3
  0
ENDBLK
  0
BLOCK
  2
*DIM_0006
 70
    65
 10
0.0
 20
0.0
  0
LINE
  8
寸法
  6
BYBLOCK
 62
     0
 10
108.626315
 20
64.756625
 11
107.889473
 21
64.756625
  0
LINE
  8
寸法
  6
BYBLOCK
 62
     0
 10
108.626315
 20
-1.910042
 11
107.889473
 21
-1.910042
  0
LINE
  8
寸法
  6
BYBLOCK
 62
     0
 10
107.889473
 20
64.756625
 11
107.889473
 21
-1.910042
  0
POINT
  8
寸法
 62
     0
 10
107.889473
 20
64.756625
  0
POINT
  8
寸法
 62
     0
 10
107.889473
 20
-1.910042
  0
TEXT
  7
TextStyle03
  8
寸法
  6
CONTINUOUS
 62
     0
 10
107.5
 20
19.68125
  1
呼称寸法　2000
 40
3.0
 50
90.0
 72
     5
 11
107.5
 21
43.11875
  0
ENDBLK
  0
BLOCK
  2
*DIM_0007
 70
    65
 10
0.0
 20
0.0
  0
LINE
  8
寸法
  6
BYBLOCK
 62
     0
 10
144.123605
 20
32.42329
 11
144.123605
 21
86.5884
  0
LINE
  8
寸法
  6
BYBLOCK
 62
     0
 10
160.790272
 20
86.5884
 11
144.123605
 21
86.5884
  0
POINT
  8
寸法
 62
     0
 10
160.790272
 20
86.5884
  0
POINT
  8
寸法
 62
     0
 10
144.123605
 20
86.5884
  0
TEXT
  7
TextStyle03
  8
寸法
  6
CONTINUOUS
 62
     0
 10
150.0125
 20
86.95
  1
500
 40
3.0
 72
     5
 11
154.8875
 21
86.95
  0
ENDBLK
  0
BLOCK
  2
*DIM_0008
 70
    65
 10
0.0
 20
0.0
  0
LINE
  8
寸法
  6
BYBLOCK
 62
     0
 10
163.612912
 20
67.036622
 11
107.889473
 21
67.036622
  0
LINE
  8
寸法
  6
BYBLOCK
 62
     0
 10
107.889473
 20
64.756625
 11
107.889473
 21
67.036622
  0
POINT
  8
寸法
 62
     0
 10
107.889473
 20
64.756625
  0
POINT
  8
寸法
 62
     0
 10
107.889473
 20
67.036622
  0
TEXT
  7
TextStyle03
  8
寸法
  6
CONTINUOUS
 62
     0
 10
107.475
 20
69.34375
  1
68.4
 40
3.0
 50
90.0
 72
     5
 11
107.475
 21
75.90625
  0
ENDBLK
  0
BLOCK
  2
*DIM_0009
 70
    65
 10
0.0
 20
0.0
  0
LINE
  8
寸法
  6
BYBLOCK
 62
     0
 10
163.612912
 20
-4.190045
 11
107.889473
 21
-4.190045
  0
LINE
  8
寸法
  6
BYBLOCK
 62
     0
 10
107.889473
 20
-1.910042
 11
107.889473
 21
-4.190045
  0
POINT
  8
寸法
 62
     0
 10
107.889473
 20
-1.910042
  0
POINT
  8
寸法
 62
     0
 10
107.889473
 20
-4.190045
  0
TEXT
  7
TextStyle03
  8
寸法
  6
CONTINUOUS
 62
     0
 10
107.475
 20
-13.10625
  1
68.4
 40
3.0
 50
90.0
 72
     5
 11
107.475
 21
-6.54375
  0
ENDBLK
  0
BLOCK
  2
*DIM_0010
 70
    65
 10
0.0
 20
0.0
  0
LINE
  8
寸法
  6
BYBLOCK
 62
     0
 10
160.790272
 20
67.42329
 11
160.790272
 21
86.5884
  0
LINE
  8
寸法
  6
BYBLOCK
 62
     0
 10
167.573555
 20
67.72329
 11
167.573555
 21
86.5884
  0
LINE
  8
寸法
  6
BYBLOCK
 62
     0
 10
160.790272
 20
86.5884
 11
167.573555
 21
86.5884
  0
POINT
  8
寸法
 62
     0
 10
160.790272
 20
86.5884
  0
POINT
  8
寸法
 62
     0
 10
167.573555
 20
86.5884
  0
TEXT
  7
TextStyle03
  8
寸法
  6
CONTINUOUS
 62
     0
 10
168.45
 20
86.95
  1
203.5
 40
3.0
 72
     5
 11
176.7
 21
86.95
  0
ENDBLK
  0
BLOCK
  2
*DIM_0011
 70
    65
 10
0.0
 20
0.0
  0
LINE
  8
寸法
  6
BYBLOCK
 62
     0
 10
73.923675
 20
-79.624597
 11
87.226657
 21
-79.624597
  0
LINE
  8
寸法
  6
BYBLOCK
 62
     0
 10
74.223675
 20
-86.407882
 11
87.226657
 21
-86.407882
  0
LINE
  8
寸法
  6
BYBLOCK
 62
     0
 10
87.226657
 20
-79.624597
 11
87.226657
 21
-86.407882
  0
POINT
  8
寸法
 62
     0
 10
87.226657
 20
-79.624597
  0
POINT
  8
寸法
 62
     0
 10
87.226657
 20
-86.407882
  0
TEXT
  7
TextStyle03
  8
寸法
  6
CONTINUOUS
 62
     0
 10
86.825
 20
-95.575
  1
203.5
 40
3.0
 50
90.0
 72
     5
 11
86.825
 21
-87.325
  0
ENDBLK
  0
BLOCK
  2
*DIM_0012
 70
    65
 10
0.0
 20
0.0
  0
LINE
  8
寸法
  6
BYBLOCK
 62
     0
 10
73.53701
 20
-82.44724
 11
73.53701
 21
-23.142105
  0
LINE
  8
寸法
  6
BYBLOCK
 62
     0
 10
71.257007
 20
-23.142105
 11
73.53701
 21
-23.142105
  0
POINT
  8
寸法
 62
     0
 10
71.257007
 20
-23.142105
  0
POINT
  8
寸法
 62
     0
 10
73.53701
 20
-23.142105
  0
TEXT
  7
TextStyle03
  8
寸法
  6
CONTINUOUS
 62
     0
 10
75.84375
 20
-22.775
  1
68.4
 40
3.0
 72
     5
 11
82.40625
 21
-22.775
  0
ENDBLK
  0
BLOCK
  2
*DIM_0013
 70
    65
 10
0.0
 20
0.0
  0
LINE
  8
寸法
  6
BYBLOCK
 62
     0
 10
-114.35633
 20
-82.44724
 11
-114.35633
 21
-23.142105
  0
LINE
  8
寸法
  6
BYBLOCK
 62
     0
 10
-112.076325
 20
-23.142105
 11
-114.35633
 21
-23.142105
  0
POINT
  8
寸法
 62
     0
 10
-112.076325
 20
-23.142105
  0
POINT
  8
寸法
 62
     0
 10
-114.35633
 20
-23.142105
  0
TEXT
  7
TextStyle03
  8
寸法
  6
CONTINUOUS
 62
     0
 10
-123.25625
 20
-22.775
  1
68.4
 40
3.0
 72
     5
 11
-116.69375
 21
-22.775
  0
ENDBLK
  0
BLOCK
  2
*DIM_0014
 70
    65
 10
0.0
 20
0.0
  0
LINE
  8
寸法
  6
BYBLOCK
 62
     0
 10
113.28989
 20
-32.526747
 11
113.28989
 21
-24.51793
  0
LINE
  8
寸法
  6
BYBLOCK
 62
     0
 10
148.756558
 20
-32.526747
 11
148.756558
 21
-24.51793
  0
LINE
  8
寸法
  6
BYBLOCK
 62
     0
 10
113.28989
 20
-24.51793
 11
148.756558
 21
-24.51793
  0
POINT
  8
寸法
 62
     0
 10
113.28989
 20
-24.51793
  0
POINT
  8
寸法
 62
     0
 10
148.756558
 20
-24.51793
  0
TEXT
  7
TextStyle03
  8
寸法
  6
CONTINUOUS
 62
     0
 10
127.71875
 20
-24.15
  1
1064
 40
3.0
 72
     5
 11
134.28125
 21
-24.15
  0
ENDBLK
  0
BLOCK
  2
*DIM_0015
 70
    65
 10
0.0
 20
0.0
  0
LINE
  8
寸法
  6
BYBLOCK
 62
     0
 10
149.756558
 20
-33.526747
 11
158.491575
 21
-33.526747
  0
LINE
  8
寸法
  6
BYBLOCK
 62
     0
 10
149.756558
 20
-99.526747
 11
158.491575
 21
-99.526747
  0
LINE
  8
寸法
  6
BYBLOCK
 62
     0
 10
158.491575
 20
-33.526747
 11
158.491575
 21
-99.526747
  0
POINT
  8
寸法
 62
     0
 10
158.491575
 20
-33.526747
  0
POINT
  8
寸法
 62
     0
 10
158.491575
 20
-99.526747
  0
TEXT
  7
TextStyle03
  8
寸法
  6
CONTINUOUS
 62
     0
 10
158.1
 20
-69.83125
  1
1980
 40
3.0
 50
90.0
 72
     5
 11
158.1
 21
-63.26875
  0
ENDBLK
  0
BLOCK
  2
*DIM_0016
 70
    65
 10
0.0
 20
0.0
  0
LINE
  8
寸法
  6
BYBLOCK
 62
     0
 10
74.887135
 20
60.856625
 11
81.664428
 21
60.856625
  0
LINE
  8
寸法
  6
BYBLOCK
 62
     0
 10
81.664428
 20
64.756625
 11
81.664428
 21
60.856625
  0
POINT
  8
寸法
 62
     0
 10
81.664428
 20
64.756625
  0
POINT
  8
寸法
 62
     0
 10
81.664428
 20
60.856625
  0
TEXT
  7
TextStyle03
  8
寸法
  6
CONTINUOUS
 62
     0
 10
81.275
 20
65.4125
  1
117
 40
3.0
 50
90.0
 72
     5
 11
81.275
 21
70.2875
  0
ENDBLK
  0
BLOCK
  2
*DIM_0017
 70
    65
 10
0.0
 20
0.0
  0
LINE
  8
寸法
  6
BYBLOCK
 62
     0
 10
74.887135
 20
1.98996
 11
81.664428
 21
1.98996
  0
LINE
  8
寸法
  6
BYBLOCK
 62
     0
 10
81.664428
 20
-1.91004
 11
81.664428
 21
1.98996
  0
POINT
  8
寸法
 62
     0
 10
81.664428
 20
-1.91004
  0
POINT
  8
寸法
 62
     0
 10
81.664428
 20
1.98996
  0
TEXT
  7
TextStyle03
  8
寸法
  6
CONTINUOUS
 62
     0
 10
81.6
 20
-8.1875
  1
117
 40
3.0
 50
90.0
 72
     5
 11
81.6
 21
-3.3125
  0
ENDBLK
  0
BLOCK
  2
*GRP_0018
 70
    65
 10
0.0
 20
0.0
  0
LINE
  8
別途部材
  6
CONTINUOUS
 62
    96
 10
-113.742993
 20
-79.624597
 11
-114.142993
 21
-80.624597
  0
LINE
  8
別途部材
  6
CONTINUOUS
 62
    96
 10
-113.742993
 20
-79.624597
 11
-20.409657
 21
-79.624597
  0
LINE
  8
別途部材
  6
CONTINUOUS
 10
-114.142993
 20
-80.624597
 11
-20.409657
 21
-80.624597
  0
LINE
  8
別途部材
  6
CONTINUOUS
 10
-20.909657
 20
-79.624597
 11
-20.909657
 21
-61.95793
  0
LINE
  8
別途部材
  6
CONTINUOUS
 10
-23.909657
 20
-79.624597
 11
-23.909657
 21
-61.95793
  0
LINE
  8
別途部材
  6
CONTINUOUS
 10
-20.909657
 20
-61.95793
 11
-21.909657
 21
-62.95793
  0
LINE
  8
別途部材
  6
CONTINUOUS
 10
-24.909657
 20
-79.624597
 11
-24.909657
 21
-61.95793
  0
LINE
  8
別途部材
  6
CONTINUOUS
 10
-22.909657
 20
-62.95793
 11
-23.909657
 21
-61.95793
  0
LINE
  8
別途部材
  6
CONTINUOUS
 10
-24.909657
 20
-61.95793
 11
-25.909657
 21
-62.95793
  0
LINE
  8
別途部材
  6
CONTINUOUS
 10
-23.909657
 20
-61.95793
 11
-24.909657
 21
-61.95793
  0
LINE
  8
別途部材
  6
CONTINUOUS
 10
-20.909657
 20
-61.95793
 11
-20.409657
 21
-61.95793
  0
LINE
  8
別途部材
  6
CONTINUOUS
 10
-26.909657
 20
-62.95793
 11
-27.909657
 21
-61.95793
  0
LINE
  8
別途部材
  6
CONTINUOUS
 10
-28.909657
 20
-61.95793
 11
-29.909657
 21
-62.95793
  0
LINE
  8
別途部材
  6
CONTINUOUS
 10
-27.909657
 20
-61.95793
 11
-28.909657
 21
-61.95793
  0
LINE
  8
別途部材
  6
CONTINUOUS
 10
-22.909657
 20
-79.624597
 11
-22.909657
 21
-62.95793
  0
LINE
  8
別途部材
  6
CONTINUOUS
 10
-25.909657
 20
-79.624597
 11
-25.909657
 21
-62.95793
  0
LINE
  8
別途部材
  6
CONTINUOUS
 10
-26.909657
 20
-79.624597
 11
-26.909657
 21
-62.95793
  0
LINE
  8
別途部材
  6
CONTINUOUS
 10
-27.909657
 20
-79.624597
 11
-27.909657
 21
-61.95793
  0
LINE
  8
別途部材
  6
CONTINUOUS
 10
-28.909657
 20
-79.624597
 11
-28.909657
 21
-61.95793
  0
LINE
  8
別途部材
  6
CONTINUOUS
 10
-29.909657
 20
-79.624597
 11
-29.909657
 21
-62.95793
  0
LINE
  8
別途部材
  6
CONTINUOUS
 10
-30.909657
 20
-62.95793
 11
-31.909657
 21
-61.95793
  0
LINE
  8
別途部材
  6
CONTINUOUS
 10
-32.909657
 20
-61.95793
 11
-33.909657
 21
-62.95793
  0
LINE
  8
別途部材
  6
CONTINUOUS
 10
-31.909657
 20
-61.95793
 11
-32.909657
 21
-61.95793
  0
LINE
  8
別途部材
  6
CONTINUOUS
 10
-30.909657
 20
-79.624597
 11
-30.909657
 21
-62.95793
  0
LINE
  8
別途部材
  6
CONTINUOUS
 10
-31.909657
 20
-79.624597
 11
-31.909657
 21
-61.95793
  0
LINE
  8
別途部材
  6
CONTINUOUS
 10
-32.909657
 20
-79.624597
 11
-32.909657
 21
-61.95793
  0
LINE
  8
別途部材
  6
CONTINUOUS
 10
-33.909657
 20
-79.624597
 11
-33.909657
 21
-62.95793
  0
LINE
  8
別途部材
  6
CONTINUOUS
 10
-35.909657
 20
-79.624597
 11
-35.909657
 21
-61.95793
  0
LINE
  8
別途部材
  6
CONTINUOUS
 10
-36.909657
 20
-79.624597
 11
-36.909657
 21
-61.95793
  0
LINE
  8
別途部材
  6
CONTINUOUS
 10
-34.909657
 20
-62.95793
 11
-35.909657
 21
-61.95793
  0
LINE
  8
別途部材
  6
CONTINUOUS
 10
-36.909657
 20
-61.95793
 11
-37.909657
 21
-62.95793
  0
LINE
  8
別途部材
  6
CONTINUOUS
 10
-35.909657
 20
-61.95793
 11
-36.909657
 21
-61.95793
  0
LINE
  8
別途部材
  6
CONTINUOUS
 10
-38.909657
 20
-62.95793
 11
-39.909657
 21
-61.95793
  0
LINE
  8
別途部材
  6
CONTINUOUS
 10
-40.909657
 20
-61.95793
 11
-41.909657
 21
-62.95793
  0
LINE
  8
別途部材
  6
CONTINUOUS
 10
-39.909657
 20
-61.95793
 11
-40.909657
 21
-61.95793
  0
LINE
  8
別途部材
  6
CONTINUOUS
 10
-34.909657
 20
-79.624597
 11
-34.909657
 21
-62.95793
  0
LINE
  8
別途部材
  6
CONTINUOUS
 10
-37.909657
 20
-79.624597
 11
-37.909657
 21
-62.95793
  0
LINE
  8
別途部材
  6
CONTINUOUS
 10
-38.909657
 20
-79.624597
 11
-38.909657
 21
-62.95793
  0
LINE
  8
別途部材
  6
CONTINUOUS
 10
-39.909657
 20
-79.624597
 11
-39.909657
 21
-61.95793
  0
LINE
  8
別途部材
  6
CONTINUOUS
 10
-40.909657
 20
-79.624597
 11
-40.909657
 21
-61.95793
  0
LINE
  8
別途部材
  6
CONTINUOUS
 10
-41.909657
 20
-79.624597
 11
-41.909657
 21
-62.95793
  0
LINE
  8
別途部材
  6
CONTINUOUS
 10
-42.909657
 20
-62.95793
 11
-43.909657
 21
-61.95793
  0
LINE
  8
別途部材
  6
CONTINUOUS
 10
-44.909657
 20
-61.95793
 11
-45.909657
 21
-62.95793
  0
LINE
  8
別途部材
  6
CONTINUOUS
 10
-43.909657
 20
-61.95793
 11
-44.909657
 21
-61.95793
  0
LINE
  8
別途部材
  6
CONTINUOUS
 10
-42.909657
 20
-79.624597
 11
-42.909657
 21
-62.95793
  0
LINE
  8
別途部材
  6
CONTINUOUS
 10
-43.909657
 20
-79.624597
 11
-43.909657
 21
-61.95793
  0
LINE
  8
別途部材
  6
CONTINUOUS
 10
-44.909657
 20
-79.624597
 11
-44.909657
 21
-61.95793
  0
LINE
  8
別途部材
  6
CONTINUOUS
 10
-45.909657
 20
-79.624597
 11
-45.909657
 21
-62.95793
  0
LINE
  8
別途部材
  6
CONTINUOUS
 10
-47.909657
 20
-79.624597
 11
-47.909657
 21
-61.95793
  0
LINE
  8
別途部材
  6
CONTINUOUS
 10
-48.909657
 20
-79.624597
 11
-48.909657
 21
-61.95793
  0
LINE
  8
別途部材
  6
CONTINUOUS
 10
-46.909657
 20
-62.95793
 11
-47.909657
 21
-61.95793
  0
LINE
  8
別途部材
  6
CONTINUOUS
 10
-48.909657
 20
-61.95793
 11
-49.909657
 21
-62.95793
  0
LINE
  8
別途部材
  6
CONTINUOUS
 10
-47.909657
 20
-61.95793
 11
-48.909657
 21
-61.95793
  0
LINE
  8
別途部材
  6
CONTINUOUS
 10
-50.909657
 20
-62.95793
 11
-51.909657
 21
-61.95793
  0
LINE
  8
別途部材
  6
CONTINUOUS
 10
-52.909657
 20
-61.95793
 11
-53.909657
 21
-62.95793
  0
LINE
  8
別途部材
  6
CONTINUOUS
 10
-51.909657
 20
-61.95793
 11
-52.909657
 21
-61.95793
  0
LINE
  8
別途部材
  6
CONTINUOUS
 10
-46.909657
 20
-79.624597
 11
-46.909657
 21
-62.95793
  0
LINE
  8
別途部材
  6
CONTINUOUS
 10
-49.909657
 20
-79.624597
 11
-49.909657
 21
-62.95793
  0
LINE
  8
別途部材
  6
CONTINUOUS
 10
-50.909657
 20
-79.624597
 11
-50.909657
 21
-62.95793
  0
LINE
  8
別途部材
  6
CONTINUOUS
 10
-51.909657
 20
-79.624597
 11
-51.909657
 21
-61.95793
  0
LINE
  8
別途部材
  6
CONTINUOUS
 10
-52.909657
 20
-79.624597
 11
-52.909657
 21
-61.95793
  0
LINE
  8
別途部材
  6
CONTINUOUS
 10
-53.909657
 20
-79.624597
 11
-53.909657
 21
-62.95793
  0
LINE
  8
別途部材
  6
CONTINUOUS
 10
-54.909657
 20
-62.95793
 11
-55.909657
 21
-61.95793
  0
LINE
  8
別途部材
  6
CONTINUOUS
 10
-56.909657
 20
-61.95793
 11
-57.909657
 21
-62.95793
  0
LINE
  8
別途部材
  6
CONTINUOUS
 10
-55.909657
 20
-61.95793
 11
-56.909657
 21
-61.95793
  0
LINE
  8
別途部材
  6
CONTINUOUS
 10
-54.909657
 20
-79.624597
 11
-54.909657
 21
-62.95793
  0
LINE
  8
別途部材
  6
CONTINUOUS
 10
-55.909657
 20
-79.624597
 11
-55.909657
 21
-61.95793
  0
LINE
  8
別途部材
  6
CONTINUOUS
 10
-56.909657
 20
-79.624597
 11
-56.909657
 21
-61.95793
  0
LINE
  8
別途部材
  6
CONTINUOUS
 10
-57.909657
 20
-79.624597
 11
-57.909657
 21
-62.95793
  0
LINE
  8
別途部材
  6
CONTINUOUS
 10
-59.909657
 20
-79.624597
 11
-59.909657
 21
-61.95793
  0
LINE
  8
別途部材
  6
CONTINUOUS
 10
-60.909657
 20
-79.624597
 11
-60.909657
 21
-61.95793
  0
LINE
  8
別途部材
  6
CONTINUOUS
 10
-58.909657
 20
-62.95793
 11
-59.909657
 21
-61.95793
  0
LINE
  8
別途部材
  6
CONTINUOUS
 10
-60.909657
 20
-61.95793
 11
-61.909657
 21
-62.95793
  0
LINE
  8
別途部材
  6
CONTINUOUS
 10
-59.909657
 20
-61.95793
 11
-60.909657
 21
-61.95793
  0
LINE
  8
別途部材
  6
CONTINUOUS
 10
-62.909657
 20
-62.95793
 11
-63.909657
 21
-61.95793
  0
LINE
  8
別途部材
  6
CONTINUOUS
 10
-64.909657
 20
-61.95793
 11
-65.909657
 21
-62.95793
  0
LINE
  8
別途部材
  6
CONTINUOUS
 10
-63.909657
 20
-61.95793
 11
-64.909657
 21
-61.95793
  0
LINE
  8
別途部材
  6
CONTINUOUS
 10
-58.909657
 20
-79.624597
 11
-58.909657
 21
-62.95793
  0
LINE
  8
別途部材
  6
CONTINUOUS
 10
-61.909657
 20
-79.624597
 11
-61.909657
 21
-62.95793
  0
LINE
  8
別途部材
  6
CONTINUOUS
 10
-62.909657
 20
-79.624597
 11
-62.909657
 21
-62.95793
  0
LINE
  8
別途部材
  6
CONTINUOUS
 10
-63.909657
 20
-79.624597
 11
-63.909657
 21
-61.95793
  0
LINE
  8
別途部材
  6
CONTINUOUS
 10
-64.909657
 20
-79.624597
 11
-64.909657
 21
-61.95793
  0
LINE
  8
別途部材
  6
CONTINUOUS
 10
-65.909657
 20
-79.624597
 11
-65.909657
 21
-62.95793
  0
LINE
  8
別途部材
  6
CONTINUOUS
 10
-66.909657
 20
-62.95793
 11
-67.909657
 21
-61.95793
  0
LINE
  8
別途部材
  6
CONTINUOUS
 10
-68.909657
 20
-61.95793
 11
-69.909657
 21
-62.95793
  0
LINE
  8
別途部材
  6
CONTINUOUS
 10
-67.909657
 20
-61.95793
 11
-68.909657
 21
-61.95793
  0
LINE
  8
別途部材
  6
CONTINUOUS
 10
-66.909657
 20
-79.624597
 11
-66.909657
 21
-62.95793
  0
LINE
  8
別途部材
  6
CONTINUOUS
 10
-67.909657
 20
-79.624597
 11
-67.909657
 21
-61.95793
  0
LINE
  8
別途部材
  6
CONTINUOUS
 10
-68.909657
 20
-79.624597
 11
-68.909657
 21
-61.95793
  0
LINE
  8
別途部材
  6
CONTINUOUS
 10
-69.909657
 20
-79.624597
 11
-69.909657
 21
-62.95793
  0
LINE
  8
別途部材
  6
CONTINUOUS
 10
-71.909657
 20
-79.624597
 11
-71.909657
 21
-61.95793
  0
LINE
  8
別途部材
  6
CONTINUOUS
 10
-72.909657
 20
-79.624597
 11
-72.909657
 21
-61.95793
  0
LINE
  8
別途部材
  6
CONTINUOUS
 10
-70.909657
 20
-62.95793
 11
-71.909657
 21
-61.95793
  0
LINE
  8
別途部材
  6
CONTINUOUS
 10
-72.909657
 20
-61.95793
 11
-73.909657
 21
-62.95793
  0
LINE
  8
別途部材
  6
CONTINUOUS
 10
-71.909657
 20
-61.95793
 11
-72.909657
 21
-61.95793
  0
LINE
  8
別途部材
  6
CONTINUOUS
 10
-74.909657
 20
-62.95793
 11
-75.909657
 21
-61.95793
  0
LINE
  8
別途部材
  6
CONTINUOUS
 10
-76.909657
 20
-61.95793
 11
-77.909657
 21
-62.95793
  0
LINE
  8
別途部材
  6
CONTINUOUS
 10
-75.909657
 20
-61.95793
 11
-76.909657
 21
-61.95793
  0
LINE
  8
別途部材
  6
CONTINUOUS
 10
-70.909657
 20
-79.624597
 11
-70.909657
 21
-62.95793
  0
LINE
  8
別途部材
  6
CONTINUOUS
 10
-73.909657
 20
-79.624597
 11
-73.909657
 21
-62.95793
  0
LINE
  8
別途部材
  6
CONTINUOUS
 10
-74.909657
 20
-79.624597
 11
-74.909657
 21
-62.95793
  0
LINE
  8
別途部材
  6
CONTINUOUS
 10
-75.909657
 20
-79.624597
 11
-75.909657
 21
-61.95793
  0
LINE
  8
別途部材
  6
CONTINUOUS
 10
-76.909657
 20
-79.624597
 11
-76.909657
 21
-61.95793
  0
LINE
  8
別途部材
  6
CONTINUOUS
 10
-77.909657
 20
-79.624597
 11
-77.909657
 21
-62.95793
  0
LINE
  8
別途部材
  6
CONTINUOUS
 10
-73.909657
 20
-62.95793
 11
-74.909657
 21
-62.95793
  0
LINE
  8
別途部材
  6
CONTINUOUS
 10
-69.909657
 20
-62.95793
 11
-70.909657
 21
-62.95793
  0
LINE
  8
別途部材
  6
CONTINUOUS
 10
-65.909657
 20
-62.95793
 11
-66.909657
 21
-62.95793
  0
LINE
  8
別途部材
  6
CONTINUOUS
 10
-61.909657
 20
-62.95793
 11
-62.909657
 21
-62.95793
  0
LINE
  8
別途部材
  6
CONTINUOUS
 10
-57.909657
 20
-62.95793
 11
-58.909657
 21
-62.95793
  0
LINE
  8
別途部材
  6
CONTINUOUS
 10
-53.909657
 20
-62.95793
 11
-54.909657
 21
-62.95793
  0
LINE
  8
別途部材
  6
CONTINUOUS
 10
-49.909657
 20
-62.95793
 11
-50.909657
 21
-62.95793
  0
LINE
  8
別途部材
  6
CONTINUOUS
 10
-45.909657
 20
-62.95793
 11
-46.909657
 21
-62.95793
  0
LINE
  8
別途部材
  6
CONTINUOUS
 10
-41.909657
 20
-62.95793
 11
-42.909657
 21
-62.95793
  0
LINE
  8
別途部材
  6
CONTINUOUS
 10
-37.909657
 20
-62.95793
 11
-38.909657
 21
-62.95793
  0
LINE
  8
別途部材
  6
CONTINUOUS
 10
-33.909657
 20
-62.95793
 11
-34.909657
 21
-62.95793
  0
LINE
  8
別途部材
  6
CONTINUOUS
 10
-29.909657
 20
-62.95793
 11
-30.909657
 21
-62.95793
  0
LINE
  8
別途部材
  6
CONTINUOUS
 10
-25.909657
 20
-62.95793
 11
-26.909657
 21
-62.95793
  0
LINE
  8
別途部材
  6
CONTINUOUS
 10
-21.909657
 20
-79.624597
 11
-21.909657
 21
-62.95793
  0
LINE
  8
別途部材
  6
CONTINUOUS
 10
-22.909657
 20
-62.95793
 11
-21.909657
 21
-62.95793
  0
ARC
  8
別途部材
  6
CONTINUOUS
 10
-95.409658
 20
-79.624597
 40
16.666667
 50
90.0
 51
180.0
  0
LINE
  8
別途部材
  6
CONTINUOUS
 10
-78.909657
 20
-62.95793
 11
-79.909657
 21
-61.95793
  0
LINE
  8
別途部材
  6
CONTINUOUS
 10
-80.909657
 20
-61.95793
 11
-81.909657
 21
-62.95793
  0
LINE
  8
別途部材
  6
CONTINUOUS
 10
-79.909657
 20
-61.95793
 11
-80.909657
 21
-61.95793
  0
LINE
  8
別途部材
  6
CONTINUOUS
 10
-78.909657
 20
-79.624597
 11
-78.909657
 21
-62.95793
  0
LINE
  8
別途部材
  6
CONTINUOUS
 10
-79.909657
 20
-79.624597
 11
-79.909657
 21
-61.95793
  0
LINE
  8
別途部材
  6
CONTINUOUS
 10
-80.909657
 20
-79.624597
 11
-80.909657
 21
-61.95793
  0
LINE
  8
別途部材
  6
CONTINUOUS
 10
-81.909657
 20
-79.624597
 11
-81.909657
 21
-62.95793
  0
LINE
  8
別途部材
  6
CONTINUOUS
 10
-83.909657
 20
-79.624597
 11
-83.909657
 21
-61.95793
  0
LINE
  8
別途部材
  6
CONTINUOUS
 10
-84.909657
 20
-79.624597
 11
-84.909657
 21
-61.95793
  0
LINE
  8
別途部材
  6
CONTINUOUS
 10
-82.909657
 20
-62.95793
 11
-83.909657
 21
-61.95793
  0
LINE
  8
別途部材
  6
CONTINUOUS
 10
-84.909657
 20
-61.95793
 11
-85.909657
 21
-62.95793
  0
LINE
  8
別途部材
  6
CONTINUOUS
 10
-83.909657
 20
-61.95793
 11
-84.909657
 21
-61.95793
  0
LINE
  8
別途部材
  6
CONTINUOUS
 10
-86.909657
 20
-62.95793
 11
-87.909657
 21
-61.95793
  0
LINE
  8
別途部材
  6
CONTINUOUS
 10
-88.909657
 20
-61.95793
 11
-89.909657
 21
-62.95793
  0
LINE
  8
別途部材
  6
CONTINUOUS
 10
-87.909657
 20
-61.95793
 11
-88.909657
 21
-61.95793
  0
LINE
  8
別途部材
  6
CONTINUOUS
 10
-82.909657
 20
-79.624597
 11
-82.909657
 21
-62.95793
  0
LINE
  8
別途部材
  6
CONTINUOUS
 10
-85.909657
 20
-79.624597
 11
-85.909657
 21
-62.95793
  0
LINE
  8
別途部材
  6
CONTINUOUS
 10
-86.909657
 20
-79.624597
 11
-86.909657
 21
-62.95793
  0
LINE
  8
別途部材
  6
CONTINUOUS
 10
-87.909657
 20
-79.624597
 11
-87.909657
 21
-61.95793
  0
LINE
  8
別途部材
  6
CONTINUOUS
 10
-88.909657
 20
-79.624597
 11
-88.909657
 21
-61.95793
  0
LINE
  8
別途部材
  6
CONTINUOUS
 10
-89.909657
 20
-79.624597
 11
-89.909657
 21
-62.95793
  0
LINE
  8
別途部材
  6
CONTINUOUS
 10
-85.909657
 20
-62.95793
 11
-86.909657
 21
-62.95793
  0
LINE
  8
別途部材
  6
CONTINUOUS
 10
-81.909657
 20
-62.95793
 11
-82.909657
 21
-62.95793
  0
LINE
  8
別途部材
  6
CONTINUOUS
 10
-77.909657
 20
-62.95793
 11
-78.909657
 21
-62.95793
  0
LINE
  8
別途部材
  6
CONTINUOUS
 10
-90.909657
 20
-62.95793
 11
-91.909657
 21
-61.95793
  0
LINE
  8
別途部材
  6
CONTINUOUS
 10
-92.909657
 20
-61.95793
 11
-93.909657
 21
-62.95793
  0
LINE
  8
別途部材
  6
CONTINUOUS
 10
-91.909657
 20
-61.95793
 11
-92.909657
 21
-61.95793
  0
LINE
  8
別途部材
  6
CONTINUOUS
 10
-90.909657
 20
-79.624597
 11
-90.909657
 21
-62.95793
  0
LINE
  8
別途部材
  6
CONTINUOUS
 10
-91.909657
 20
-79.624597
 11
-91.909657
 21
-61.95793
  0
LINE
  8
別途部材
  6
CONTINUOUS
 10
-92.909657
 20
-79.624597
 11
-92.909657
 21
-61.95793
  0
LINE
  8
別途部材
  6
CONTINUOUS
 10
-93.909657
 20
-79.624597
 11
-93.909657
 21
-62.95793
  0
LINE
  8
別途部材
  6
CONTINUOUS
 10
-89.909657
 20
-62.95793
 11
-90.909657
 21
-62.95793
  0
LINE
  8
別途部材
  6
CONTINUOUS
 10
-95.409657
 20
-62.95793
 11
-93.909657
 21
-62.95793
  0
LINE
  8
別途部材
  6
CONTINUOUS
 62
    96
 10
72.923675
 20
-79.624597
 11
73.323675
 21
-80.624597
  0
LINE
  8
別途部材
  6
CONTINUOUS
 62
    96
 10
72.923675
 20
-79.624597
 11
-20.409657
 21
-79.624597
  0
LINE
  8
別途部材
  6
CONTINUOUS
 10
73.323675
 20
-80.624597
 11
-20.409657
 21
-80.624597
  0
LINE
  8
別途部材
  6
CONTINUOUS
 10
-19.909657
 20
-79.624597
 11
-19.909657
 21
-61.95793
  0
LINE
  8
別途部材
  6
CONTINUOUS
 10
-16.909657
 20
-79.624597
 11
-16.909657
 21
-61.95793
  0
LINE
  8
別途部材
  6
CONTINUOUS
 10
-19.909657
 20
-61.95793
 11
-18.909657
 21
-62.95793
  0
LINE
  8
別途部材
  6
CONTINUOUS
 10
-15.909657
 20
-79.624597
 11
-15.909657
 21
-61.95793
  0
LINE
  8
別途部材
  6
CONTINUOUS
 10
-17.909657
 20
-62.95793
 11
-16.909657
 21
-61.95793
  0
LINE
  8
別途部材
  6
CONTINUOUS
 10
-15.909657
 20
-61.95793
 11
-14.909657
 21
-62.95793
  0
LINE
  8
別途部材
  6
CONTINUOUS
 10
-16.909657
 20
-61.95793
 11
-15.909657
 21
-61.95793
  0
LINE
  8
別途部材
  6
CONTINUOUS
 10
-19.909657
 20
-61.95793
 11
-20.409657
 21
-61.95793
  0
LINE
  8
別途部材
  6
CONTINUOUS
 10
-13.909657
 20
-62.95793
 11
-12.909657
 21
-61.95793
  0
LINE
  8
別途部材
  6
CONTINUOUS
 10
-11.909657
 20
-61.95793
 11
-10.909657
 21
-62.95793
  0
LINE
  8
別途部材
  6
CONTINUOUS
 10
-12.909657
 20
-61.95793
 11
-11.909657
 21
-61.95793
  0
LINE
  8
別途部材
  6
CONTINUOUS
 10
-17.909657
 20
-79.624597
 11
-17.909657
 21
-62.95793
  0
LINE
  8
別途部材
  6
CONTINUOUS
 10
-14.909657
 20
-79.624597
 11
-14.909657
 21
-62.95793
  0
LINE
  8
別途部材
  6
CONTINUOUS
 10
-13.909657
 20
-79.624597
 11
-13.909657
 21
-62.95793
  0
LINE
  8
別途部材
  6
CONTINUOUS
 10
-12.909657
 20
-79.624597
 11
-12.909657
 21
-61.95793
  0
LINE
  8
別途部材
  6
CONTINUOUS
 10
-11.909657
 20
-79.624597
 11
-11.909657
 21
-61.95793
  0
LINE
  8
別途部材
  6
CONTINUOUS
 10
-10.909657
 20
-79.624597
 11
-10.909657
 21
-62.95793
  0
LINE
  8
別途部材
  6
CONTINUOUS
 10
-9.909657
 20
-62.95793
 11
-8.909657
 21
-61.95793
  0
LINE
  8
別途部材
  6
CONTINUOUS
 10
-7.909657
 20
-61.95793
 11
-6.909657
 21
-62.95793
  0
LINE
  8
別途部材
  6
CONTINUOUS
 10
-8.909657
 20
-61.95793
 11
-7.909657
 21
-61.95793
  0
LINE
  8
別途部材
  6
CONTINUOUS
 10
-9.909657
 20
-79.624597
 11
-9.909657
 21
-62.95793
  0
LINE
  8
別途部材
  6
CONTINUOUS
 10
-8.909657
 20
-79.624597
 11
-8.909657
 21
-61.95793
  0
LINE
  8
別途部材
  6
CONTINUOUS
 10
-7.909657
 20
-79.624597
 11
-7.909657
 21
-61.95793
  0
LINE
  8
別途部材
  6
CONTINUOUS
 10
-6.909657
 20
-79.624597
 11
-6.909657
 21
-62.95793
  0
LINE
  8
別途部材
  6
CONTINUOUS
 10
-4.909657
 20
-79.624597
 11
-4.909657
 21
-61.95793
  0
LINE
  8
別途部材
  6
CONTINUOUS
 10
-3.909657
 20
-79.624597
 11
-3.909657
 21
-61.95793
  0
LINE
  8
別途部材
  6
CONTINUOUS
 10
-5.909657
 20
-62.95793
 11
-4.909657
 21
-61.95793
  0
LINE
  8
別途部材
  6
CONTINUOUS
 10
-3.909657
 20
-61.95793
 11
-2.909657
 21
-62.95793
  0
LINE
  8
別途部材
  6
CONTINUOUS
 10
-4.909657
 20
-61.95793
 11
-3.909657
 21
-61.95793
  0
LINE
  8
別途部材
  6
CONTINUOUS
 10
-1.909657
 20
-62.95793
 11
-0.909657
 21
-61.95793
  0
LINE
  8
別途部材
  6
CONTINUOUS
 10
0.090343
 20
-61.95793
 11
1.090343
 21
-62.95793
  0
LINE
  8
別途部材
  6
CONTINUOUS
 10
-0.909657
 20
-61.95793
 11
0.090343
 21
-61.95793
  0
LINE
  8
別途部材
  6
CONTINUOUS
 10
-5.909657
 20
-79.624597
 11
-5.909657
 21
-62.95793
  0
LINE
  8
別途部材
  6
CONTINUOUS
 10
-2.909657
 20
-79.624597
 11
-2.909657
 21
-62.95793
  0
LINE
  8
別途部材
  6
CONTINUOUS
 10
-1.909657
 20
-79.624597
 11
-1.909657
 21
-62.95793
  0
LINE
  8
別途部材
  6
CONTINUOUS
 10
-0.909657
 20
-79.624597
 11
-0.909657
 21
-61.95793
  0
LINE
  8
別途部材
  6
CONTINUOUS
 10
0.090343
 20
-79.624597
 11
0.090343
 21
-61.95793
  0
LINE
  8
別途部材
  6
CONTINUOUS
 10
1.090343
 20
-79.624597
 11
1.090343
 21
-62.95793
  0
LINE
  8
別途部材
  6
CONTINUOUS
 10
2.090343
 20
-62.95793
 11
3.090343
 21
-61.95793
  0
LINE
  8
別途部材
  6
CONTINUOUS
 10
4.090343
 20
-61.95793
 11
5.090343
 21
-62.95793
  0
LINE
  8
別途部材
  6
CONTINUOUS
 10
3.090343
 20
-61.95793
 11
4.090343
 21
-61.95793
  0
LINE
  8
別途部材
  6
CONTINUOUS
 10
2.090343
 20
-79.624597
 11
2.090343
 21
-62.95793
  0
LINE
  8
別途部材
  6
CONTINUOUS
 10
3.090343
 20
-79.624597
 11
3.090343
 21
-61.95793
  0
LINE
  8
別途部材
  6
CONTINUOUS
 10
4.090343
 20
-79.624597
 11
4.090343
 21
-61.95793
  0
LINE
  8
別途部材
  6
CONTINUOUS
 10
5.090343
 20
-79.624597
 11
5.090343
 21
-62.95793
  0
LINE
  8
別途部材
  6
CONTINUOUS
 10
7.090343
 20
-79.624597
 11
7.090343
 21
-61.95793
  0
LINE
  8
別途部材
  6
CONTINUOUS
 10
8.090343
 20
-79.624597
 11
8.090343
 21
-61.95793
  0
LINE
  8
別途部材
  6
CONTINUOUS
 10
6.090343
 20
-62.95793
 11
7.090343
 21
-61.95793
  0
LINE
  8
別途部材
  6
CONTINUOUS
 10
8.090343
 20
-61.95793
 11
9.090343
 21
-62.95793
  0
LINE
  8
別途部材
  6
CONTINUOUS
 10
7.090343
 20
-61.95793
 11
8.090343
 21
-61.95793
  0
LINE
  8
別途部材
  6
CONTINUOUS
 10
10.090343
 20
-62.95793
 11
11.090343
 21
-61.95793
  0
LINE
  8
別途部材
  6
CONTINUOUS
 10
12.090343
 20
-61.95793
 11
13.090343
 21
-62.95793
  0
LINE
  8
別途部材
  6
CONTINUOUS
 10
11.090343
 20
-61.95793
 11
12.090343
 21
-61.95793
  0
LINE
  8
別途部材
  6
CONTINUOUS
 10
6.090343
 20
-79.624597
 11
6.090343
 21
-62.95793
  0
LINE
  8
別途部材
  6
CONTINUOUS
 10
9.090343
 20
-79.624597
 11
9.090343
 21
-62.95793
  0
LINE
  8
別途部材
  6
CONTINUOUS
 10
10.090343
 20
-79.624597
 11
10.090343
 21
-62.95793
  0
LINE
  8
別途部材
  6
CONTINUOUS
 10
11.090343
 20
-79.624597
 11
11.090343
 21
-61.95793
  0
LINE
  8
別途部材
  6
CONTINUOUS
 10
12.090343
 20
-79.624597
 11
12.090343
 21
-61.95793
  0
LINE
  8
別途部材
  6
CONTINUOUS
 10
13.090343
 20
-79.624597
 11
13.090343
 21
-62.95793
  0
LINE
  8
別途部材
  6
CONTINUOUS
 10
14.090343
 20
-62.95793
 11
15.090343
 21
-61.95793
  0
LINE
  8
別途部材
  6
CONTINUOUS
 10
16.090343
 20
-61.95793
 11
17.090343
 21
-62.95793
  0
LINE
  8
別途部材
  6
CONTINUOUS
 10
15.090343
 20
-61.95793
 11
16.090343
 21
-61.95793
  0
LINE
  8
別途部材
  6
CONTINUOUS
 10
14.090343
 20
-79.624597
 11
14.090343
 21
-62.95793
  0
LINE
  8
別途部材
  6
CONTINUOUS
 10
15.090343
 20
-79.624597
 11
15.090343
 21
-61.95793
  0
LINE
  8
別途部材
  6
CONTINUOUS
 10
16.090343
 20
-79.624597
 11
16.090343
 21
-61.95793
  0
LINE
  8
別途部材
  6
CONTINUOUS
 10
17.090343
 20
-79.624597
 11
17.090343
 21
-62.95793
  0
LINE
  8
別途部材
  6
CONTINUOUS
 10
19.090343
 20
-79.624597
 11
19.090343
 21
-61.95793
  0
LINE
  8
別途部材
  6
CONTINUOUS
 10
20.090343
 20
-79.624597
 11
20.090343
 21
-61.95793
  0
LINE
  8
別途部材
  6
CONTINUOUS
 10
18.090343
 20
-62.95793
 11
19.090343
 21
-61.95793
  0
LINE
  8
別途部材
  6
CONTINUOUS
 10
20.090343
 20
-61.95793
 11
21.090343
 21
-62.95793
  0
LINE
  8
別途部材
  6
CONTINUOUS
 10
19.090343
 20
-61.95793
 11
20.090343
 21
-61.95793
  0
LINE
  8
別途部材
  6
CONTINUOUS
 10
22.090343
 20
-62.95793
 11
23.090343
 21
-61.95793
  0
LINE
  8
別途部材
  6
CONTINUOUS
 10
24.090343
 20
-61.95793
 11
25.090343
 21
-62.95793
  0
LINE
  8
別途部材
  6
CONTINUOUS
 10
23.090343
 20
-61.95793
 11
24.090343
 21
-61.95793
  0
LINE
  8
別途部材
  6
CONTINUOUS
 10
18.090343
 20
-79.624597
 11
18.090343
 21
-62.95793
  0
LINE
  8
別途部材
  6
CONTINUOUS
 10
21.090343
 20
-79.624597
 11
21.090343
 21
-62.95793
  0
LINE
  8
別途部材
  6
CONTINUOUS
 10
22.090343
 20
-79.624597
 11
22.090343
 21
-62.95793
  0
LINE
  8
別途部材
  6
CONTINUOUS
 10
23.090343
 20
-79.624597
 11
23.090343
 21
-61.95793
  0
LINE
  8
別途部材
  6
CONTINUOUS
 10
24.090343
 20
-79.624597
 11
24.090343
 21
-61.95793
  0
LINE
  8
別途部材
  6
CONTINUOUS
 10
25.090343
 20
-79.624597
 11
25.090343
 21
-62.95793
  0
LINE
  8
別途部材
  6
CONTINUOUS
 10
26.090343
 20
-62.95793
 11
27.090343
 21
-61.95793
  0
LINE
  8
別途部材
  6
CONTINUOUS
 10
28.090343
 20
-61.95793
 11
29.090343
 21
-62.95793
  0
LINE
  8
別途部材
  6
CONTINUOUS
 10
27.090343
 20
-61.95793
 11
28.090343
 21
-61.95793
  0
LINE
  8
別途部材
  6
CONTINUOUS
 10
26.090343
 20
-79.624597
 11
26.090343
 21
-62.95793
  0
LINE
  8
別途部材
  6
CONTINUOUS
 10
27.090343
 20
-79.624597
 11
27.090343
 21
-61.95793
  0
LINE
  8
別途部材
  6
CONTINUOUS
 10
28.090343
 20
-79.624597
 11
28.090343
 21
-61.95793
  0
LINE
  8
別途部材
  6
CONTINUOUS
 10
29.090343
 20
-79.624597
 11
29.090343
 21
-62.95793
  0
LINE
  8
別途部材
  6
CONTINUOUS
 10
31.090343
 20
-79.624597
 11
31.090343
 21
-61.95793
  0
LINE
  8
別途部材
  6
CONTINUOUS
 10
32.090343
 20
-79.624597
 11
32.090343
 21
-61.95793
  0
LINE
  8
別途部材
  6
CONTINUOUS
 10
30.090343
 20
-62.95793
 11
31.090343
 21
-61.95793
  0
LINE
  8
別途部材
  6
CONTINUOUS
 10
32.090343
 20
-61.95793
 11
33.090343
 21
-62.95793
  0
LINE
  8
別途部材
  6
CONTINUOUS
 10
31.090343
 20
-61.95793
 11
32.090343
 21
-61.95793
  0
LINE
  8
別途部材
  6
CONTINUOUS
 10
34.090343
 20
-62.95793
 11
35.090343
 21
-61.95793
  0
LINE
  8
別途部材
  6
CONTINUOUS
 10
36.090343
 20
-61.95793
 11
37.090343
 21
-62.95793
  0
LINE
  8
別途部材
  6
CONTINUOUS
 10
35.090343
 20
-61.95793
 11
36.090343
 21
-61.95793
  0
LINE
  8
別途部材
  6
CONTINUOUS
 10
30.090343
 20
-79.624597
 11
30.090343
 21
-62.95793
  0
LINE
  8
別途部材
  6
CONTINUOUS
 10
33.090343
 20
-79.624597
 11
33.090343
 21
-62.95793
  0
LINE
  8
別途部材
  6
CONTINUOUS
 10
34.090343
 20
-79.624597
 11
34.090343
 21
-62.95793
  0
LINE
  8
別途部材
  6
CONTINUOUS
 10
35.090343
 20
-79.624597
 11
35.090343
 21
-61.95793
  0
LINE
  8
別途部材
  6
CONTINUOUS
 10
36.090343
 20
-79.624597
 11
36.090343
 21
-61.95793
  0
LINE
  8
別途部材
  6
CONTINUOUS
 10
37.090343
 20
-79.624597
 11
37.090343
 21
-62.95793
  0
LINE
  8
別途部材
  6
CONTINUOUS
 10
33.090343
 20
-62.95793
 11
34.090343
 21
-62.95793
  0
LINE
  8
別途部材
  6
CONTINUOUS
 10
29.090343
 20
-62.95793
 11
30.090343
 21
-62.95793
  0
LINE
  8
別途部材
  6
CONTINUOUS
 10
25.090343
 20
-62.95793
 11
26.090343
 21
-62.95793
  0
LINE
  8
別途部材
  6
CONTINUOUS
 10
21.090343
 20
-62.95793
 11
22.090343
 21
-62.95793
  0
LINE
  8
別途部材
  6
CONTINUOUS
 10
17.090343
 20
-62.95793
 11
18.090343
 21
-62.95793
  0
LINE
  8
別途部材
  6
CONTINUOUS
 10
13.090343
 20
-62.95793
 11
14.090343
 21
-62.95793
  0
LINE
  8
別途部材
  6
CONTINUOUS
 10
9.090343
 20
-62.95793
 11
10.090343
 21
-62.95793
  0
LINE
  8
別途部材
  6
CONTINUOUS
 10
5.090343
 20
-62.95793
 11
6.090343
 21
-62.95793
  0
LINE
  8
別途部材
  6
CONTINUOUS
 10
1.090343
 20
-62.95793
 11
2.090343
 21
-62.95793
  0
LINE
  8
別途部材
  6
CONTINUOUS
 10
-2.909657
 20
-62.95793
 11
-1.909657
 21
-62.95793
  0
LINE
  8
別途部材
  6
CONTINUOUS
 10
-6.909657
 20
-62.95793
 11
-5.909657
 21
-62.95793
  0
LINE
  8
別途部材
  6
CONTINUOUS
 10
-10.909657
 20
-62.95793
 11
-9.909657
 21
-62.95793
  0
LINE
  8
別途部材
  6
CONTINUOUS
 10
-14.909657
 20
-62.95793
 11
-13.909657
 21
-62.95793
  0
LINE
  8
別途部材
  6
CONTINUOUS
 10
-18.909657
 20
-79.624597
 11
-18.909657
 21
-62.95793
  0
LINE
  8
別途部材
  6
CONTINUOUS
 10
-17.909657
 20
-62.95793
 11
-18.909657
 21
-62.95793
  0
ARC
  8
別途部材
  6
CONTINUOUS
 10
54.590342
 20
-79.624597
 40
16.666667
 50
0.0
 51
90.0
  0
LINE
  8
別途部材
  6
CONTINUOUS
 10
38.090343
 20
-62.95793
 11
39.090343
 21
-61.95793
  0
LINE
  8
別途部材
  6
CONTINUOUS
 10
40.090343
 20
-61.95793
 11
41.090343
 21
-62.95793
  0
LINE
  8
別途部材
  6
CONTINUOUS
 10
39.090343
 20
-61.95793
 11
40.090343
 21
-61.95793
  0
LINE
  8
別途部材
  6
CONTINUOUS
 10
38.090343
 20
-79.624597
 11
38.090343
 21
-62.95793
  0
LINE
  8
別途部材
  6
CONTINUOUS
 10
39.090343
 20
-79.624597
 11
39.090343
 21
-61.95793
  0
LINE
  8
別途部材
  6
CONTINUOUS
 10
40.090343
 20
-79.624597
 11
40.090343
 21
-61.95793
  0
LINE
  8
別途部材
  6
CONTINUOUS
 10
41.090343
 20
-79.624597
 11
41.090343
 21
-62.95793
  0
LINE
  8
別途部材
  6
CONTINUOUS
 10
43.090343
 20
-79.624597
 11
43.090343
 21
-61.95793
  0
LINE
  8
別途部材
  6
CONTINUOUS
 10
44.090343
 20
-79.624597
 11
44.090343
 21
-61.95793
  0
LINE
  8
別途部材
  6
CONTINUOUS
 10
42.090343
 20
-62.95793
 11
43.090343
 21
-61.95793
  0
LINE
  8
別途部材
  6
CONTINUOUS
 10
44.090343
 20
-61.95793
 11
45.090343
 21
-62.95793
  0
LINE
  8
別途部材
  6
CONTINUOUS
 10
43.090343
 20
-61.95793
 11
44.090343
 21
-61.95793
  0
LINE
  8
別途部材
  6
CONTINUOUS
 10
46.090343
 20
-62.95793
 11
47.090343
 21
-61.95793
  0
LINE
  8
別途部材
  6
CONTINUOUS
 10
48.090343
 20
-61.95793
 11
49.090343
 21
-62.95793
  0
LINE
  8
別途部材
  6
CONTINUOUS
 10
47.090343
 20
-61.95793
 11
48.090343
 21
-61.95793
  0
LINE
  8
別途部材
  6
CONTINUOUS
 10
42.090343
 20
-79.624597
 11
42.090343
 21
-62.95793
  0
LINE
  8
別途部材
  6
CONTINUOUS
 10
45.090343
 20
-79.624597
 11
45.090343
 21
-62.95793
  0
LINE
  8
別途部材
  6
CONTINUOUS
 10
46.090343
 20
-79.624597
 11
46.090343
 21
-62.95793
  0
LINE
  8
別途部材
  6
CONTINUOUS
 10
47.090343
 20
-79.624597
 11
47.090343
 21
-61.95793
  0
LINE
  8
別途部材
  6
CONTINUOUS
 10
48.090343
 20
-79.624597
 11
48.090343
 21
-61.95793
  0
LINE
  8
別途部材
  6
CONTINUOUS
 10
49.090343
 20
-79.624597
 11
49.090343
 21
-62.95793
  0
LINE
  8
別途部材
  6
CONTINUOUS
 10
45.090343
 20
-62.95793
 11
46.090343
 21
-62.95793
  0
LINE
  8
別途部材
  6
CONTINUOUS
 10
41.090343
 20
-62.95793
 11
42.090343
 21
-62.95793
  0
LINE
  8
別途部材
  6
CONTINUOUS
 10
37.090343
 20
-62.95793
 11
38.090343
 21
-62.95793
  0
LINE
  8
別途部材
  6
CONTINUOUS
 10
50.090343
 20
-62.95793
 11
51.090343
 21
-61.95793
  0
LINE
  8
別途部材
  6
CONTINUOUS
 10
52.090343
 20
-61.95793
 11
53.090343
 21
-62.95793
  0
LINE
  8
別途部材
  6
CONTINUOUS
 10
51.090343
 20
-61.95793
 11
52.090343
 21
-61.95793
  0
LINE
  8
別途部材
  6
CONTINUOUS
 10
50.090343
 20
-79.624597
 11
50.090343
 21
-62.95793
  0
LINE
  8
別途部材
  6
CONTINUOUS
 10
51.090343
 20
-79.624597
 11
51.090343
 21
-61.95793
  0
LINE
  8
別途部材
  6
CONTINUOUS
 10
52.090343
 20
-79.624597
 11
52.090343
 21
-61.95793
  0
LINE
  8
別途部材
  6
CONTINUOUS
 10
53.090343
 20
-79.624597
 11
53.090343
 21
-62.95793
  0
LINE
  8
別途部材
  6
CONTINUOUS
 10
49.090343
 20
-62.95793
 11
50.090343
 21
-62.95793
  0
LINE
  8
別途部材
  6
CONTINUOUS
 10
54.590343
 20
-62.95793
 11
53.090343
 21
-62.95793
  0
ENDBLK
  0
BLOCK
  2
*GRP_0019
 70
    65
 10
0.0
 20
0.0
  0
LINE
  8
補助線
  6
BYBLOCK
 62
    64
 10
-108.69063
 20
-84.519938
 11
-108.79536
 21
-84.649587
  0
LINE
  8
補助線
  6
BYBLOCK
 62
    64
 10
-108.807823
 20
-84.532395
 11
-108.67817
 21
-84.637128
  0
LINE
  8
補助線
  6
BYBLOCK
 62
    64
 10
-98.741075
 20
-72.20325
 11
-98.845807
 21
-72.332895
  0
LINE
  8
補助線
  6
BYBLOCK
 62
    64
 10
-98.858267
 20
-72.215705
 11
-98.728618
 21
-72.320438
  0
LINE
  8
補助線
  6
BYBLOCK
 62
    64
 10
-88.896255
 20
-60.016205
 11
-88.791522
 21
-59.886557
  0
LINE
  8
補助線
  6
BYBLOCK
 62
    64
 10
-88.908715
 20
-59.899013
 11
-88.779062
 21
-60.003745
  0
LINE
  8
型材断面
  6
CONTINUOUS
 10
-109.600705
 20
-84.3204
 11
-109.525953
 21
-85.023545
  0
LINE
  8
型材断面
  6
CONTINUOUS
 10
-109.525953
 20
-85.023545
 11
-109.007355
 21
-85.442472
  0
LINE
  8
型材断面
  6
CONTINUOUS
 10
-109.007355
 20
-85.442472
 11
-108.30421
 21
-85.36772
  0
LINE
  8
型材断面
  6
CONTINUOUS
 10
-89.28267
 20
-59.168422
 11
-88.579528
 21
-59.09367
  0
LINE
  8
型材断面
  6
CONTINUOUS
 10
-88.579528
 20
-59.09367
 11
-88.06093
 21
-59.5126
  0
LINE
  8
型材断面
  6
CONTINUOUS
 10
-88.06093
 20
-59.5126
 11
-87.986175
 21
-60.215745
  0
LINE
  8
型材断面
  6
CONTINUOUS
 10
-109.600705
 20
-84.3204
 11
-89.28267
 21
-59.168422
  0
LINE
  8
型材断面
  6
CONTINUOUS
 10
-108.30421
 20
-85.36772
 11
-87.986175
 21
-60.215745
  0
CIRCLE
  8
ボルト／ビス
  6
CONTINUOUS
 10
-108.742995
 20
-84.584763
 40
0.250185
  0
CIRCLE
  8
ボルト／ビス
  6
CONTINUOUS
 10
-108.742995
 20
-84.584763
 40
0.301025
  0
LINE
  8
ボルト／ビス
  6
CONTINUOUS
 62
    64
 10
-108.976458
 20
-84.6747
 11
-108.937612
 21
-84.427548
  0
LINE
  8
ボルト／ビス
  6
CONTINUOUS
 62
    64
 10
-108.704152
 20
-84.33761
 11
-108.937612
 21
-84.427548
  0
LINE
  8
ボルト／ビス
  6
CONTINUOUS
 62
    64
 10
-108.781837
 20
-84.831915
 11
-108.548377
 21
-84.741978
  0
LINE
  8
ボルト／ビス
  6
CONTINUOUS
 62
    64
 10
-108.509533
 20
-84.494825
 11
-108.548377
 21
-84.741978
  0
LINE
  8
ボルト／ビス
  6
CONTINUOUS
 62
    64
 10
-108.976458
 20
-84.6747
 11
-108.781837
 21
-84.831915
  0
LINE
  8
ボルト／ビス
  6
CONTINUOUS
 62
    64
 10
-108.704152
 20
-84.33761
 11
-108.509533
 21
-84.494825
  0
CIRCLE
  8
ボルト／ビス
  6
CONTINUOUS
 62
    64
 10
-108.742995
 20
-84.584763
 40
0.216668
  0
CIRCLE
  8
ボルト／ビス
  6
CONTINUOUS
 10
-98.793443
 20
-72.26807
 40
0.250185
  0
CIRCLE
  8
ボルト／ビス
  6
CONTINUOUS
 10
-98.793443
 20
-72.26807
 40
0.301025
  0
LINE
  8
ボルト／ビス
  6
CONTINUOUS
 62
    64
 10
-99.026902
 20
-72.35801
 11
-98.98806
 21
-72.110858
  0
LINE
  8
ボルト／ビス
  6
CONTINUOUS
 62
    64
 10
-98.754598
 20
-72.02092
 11
-98.98806
 21
-72.110858
  0
LINE
  8
ボルト／ビス
  6
CONTINUOUS
 62
    64
 10
-98.832285
 20
-72.515222
 11
-98.598823
 21
-72.425285
  0
LINE
  8
ボルト／ビス
  6
CONTINUOUS
 62
    64
 10
-98.55998
 20
-72.178132
 11
-98.598823
 21
-72.425285
  0
LINE
  8
ボルト／ビス
  6
CONTINUOUS
 62
    64
 10
-99.026902
 20
-72.35801
 11
-98.832285
 21
-72.515222
  0
LINE
  8
ボルト／ビス
  6
CONTINUOUS
 62
    64
 10
-98.754598
 20
-72.02092
 11
-98.55998
 21
-72.178132
  0
CIRCLE
  8
ボルト／ビス
  6
CONTINUOUS
 62
    64
 10
-98.793443
 20
-72.26807
 40
0.216668
  0
CIRCLE
  8
ボルト／ビス
  6
CONTINUOUS
 10
-88.843887
 20
-59.95138
 40
0.250185
  0
CIRCLE
  8
ボルト／ビス
  6
CONTINUOUS
 10
-88.843887
 20
-59.95138
 40
0.301025
  0
LINE
  8
ボルト／ビス
  6
CONTINUOUS
 62
    64
 10
-88.805045
 20
-59.704227
 11
-89.038505
 21
-59.794165
  0
LINE
  8
ボルト／ビス
  6
CONTINUOUS
 62
    64
 10
-89.07735
 20
-60.041317
 11
-89.038505
 21
-59.794165
  0
LINE
  8
ボルト／ビス
  6
CONTINUOUS
 62
    64
 10
-88.610425
 20
-59.861442
 11
-88.64927
 21
-60.108595
  0
LINE
  8
ボルト／ビス
  6
CONTINUOUS
 62
    64
 10
-88.882733
 20
-60.198532
 11
-88.64927
 21
-60.108595
  0
LINE
  8
ボルト／ビス
  6
CONTINUOUS
 62
    64
 10
-88.805045
 20
-59.704227
 11
-88.610425
 21
-59.861442
  0
LINE
  8
ボルト／ビス
  6
CONTINUOUS
 62
    64
 10
-89.07735
 20
-60.041317
 11
-88.882733
 21
-60.198532
  0
CIRCLE
  8
ボルト／ビス
  6
CONTINUOUS
 62
    64
 10
-88.843887
 20
-59.95138
 40
0.216668
  0
ENDBLK
  0
BLOCK
  2
*GRP_0020
 70
    65
 10
0.0
 20
0.0
  0
LINE
  8
補助線
  6
BYBLOCK
 62
    64
 10
-88.89625
 20
-84.519938
 11
-88.79152
 21
-84.649587
  0
LINE
  8
補助線
  6
BYBLOCK
 62
    64
 10
-88.779057
 20
-84.532395
 11
-88.90871
 21
-84.637128
  0
LINE
  8
補助線
  6
BYBLOCK
 62
    64
 10
-98.845805
 20
-72.20325
 11
-98.741072
 21
-72.332895
  0
LINE
  8
補助線
  6
BYBLOCK
 62
    64
 10
-98.728612
 20
-72.215705
 11
-98.858262
 21
-72.320438
  0
LINE
  8
補助線
  6
BYBLOCK
 62
    64
 10
-108.690625
 20
-60.016205
 11
-108.795357
 21
-59.886557
  0
LINE
  8
補助線
  6
BYBLOCK
 62
    64
 10
-108.678165
 20
-59.899013
 11
-108.807817
 21
-60.003745
  0
LINE
  8
型材断面
  6
CONTINUOUS
 10
-87.986175
 20
-84.3204
 11
-88.060927
 21
-85.023545
  0
LINE
  8
型材断面
  6
CONTINUOUS
 10
-88.060927
 20
-85.023545
 11
-88.579525
 21
-85.442472
  0
LINE
  8
型材断面
  6
CONTINUOUS
 10
-88.579525
 20
-85.442472
 11
-89.28267
 21
-85.36772
  0
LINE
  8
型材断面
  6
CONTINUOUS
 10
-108.30421
 20
-59.168422
 11
-109.007352
 21
-59.09367
  0
LINE
  8
型材断面
  6
CONTINUOUS
 10
-109.007352
 20
-59.09367
 11
-109.52595
 21
-59.5126
  0
LINE
  8
型材断面
  6
CONTINUOUS
 10
-109.52595
 20
-59.5126
 11
-109.600705
 21
-60.215745
  0
LINE
  8
型材断面
  6
CONTINUOUS
 10
-87.986175
 20
-84.3204
 11
-108.30421
 21
-59.168422
  0
LINE
  8
型材断面
  6
CONTINUOUS
 10
-89.28267
 20
-85.36772
 11
-109.600705
 21
-60.215745
  0
CIRCLE
  8
ボルト／ビス
  6
CONTINUOUS
 10
-88.843885
 20
-84.584763
 40
0.250185
  0
CIRCLE
  8
ボルト／ビス
  6
CONTINUOUS
 10
-88.843885
 20
-84.584763
 40
0.301025
  0
LINE
  8
ボルト／ビス
  6
CONTINUOUS
 62
    64
 10
-88.610422
 20
-84.6747
 11
-88.649268
 21
-84.427548
  0
LINE
  8
ボルト／ビス
  6
CONTINUOUS
 62
    64
 10
-88.882727
 20
-84.33761
 11
-88.649268
 21
-84.427548
  0
LINE
  8
ボルト／ビス
  6
CONTINUOUS
 62
    64
 10
-88.805043
 20
-84.831915
 11
-89.038502
 21
-84.741978
  0
LINE
  8
ボルト／ビス
  6
CONTINUOUS
 62
    64
 10
-89.077348
 20
-84.494825
 11
-89.038502
 21
-84.741978
  0
LINE
  8
ボルト／ビス
  6
CONTINUOUS
 62
    64
 10
-88.610422
 20
-84.6747
 11
-88.805043
 21
-84.831915
  0
LINE
  8
ボルト／ビス
  6
CONTINUOUS
 62
    64
 10
-88.882727
 20
-84.33761
 11
-89.077348
 21
-84.494825
  0
CIRCLE
  8
ボルト／ビス
  6
CONTINUOUS
 62
    64
 10
-88.843885
 20
-84.584763
 40
0.216668
  0
CIRCLE
  8
ボルト／ビス
  6
CONTINUOUS
 10
-98.793437
 20
-72.26807
 40
0.250185
  0
CIRCLE
  8
ボルト／ビス
  6
CONTINUOUS
 10
-98.793437
 20
-72.26807
 40
0.301025
  0
LINE
  8
ボルト／ビス
  6
CONTINUOUS
 62
    64
 10
-98.559977
 20
-72.35801
 11
-98.59882
 21
-72.110858
  0
LINE
  8
ボルト／ビス
  6
CONTINUOUS
 62
    64
 10
-98.832283
 20
-72.02092
 11
-98.59882
 21
-72.110858
  0
LINE
  8
ボルト／ビス
  6
CONTINUOUS
 62
    64
 10
-98.754595
 20
-72.515222
 11
-98.988058
 21
-72.425285
  0
LINE
  8
ボルト／ビス
  6
CONTINUOUS
 62
    64
 10
-99.0269
 20
-72.178132
 11
-98.988058
 21
-72.425285
  0
LINE
  8
ボルト／ビス
  6
CONTINUOUS
 62
    64
 10
-98.559977
 20
-72.35801
 11
-98.754595
 21
-72.515222
  0
LINE
  8
ボルト／ビス
  6
CONTINUOUS
 62
    64
 10
-98.832283
 20
-72.02092
 11
-99.0269
 21
-72.178132
  0
CIRCLE
  8
ボルト／ビス
  6
CONTINUOUS
 62
    64
 10
-98.793437
 20
-72.26807
 40
0.216668
  0
CIRCLE
  8
ボルト／ビス
  6
CONTINUOUS
 10
-108.742993
 20
-59.95138
 40
0.250185
  0
CIRCLE
  8
ボルト／ビス
  6
CONTINUOUS
 10
-108.742993
 20
-59.95138
 40
0.301025
  0
LINE
  8
ボルト／ビス
  6
CONTINUOUS
 62
    64
 10
-108.781835
 20
-59.704227
 11
-108.548375
 21
-59.794165
  0
LINE
  8
ボルト／ビス
  6
CONTINUOUS
 62
    64
 10
-108.50953
 20
-60.041317
 11
-108.548375
 21
-59.794165
  0
LINE
  8
ボルト／ビス
  6
CONTINUOUS
 62
    64
 10
-108.976455
 20
-59.861442
 11
-108.93761
 21
-60.108595
  0
LINE
  8
ボルト／ビス
  6
CONTINUOUS
 62
    64
 10
-108.704148
 20
-60.198532
 11
-108.93761
 21
-60.108595
  0
LINE
  8
ボルト／ビス
  6
CONTINUOUS
 62
    64
 10
-108.781835
 20
-59.704227
 11
-108.976455
 21
-59.861442
  0
LINE
  8
ボルト／ビス
  6
CONTINUOUS
 62
    64
 10
-108.50953
 20
-60.041317
 11
-108.704148
 21
-60.198532
  0
CIRCLE
  8
ボルト／ビス
  6
CONTINUOUS
 62
    64
 10
-108.742993
 20
-59.95138
 40
0.216668
  0
ENDBLK
  0
BLOCK
  2
*GRP_0021
 70
    65
 10
0.0
 20
0.0
  0
LINE
  8
補助線
  6
BYBLOCK
 62
    64
 10
67.87131
 20
-84.519938
 11
67.97604
 21
-84.649587
  0
LINE
  8
補助線
  6
BYBLOCK
 62
    64
 10
67.988502
 20
-84.532395
 11
67.85885
 21
-84.637128
  0
LINE
  8
補助線
  6
BYBLOCK
 62
    64
 10
57.921755
 20
-72.20325
 11
58.026488
 21
-72.332895
  0
LINE
  8
補助線
  6
BYBLOCK
 62
    64
 10
58.038947
 20
-72.215705
 11
57.909297
 21
-72.320438
  0
LINE
  8
補助線
  6
BYBLOCK
 62
    64
 10
48.076935
 20
-60.016205
 11
47.972202
 21
-59.886557
  0
LINE
  8
補助線
  6
BYBLOCK
 62
    64
 10
48.089395
 20
-59.899013
 11
47.959742
 21
-60.003745
  0
LINE
  8
型材断面
  6
CONTINUOUS
 10
68.781385
 20
-84.3204
 11
68.706632
 21
-85.023545
  0
LINE
  8
型材断面
  6
CONTINUOUS
 10
68.706632
 20
-85.023545
 11
68.188035
 21
-85.442472
  0
LINE
  8
型材断面
  6
CONTINUOUS
 10
68.188035
 20
-85.442472
 11
67.48489
 21
-85.36772
  0
LINE
  8
型材断面
  6
CONTINUOUS
 10
48.46335
 20
-59.168422
 11
47.760208
 21
-59.09367
  0
LINE
  8
型材断面
  6
CONTINUOUS
 10
47.760208
 20
-59.09367
 11
47.24161
 21
-59.5126
  0
LINE
  8
型材断面
  6
CONTINUOUS
 10
47.24161
 20
-59.5126
 11
47.166855
 21
-60.215745
  0
LINE
  8
型材断面
  6
CONTINUOUS
 10
68.781385
 20
-84.3204
 11
48.46335
 21
-59.168422
  0
LINE
  8
型材断面
  6
CONTINUOUS
 10
67.48489
 20
-85.36772
 11
47.166855
 21
-60.215745
  0
CIRCLE
  8
ボルト／ビス
  6
CONTINUOUS
 10
67.923675
 20
-84.584763
 40
0.250185
  0
CIRCLE
  8
ボルト／ビス
  6
CONTINUOUS
 10
67.923675
 20
-84.584763
 40
0.301025
  0
LINE
  8
ボルト／ビス
  6
CONTINUOUS
 62
    64
 10
68.157137
 20
-84.6747
 11
68.118292
 21
-84.427548
  0
LINE
  8
ボルト／ビス
  6
CONTINUOUS
 62
    64
 10
67.884833
 20
-84.33761
 11
68.118292
 21
-84.427548
  0
LINE
  8
ボルト／ビス
  6
CONTINUOUS
 62
    64
 10
67.962517
 20
-84.831915
 11
67.729058
 21
-84.741978
  0
LINE
  8
ボルト／ビス
  6
CONTINUOUS
 62
    64
 10
67.690213
 20
-84.494825
 11
67.729058
 21
-84.741978
  0
LINE
  8
ボルト／ビス
  6
CONTINUOUS
 62
    64
 10
68.157137
 20
-84.6747
 11
67.962517
 21
-84.831915
  0
LINE
  8
ボルト／ビス
  6
CONTINUOUS
 62
    64
 10
67.884833
 20
-84.33761
 11
67.690213
 21
-84.494825
  0
CIRCLE
  8
ボルト／ビス
  6
CONTINUOUS
 62
    64
 10
67.923675
 20
-84.584763
 40
0.216668
  0
CIRCLE
  8
ボルト／ビス
  6
CONTINUOUS
 10
57.974122
 20
-72.26807
 40
0.250185
  0
CIRCLE
  8
ボルト／ビス
  6
CONTINUOUS
 10
57.974122
 20
-72.26807
 40
0.301025
  0
LINE
  8
ボルト／ビス
  6
CONTINUOUS
 62
    64
 10
58.207582
 20
-72.35801
 11
58.16874
 21
-72.110858
  0
LINE
  8
ボルト／ビス
  6
CONTINUOUS
 62
    64
 10
57.935277
 20
-72.02092
 11
58.16874
 21
-72.110858
  0
LINE
  8
ボルト／ビス
  6
CONTINUOUS
 62
    64
 10
58.012965
 20
-72.515222
 11
57.779502
 21
-72.425285
  0
LINE
  8
ボルト／ビス
  6
CONTINUOUS
 62
    64
 10
57.74066
 20
-72.178132
 11
57.779502
 21
-72.425285
  0
LINE
  8
ボルト／ビス
  6
CONTINUOUS
 62
    64
 10
58.207582
 20
-72.35801
 11
58.012965
 21
-72.515222
  0
LINE
  8
ボルト／ビス
  6
CONTINUOUS
 62
    64
 10
57.935277
 20
-72.02092
 11
57.74066
 21
-72.178132
  0
CIRCLE
  8
ボルト／ビス
  6
CONTINUOUS
 62
    64
 10
57.974122
 20
-72.26807
 40
0.216668
  0
CIRCLE
  8
ボルト／ビス
  6
CONTINUOUS
 10
48.024568
 20
-59.95138
 40
0.250185
  0
CIRCLE
  8
ボルト／ビス
  6
CONTINUOUS
 10
48.024568
 20
-59.95138
 40
0.301025
  0
LINE
  8
ボルト／ビス
  6
CONTINUOUS
 62
    64
 10
47.985725
 20
-59.704227
 11
48.219185
 21
-59.794165
  0
LINE
  8
ボルト／ビス
  6
CONTINUOUS
 62
    64
 10
48.25803
 20
-60.041317
 11
48.219185
 21
-59.794165
  0
LINE
  8
ボルト／ビス
  6
CONTINUOUS
 62
    64
 10
47.791105
 20
-59.861442
 11
47.82995
 21
-60.108595
  0
LINE
  8
ボルト／ビス
  6
CONTINUOUS
 62
    64
 10
48.063413
 20
-60.198532
 11
47.82995
 21
-60.108595
  0
LINE
  8
ボルト／ビス
  6
CONTINUOUS
 62
    64
 10
47.985725
 20
-59.704227
 11
47.791105
 21
-59.861442
  0
LINE
  8
ボルト／ビス
  6
CONTINUOUS
 62
    64
 10
48.25803
 20
-60.041317
 11
48.063413
 21
-60.198532
  0
CIRCLE
  8
ボルト／ビス
  6
CONTINUOUS
 62
    64
 10
48.024568
 20
-59.95138
 40
0.216668
  0
ENDBLK
  0
BLOCK
  2
*GRP_0022
 70
    65
 10
0.0
 20
0.0
  0
LINE
  8
補助線
  6
BYBLOCK
 62
    64
 10
48.07693
 20
-84.519938
 11
47.9722
 21
-84.649587
  0
LINE
  8
補助線
  6
BYBLOCK
 62
    64
 10
47.959737
 20
-84.532395
 11
48.08939
 21
-84.637128
  0
LINE
  8
補助線
  6
BYBLOCK
 62
    64
 10
58.026485
 20
-72.20325
 11
57.921753
 21
-72.332895
  0
LINE
  8
補助線
  6
BYBLOCK
 62
    64
 10
57.909293
 20
-72.215705
 11
58.038942
 21
-72.320438
  0
LINE
  8
補助線
  6
BYBLOCK
 62
    64
 10
67.871305
 20
-60.016205
 11
67.976037
 21
-59.886557
  0
LINE
  8
補助線
  6
BYBLOCK
 62
    64
 10
67.858845
 20
-59.899013
 11
67.988498
 21
-60.003745
  0
LINE
  8
型材断面
  6
CONTINUOUS
 10
47.166855
 20
-84.3204
 11
47.241607
 21
-85.023545
  0
LINE
  8
型材断面
  6
CONTINUOUS
 10
47.241607
 20
-85.023545
 11
47.760205
 21
-85.442472
  0
LINE
  8
型材断面
  6
CONTINUOUS
 10
47.760205
 20
-85.442472
 11
48.46335
 21
-85.36772
  0
LINE
  8
型材断面
  6
CONTINUOUS
 10
67.48489
 20
-59.168422
 11
68.188033
 21
-59.09367
  0
LINE
  8
型材断面
  6
CONTINUOUS
 10
68.188033
 20
-59.09367
 11
68.70663
 21
-59.5126
  0
LINE
  8
型材断面
  6
CONTINUOUS
 10
68.70663
 20
-59.5126
 11
68.781385
 21
-60.215745
  0
LINE
  8
型材断面
  6
CONTINUOUS
 10
47.166855
 20
-84.3204
 11
67.48489
 21
-59.168422
  0
LINE
  8
型材断面
  6
CONTINUOUS
 10
48.46335
 20
-85.36772
 11
68.781385
 21
-60.215745
  0
CIRCLE
  8
ボルト／ビス
  6
CONTINUOUS
 10
48.024565
 20
-84.584763
 40
0.250185
  0
CIRCLE
  8
ボルト／ビス
  6
CONTINUOUS
 10
48.024565
 20
-84.584763
 40
0.301025
  0
LINE
  8
ボルト／ビス
  6
CONTINUOUS
 62
    64
 10
47.791102
 20
-84.6747
 11
47.829947
 21
-84.427548
  0
LINE
  8
ボルト／ビス
  6
CONTINUOUS
 62
    64
 10
48.063407
 20
-84.33761
 11
47.829947
 21
-84.427548
  0
LINE
  8
ボルト／ビス
  6
CONTINUOUS
 62
    64
 10
47.985722
 20
-84.831915
 11
48.219182
 21
-84.741978
  0
LINE
  8
ボルト／ビス
  6
CONTINUOUS
 62
    64
 10
48.258028
 20
-84.494825
 11
48.219182
 21
-84.741978
  0
LINE
  8
ボルト／ビス
  6
CONTINUOUS
 62
    64
 10
47.791102
 20
-84.6747
 11
47.985722
 21
-84.831915
  0
LINE
  8
ボルト／ビス
  6
CONTINUOUS
 62
    64
 10
48.063407
 20
-84.33761
 11
48.258028
 21
-84.494825
  0
CIRCLE
  8
ボルト／ビス
  6
CONTINUOUS
 62
    64
 10
48.024565
 20
-84.584763
 40
0.216668
  0
CIRCLE
  8
ボルト／ビス
  6
CONTINUOUS
 10
57.974117
 20
-72.26807
 40
0.250185
  0
CIRCLE
  8
ボルト／ビス
  6
CONTINUOUS
 10
57.974117
 20
-72.26807
 40
0.301025
  0
LINE
  8
ボルト／ビス
  6
CONTINUOUS
 62
    64
 10
57.740658
 20
-72.35801
 11
57.7795
 21
-72.110858
  0
LINE
  8
ボルト／ビス
  6
CONTINUOUS
 62
    64
 10
58.012962
 20
-72.02092
 11
57.7795
 21
-72.110858
  0
LINE
  8
ボルト／ビス
  6
CONTINUOUS
 62
    64
 10
57.935275
 20
-72.515222
 11
58.168737
 21
-72.425285
  0
LINE
  8
ボルト／ビス
  6
CONTINUOUS
 62
    64
 10
58.20758
 20
-72.178132
 11
58.168737
 21
-72.425285
  0
LINE
  8
ボルト／ビス
  6
CONTINUOUS
 62
    64
 10
57.740658
 20
-72.35801
 11
57.935275
 21
-72.515222
  0
LINE
  8
ボルト／ビス
  6
CONTINUOUS
 62
    64
 10
58.012962
 20
-72.02092
 11
58.20758
 21
-72.178132
  0
CIRCLE
  8
ボルト／ビス
  6
CONTINUOUS
 62
    64
 10
57.974117
 20
-72.26807
 40
0.216668
  0
CIRCLE
  8
ボルト／ビス
  6
CONTINUOUS
 10
67.923673
 20
-59.95138
 40
0.250185
  0
CIRCLE
  8
ボルト／ビス
  6
CONTINUOUS
 10
67.923673
 20
-59.95138
 40
0.301025
  0
LINE
  8
ボルト／ビス
  6
CONTINUOUS
 62
    64
 10
67.962515
 20
-59.704227
 11
67.729055
 21
-59.794165
  0
LINE
  8
ボルト／ビス
  6
CONTINUOUS
 62
    64
 10
67.69021
 20
-60.041317
 11
67.729055
 21
-59.794165
  0
LINE
  8
ボルト／ビス
  6
CONTINUOUS
 62
    64
 10
68.157135
 20
-59.861442
 11
68.11829
 21
-60.108595
  0
LINE
  8
ボルト／ビス
  6
CONTINUOUS
 62
    64
 10
67.884828
 20
-60.198532
 11
68.11829
 21
-60.108595
  0
LINE
  8
ボルト／ビス
  6
CONTINUOUS
 62
    64
 10
67.962515
 20
-59.704227
 11
68.157135
 21
-59.861442
  0
LINE
  8
ボルト／ビス
  6
CONTINUOUS
 62
    64
 10
67.69021
 20
-60.041317
 11
67.884828
 21
-60.198532
  0
CIRCLE
  8
ボルト／ビス
  6
CONTINUOUS
 62
    64
 10
67.923673
 20
-59.95138
 40
0.216668
  0
ENDBLK
  0
BLOCK
  2
*GRP_0023
 70
    65
 10
0.0
 20
0.0
  0
LINE
  8
補助線
  6
BYBLOCK
 62
    64
 10
-58.41428
 20
-84.519938
 11
-58.51901
 21
-84.649587
  0
LINE
  8
補助線
  6
BYBLOCK
 62
    64
 10
-58.531473
 20
-84.532395
 11
-58.40182
 21
-84.637128
  0
LINE
  8
補助線
  6
BYBLOCK
 62
    64
 10
-48.464725
 20
-72.20325
 11
-48.569458
 21
-72.332895
  0
LINE
  8
補助線
  6
BYBLOCK
 62
    64
 10
-48.581917
 20
-72.215705
 11
-48.452268
 21
-72.320438
  0
LINE
  8
補助線
  6
BYBLOCK
 62
    64
 10
-38.619905
 20
-60.016205
 11
-38.515172
 21
-59.886557
  0
LINE
  8
補助線
  6
BYBLOCK
 62
    64
 10
-38.632365
 20
-59.899013
 11
-38.502712
 21
-60.003745
  0
LINE
  8
型材断面
  6
CONTINUOUS
 10
-59.324355
 20
-84.3204
 11
-59.249603
 21
-85.023545
  0
LINE
  8
型材断面
  6
CONTINUOUS
 10
-59.249603
 20
-85.023545
 11
-58.731005
 21
-85.442472
  0
LINE
  8
型材断面
  6
CONTINUOUS
 10
-58.731005
 20
-85.442472
 11
-58.02786
 21
-85.36772
  0
LINE
  8
型材断面
  6
CONTINUOUS
 10
-39.00632
 20
-59.168422
 11
-38.303178
 21
-59.09367
  0
LINE
  8
型材断面
  6
CONTINUOUS
 10
-38.303178
 20
-59.09367
 11
-37.78458
 21
-59.5126
  0
LINE
  8
型材断面
  6
CONTINUOUS
 10
-37.78458
 20
-59.5126
 11
-37.709825
 21
-60.215745
  0
LINE
  8
型材断面
  6
CONTINUOUS
 10
-59.324355
 20
-84.3204
 11
-39.00632
 21
-59.168422
  0
LINE
  8
型材断面
  6
CONTINUOUS
 10
-58.02786
 20
-85.36772
 11
-37.709825
 21
-60.215745
  0
CIRCLE
  8
ボルト／ビス
  6
CONTINUOUS
 10
-58.466645
 20
-84.584763
 40
0.250185
  0
CIRCLE
  8
ボルト／ビス
  6
CONTINUOUS
 10
-58.466645
 20
-84.584763
 40
0.301025
  0
LINE
  8
ボルト／ビス
  6
CONTINUOUS
 62
    64
 10
-58.700108
 20
-84.6747
 11
-58.661262
 21
-84.427548
  0
LINE
  8
ボルト／ビス
  6
CONTINUOUS
 62
    64
 10
-58.427802
 20
-84.33761
 11
-58.661262
 21
-84.427548
  0
LINE
  8
ボルト／ビス
  6
CONTINUOUS
 62
    64
 10
-58.505487
 20
-84.831915
 11
-58.272027
 21
-84.741978
  0
LINE
  8
ボルト／ビス
  6
CONTINUOUS
 62
    64
 10
-58.233183
 20
-84.494825
 11
-58.272027
 21
-84.741978
  0
LINE
  8
ボルト／ビス
  6
CONTINUOUS
 62
    64
 10
-58.700108
 20
-84.6747
 11
-58.505487
 21
-84.831915
  0
LINE
  8
ボルト／ビス
  6
CONTINUOUS
 62
    64
 10
-58.427802
 20
-84.33761
 11
-58.233183
 21
-84.494825
  0
CIRCLE
  8
ボルト／ビス
  6
CONTINUOUS
 62
    64
 10
-58.466645
 20
-84.584763
 40
0.216668
  0
CIRCLE
  8
ボルト／ビス
  6
CONTINUOUS
 10
-48.517093
 20
-72.26807
 40
0.250185
  0
CIRCLE
  8
ボルト／ビス
  6
CONTINUOUS
 10
-48.517093
 20
-72.26807
 40
0.301025
  0
LINE
  8
ボルト／ビス
  6
CONTINUOUS
 62
    64
 10
-48.750552
 20
-72.35801
 11
-48.71171
 21
-72.110858
  0
LINE
  8
ボルト／ビス
  6
CONTINUOUS
 62
    64
 10
-48.478247
 20
-72.02092
 11
-48.71171
 21
-72.110858
  0
LINE
  8
ボルト／ビス
  6
CONTINUOUS
 62
    64
 10
-48.555935
 20
-72.515222
 11
-48.322473
 21
-72.425285
  0
LINE
  8
ボルト／ビス
  6
CONTINUOUS
 62
    64
 10
-48.28363
 20
-72.178132
 11
-48.322473
 21
-72.425285
  0
LINE
  8
ボルト／ビス
  6
CONTINUOUS
 62
    64
 10
-48.750552
 20
-72.35801
 11
-48.555935
 21
-72.515222
  0
LINE
  8
ボルト／ビス
  6
CONTINUOUS
 62
    64
 10
-48.478247
 20
-72.02092
 11
-48.28363
 21
-72.178132
  0
CIRCLE
  8
ボルト／ビス
  6
CONTINUOUS
 62
    64
 10
-48.517093
 20
-72.26807
 40
0.216668
  0
CIRCLE
  8
ボルト／ビス
  6
CONTINUOUS
 10
-38.567537
 20
-59.95138
 40
0.250185
  0
CIRCLE
  8
ボルト／ビス
  6
CONTINUOUS
 10
-38.567537
 20
-59.95138
 40
0.301025
  0
LINE
  8
ボルト／ビス
  6
CONTINUOUS
 62
    64
 10
-38.528695
 20
-59.704227
 11
-38.762155
 21
-59.794165
  0
LINE
  8
ボルト／ビス
  6
CONTINUOUS
 62
    64
 10
-38.801
 20
-60.041317
 11
-38.762155
 21
-59.794165
  0
LINE
  8
ボルト／ビス
  6
CONTINUOUS
 62
    64
 10
-38.334075
 20
-59.861442
 11
-38.37292
 21
-60.108595
  0
LINE
  8
ボルト／ビス
  6
CONTINUOUS
 62
    64
 10
-38.606383
 20
-60.198532
 11
-38.37292
 21
-60.108595
  0
LINE
  8
ボルト／ビス
  6
CONTINUOUS
 62
    64
 10
-38.528695
 20
-59.704227
 11
-38.334075
 21
-59.861442
  0
LINE
  8
ボルト／ビス
  6
CONTINUOUS
 62
    64
 10
-38.801
 20
-60.041317
 11
-38.606383
 21
-60.198532
  0
CIRCLE
  8
ボルト／ビス
  6
CONTINUOUS
 62
    64
 10
-38.567537
 20
-59.95138
 40
0.216668
  0
ENDBLK
  0
BLOCK
  2
*GRP_0024
 70
    65
 10
0.0
 20
0.0
  0
LINE
  8
補助線
  6
BYBLOCK
 62
    64
 10
-38.6199
 20
-84.519938
 11
-38.51517
 21
-84.649587
  0
LINE
  8
補助線
  6
BYBLOCK
 62
    64
 10
-38.502708
 20
-84.532395
 11
-38.63236
 21
-84.637128
  0
LINE
  8
補助線
  6
BYBLOCK
 62
    64
 10
-48.569455
 20
-72.20325
 11
-48.464722
 21
-72.332895
  0
LINE
  8
補助線
  6
BYBLOCK
 62
    64
 10
-48.452262
 20
-72.215705
 11
-48.581913
 21
-72.320438
  0
LINE
  8
補助線
  6
BYBLOCK
 62
    64
 10
-58.414275
 20
-60.016205
 11
-58.519008
 21
-59.886557
  0
LINE
  8
補助線
  6
BYBLOCK
 62
    64
 10
-58.401815
 20
-59.899013
 11
-58.531467
 21
-60.003745
  0
LINE
  8
型材断面
  6
CONTINUOUS
 10
-37.709825
 20
-84.3204
 11
-37.784577
 21
-85.023545
  0
LINE
  8
型材断面
  6
CONTINUOUS
 10
-37.784577
 20
-85.023545
 11
-38.303175
 21
-85.442472
  0
LINE
  8
型材断面
  6
CONTINUOUS
 10
-38.303175
 20
-85.442472
 11
-39.00632
 21
-85.36772
  0
LINE
  8
型材断面
  6
CONTINUOUS
 10
-58.02786
 20
-59.168422
 11
-58.731002
 21
-59.09367
  0
LINE
  8
型材断面
  6
CONTINUOUS
 10
-58.731002
 20
-59.09367
 11
-59.2496
 21
-59.5126
  0
LINE
  8
型材断面
  6
CONTINUOUS
 10
-59.2496
 20
-59.5126
 11
-59.324355
 21
-60.215745
  0
LINE
  8
型材断面
  6
CONTINUOUS
 10
-37.709825
 20
-84.3204
 11
-58.02786
 21
-59.168422
  0
LINE
  8
型材断面
  6
CONTINUOUS
 10
-39.00632
 20
-85.36772
 11
-59.324355
 21
-60.215745
  0
CIRCLE
  8
ボルト／ビス
  6
CONTINUOUS
 10
-38.567535
 20
-84.584763
 40
0.250185
  0
CIRCLE
  8
ボルト／ビス
  6
CONTINUOUS
 10
-38.567535
 20
-84.584763
 40
0.301025
  0
LINE
  8
ボルト／ビス
  6
CONTINUOUS
 62
    64
 10
-38.334073
 20
-84.6747
 11
-38.372918
 21
-84.427548
  0
LINE
  8
ボルト／ビス
  6
CONTINUOUS
 62
    64
 10
-38.606377
 20
-84.33761
 11
-38.372918
 21
-84.427548
  0
LINE
  8
ボルト／ビス
  6
CONTINUOUS
 62
    64
 10
-38.528693
 20
-84.831915
 11
-38.762152
 21
-84.741978
  0
LINE
  8
ボルト／ビス
  6
CONTINUOUS
 62
    64
 10
-38.800997
 20
-84.494825
 11
-38.762152
 21
-84.741978
  0
LINE
  8
ボルト／ビス
  6
CONTINUOUS
 62
    64
 10
-38.334073
 20
-84.6747
 11
-38.528693
 21
-84.831915
  0
LINE
  8
ボルト／ビス
  6
CONTINUOUS
 62
    64
 10
-38.606377
 20
-84.33761
 11
-38.800997
 21
-84.494825
  0
CIRCLE
  8
ボルト／ビス
  6
CONTINUOUS
 62
    64
 10
-38.567535
 20
-84.584763
 40
0.216668
  0
CIRCLE
  8
ボルト／ビス
  6
CONTINUOUS
 10
-48.517087
 20
-72.26807
 40
0.250185
  0
CIRCLE
  8
ボルト／ビス
  6
CONTINUOUS
 10
-48.517087
 20
-72.26807
 40
0.301025
  0
LINE
  8
ボルト／ビス
  6
CONTINUOUS
 62
    64
 10
-48.283627
 20
-72.35801
 11
-48.32247
 21
-72.110858
  0
LINE
  8
ボルト／ビス
  6
CONTINUOUS
 62
    64
 10
-48.555933
 20
-72.02092
 11
-48.32247
 21
-72.110858
  0
LINE
  8
ボルト／ビス
  6
CONTINUOUS
 62
    64
 10
-48.478245
 20
-72.515222
 11
-48.711708
 21
-72.425285
  0
LINE
  8
ボルト／ビス
  6
CONTINUOUS
 62
    64
 10
-48.75055
 20
-72.178132
 11
-48.711708
 21
-72.425285
  0
LINE
  8
ボルト／ビス
  6
CONTINUOUS
 62
    64
 10
-48.283627
 20
-72.35801
 11
-48.478245
 21
-72.515222
  0
LINE
  8
ボルト／ビス
  6
CONTINUOUS
 62
    64
 10
-48.555933
 20
-72.02092
 11
-48.75055
 21
-72.178132
  0
CIRCLE
  8
ボルト／ビス
  6
CONTINUOUS
 62
    64
 10
-48.517087
 20
-72.26807
 40
0.216668
  0
CIRCLE
  8
ボルト／ビス
  6
CONTINUOUS
 10
-58.466643
 20
-59.95138
 40
0.250185
  0
CIRCLE
  8
ボルト／ビス
  6
CONTINUOUS
 10
-58.466643
 20
-59.95138
 40
0.301025
  0
LINE
  8
ボルト／ビス
  6
CONTINUOUS
 62
    64
 10
-58.505485
 20
-59.704227
 11
-58.272025
 21
-59.794165
  0
LINE
  8
ボルト／ビス
  6
CONTINUOUS
 62
    64
 10
-58.23318
 20
-60.041317
 11
-58.272025
 21
-59.794165
  0
LINE
  8
ボルト／ビス
  6
CONTINUOUS
 62
    64
 10
-58.700105
 20
-59.861442
 11
-58.66126
 21
-60.108595
  0
LINE
  8
ボルト／ビス
  6
CONTINUOUS
 62
    64
 10
-58.427797
 20
-60.198532
 11
-58.66126
 21
-60.108595
  0
LINE
  8
ボルト／ビス
  6
CONTINUOUS
 62
    64
 10
-58.505485
 20
-59.704227
 11
-58.700105
 21
-59.861442
  0
LINE
  8
ボルト／ビス
  6
CONTINUOUS
 62
    64
 10
-58.23318
 20
-60.041317
 11
-58.427797
 21
-60.198532
  0
CIRCLE
  8
ボルト／ビス
  6
CONTINUOUS
 62
    64
 10
-58.466643
 20
-59.95138
 40
0.216668
  0
ENDBLK
  0
BLOCK
  2
*GRP_0025
 70
    65
 10
0.0
 20
0.0
  0
LINE
  8
補助線
  6
BYBLOCK
 62
    64
 10
17.59496
 20
-84.519938
 11
17.69969
 21
-84.649587
  0
LINE
  8
補助線
  6
BYBLOCK
 62
    64
 10
17.712153
 20
-84.532395
 11
17.5825
 21
-84.637128
  0
LINE
  8
補助線
  6
BYBLOCK
 62
    64
 10
7.645405
 20
-72.20325
 11
7.750137
 21
-72.332895
  0
LINE
  8
補助線
  6
BYBLOCK
 62
    64
 10
7.762598
 20
-72.215705
 11
7.632948
 21
-72.320438
  0
LINE
  8
補助線
  6
BYBLOCK
 62
    64
 10
-2.199415
 20
-60.016205
 11
-2.304147
 21
-59.886557
  0
LINE
  8
補助線
  6
BYBLOCK
 62
    64
 10
-2.186955
 20
-59.899013
 11
-2.316608
 21
-60.003745
  0
LINE
  8
型材断面
  6
CONTINUOUS
 10
18.505035
 20
-84.3204
 11
18.430283
 21
-85.023545
  0
LINE
  8
型材断面
  6
CONTINUOUS
 10
18.430283
 20
-85.023545
 11
17.911685
 21
-85.442472
  0
LINE
  8
型材断面
  6
CONTINUOUS
 10
17.911685
 20
-85.442472
 11
17.20854
 21
-85.36772
  0
LINE
  8
型材断面
  6
CONTINUOUS
 10
-1.813
 20
-59.168422
 11
-2.516143
 21
-59.09367
  0
LINE
  8
型材断面
  6
CONTINUOUS
 10
-2.516143
 20
-59.09367
 11
-3.03474
 21
-59.5126
  0
LINE
  8
型材断面
  6
CONTINUOUS
 10
-3.03474
 20
-59.5126
 11
-3.109495
 21
-60.215745
  0
LINE
  8
型材断面
  6
CONTINUOUS
 10
18.505035
 20
-84.3204
 11
-1.813
 21
-59.168422
  0
LINE
  8
型材断面
  6
CONTINUOUS
 10
17.20854
 20
-85.36772
 11
-3.109495
 21
-60.215745
  0
CIRCLE
  8
ボルト／ビス
  6
CONTINUOUS
 10
17.647325
 20
-84.584763
 40
0.250185
  0
CIRCLE
  8
ボルト／ビス
  6
CONTINUOUS
 10
17.647325
 20
-84.584763
 40
0.301025
  0
LINE
  8
ボルト／ビス
  6
CONTINUOUS
 62
    64
 10
17.880788
 20
-84.6747
 11
17.841943
 21
-84.427548
  0
LINE
  8
ボルト／ビス
  6
CONTINUOUS
 62
    64
 10
17.608482
 20
-84.33761
 11
17.841943
 21
-84.427548
  0
LINE
  8
ボルト／ビス
  6
CONTINUOUS
 62
    64
 10
17.686168
 20
-84.831915
 11
17.452707
 21
-84.741978
  0
LINE
  8
ボルト／ビス
  6
CONTINUOUS
 62
    64
 10
17.413862
 20
-84.494825
 11
17.452707
 21
-84.741978
  0
LINE
  8
ボルト／ビス
  6
CONTINUOUS
 62
    64
 10
17.880788
 20
-84.6747
 11
17.686168
 21
-84.831915
  0
LINE
  8
ボルト／ビス
  6
CONTINUOUS
 62
    64
 10
17.608482
 20
-84.33761
 11
17.413862
 21
-84.494825
  0
CIRCLE
  8
ボルト／ビス
  6
CONTINUOUS
 62
    64
 10
17.647325
 20
-84.584763
 40
0.216668
  0
CIRCLE
  8
ボルト／ビス
  6
CONTINUOUS
 10
7.697773
 20
-72.26807
 40
0.250185
  0
CIRCLE
  8
ボルト／ビス
  6
CONTINUOUS
 10
7.697773
 20
-72.26807
 40
0.301025
  0
LINE
  8
ボルト／ビス
  6
CONTINUOUS
 62
    64
 10
7.931233
 20
-72.35801
 11
7.89239
 21
-72.110858
  0
LINE
  8
ボルト／ビス
  6
CONTINUOUS
 62
    64
 10
7.658928
 20
-72.02092
 11
7.89239
 21
-72.110858
  0
LINE
  8
ボルト／ビス
  6
CONTINUOUS
 62
    64
 10
7.736615
 20
-72.515222
 11
7.503153
 21
-72.425285
  0
LINE
  8
ボルト／ビス
  6
CONTINUOUS
 62
    64
 10
7.46431
 20
-72.178132
 11
7.503153
 21
-72.425285
  0
LINE
  8
ボルト／ビス
  6
CONTINUOUS
 62
    64
 10
7.931233
 20
-72.35801
 11
7.736615
 21
-72.515222
  0
LINE
  8
ボルト／ビス
  6
CONTINUOUS
 62
    64
 10
7.658928
 20
-72.02092
 11
7.46431
 21
-72.178132
  0
CIRCLE
  8
ボルト／ビス
  6
CONTINUOUS
 62
    64
 10
7.697773
 20
-72.26807
 40
0.216668
  0
CIRCLE
  8
ボルト／ビス
  6
CONTINUOUS
 10
-2.251782
 20
-59.95138
 40
0.250185
  0
CIRCLE
  8
ボルト／ビス
  6
CONTINUOUS
 10
-2.251782
 20
-59.95138
 40
0.301025
  0
LINE
  8
ボルト／ビス
  6
CONTINUOUS
 62
    64
 10
-2.290625
 20
-59.704227
 11
-2.057165
 21
-59.794165
  0
LINE
  8
ボルト／ビス
  6
CONTINUOUS
 62
    64
 10
-2.01832
 20
-60.041317
 11
-2.057165
 21
-59.794165
  0
LINE
  8
ボルト／ビス
  6
CONTINUOUS
 62
    64
 10
-2.485245
 20
-59.861442
 11
-2.4464
 21
-60.108595
  0
LINE
  8
ボルト／ビス
  6
CONTINUOUS
 62
    64
 10
-2.212938
 20
-60.198532
 11
-2.4464
 21
-60.108595
  0
LINE
  8
ボルト／ビス
  6
CONTINUOUS
 62
    64
 10
-2.290625
 20
-59.704227
 11
-2.485245
 21
-59.861442
  0
LINE
  8
ボルト／ビス
  6
CONTINUOUS
 62
    64
 10
-2.01832
 20
-60.041317
 11
-2.212938
 21
-60.198532
  0
CIRCLE
  8
ボルト／ビス
  6
CONTINUOUS
 62
    64
 10
-2.251782
 20
-59.95138
 40
0.216668
  0
ENDBLK
  0
BLOCK
  2
*GRP_0026
 70
    65
 10
0.0
 20
0.0
  0
LINE
  8
補助線
  6
BYBLOCK
 62
    64
 10
-2.19942
 20
-84.519938
 11
-2.30415
 21
-84.649587
  0
LINE
  8
補助線
  6
BYBLOCK
 62
    64
 10
-2.316612
 20
-84.532395
 11
-2.18696
 21
-84.637128
  0
LINE
  8
補助線
  6
BYBLOCK
 62
    64
 10
7.750135
 20
-72.20325
 11
7.645402
 21
-72.332895
  0
LINE
  8
補助線
  6
BYBLOCK
 62
    64
 10
7.632942
 20
-72.215705
 11
7.762593
 21
-72.320438
  0
LINE
  8
補助線
  6
BYBLOCK
 62
    64
 10
17.594955
 20
-60.016205
 11
17.699688
 21
-59.886557
  0
LINE
  8
補助線
  6
BYBLOCK
 62
    64
 10
17.582495
 20
-59.899013
 11
17.712147
 21
-60.003745
  0
LINE
  8
型材断面
  6
CONTINUOUS
 10
-3.109495
 20
-84.3204
 11
-3.034742
 21
-85.023545
  0
LINE
  8
型材断面
  6
CONTINUOUS
 10
-3.034742
 20
-85.023545
 11
-2.516145
 21
-85.442472
  0
LINE
  8
型材断面
  6
CONTINUOUS
 10
-2.516145
 20
-85.442472
 11
-1.813
 21
-85.36772
  0
LINE
  8
型材断面
  6
CONTINUOUS
 10
17.20854
 20
-59.168422
 11
17.911682
 21
-59.09367
  0
LINE
  8
型材断面
  6
CONTINUOUS
 10
17.911682
 20
-59.09367
 11
18.43028
 21
-59.5126
  0
LINE
  8
型材断面
  6
CONTINUOUS
 10
18.43028
 20
-59.5126
 11
18.505035
 21
-60.215745
  0
LINE
  8
型材断面
  6
CONTINUOUS
 10
-3.109495
 20
-84.3204
 11
17.20854
 21
-59.168422
  0
LINE
  8
型材断面
  6
CONTINUOUS
 10
-1.813
 20
-85.36772
 11
18.505035
 21
-60.215745
  0
CIRCLE
  8
ボルト／ビス
  6
CONTINUOUS
 10
-2.251785
 20
-84.584763
 40
0.250185
  0
CIRCLE
  8
ボルト／ビス
  6
CONTINUOUS
 10
-2.251785
 20
-84.584763
 40
0.301025
  0
LINE
  8
ボルト／ビス
  6
CONTINUOUS
 62
    64
 10
-2.485247
 20
-84.6747
 11
-2.446403
 21
-84.427548
  0
LINE
  8
ボルト／ビス
  6
CONTINUOUS
 62
    64
 10
-2.212943
 20
-84.33761
 11
-2.446403
 21
-84.427548
  0
LINE
  8
ボルト／ビス
  6
CONTINUOUS
 62
    64
 10
-2.290628
 20
-84.831915
 11
-2.057168
 21
-84.741978
  0
LINE
  8
ボルト／ビス
  6
CONTINUOUS
 62
    64
 10
-2.018322
 20
-84.494825
 11
-2.057168
 21
-84.741978
  0
LINE
  8
ボルト／ビス
  6
CONTINUOUS
 62
    64
 10
-2.485247
 20
-84.6747
 11
-2.290628
 21
-84.831915
  0
LINE
  8
ボルト／ビス
  6
CONTINUOUS
 62
    64
 10
-2.212943
 20
-84.33761
 11
-2.018322
 21
-84.494825
  0
CIRCLE
  8
ボルト／ビス
  6
CONTINUOUS
 62
    64
 10
-2.251785
 20
-84.584763
 40
0.216668
  0
CIRCLE
  8
ボルト／ビス
  6
CONTINUOUS
 10
7.697768
 20
-72.26807
 40
0.250185
  0
CIRCLE
  8
ボルト／ビス
  6
CONTINUOUS
 10
7.697768
 20
-72.26807
 40
0.301025
  0
LINE
  8
ボルト／ビス
  6
CONTINUOUS
 62
    64
 10
7.464307
 20
-72.35801
 11
7.50315
 21
-72.110858
  0
LINE
  8
ボルト／ビス
  6
CONTINUOUS
 62
    64
 10
7.736613
 20
-72.02092
 11
7.50315
 21
-72.110858
  0
LINE
  8
ボルト／ビス
  6
CONTINUOUS
 62
    64
 10
7.658925
 20
-72.515222
 11
7.892388
 21
-72.425285
  0
LINE
  8
ボルト／ビス
  6
CONTINUOUS
 62
    64
 10
7.93123
 20
-72.178132
 11
7.892388
 21
-72.425285
  0
LINE
  8
ボルト／ビス
  6
CONTINUOUS
 62
    64
 10
7.464307
 20
-72.35801
 11
7.658925
 21
-72.515222
  0
LINE
  8
ボルト／ビス
  6
CONTINUOUS
 62
    64
 10
7.736613
 20
-72.02092
 11
7.93123
 21
-72.178132
  0
CIRCLE
  8
ボルト／ビス
  6
CONTINUOUS
 62
    64
 10
7.697768
 20
-72.26807
 40
0.216668
  0
CIRCLE
  8
ボルト／ビス
  6
CONTINUOUS
 10
17.647322
 20
-59.95138
 40
0.250185
  0
CIRCLE
  8
ボルト／ビス
  6
CONTINUOUS
 10
17.647322
 20
-59.95138
 40
0.301025
  0
LINE
  8
ボルト／ビス
  6
CONTINUOUS
 62
    64
 10
17.686165
 20
-59.704227
 11
17.452705
 21
-59.794165
  0
LINE
  8
ボルト／ビス
  6
CONTINUOUS
 62
    64
 10
17.41386
 20
-60.041317
 11
17.452705
 21
-59.794165
  0
LINE
  8
ボルト／ビス
  6
CONTINUOUS
 62
    64
 10
17.880785
 20
-59.861442
 11
17.84194
 21
-60.108595
  0
LINE
  8
ボルト／ビス
  6
CONTINUOUS
 62
    64
 10
17.608477
 20
-60.198532
 11
17.84194
 21
-60.108595
  0
LINE
  8
ボルト／ビス
  6
CONTINUOUS
 62
    64
 10
17.686165
 20
-59.704227
 11
17.880785
 21
-59.861442
  0
LINE
  8
ボルト／ビス
  6
CONTINUOUS
 62
    64
 10
17.41386
 20
-60.041317
 11
17.608477
 21
-60.198532
  0
CIRCLE
  8
ボルト／ビス
  6
CONTINUOUS
 62
    64
 10
17.647322
 20
-59.95138
 40
0.216668
  0
ENDBLK
  0
BLOCK
  2
*DIM_0027
 70
    65
 10
0.0
 20
0.0
  0
LINE
  8
寸法
  6
BYBLOCK
 62
     0
 10
-115.076325
 20
8.08996
 11
-144.565402
 21
8.08996
  0
LINE
  8
寸法
  6
BYBLOCK
 62
     0
 10
-115.076325
 20
31.423293
 11
-144.565402
 21
31.423293
  0
LINE
  8
寸法
  6
BYBLOCK
 62
     0
 10
-144.565402
 20
8.08996
 11
-144.565402
 21
31.423293
  0
POINT
  8
寸法
 62
     0
 10
-144.565402
 20
8.08996
  0
POINT
  8
寸法
 62
     0
 10
-144.565402
 20
31.423293
  0
TEXT
  7
TextStyle03
  8
寸法
  6
CONTINUOUS
 62
     0
 10
-144.95
 20
17.3125
  1
700
 40
3.0
 50
90.0
 72
     5
 11
-144.95
 21
22.1875
  0
ENDBLK
  0
BLOCK
  2
*DIM_0028
 70
    65
 10
0.0
 20
0.0
  0
LINE
  8
寸法
  6
BYBLOCK
 62
     0
 10
-115.076325
 20
54.756625
 11
-144.565402
 21
54.756625
  0
LINE
  8
寸法
  6
BYBLOCK
 62
     0
 10
-144.565402
 20
31.423293
 11
-144.565402
 21
54.756625
  0
POINT
  8
寸法
 62
     0
 10
-144.565402
 20
54.756625
  0
TEXT
  7
TextStyle03
  8
寸法
  6
CONTINUOUS
 62
     0
 10
-144.95
 20
40.6375
  1
700
 40
3.0
 50
90.0
 72
     5
 11
-144.95
 21
45.5125
  0
ENDBLK
  0
BLOCK
  2
*DIM_0029
 70
    65
 10
0.0
 20
0.0
  0
LINE
  8
寸法
  6
BYBLOCK
 62
     0
 10
-100.40966
 20
67.756625
 11
-100.40966
 21
96.864697
  0
LINE
  8
寸法
  6
BYBLOCK
 62
     0
 10
-73.742993
 20
67.756625
 11
-73.742993
 21
96.864697
  0
LINE
  8
寸法
  6
BYBLOCK
 62
     0
 10
-100.40966
 20
96.864697
 11
-73.742993
 21
96.864697
  0
POINT
  8
寸法
 62
     0
 10
-100.40966
 20
96.864697
  0
POINT
  8
寸法
 62
     0
 10
-73.742993
 20
96.864697
  0
TEXT
  7
TextStyle03
  8
寸法
  6
CONTINUOUS
 62
     0
 10
-89.5375
 20
97.2
  1
800
 40
3.0
 72
     5
 11
-84.6625
 21
97.2
  0
ENDBLK
  0
BLOCK
  2
*DIM_0030
 70
    65
 10
0.0
 20
0.0
  0
LINE
  8
寸法
  6
BYBLOCK
 62
     0
 10
-47.076328
 20
67.756625
 11
-47.076328
 21
96.864697
  0
LINE
  8
寸法
  6
BYBLOCK
 62
     0
 10
-73.742993
 20
96.864697
 11
-47.076328
 21
96.864697
  0
POINT
  8
寸法
 62
     0
 10
-47.076328
 20
96.864697
  0
TEXT
  7
TextStyle03
  8
寸法
  6
CONTINUOUS
 62
     0
 10
-62.8625
 20
97.2
  1
800
 40
3.0
 72
     5
 11
-57.9875
 21
97.2
  0
ENDBLK
  0
BLOCK
  2
*DIM_0031
 70
    65
 10
0.0
 20
0.0
  0
LINE
  8
寸法
  6
BYBLOCK
 62
     0
 10
-20.40966
 20
67.756625
 11
-20.40966
 21
96.864697
  0
LINE
  8
寸法
  6
BYBLOCK
 62
     0
 10
-47.076328
 20
96.864697
 11
-20.40966
 21
96.864697
  0
POINT
  8
寸法
 62
     0
 10
-20.40966
 20
96.864697
  0
TEXT
  7
TextStyle03
  8
寸法
  6
CONTINUOUS
 62
     0
 10
-36.1875
 20
97.2
  1
800
 40
3.0
 72
     5
 11
-31.3125
 21
97.2
  0
ENDBLK
  0
BLOCK
  2
*DIM_0032
 70
    65
 10
0.0
 20
0.0
  0
LINE
  8
寸法
  6
BYBLOCK
 62
     0
 10
6.257007
 20
67.756625
 11
6.257007
 21
96.864697
  0
LINE
  8
寸法
  6
BYBLOCK
 62
     0
 10
-20.40966
 20
96.864697
 11
6.257007
 21
96.864697
  0
POINT
  8
寸法
 62
     0
 10
6.257007
 20
96.864697
  0
TEXT
  7
TextStyle03
  8
寸法
  6
CONTINUOUS
 62
     0
 10
-9.5375
 20
97.2
  1
800
 40
3.0
 72
     5
 11
-4.6625
 21
97.2
  0
ENDBLK
  0
BLOCK
  2
*DIM_0033
 70
    65
 10
0.0
 20
0.0
  0
LINE
  8
寸法
  6
BYBLOCK
 62
     0
 10
32.923673
 20
67.756625
 11
32.923673
 21
96.864697
  0
LINE
  8
寸法
  6
BYBLOCK
 62
     0
 10
6.257007
 20
96.864697
 11
32.923673
 21
96.864697
  0
POINT
  8
寸法
 62
     0
 10
32.923673
 20
96.864697
  0
TEXT
  7
TextStyle03
  8
寸法
  6
CONTINUOUS
 62
     0
 10
17.1375
 20
97.2
  1
800
 40
3.0
 72
     5
 11
22.0125
 21
97.2
  0
ENDBLK
  0
BLOCK
  2
*DIM_0034
 70
    65
 10
0.0
 20
0.0
  0
LINE
  8
寸法
  6
BYBLOCK
 62
     0
 10
59.59034
 20
67.756625
 11
59.59034
 21
96.864697
  0
LINE
  8
寸法
  6
BYBLOCK
 62
     0
 10
32.923673
 20
96.864697
 11
59.59034
 21
96.864697
  0
POINT
  8
寸法
 62
     0
 10
59.59034
 20
96.864697
  0
TEXT
  7
TextStyle03
  8
寸法
  6
CONTINUOUS
 62
     0
 10
43.8125
 20
97.2
  1
800
 40
3.0
 72
     5
 11
48.6875
 21
97.2
  0
ENDBLK
  0
BLOCK
  2
*DIM_0035
 70
    65
 10
0.0
 20
0.0
  0
LINE
  8
寸法
  6
BYBLOCK
 62
     0
 10
55.59034
 20
-40.95793
 11
87.226657
 21
-40.95793
  0
LINE
  8
寸法
  6
BYBLOCK
 62
     0
 10
87.226657
 20
-62.95793
 11
87.226657
 21
-40.95793
  0
POINT
  8
寸法
 62
     0
 10
87.226657
 20
-62.95793
  0
POINT
  8
寸法
 62
     0
 10
87.226657
 20
-40.95793
  0
TEXT
  7
TextStyle03
  8
寸法
  6
CONTINUOUS
 62
     0
 10
86.85
 20
-61.06875
  1
上昇676以上
 40
3.0
 50
90.0
 72
     5
 11
86.85
 21
-42.88125
  0
ENDBLK
  0
BLOCK
  2
*GRP_0036
 70
    65
 10
0.0
 20
0.0
  0
LINE
  8
ボルト／ビス
  6
CONTINUOUS
 10
160.790272
 20
65.42329
 11
160.323608
 21
65.42329
  0
LINE
  8
ボルト／ビス
  6
CONTINUOUS
 10
160.790272
 20
65.056625
 11
160.723608
 21
65.056625
  0
LINE
  8
ボルト／ビス
  6
CONTINUOUS
 10
160.723608
 20
65.056625
 11
160.723608
 21
65.789957
  0
LINE
  8
ボルト／ビス
  6
CONTINUOUS
 10
160.723608
 20
65.789957
 11
160.790272
 21
65.789957
  0
LINE
  8
ボルト／ビス
  6
CONTINUOUS
 10
160.790272
 20
65.056625
 11
160.790272
 21
65.789957
  0
LINE
  8
ボルト／ビス
  6
CONTINUOUS
 10
160.690272
 20
65.12329
 11
160.723608
 21
65.12329
  0
LINE
  8
ボルト／ビス
  6
CONTINUOUS
 10
160.690272
 20
65.12329
 11
160.690272
 21
65.72329
  0
LINE
  8
ボルト／ビス
  6
CONTINUOUS
 10
160.690272
 20
65.72329
 11
160.723608
 21
65.72329
  0
LINE
  8
ボルト／ビス
  6
CONTINUOUS
 62
    64
 10
160.490273
 20
65.262915
 11
160.501947
 21
65.23084
  0
ARC
  8
ボルト／ビス
  6
CONTINUOUS
 62
    64
 10
160.595249
 20
65.278955
 40
0.104978
 50
152.721967
 51
180.0
  0
ARC
  8
ボルト／ビス
  6
CONTINUOUS
 62
    64
 10
160.892673
 20
65.423292
 40
0.402402
 50
166.165002
 51
193.834985
  0
LINE
  8
ボルト／ビス
  6
CONTINUOUS
 62
    64
 10
160.490273
 20
65.583665
 11
160.501947
 21
65.61574
  0
ARC
  8
ボルト／ビス
  6
CONTINUOUS
 62
    64
 10
160.595249
 20
65.56763
 40
0.104978
 50
180.0
 51
207.278033
  0
LINE
  8
ボルト／ビス
  6
CONTINUOUS
 62
    64
 10
160.490273
 20
65.262915
 11
160.490273
 21
65.583665
  0
LINE
  8
ボルト／ビス
  6
CONTINUOUS
 62
    64
 10
160.501947
 20
65.61574
 11
160.623608
 21
65.61574
  0
LINE
  8
ボルト／ビス
  6
CONTINUOUS
 62
    64
 10
160.501947
 20
65.519515
 11
160.623608
 21
65.519515
  0
LINE
  8
ボルト／ビス
  6
CONTINUOUS
 62
    64
 10
160.501947
 20
65.23084
 11
160.623608
 21
65.23084
  0
LINE
  8
ボルト／ビス
  6
CONTINUOUS
 62
    64
 10
160.501947
 20
65.327065
 11
160.623608
 21
65.327065
  0
LINE
  8
ボルト／ビス
  6
CONTINUOUS
 10
160.623608
 20
65.23084
 11
160.623608
 21
65.61574
  0
LINE
  8
ボルト／ビス
  6
CONTINUOUS
 10
160.623608
 20
65.22329
 11
160.690272
 21
65.22329
  0
LINE
  8
ボルト／ビス
  6
CONTINUOUS
 10
160.623608
 20
65.22329
 11
160.623608
 21
65.62329
  0
LINE
  8
ボルト／ビス
  6
CONTINUOUS
 10
160.623608
 20
65.62329
 11
160.690272
 21
65.62329
  0
ENDBLK
  0
BLOCK
  2
*GRP_0037
 70
    65
 10
0.0
 20
0.0
  0
LINE
  8
ボルト／ビス
  6
CONTINUOUS
 10
160.790272
 20
-2.57671
 11
160.323608
 21
-2.57671
  0
LINE
  8
ボルト／ビス
  6
CONTINUOUS
 10
160.790272
 20
-2.943375
 11
160.723608
 21
-2.943375
  0
LINE
  8
ボルト／ビス
  6
CONTINUOUS
 10
160.723608
 20
-2.943375
 11
160.723608
 21
-2.210042
  0
LINE
  8
ボルト／ビス
  6
CONTINUOUS
 10
160.723608
 20
-2.210042
 11
160.790272
 21
-2.210042
  0
LINE
  8
ボルト／ビス
  6
CONTINUOUS
 10
160.790272
 20
-2.943375
 11
160.790272
 21
-2.210042
  0
LINE
  8
ボルト／ビス
  6
CONTINUOUS
 10
160.690272
 20
-2.87671
 11
160.723608
 21
-2.87671
  0
LINE
  8
ボルト／ビス
  6
CONTINUOUS
 10
160.690272
 20
-2.87671
 11
160.690272
 21
-2.27671
  0
LINE
  8
ボルト／ビス
  6
CONTINUOUS
 10
160.690272
 20
-2.27671
 11
160.723608
 21
-2.27671
  0
LINE
  8
ボルト／ビス
  6
CONTINUOUS
 62
    64
 10
160.490273
 20
-2.737085
 11
160.501947
 21
-2.76916
  0
ARC
  8
ボルト／ビス
  6
CONTINUOUS
 62
    64
 10
160.595249
 20
-2.721045
 40
0.104978
 50
152.721967
 51
180.0
  0
ARC
  8
ボルト／ビス
  6
CONTINUOUS
 62
    64
 10
160.892673
 20
-2.576708
 40
0.402402
 50
166.165002
 51
193.834985
  0
LINE
  8
ボルト／ビス
  6
CONTINUOUS
 62
    64
 10
160.490273
 20
-2.416335
 11
160.501947
 21
-2.38426
  0
ARC
  8
ボルト／ビス
  6
CONTINUOUS
 62
    64
 10
160.595249
 20
-2.43237
 40
0.104978
 50
180.0
 51
207.278033
  0
LINE
  8
ボルト／ビス
  6
CONTINUOUS
 62
    64
 10
160.490273
 20
-2.737085
 11
160.490273
 21
-2.416335
  0
LINE
  8
ボルト／ビス
  6
CONTINUOUS
 62
    64
 10
160.501947
 20
-2.38426
 11
160.623608
 21
-2.38426
  0
LINE
  8
ボルト／ビス
  6
CONTINUOUS
 62
    64
 10
160.501947
 20
-2.480485
 11
160.623608
 21
-2.480485
  0
LINE
  8
ボルト／ビス
  6
CONTINUOUS
 62
    64
 10
160.501947
 20
-2.76916
 11
160.623608
 21
-2.76916
  0
LINE
  8
ボルト／ビス
  6
CONTINUOUS
 62
    64
 10
160.501947
 20
-2.672935
 11
160.623608
 21
-2.672935
  0
LINE
  8
ボルト／ビス
  6
CONTINUOUS
 10
160.623608
 20
-2.76916
 11
160.623608
 21
-2.38426
  0
LINE
  8
ボルト／ビス
  6
CONTINUOUS
 10
160.623608
 20
-2.77671
 11
160.690272
 21
-2.77671
  0
LINE
  8
ボルト／ビス
  6
CONTINUOUS
 10
160.623608
 20
-2.77671
 11
160.623608
 21
-2.37671
  0
LINE
  8
ボルト／ビス
  6
CONTINUOUS
 10
160.623608
 20
-2.37671
 11
160.690272
 21
-2.37671
  0
ENDBLK
  0
BLOCK
  2
*GRP_0038
 70
    65
 10
0.0
 20
0.0
  0
LINE
  8
ボルト／ビス
  6
CONTINUOUS
 10
71.923675
 20
-79.624597
 11
71.923675
 21
-79.157932
  0
LINE
  8
ボルト／ビス
  6
CONTINUOUS
 10
71.55701
 20
-79.624597
 11
71.55701
 21
-79.557932
  0
LINE
  8
ボルト／ビス
  6
CONTINUOUS
 10
71.55701
 20
-79.557932
 11
72.290343
 21
-79.557932
  0
LINE
  8
ボルト／ビス
  6
CONTINUOUS
 10
72.290343
 20
-79.557932
 11
72.290343
 21
-79.624597
  0
LINE
  8
ボルト／ビス
  6
CONTINUOUS
 10
71.55701
 20
-79.624597
 11
72.290343
 21
-79.624597
  0
LINE
  8
ボルト／ビス
  6
CONTINUOUS
 10
71.623675
 20
-79.524597
 11
71.623675
 21
-79.557932
  0
LINE
  8
ボルト／ビス
  6
CONTINUOUS
 10
71.623675
 20
-79.524597
 11
72.223675
 21
-79.524597
  0
LINE
  8
ボルト／ビス
  6
CONTINUOUS
 10
72.223675
 20
-79.524597
 11
72.223675
 21
-79.557932
  0
LINE
  8
ボルト／ビス
  6
CONTINUOUS
 62
    64
 10
71.7633
 20
-79.324597
 11
71.731225
 21
-79.336272
  0
ARC
  8
ボルト／ビス
  6
CONTINUOUS
 62
    64
 10
71.77934
 20
-79.429575
 40
0.104978
 50
62.721967
 51
90.0
  0
ARC
  8
ボルト／ビス
  6
CONTINUOUS
 62
    64
 10
71.923678
 20
-79.726998
 40
0.402402
 50
76.165002
 51
103.834985
  0
LINE
  8
ボルト／ビス
  6
CONTINUOUS
 62
    64
 10
72.08405
 20
-79.324597
 11
72.116125
 21
-79.336272
  0
ARC
  8
ボルト／ビス
  6
CONTINUOUS
 62
    64
 10
72.068016
 20
-79.429575
 40
0.104978
 50
90.0
 51
117.278033
  0
LINE
  8
ボルト／ビス
  6
CONTINUOUS
 62
    64
 10
71.7633
 20
-79.324597
 11
72.08405
 21
-79.324597
  0
LINE
  8
ボルト／ビス
  6
CONTINUOUS
 62
    64
 10
72.116125
 20
-79.336272
 11
72.116125
 21
-79.457932
  0
LINE
  8
ボルト／ビス
  6
CONTINUOUS
 62
    64
 10
72.0199
 20
-79.336272
 11
72.0199
 21
-79.457932
  0
LINE
  8
ボルト／ビス
  6
CONTINUOUS
 62
    64
 10
71.731225
 20
-79.336272
 11
71.731225
 21
-79.457932
  0
LINE
  8
ボルト／ビス
  6
CONTINUOUS
 62
    64
 10
71.82745
 20
-79.336272
 11
71.82745
 21
-79.457932
  0
LINE
  8
ボルト／ビス
  6
CONTINUOUS
 10
71.731225
 20
-79.457932
 11
72.116125
 21
-79.457932
  0
LINE
  8
ボルト／ビス
  6
CONTINUOUS
 10
71.723675
 20
-79.457932
 11
71.723675
 21
-79.524597
  0
LINE
  8
ボルト／ビス
  6
CONTINUOUS
 10
71.723675
 20
-79.457932
 11
72.123675
 21
-79.457932
  0
LINE
  8
ボルト／ビス
  6
CONTINUOUS
 10
72.123675
 20
-79.457932
 11
72.123675
 21
-79.524597
  0
ENDBLK
  0
BLOCK
  2
*GRP_0039
 70
    65
 10
0.0
 20
0.0
  0
LINE
  8
ボルト／ビス
  6
DOT
 10
71.923675
 20
-57.624597
 11
71.923675
 21
-57.157932
  0
LINE
  8
ボルト／ビス
  6
DOT
 10
71.55701
 20
-57.624597
 11
71.55701
 21
-57.557932
  0
LINE
  8
ボルト／ビス
  6
DOT
 10
71.55701
 20
-57.557932
 11
72.290343
 21
-57.557932
  0
LINE
  8
ボルト／ビス
  6
DOT
 10
72.290343
 20
-57.557932
 11
72.290343
 21
-57.624597
  0
LINE
  8
ボルト／ビス
  6
DOT
 10
71.55701
 20
-57.624597
 11
72.290343
 21
-57.624597
  0
LINE
  8
ボルト／ビス
  6
DOT
 10
71.623675
 20
-57.524597
 11
71.623675
 21
-57.557932
  0
LINE
  8
ボルト／ビス
  6
DOT
 10
71.623675
 20
-57.524597
 11
72.223675
 21
-57.524597
  0
LINE
  8
ボルト／ビス
  6
DOT
 10
72.223675
 20
-57.524597
 11
72.223675
 21
-57.557932
  0
LINE
  8
ボルト／ビス
  6
DOT
 62
    64
 10
71.7633
 20
-57.324597
 11
71.731225
 21
-57.336272
  0
ARC
  8
ボルト／ビス
  6
DOT
 62
    64
 10
71.77934
 20
-57.429575
 40
0.104978
 50
62.721967
 51
90.0
  0
ARC
  8
ボルト／ビス
  6
DOT
 62
    64
 10
71.923678
 20
-57.726998
 40
0.402402
 50
76.165002
 51
103.834985
  0
LINE
  8
ボルト／ビス
  6
DOT
 62
    64
 10
72.08405
 20
-57.324597
 11
72.116125
 21
-57.336272
  0
ARC
  8
ボルト／ビス
  6
DOT
 62
    64
 10
72.068016
 20
-57.429575
 40
0.104978
 50
90.0
 51
117.278033
  0
LINE
  8
ボルト／ビス
  6
DOT
 62
    64
 10
71.7633
 20
-57.324597
 11
72.08405
 21
-57.324597
  0
LINE
  8
ボルト／ビス
  6
DOT
 62
    64
 10
72.116125
 20
-57.336272
 11
72.116125
 21
-57.457932
  0
LINE
  8
ボルト／ビス
  6
DOT
 62
    64
 10
72.0199
 20
-57.336272
 11
72.0199
 21
-57.457932
  0
LINE
  8
ボルト／ビス
  6
DOT
 62
    64
 10
71.731225
 20
-57.336272
 11
71.731225
 21
-57.457932
  0
LINE
  8
ボルト／ビス
  6
DOT
 62
    64
 10
71.82745
 20
-57.336272
 11
71.82745
 21
-57.457932
  0
LINE
  8
ボルト／ビス
  6
DOT
 10
71.731225
 20
-57.457932
 11
72.116125
 21
-57.457932
  0
LINE
  8
ボルト／ビス
  6
DOT
 10
71.723675
 20
-57.457932
 11
71.723675
 21
-57.524597
  0
LINE
  8
ボルト／ビス
  6
DOT
 10
71.723675
 20
-57.457932
 11
72.123675
 21
-57.457932
  0
LINE
  8
ボルト／ビス
  6
DOT
 10
72.123675
 20
-57.457932
 11
72.123675
 21
-57.524597
  0
ENDBLK
  0
BLOCK
  2
*GRP_0040
 70
    65
 10
0.0
 20
0.0
  0
LINE
  8
ボルト／ビス
  6
CONTINUOUS
 10
-112.742995
 20
-79.624597
 11
-112.742995
 21
-79.157932
  0
LINE
  8
ボルト／ビス
  6
CONTINUOUS
 10
-113.10966
 20
-79.624597
 11
-113.10966
 21
-79.557932
  0
LINE
  8
ボルト／ビス
  6
CONTINUOUS
 10
-113.10966
 20
-79.557932
 11
-112.376328
 21
-79.557932
  0
LINE
  8
ボルト／ビス
  6
CONTINUOUS
 10
-112.376328
 20
-79.557932
 11
-112.376328
 21
-79.624597
  0
LINE
  8
ボルト／ビス
  6
CONTINUOUS
 10
-113.10966
 20
-79.624597
 11
-112.376328
 21
-79.624597
  0
LINE
  8
ボルト／ビス
  6
CONTINUOUS
 10
-113.042995
 20
-79.524597
 11
-113.042995
 21
-79.557932
  0
LINE
  8
ボルト／ビス
  6
CONTINUOUS
 10
-113.042995
 20
-79.524597
 11
-112.442995
 21
-79.524597
  0
LINE
  8
ボルト／ビス
  6
CONTINUOUS
 10
-112.442995
 20
-79.524597
 11
-112.442995
 21
-79.557932
  0
LINE
  8
ボルト／ビス
  6
CONTINUOUS
 62
    64
 10
-112.90337
 20
-79.324597
 11
-112.935445
 21
-79.336272
  0
ARC
  8
ボルト／ビス
  6
CONTINUOUS
 62
    64
 10
-112.88733
 20
-79.429575
 40
0.104978
 50
62.721967
 51
90.0
  0
ARC
  8
ボルト／ビス
  6
CONTINUOUS
 62
    64
 10
-112.742992
 20
-79.726998
 40
0.402402
 50
76.165002
 51
103.834985
  0
LINE
  8
ボルト／ビス
  6
CONTINUOUS
 62
    64
 10
-112.58262
 20
-79.324597
 11
-112.550545
 21
-79.336272
  0
ARC
  8
ボルト／ビス
  6
CONTINUOUS
 62
    64
 10
-112.598654
 20
-79.429575
 40
0.104978
 50
90.0
 51
117.278033
  0
LINE
  8
ボルト／ビス
  6
CONTINUOUS
 62
    64
 10
-112.90337
 20
-79.324597
 11
-112.58262
 21
-79.324597
  0
LINE
  8
ボルト／ビス
  6
CONTINUOUS
 62
    64
 10
-112.550545
 20
-79.336272
 11
-112.550545
 21
-79.457932
  0
LINE
  8
ボルト／ビス
  6
CONTINUOUS
 62
    64
 10
-112.64677
 20
-79.336272
 11
-112.64677
 21
-79.457932
  0
LINE
  8
ボルト／ビス
  6
CONTINUOUS
 62
    64
 10
-112.935445
 20
-79.336272
 11
-112.935445
 21
-79.457932
  0
LINE
  8
ボルト／ビス
  6
CONTINUOUS
 62
    64
 10
-112.83922
 20
-79.336272
 11
-112.83922
 21
-79.457932
  0
LINE
  8
ボルト／ビス
  6
CONTINUOUS
 10
-112.935445
 20
-79.457932
 11
-112.550545
 21
-79.457932
  0
LINE
  8
ボルト／ビス
  6
CONTINUOUS
 10
-112.942995
 20
-79.457932
 11
-112.942995
 21
-79.524597
  0
LINE
  8
ボルト／ビス
  6
CONTINUOUS
 10
-112.942995
 20
-79.457932
 11
-112.542995
 21
-79.457932
  0
LINE
  8
ボルト／ビス
  6
CONTINUOUS
 10
-112.542995
 20
-79.457932
 11
-112.542995
 21
-79.524597
  0
ENDBLK
  0
BLOCK
  2
*GRP_0041
 70
    65
 10
0.0
 20
0.0
  0
LINE
  8
ボルト／ビス
  6
DOT
 10
-112.742995
 20
-57.624597
 11
-112.742995
 21
-57.157932
  0
LINE
  8
ボルト／ビス
  6
DOT
 10
-113.10966
 20
-57.624597
 11
-113.10966
 21
-57.557932
  0
LINE
  8
ボルト／ビス
  6
DOT
 10
-113.10966
 20
-57.557932
 11
-112.376328
 21
-57.557932
  0
LINE
  8
ボルト／ビス
  6
DOT
 10
-112.376328
 20
-57.557932
 11
-112.376328
 21
-57.624597
  0
LINE
  8
ボルト／ビス
  6
DOT
 10
-113.10966
 20
-57.624597
 11
-112.376328
 21
-57.624597
  0
LINE
  8
ボルト／ビス
  6
DOT
 10
-113.042995
 20
-57.524597
 11
-113.042995
 21
-57.557932
  0
LINE
  8
ボルト／ビス
  6
DOT
 10
-113.042995
 20
-57.524597
 11
-112.442995
 21
-57.524597
  0
LINE
  8
ボルト／ビス
  6
DOT
 10
-112.442995
 20
-57.524597
 11
-112.442995
 21
-57.557932
  0
LINE
  8
ボルト／ビス
  6
DOT
 62
    64
 10
-112.90337
 20
-57.324597
 11
-112.935445
 21
-57.336272
  0
ARC
  8
ボルト／ビス
  6
DOT
 62
    64
 10
-112.88733
 20
-57.429575
 40
0.104978
 50
62.721967
 51
90.0
  0
ARC
  8
ボルト／ビス
  6
DOT
 62
    64
 10
-112.742992
 20
-57.726998
 40
0.402402
 50
76.165002
 51
103.834985
  0
LINE
  8
ボルト／ビス
  6
DOT
 62
    64
 10
-112.58262
 20
-57.324597
 11
-112.550545
 21
-57.336272
  0
ARC
  8
ボルト／ビス
  6
DOT
 62
    64
 10
-112.598654
 20
-57.429575
 40
0.104978
 50
90.0
 51
117.278033
  0
LINE
  8
ボルト／ビス
  6
DOT
 62
    64
 10
-112.90337
 20
-57.324597
 11
-112.58262
 21
-57.324597
  0
LINE
  8
ボルト／ビス
  6
DOT
 62
    64
 10
-112.550545
 20
-57.336272
 11
-112.550545
 21
-57.457932
  0
LINE
  8
ボルト／ビス
  6
DOT
 62
    64
 10
-112.64677
 20
-57.336272
 11
-112.64677
 21
-57.457932
  0
LINE
  8
ボルト／ビス
  6
DOT
 62
    64
 10
-112.935445
 20
-57.336272
 11
-112.935445
 21
-57.457932
  0
LINE
  8
ボルト／ビス
  6
DOT
 62
    64
 10
-112.83922
 20
-57.336272
 11
-112.83922
 21
-57.457932
  0
LINE
  8
ボルト／ビス
  6
DOT
 10
-112.935445
 20
-57.457932
 11
-112.550545
 21
-57.457932
  0
LINE
  8
ボルト／ビス
  6
DOT
 10
-112.942995
 20
-57.457932
 11
-112.942995
 21
-57.524597
  0
LINE
  8
ボルト／ビス
  6
DOT
 10
-112.942995
 20
-57.457932
 11
-112.542995
 21
-57.457932
  0
LINE
  8
ボルト／ビス
  6
DOT
 10
-112.542995
 20
-57.457932
 11
-112.542995
 21
-57.524597
  0
ENDBLK
  0
ENDSEC
  0
SECTION
  2
ENTITIES
  0
POLYLINE
  8
通り芯
  6
CONTINUOUS
 66
     1
 70
     1
  0
VERTEX
  8
通り芯
 10
-210.0
 20
-148.5
  0
VERTEX
  8
通り芯
 10
210.0
 20
-148.5
  0
VERTEX
  8
通り芯
 10
210.0
 20
148.5
  0
VERTEX
  8
通り芯
 10
-210.0
 20
148.5
  0
SEQEND
  0
INSERT
  2
*GRP_0001
  8
型材断面
  6
CONTINUOUS
 10
0.0
 20
0.0
  0
LINE
  8
型材断面
  6
DASHDOT
 10
71.257007
 20
64.756625
 11
71.257007
 21
-87.251428
  0
POLYLINE
  8
型材断面
  6
CONTINUOUS
 66
     1
 70
     1
  0
VERTEX
  8
型材断面
 10
-11.00965
 20
-11.685965
  0
VERTEX
  8
型材断面
 10
-29.78158
 20
-11.685965
  0
VERTEX
  8
型材断面
 10
-29.78158
 20
-16.422807
  0
VERTEX
  8
型材断面
 10
-11.00965
 20
-16.422807
  0
SEQEND
  0
POLYLINE
  8
型材断面
  6
CONTINUOUS
 66
     1
 70
     1
  0
VERTEX
  8
型材断面
 10
-11.00965
 20
74.53255
  0
VERTEX
  8
型材断面
 10
-29.78158
 20
74.53255
  0
VERTEX
  8
型材断面
 10
-29.78158
 20
79.269392
  0
VERTEX
  8
型材断面
 10
-11.00965
 20
79.269392
  0
SEQEND
  0
LINE
  8
型材断面
  6
DASHDOT
 10
-112.076325
 20
64.756625
 11
-112.076325
 21
-87.251428
  0
LINE
  8
型材断面
  6
DASHDOT
 10
-20.40966
 20
64.756625
 11
-20.40966
 21
-87.251428
  0
LINE
  8
型材断面
  6
DASHDOT
 10
168.93377
 20
-1.910042
 11
-112.076325
 21
-1.910042
  0
LINE
  8
型材断面
  6
DASHDOT
 10
168.93377
 20
31.423293
 11
-112.076325
 21
31.423293
  0
LINE
  8
型材断面
  6
DASHDOT
 10
168.93377
 20
64.756625
 11
-112.076325
 21
64.756625
  0
LINE
  8
型材断面
  6
CONTINUOUS
 10
-114.706455
 20
31.423293
 11
-117.296962
 21
32.918923
  0
LINE
  8
型材断面
  6
CONTINUOUS
 10
-114.706455
 20
31.423293
 11
-117.296962
 21
29.927663
  0
LINE
  8
型材断面
  6
CONTINUOUS
 10
-117.296962
 20
29.927663
 11
-117.296962
 21
32.918923
  0
LINE
  8
型材断面
  6
CONTINUOUS
 10
-152.928532
 20
102.734097
 11
-152.332478
 21
100.14359
  0
LINE
  8
型材断面
  6
CONTINUOUS
 10
-152.928532
 20
102.734097
 11
-153.52459
 21
100.14359
  0
LINE
  8
型材断面
  6
CONTINUOUS
 10
-153.52459
 20
100.14359
 11
-152.332478
 21
100.14359
  0
LINE
  8
型材断面
  6
CONTINUOUS
 10
-158.95112
 20
96.864697
 11
-112.709343
 21
96.864697
  0
LINE
  8
型材断面
  6
CONTINUOUS
 10
-152.928532
 20
109.263973
 11
-154.424162
 21
106.673465
  0
LINE
  8
型材断面
  6
CONTINUOUS
 10
-152.928532
 20
109.263973
 11
-151.432903
 21
106.673465
  0
LINE
  8
型材断面
  6
CONTINUOUS
 10
-151.432903
 20
106.673465
 11
-154.424162
 21
106.673465
  0
LINE
  8
型材断面
  6
CONTINUOUS
 10
-158.95112
 20
105.73487
 11
-112.709343
 21
105.73487
  0
LINE
  8
型材断面
  6
CONTINUOUS
 10
-158.95112
 20
91.076665
 11
-112.709343
 21
91.076665
  0
LINE
  8
型材断面
  6
CONTINUOUS
 10
-95.409657
 20
-4.54017
 11
-96.905288
 21
-7.130678
  0
LINE
  8
型材断面
  6
CONTINUOUS
 10
-95.409657
 20
-4.54017
 11
-93.914027
 21
-7.130678
  0
LINE
  8
型材断面
  6
CONTINUOUS
 10
-93.914027
 20
-7.130678
 11
-96.905288
 21
-7.130678
  0
LINE
  8
型材断面
  6
CONTINUOUS
 10
-95.409657
 20
67.386755
 11
-96.905288
 21
69.977262
  0
LINE
  8
型材断面
  6
CONTINUOUS
 10
-95.409657
 20
67.386755
 11
-93.914027
 21
69.977262
  0
LINE
  8
型材断面
  6
CONTINUOUS
 10
-93.914027
 20
69.977262
 11
-96.905288
 21
69.977262
  0
LINE
  8
型材断面
  6
CONTINUOUS
 10
54.590337
 20
-4.54017
 11
56.085967
 21
-7.130678
  0
LINE
  8
型材断面
  6
CONTINUOUS
 10
54.590337
 20
-4.54017
 11
53.094708
 21
-7.130678
  0
LINE
  8
型材断面
  6
CONTINUOUS
 10
53.094708
 20
-7.130678
 11
56.085967
 21
-7.130678
  0
LINE
  8
型材断面
  6
CONTINUOUS
 10
54.590337
 20
67.386755
 11
56.085967
 21
69.977262
  0
LINE
  8
型材断面
  6
CONTINUOUS
 10
54.590337
 20
67.386755
 11
53.094708
 21
69.977262
  0
LINE
  8
型材断面
  6
CONTINUOUS
 10
53.094708
 20
69.977262
 11
56.085967
 21
69.977262
  0
LINE
  8
型材断面
  6
CONTINUOUS
 10
-20.40966
 20
-4.54017
 11
-18.91403
 21
-7.130678
  0
LINE
  8
型材断面
  6
CONTINUOUS
 10
-20.40966
 20
-4.54017
 11
-21.90529
 21
-7.130678
  0
LINE
  8
型材断面
  6
CONTINUOUS
 10
-21.90529
 20
-7.130678
 11
-18.91403
 21
-7.130678
  0
LINE
  8
型材断面
  6
CONTINUOUS
 10
-20.40966
 20
67.386755
 11
-18.91403
 21
69.977262
  0
LINE
  8
型材断面
  6
CONTINUOUS
 10
-20.40966
 20
67.386755
 11
-21.90529
 21
69.977262
  0
LINE
  8
型材断面
  6
CONTINUOUS
 10
-21.90529
 20
69.977262
 11
-18.91403
 21
69.977262
  0
LINE
  8
型材断面
  6
CONTINUOUS
 10
73.887135
 20
31.423293
 11
76.477643
 21
32.918923
  0
LINE
  8
型材断面
  6
CONTINUOUS
 10
73.887135
 20
31.423293
 11
76.477643
 21
29.927663
  0
LINE
  8
型材断面
  6
CONTINUOUS
 10
76.477643
 20
29.927663
 11
76.477643
 21
32.918923
  0
LINE
  8
型材断面
  6
DASHDOT
 10
161.823555
 20
-1.910045
 11
167.84362
 21
-1.910045
  0
LINE
  8
型材断面
  6
CONTINUOUS
 62
    47
 10
164.106888
 20
-3.30671
 11
164.106888
 21
-2.52671
  0
LINE
  8
型材断面
  6
CONTINUOUS
 10
162.273555
 20
-3.40671
 11
161.823555
 21
-3.40671
  0
LINE
  8
型材断面
  6
CONTINUOUS
 62
    47
 10
164.946248
 20
-4.190045
 11
164.612912
 21
-4.190045
  0
LINE
  8
型材断面
  6
CONTINUOUS
 62
    47
 10
164.612912
 20
-4.190045
 11
164.512912
 21
-3.40671
  0
LINE
  8
型材断面
  6
CONTINUOUS
 62
    47
 10
164.106888
 20
-3.40671
 11
164.512912
 21
-3.40671
  0
LINE
  8
型材断面
  6
CONTINUOUS
 62
    47
 10
164.106888
 20
-3.87671
 11
162.273555
 21
-3.87671
  0
LINE
  8
型材断面
  6
CONTINUOUS
 62
    47
 10
168.073555
 20
-3.310045
 11
167.573555
 21
-3.310045
  0
LINE
  8
型材断面
  6
CONTINUOUS
 62
    47
 10
167.573555
 20
-3.87671
 11
164.946248
 21
-3.87671
  0
LINE
  8
型材断面
  6
CONTINUOUS
 62
    47
 10
168.073555
 20
-3.310045
 11
168.073555
 21
31.42329
  0
LINE
  8
型材断面
  6
CONTINUOUS
 62
    47
 10
167.573555
 20
-3.87671
 11
167.573555
 21
31.42329
  0
LINE
  8
型材断面
  6
CONTINUOUS
 62
    47
 10
164.946248
 20
-4.190045
 11
164.946248
 21
31.42329
  0
LINE
  8
型材断面
  6
CONTINUOUS
 10
164.612912
 20
-4.190045
 11
164.612912
 21
31.42329
  0
LINE
  8
型材断面
  6
CONTINUOUS
 62
    47
 10
164.106888
 20
-3.87671
 11
164.106888
 21
31.42329
  0
LINE
  8
型材断面
  6
CONTINUOUS
 10
164.512912
 20
-3.40671
 11
164.512912
 21
31.42329
  0
LINE
  8
型材断面
  6
CONTINUOUS
 10
162.273555
 20
-3.87671
 11
162.273555
 21
31.42329
  0
LINE
  8
型材断面
  6
CONTINUOUS
 62
    47
 10
164.106888
 20
66.15329
 11
164.106888
 21
65.37329
  0
LINE
  8
型材断面
  6
CONTINUOUS
 10
162.273555
 20
66.25329
 11
161.823555
 21
66.25329
  0
LINE
  8
型材断面
  6
CONTINUOUS
 62
    47
 10
164.946248
 20
67.036622
 11
164.612912
 21
67.036622
  0
LINE
  8
型材断面
  6
CONTINUOUS
 62
    47
 10
164.612912
 20
67.036622
 11
164.512912
 21
66.25329
  0
LINE
  8
型材断面
  6
CONTINUOUS
 62
    47
 10
164.106888
 20
66.25329
 11
164.512912
 21
66.25329
  0
LINE
  8
型材断面
  6
CONTINUOUS
 62
    47
 10
164.106888
 20
66.72329
 11
162.273555
 21
66.72329
  0
LINE
  8
型材断面
  6
CONTINUOUS
 62
    47
 10
168.073555
 20
66.156623
 11
167.573555
 21
66.156623
  0
LINE
  8
型材断面
  6
CONTINUOUS
 62
    47
 10
167.573555
 20
66.72329
 11
164.946248
 21
66.72329
  0
LINE
  8
型材断面
  6
CONTINUOUS
 62
    47
 10
168.073555
 20
66.156623
 11
168.073555
 21
31.42329
  0
LINE
  8
型材断面
  6
CONTINUOUS
 62
    47
 10
167.573555
 20
66.72329
 11
167.573555
 21
31.42329
  0
LINE
  8
型材断面
  6
CONTINUOUS
 62
    47
 10
164.946248
 20
67.036622
 11
164.946248
 21
31.42329
  0
LINE
  8
型材断面
  6
CONTINUOUS
 10
164.612912
 20
67.036622
 11
164.612912
 21
31.42329
  0
LINE
  8
型材断面
  6
CONTINUOUS
 62
    47
 10
164.106888
 20
66.72329
 11
164.106888
 21
31.42329
  0
LINE
  8
型材断面
  6
CONTINUOUS
 10
164.512912
 20
66.25329
 11
164.512912
 21
31.42329
  0
LINE
  8
型材断面
  6
CONTINUOUS
 10
162.273555
 20
66.72329
 11
162.273555
 21
31.42329
  0
LINE
  8
型材断面
  6
CONTINUOUS
 62
    47
 10
72.653675
 20
-82.941215
 11
71.873675
 21
-82.941215
  0
LINE
  8
型材断面
  6
CONTINUOUS
 10
72.753675
 20
-81.107882
 11
72.753675
 21
-80.657882
  0
LINE
  8
型材断面
  6
CONTINUOUS
 62
    47
 10
73.53701
 20
-83.780575
 11
73.53701
 21
-83.44724
  0
LINE
  8
型材断面
  6
CONTINUOUS
 62
    47
 10
73.53701
 20
-83.44724
 11
72.753675
 21
-83.34724
  0
LINE
  8
型材断面
  6
CONTINUOUS
 62
    47
 10
72.753675
 20
-82.941215
 11
72.753675
 21
-83.34724
  0
LINE
  8
型材断面
  6
CONTINUOUS
 62
    47
 10
73.223675
 20
-82.941215
 11
73.223675
 21
-81.107882
  0
LINE
  8
型材断面
  6
CONTINUOUS
 62
    47
 10
72.65701
 20
-86.907882
 11
72.65701
 21
-86.407882
  0
LINE
  8
型材断面
  6
CONTINUOUS
 62
    47
 10
73.223675
 20
-86.407882
 11
73.223675
 21
-83.780575
  0
LINE
  8
型材断面
  6
CONTINUOUS
 10
73.323675
 20
-3.97671
 11
73.53701
 21
-4.190045
  0
LINE
  8
型材断面
  6
CONTINUOUS
 10
73.53701
 20
-4.190045
 11
73.53701
 21
31.423293
  0
LINE
  8
型材断面
  6
CONTINUOUS
 10
73.223675
 20
-81.107882
 11
-20.40966
 21
-81.107882
  0
LINE
  8
型材断面
  6
CONTINUOUS
 62
    47
 10
73.223675
 20
-82.941215
 11
-20.40966
 21
-82.941215
  0
LINE
  8
型材断面
  6
CONTINUOUS
 62
    47
 10
73.53701
 20
-83.780575
 11
-20.40966
 21
-83.780575
  0
LINE
  8
型材断面
  6
CONTINUOUS
 10
72.753675
 20
-83.34724
 11
-20.40966
 21
-83.34724
  0
LINE
  8
型材断面
  6
CONTINUOUS
 10
73.53701
 20
-83.44724
 11
-20.40966
 21
-83.44724
  0
LINE
  8
型材断面
  6
CONTINUOUS
 62
    47
 10
73.223675
 20
-86.407882
 11
-20.40966
 21
-86.407882
  0
LINE
  8
型材断面
  6
CONTINUOUS
 62
    47
 10
72.65701
 20
-86.907882
 11
-20.40966
 21
-86.907882
  0
LINE
  8
型材断面
  6
CONTINUOUS
 62
    47
 10
-113.472995
 20
-82.941215
 11
-112.692995
 21
-82.941215
  0
LINE
  8
型材断面
  6
CONTINUOUS
 10
-113.572995
 20
-81.107882
 11
-113.572995
 21
-80.657882
  0
LINE
  8
型材断面
  6
CONTINUOUS
 62
    47
 10
-114.35633
 20
-83.780575
 11
-114.35633
 21
-83.44724
  0
LINE
  8
型材断面
  6
CONTINUOUS
 62
    47
 10
-114.35633
 20
-83.44724
 11
-113.572995
 21
-83.34724
  0
LINE
  8
型材断面
  6
CONTINUOUS
 62
    47
 10
-113.572995
 20
-82.941215
 11
-113.572995
 21
-83.34724
  0
LINE
  8
型材断面
  6
CONTINUOUS
 62
    47
 10
-114.042995
 20
-82.941215
 11
-114.042995
 21
-81.107882
  0
LINE
  8
型材断面
  6
CONTINUOUS
 62
    47
 10
-113.47633
 20
-86.907882
 11
-113.47633
 21
-86.407882
  0
LINE
  8
型材断面
  6
CONTINUOUS
 62
    47
 10
-114.042995
 20
-86.407882
 11
-114.042995
 21
-83.780575
  0
LINE
  8
型材断面
  6
CONTINUOUS
 10
-114.042995
 20
-81.107882
 11
-20.40966
 21
-81.107882
  0
LINE
  8
型材断面
  6
CONTINUOUS
 62
    47
 10
-114.042995
 20
-82.941215
 11
-20.40966
 21
-82.941215
  0
LINE
  8
型材断面
  6
CONTINUOUS
 62
    47
 10
-114.35633
 20
-83.780575
 11
-20.40966
 21
-83.780575
  0
LINE
  8
型材断面
  6
CONTINUOUS
 10
-113.572995
 20
-83.34724
 11
-20.40966
 21
-83.34724
  0
LINE
  8
型材断面
  6
CONTINUOUS
 10
-114.35633
 20
-83.44724
 11
-20.40966
 21
-83.44724
  0
LINE
  8
型材断面
  6
CONTINUOUS
 62
    47
 10
-114.042995
 20
-86.407882
 11
-20.40966
 21
-86.407882
  0
LINE
  8
型材断面
  6
CONTINUOUS
 62
    47
 10
-113.47633
 20
-86.907882
 11
-20.40966
 21
-86.907882
  0
LINE
  8
型材断面
  6
CONTINUOUS
 10
73.53701
 20
-4.190045
 11
-20.40966
 21
-4.190045
  0
LINE
  8
型材断面
  6
CONTINUOUS
 10
73.323675
 20
66.823295
 11
73.53701
 21
67.03663
  0
LINE
  8
型材断面
  6
CONTINUOUS
 10
73.53701
 20
67.03663
 11
73.53701
 21
31.423293
  0
LINE
  8
型材断面
  6
CONTINUOUS
 10
73.53701
 20
67.03663
 11
-20.40966
 21
67.03663
  0
LINE
  8
型材断面
  6
CONTINUOUS
 10
-114.142995
 20
66.823295
 11
-114.35633
 21
67.03663
  0
LINE
  8
型材断面
  6
CONTINUOUS
 10
-114.35633
 20
67.03663
 11
-114.35633
 21
31.423293
  0
LINE
  8
型材断面
  6
CONTINUOUS
 10
-114.35633
 20
67.03663
 11
-20.40966
 21
67.03663
  0
LINE
  8
型材断面
  6
CONTINUOUS
 10
-114.142995
 20
-3.97671
 11
-114.35633
 21
-4.190045
  0
LINE
  8
型材断面
  6
CONTINUOUS
 10
-114.35633
 20
-4.190045
 11
-114.35633
 21
31.423293
  0
LINE
  8
型材断面
  6
CONTINUOUS
 10
-114.35633
 20
-4.190045
 11
-20.40966
 21
-4.190045
  0
LINE
  8
型材断面
  6
DOT
 10
-111.026328
 20
32.673293
 11
-76.859657
 21
32.673293
  0
LINE
  8
型材断面
  6
DOT
 10
-111.026328
 20
30.173293
 11
-76.859657
 21
30.173293
  0
LINE
  8
型材断面
  6
DOT
 10
-74.359657
 20
32.673293
 11
-40.059657
 21
32.673293
  0
LINE
  8
型材断面
  6
DOT
 10
-74.359657
 20
30.173293
 11
-40.059657
 21
30.173293
  0
LINE
  8
型材断面
  6
DOT
 10
70.207007
 20
32.673293
 11
36.040337
 21
32.673293
  0
LINE
  8
型材断面
  6
DOT
 10
70.207007
 20
30.173293
 11
36.040337
 21
30.173293
  0
LINE
  8
型材断面
  6
DOT
 10
33.540337
 20
32.673293
 11
-0.759663
 21
32.673293
  0
LINE
  8
型材断面
  6
DOT
 10
33.540337
 20
30.173293
 11
-0.759663
 21
30.173293
  0
LINE
  8
型材断面
  6
DOT
 10
-37.559657
 20
32.673293
 11
-3.259663
 21
32.673293
  0
LINE
  8
型材断面
  6
DOT
 10
-37.559657
 20
30.173293
 11
-3.259663
 21
30.173293
  0
LINE
  8
型材断面
  6
CONTINUOUS
 10
73.887135
 20
60.856625
 11
76.477643
 21
60.260568
  0
LINE
  8
型材断面
  6
CONTINUOUS
 10
73.887135
 20
60.856625
 11
76.477643
 21
61.452683
  0
LINE
  8
型材断面
  6
CONTINUOUS
 10
76.477643
 20
61.452683
 11
76.477643
 21
60.260568
  0
LINE
  8
型材断面
  6
CONTINUOUS
 10
73.887135
 20
1.98996
 11
76.477643
 21
2.586017
  0
LINE
  8
型材断面
  6
CONTINUOUS
 10
73.887135
 20
1.98996
 11
76.477643
 21
1.393902
  0
LINE
  8
型材断面
  6
CONTINUOUS
 10
76.477643
 20
1.393902
 11
76.477643
 21
2.586017
  0
LINE
  8
型材断面
  6
CONTINUOUS
 10
-114.706455
 20
60.856625
 11
-117.296962
 21
60.260568
  0
LINE
  8
型材断面
  6
CONTINUOUS
 10
-114.706455
 20
60.856625
 11
-117.296962
 21
61.452683
  0
LINE
  8
型材断面
  6
CONTINUOUS
 10
-117.296962
 20
61.452683
 11
-117.296962
 21
60.260568
  0
LINE
  8
型材断面
  6
CONTINUOUS
 10
-114.706455
 20
1.98996
 11
-117.296962
 21
2.586017
  0
LINE
  8
型材断面
  6
CONTINUOUS
 10
-114.706455
 20
1.98996
 11
-117.296962
 21
1.393902
  0
LINE
  8
型材断面
  6
CONTINUOUS
 10
-117.296962
 20
1.393902
 11
-117.296962
 21
2.586017
  0
LINE
  8
型材断面
  6
DOT
 62
    47
 10
72.653675
 20
-60.941215
 11
71.873675
 21
-60.941215
  0
LINE
  8
型材断面
  6
DOT
 10
72.753675
 20
-59.107882
 11
72.753675
 21
-58.657882
  0
LINE
  8
型材断面
  6
DOT
 62
    47
 10
73.53701
 20
-61.780575
 11
73.53701
 21
-61.44724
  0
LINE
  8
型材断面
  6
DOT
 62
    47
 10
73.53701
 20
-61.44724
 11
72.753675
 21
-61.34724
  0
LINE
  8
型材断面
  6
DOT
 62
    47
 10
72.753675
 20
-60.941215
 11
72.753675
 21
-61.34724
  0
LINE
  8
型材断面
  6
DOT
 62
    47
 10
73.223675
 20
-60.941215
 11
73.223675
 21
-59.107882
  0
LINE
  8
型材断面
  6
DOT
 10
73.223675
 20
-59.107882
 11
-20.40966
 21
-59.107882
  0
LINE
  8
型材断面
  6
DOT
 62
    47
 10
73.223675
 20
-60.941215
 11
-20.40966
 21
-60.941215
  0
LINE
  8
型材断面
  6
DOT
 62
    47
 10
73.53701
 20
-61.780575
 11
-20.40966
 21
-61.780575
  0
LINE
  8
型材断面
  6
DOT
 10
72.753675
 20
-61.34724
 11
-20.40966
 21
-61.34724
  0
LINE
  8
型材断面
  6
DOT
 10
73.53701
 20
-61.44724
 11
-20.40966
 21
-61.44724
  0
LINE
  8
型材断面
  6
DOT
 62
    47
 10
-113.472995
 20
-60.941215
 11
-112.692995
 21
-60.941215
  0
LINE
  8
型材断面
  6
DOT
 10
-113.572995
 20
-59.107882
 11
-113.572995
 21
-58.657882
  0
LINE
  8
型材断面
  6
DOT
 62
    47
 10
-114.35633
 20
-61.780575
 11
-114.35633
 21
-61.44724
  0
LINE
  8
型材断面
  6
DOT
 62
    47
 10
-114.35633
 20
-61.44724
 11
-113.572995
 21
-61.34724
  0
LINE
  8
型材断面
  6
DOT
 62
    47
 10
-113.572995
 20
-60.941215
 11
-113.572995
 21
-61.34724
  0
LINE
  8
型材断面
  6
DOT
 62
    47
 10
-114.042995
 20
-60.941215
 11
-114.042995
 21
-59.107882
  0
LINE
  8
型材断面
  6
DOT
 10
-114.042995
 20
-59.107882
 11
-20.40966
 21
-59.107882
  0
LINE
  8
型材断面
  6
DOT
 62
    47
 10
-114.042995
 20
-60.941215
 11
-20.40966
 21
-60.941215
  0
LINE
  8
型材断面
  6
DOT
 62
    47
 10
-114.35633
 20
-61.780575
 11
-20.40966
 21
-61.780575
  0
LINE
  8
型材断面
  6
DOT
 10
-113.572995
 20
-61.34724
 11
-20.40966
 21
-61.34724
  0
LINE
  8
型材断面
  6
DOT
 10
-114.35633
 20
-61.44724
 11
-20.40966
 21
-61.44724
  0
INSERT
  2
*GRP_0019
  8
型材断面
  6
CONTINUOUS
 10
0.0
 20
0.0
  0
INSERT
  2
*GRP_0020
  8
型材断面
  6
CONTINUOUS
 10
0.0
 20
0.0
  0
INSERT
  2
*GRP_0021
  8
型材断面
  6
CONTINUOUS
 10
0.0
 20
0.0
  0
INSERT
  2
*GRP_0022
  8
型材断面
  6
CONTINUOUS
 10
0.0
 20
0.0
  0
INSERT
  2
*GRP_0023
  8
型材断面
  6
CONTINUOUS
 10
0.0
 20
0.0
  0
INSERT
  2
*GRP_0024
  8
型材断面
  6
CONTINUOUS
 10
0.0
 20
0.0
  0
INSERT
  2
*GRP_0025
  8
型材断面
  6
CONTINUOUS
 10
0.0
 20
0.0
  0
INSERT
  2
*GRP_0026
  8
型材断面
  6
CONTINUOUS
 10
0.0
 20
0.0
  0
LINE
  8
型材断面
  6
CONTINUOUS
 10
-158.95112
 20
85.288632
 11
-112.709343
 21
85.288632
  0
LINE
  8
型材断面
  6
DASHDOT
 10
-75.61366
 20
-1.910042
 11
-75.61366
 21
64.756625
  0
LINE
  8
型材断面
  6
DOT
 10
-76.86366
 20
-1.910042
 11
-76.86366
 21
64.756625
  0
LINE
  8
型材断面
  6
DOT
 10
-74.36366
 20
-1.910042
 11
-74.36366
 21
64.756625
  0
LINE
  8
型材断面
  6
DASHDOT
 10
-38.810995
 20
-1.910042
 11
-38.810995
 21
64.756625
  0
LINE
  8
型材断面
  6
DOT
 10
-40.060995
 20
-1.910042
 11
-40.060995
 21
64.756625
  0
LINE
  8
型材断面
  6
DOT
 10
-37.560995
 20
-1.910042
 11
-37.560995
 21
64.756625
  0
LINE
  8
型材断面
  6
DASHDOT
 10
34.79434
 20
-1.910042
 11
34.79434
 21
64.756625
  0
LINE
  8
型材断面
  6
DOT
 10
36.04434
 20
-1.910042
 11
36.04434
 21
64.756625
  0
LINE
  8
型材断面
  6
DOT
 10
33.54434
 20
-1.910042
 11
33.54434
 21
64.756625
  0
LINE
  8
型材断面
  6
DASHDOT
 10
-2.008325
 20
-1.910042
 11
-2.008325
 21
64.756625
  0
LINE
  8
型材断面
  6
DOT
 10
-0.758325
 20
-1.910042
 11
-0.758325
 21
64.756625
  0
LINE
  8
型材断面
  6
DOT
 10
-3.258325
 20
-1.910042
 11
-3.258325
 21
64.756625
  0
TEXT
  7
TextStyle03
  8
文字
  6
CONTINUOUS
 10
-28.7
 20
-15.375
  1
可動装置側
 40
3.0
 72
     5
 11
-12.2
 21
-15.375
  0
TEXT
  7
TextStyle03
  8
文字
  6
CONTINUOUS
 10
-28.7
 20
75.3
  1
可動装置側
 40
3.0
 72
     5
 11
-12.2
 21
75.3
  0
TEXT
  7
TextStyle03
  8
文字
  6
CONTINUOUS
 10
-150.8
 20
2.025
  1
アンカーピッチ
 40
3.0
 50
90.0
 72
     5
 11
-150.8
 21
25.275
  0
TEXT
  7
TextStyle03
  8
文字
  6
CONTINUOUS
 10
-150.125
 20
101.325
  1
はケーシング位置を示す
 40
3.0
 72
     5
 11
-113.375
 21
101.325
  0
TEXT
  7
TextStyle03
  8
文字
  6
CONTINUOUS
 10
-150.125
 20
97.95
  1
４ヶ所中1ヶ所に設定
 40
3.0
 72
     5
 11
-118.4375
 21
97.95
  0
TEXT
  7
TextStyle03
  8
文字
  6
CONTINUOUS
 10
-150.125
 20
106.85
  1
は排水穴位置を示す
 40
3.0
 72
     5
 11
-120.125
 21
106.85
  0
TEXT
  7
TextStyle03
  8
文字
  6
CONTINUOUS
 10
128.525
 20
-91.95
  1
網入り6.8t
 40
3.0
 72
     5
 11
145.2125
 21
-91.95
  0
TEXT
  7
TextStyle03
  8
文字
  6
CONTINUOUS
 10
135.275
 20
-96.45
  1
×５枚
 40
3.0
 72
     5
 11
145.025
 21
-96.45
  0
TEXT
  7
TextStyle03
  8
文字
  6
CONTINUOUS
 10
-98.025
 20
101.125
  1
アンカーピッチ
 40
3.0
 72
     5
 11
-74.775
 21
101.125
  0
TEXT
  7
TextStyle03
  8
文字
  6
CONTINUOUS
 10
-153.85
 20
91.975
  1
アンカー数量　２０ヶ所
 40
3.0
 72
     5
 11
-117.1
 21
91.975
  0
TEXT
  7
TextStyle03
  8
文字
  6
CONTINUOUS
 10
-153.925
 20
86.2
  1
アームユニット数　８ヶ所
 40
3.0
 72
     5
 11
-113.8
 21
86.2
  0
TEXT
  7
TextStyle03
  8
文字
  6
CONTINUOUS
 10
78.1
 20
125.25
  1
シリーズ：ＳＴＤＬ
 40
5.0
 72
     5
 11
128.1
 21
125.25
  0
TEXT
  7
TextStyle03
  8
文字
  6
CONTINUOUS
 10
78.1
 20
119.625
  1
　　　　　（上下可動）2000×5500タイプ
 40
5.0
 72
     5
 11
184.35
 21
119.625
  0
TEXT
  7
TextStyle03
  8
文字
  6
CONTINUOUS
 10
78.1
 20
114.0
  1
図面名　：外観姿図
 40
5.0
 72
     5
 11
128.1
 21
114.0
  0
TEXT
  7
TextStyle03
  8
文字
  6
CONTINUOUS
 10
78.1
 20
108.375
  1
　　　　　　
 40
5.0
 72
     5
 11
111.225
 21
108.375
  0
TEXT
  7
TextStyle03
  8
文字
  6
CONTINUOUS
 10
77.425
 20
103.975
  1
ＮＳコード：ＮＳＤＳＬ
 40
5.0
 72
     5
 11
138.675
 21
103.975
  0
INSERT
  2
*DIM_0002
  8
寸法
  6
CONTINUOUS
 10
0.0
 20
0.0
  0
INSERT
  2
*DIM_0003
  8
寸法
  6
CONTINUOUS
 10
0.0
 20
0.0
  0
INSERT
  2
*DIM_0004
  8
寸法
  6
CONTINUOUS
 10
0.0
 20
0.0
  0
INSERT
  2
*DIM_0005
  8
寸法
  6
CONTINUOUS
 10
0.0
 20
0.0
  0
INSERT
  2
*DIM_0006
  8
寸法
  6
CONTINUOUS
 10
0.0
 20
0.0
  0
INSERT
  2
*DIM_0007
  8
寸法
  6
CONTINUOUS
 10
0.0
 20
0.0
  0
INSERT
  2
*DIM_0008
  8
寸法
  6
CONTINUOUS
 10
0.0
 20
0.0
  0
INSERT
  2
*DIM_0009
  8
寸法
  6
CONTINUOUS
 10
0.0
 20
0.0
  0
INSERT
  2
*DIM_0010
  8
寸法
  6
CONTINUOUS
 10
0.0
 20
0.0
  0
INSERT
  2
*DIM_0011
  8
寸法
  6
CONTINUOUS
 10
0.0
 20
0.0
  0
INSERT
  2
*DIM_0012
  8
寸法
  6
CONTINUOUS
 10
0.0
 20
0.0
  0
INSERT
  2
*DIM_0013
  8
寸法
  6
CONTINUOUS
 10
0.0
 20
0.0
  0
INSERT
  2
*DIM_0014
  8
寸法
  6
CONTINUOUS
 10
0.0
 20
0.0
  0
INSERT
  2
*DIM_0015
  8
寸法
  6
CONTINUOUS
 10
0.0
 20
0.0
  0
INSERT
  2
*DIM_0016
  8
寸法
  6
CONTINUOUS
 10
0.0
 20
0.0
  0
INSERT
  2
*DIM_0017
  8
寸法
  6
CONTINUOUS
 10
0.0
 20
0.0
  0
INSERT
  2
*DIM_0027
  8
寸法
  6
CONTINUOUS
 10
0.0
 20
0.0
  0
INSERT
  2
*DIM_0028
  8
寸法
  6
CONTINUOUS
 10
0.0
 20
0.0
  0
INSERT
  2
*DIM_0029
  8
寸法
  6
CONTINUOUS
 10
0.0
 20
0.0
  0
INSERT
  2
*DIM_0030
  8
寸法
  6
CONTINUOUS
 10
0.0
 20
0.0
  0
INSERT
  2
*DIM_0031
  8
寸法
  6
CONTINUOUS
 10
0.0
 20
0.0
  0
INSERT
  2
*DIM_0032
  8
寸法
  6
CONTINUOUS
 10
0.0
 20
0.0
  0
INSERT
  2
*DIM_0033
  8
寸法
  6
CONTINUOUS
 10
0.0
 20
0.0
  0
INSERT
  2
*DIM_0034
  8
寸法
  6
CONTINUOUS
 10
0.0
 20
0.0
  0
INSERT
  2
*DIM_0035
  8
寸法
  6
CONTINUOUS
 10
0.0
 20
0.0
  0
LINE
  8
別途部材
  6
CONTINUOUS
 10
73.323675
 20
-3.97671
 11
72.923675
 21
-3.57671
  0
LINE
  8
別途部材
  6
CONTINUOUS
 10
71.257007
 20
-1.910042
 11
63.197753
 21
6.149215
  0
LINE
  8
別途部材
  6
CONTINUOUS
 10
73.323675
 20
-3.97671
 11
73.323675
 21
31.423293
  0
LINE
  8
別途部材
  6
CONTINUOUS
 10
72.923675
 20
-3.57671
 11
72.923675
 21
31.423293
  0
LINE
  8
別途部材
  6
CONTINUOUS
 10
73.323675
 20
66.823295
 11
72.923675
 21
66.423295
  0
LINE
  8
別途部材
  6
CONTINUOUS
 10
71.257007
 20
64.756627
 11
63.197753
 21
56.69737
  0
LINE
  8
別途部材
  6
CONTINUOUS
 10
73.323675
 20
66.823295
 11
73.323675
 21
31.423293
  0
LINE
  8
別途部材
  6
CONTINUOUS
 10
72.923675
 20
66.423295
 11
72.923675
 21
31.423293
  0
LINE
  8
別途部材
  6
CONTINUOUS
 10
72.923675
 20
-3.57671
 11
-20.40966
 21
-3.57671
  0
LINE
  8
別途部材
  6
CONTINUOUS
 10
73.323675
 20
-3.97671
 11
-20.40966
 21
-3.97671
  0
LINE
  8
別途部材
  6
CONTINUOUS
 10
73.323675
 20
66.823295
 11
-20.40966
 21
66.823295
  0
LINE
  8
別途部材
  6
CONTINUOUS
 10
72.923675
 20
66.423295
 11
-20.40966
 21
66.423295
  0
LINE
  8
別途部材
  6
CONTINUOUS
 10
-114.142995
 20
-3.97671
 11
-113.742995
 21
-3.57671
  0
LINE
  8
別途部材
  6
CONTINUOUS
 10
-112.076328
 20
-1.910042
 11
-104.017073
 21
6.149215
  0
LINE
  8
別途部材
  6
CONTINUOUS
 10
-114.142995
 20
-3.97671
 11
-114.142995
 21
31.423293
  0
LINE
  8
別途部材
  6
CONTINUOUS
 10
-113.742995
 20
-3.57671
 11
-113.742995
 21
31.423293
  0
LINE
  8
別途部材
  6
CONTINUOUS
 10
-114.142995
 20
66.823295
 11
-113.742995
 21
66.423295
  0
LINE
  8
別途部材
  6
CONTINUOUS
 10
-112.076328
 20
64.756627
 11
-104.017073
 21
56.69737
  0
LINE
  8
別途部材
  6
CONTINUOUS
 10
-114.142995
 20
66.823295
 11
-114.142995
 21
31.423293
  0
LINE
  8
別途部材
  6
CONTINUOUS
 10
-113.742995
 20
66.423295
 11
-113.742995
 21
31.423293
  0
LINE
  8
別途部材
  6
CONTINUOUS
 10
-113.742995
 20
-3.57671
 11
-20.40966
 21
-3.57671
  0
LINE
  8
別途部材
  6
CONTINUOUS
 10
-114.142995
 20
-3.97671
 11
-20.40966
 21
-3.97671
  0
LINE
  8
別途部材
  6
CONTINUOUS
 10
-114.142995
 20
66.823295
 11
-20.40966
 21
66.823295
  0
LINE
  8
別途部材
  6
CONTINUOUS
 10
-113.742995
 20
66.423295
 11
-20.40966
 21
66.423295
  0
LINE
  8
別途部材
  6
CONTINUOUS
 62
    96
 10
160.790272
 20
-3.57671
 11
161.790272
 21
-3.97671
  0
ARC
  8
別途部材
  6
CONTINUOUS
 10
185.790269
 20
31.42329
 40
41.666665
 50
180.0
 51
233.130105
  0
ARC
  8
別途部材
  6
CONTINUOUS
 10
185.790269
 20
31.423291
 40
41.666665
 50
126.869895
 51
180.0
  0
LINE
  8
別途部材
  6
CONTINUOUS
 10
161.790272
 20
-3.97671
 11
161.790272
 21
31.42329
  0
LINE
  8
別途部材
  6
CONTINUOUS
 62
    96
 10
160.790272
 20
-3.57671
 11
160.790272
 21
31.42329
  0
LINE
  8
別途部材
  6
CONTINUOUS
 62
    96
 10
160.790272
 20
66.42329
 11
161.790272
 21
66.82329
  0
LINE
  8
別途部材
  6
CONTINUOUS
 10
161.790272
 20
66.82329
 11
161.790272
 21
31.42329
  0
LINE
  8
別途部材
  6
CONTINUOUS
 62
    96
 10
160.790272
 20
66.42329
 11
160.790272
 21
31.42329
  0
INSERT
  2
*GRP_0018
  8
別途部材
  6
CONTINUOUS
 10
0.0
 20
0.0
  0
LINE
  8
別途部材
  6
DOT
 62
    96
 10
72.923675
 20
-57.624597
 11
73.323675
 21
-58.624597
  0
LINE
  8
別途部材
  6
DOT
 62
    96
 10
72.923675
 20
-57.624597
 11
-20.40966
 21
-57.624597
  0
LINE
  8
別途部材
  6
DOT
 10
73.323675
 20
-58.624597
 11
-20.40966
 21
-58.624597
  0
LINE
  8
別途部材
  6
DOT
 62
    96
 10
-113.742995
 20
-57.624597
 11
-114.142995
 21
-58.624597
  0
LINE
  8
別途部材
  6
DOT
 62
    96
 10
-113.742995
 20
-57.624597
 11
-20.40966
 21
-57.624597
  0
LINE
  8
別途部材
  6
DOT
 10
-114.142995
 20
-58.624597
 11
-20.40966
 21
-58.624597
  0
ARC
  8
別途部材
  6
DOT
 10
54.59034
 20
-57.624598
 40
16.666667
 50
0.0
 51
90.0
  0
ARC
  8
別途部材
  6
DOT
 10
-95.40966
 20
-57.624598
 40
16.666667
 50
90.0
 51
180.0
  0
LINE
  8
別途部材
  6
DOT
 10
-20.40966
 20
-40.95793
 11
54.59034
 21
-40.95793
  0
LINE
  8
別途部材
  6
DOT
 10
-20.40966
 20
-40.95793
 11
-95.40966
 21
-40.95793
  0
INSERT
  2
*GRP_0036
  8
別途部材
  6
DOT
 10
0.0
 20
0.0
  0
INSERT
  2
*GRP_0037
  8
別途部材
  6
DOT
 10
0.0
 20
0.0
  0
INSERT
  2
*GRP_0038
  8
別途部材
  6
DOT
 10
0.0
 20
0.0
  0
INSERT
  2
*GRP_0039
  8
別途部材
  6
DOT
 10
0.0
 20
0.0
  0
INSERT
  2
*GRP_0040
  8
別途部材
  6
DOT
 10
0.0
 20
0.0
  0
INSERT
  2
*GRP_0041
  8
別途部材
  6
DOT
 10
0.0
 20
0.0
  0
LINE
  8
曲げ物
  6
CONTINUOUS
 10
113.28989
 20
-33.526747
 11
148.756558
 21
-33.526747
  0
LINE
  8
曲げ物
  6
CONTINUOUS
 10
148.756558
 20
-33.526747
 11
148.756558
 21
-99.526747
  0
LINE
  8
曲げ物
  6
CONTINUOUS
 10
148.756558
 20
-99.526747
 11
113.28989
 21
-99.526747
  0
LINE
  8
曲げ物
  6
CONTINUOUS
 10
113.28989
 20
-33.526747
 11
113.28989
 21
-99.526747
  0
ENDSEC
  0
EOF
