  0
SECTION
  2
HEADER
  9
$EXTMIN
 10
-210.0
 20
-148.5
  9
$EXTMAX
 10
210.0
 20
148.5
  9
$PDMODE
 70
    32
  9
$PDSIZE
 40
1.5
  9
$LTSCALE
 40
10.0
  0
ENDSEC
  0
SECTION
  2
TABLES
  0
TABLE
  2
LTYPE
 70
    15
  0
LTYPE
  2
CONTINUOUS
 70
    64
  3
実線
 72
    65
 73
     0
 40
0.0
  0
LTYPE
  2
DASHED
 70
    64
  3
破線A
 72
    65
 73
     2
 40
0.6
 49
0.4
 49
-0.2
  0
LTYPE
  2
DASHEDX2
 70
    64
  3
破線B
 72
    65
 73
     2
 40
1.3
 49
0.9
 49
-0.4
  0
LTYPE
  2
DASHDOT
 70
    64
  3
１点鎖線A
 72
    65
 73
     4
 40
0.5375
 49
0.375
 49
-0.05
 49
0.0625
 49
-0.05
  0
LTYPE
  2
DASHDOTX2
 70
    64
  3
１点鎖線B
 72
    65
 73
     4
 40
1.075
 49
0.75
 49
-0.1
 49
0.125
 49
-0.1
  0
LTYPE
  2
DIVIDE2
 70
    64
  3
２点鎖線A
 72
    65
 73
     6
 40
0.5125
 49
0.3
 49
-0.0375
 49
0.05
 49
-0.0375
 49
0.05
 49
-0.0375
  0
LTYPE
  2
DIVIDE
 70
    64
  3
２点鎖線B
 72
    65
 73
     6
 40
1.05
 49
0.55
 49
-0.1
 49
0.1
 49
-0.1
 49
0.1
 49
-0.1
  0
LTYPE
  2
DOT
 70
    64
  3
点線A
 72
    65
 73
     2
 40
0.1125
 49
0.0625
 49
-0.05
  0
LTYPE
  2
DOTX2
 70
    64
  3
点線B
 72
    65
 73
     2
 40
0.275
 49
0.15
 49
-0.125
  0
LTYPE
  2
CONTINUOUS
 70
    64
  3
実線
 72
    65
 73
     0
 40
0.0
  0
LTYPE
  2
CONTINUOUS
 70
    64
  3
実線
 72
    65
 73
     0
 40
0.0
  0
LTYPE
  2
CONTINUOUS
 70
    64
  3
実線
 72
    65
 73
     0
 40
0.0
  0
LTYPE
  2
CONTINUOUS
 70
    64
  3
実線
 72
    65
 73
     0
 40
0.0
  0
LTYPE
  2
CONTINUOUS
 70
    64
  3
実線
 72
    65
 73
     0
 40
0.0
  0
LTYPE
  2
CONTINUOUS
 70
    64
  3
実線
 72
    65
 73
     0
 40
0.0
  0
ENDTAB
  0
TABLE
  2
LAYER
 70
    34
  0
LAYER
  2
通り芯
 70
     0
 62
    15
  6
CONTINUOUS
  0
LAYER
  2
補助線
 70
     0
 62
    16
  6
DOT
  0
LAYER
  2
躯体
 70
     0
 62
    31
  6
CONTINUOUS
  0
LAYER
  2
型材
 70
     0
 62
    32
  6
CONTINUOUS
  0
LAYER
  2
型材断面
 70
     0
 62
    47
  6
CONTINUOUS
  0
LAYER
  2
ガラス
 70
     0
 62
    48
  6
CONTINUOUS
  0
LAYER
  2
ゴム等
 70
     0
 62
    63
  6
CONTINUOUS
  0
LAYER
  2
ボルト／ビス
 70
     0
 62
    64
  6
CONTINUOUS
  0
LAYER
  2
文字
 70
     0
 62
    79
  6
CONTINUOUS
  0
LAYER
  2
寸法
 70
     0
 62
    80
  6
CONTINUOUS
  0
LAYER
  2
ﾊｯﾁﾝｸﾞ
 70
     0
 62
    95
  6
CONTINUOUS
  0
LAYER
  2
別途部材
 70
     0
 62
    96
  6
CONTINUOUS
  0
LAYER
  2
曲げ物
 70
     0
 62
   111
  6
CONTINUOUS
  0
LAYER
  2
鉄骨等
 70
     0
 62
   112
  6
CONTINUOUS
  0
LAYER
  2
St
 70
     0
 62
   127
  6
CONTINUOUS
  0
LAYER
  2
その他部品等
 70
     0
 62
   128
  6
CONTINUOUS
  0
LAYER
  2
ｶﾞｽｹｯﾄ
 70
     0
 62
   143
  6
CONTINUOUS
  0
LAYER
  2
ｽｹｯﾁ
 70
     0
 62
    14
  6
CONTINUOUS
  0
LAYER
  2
0
 70
     0
 62
    17
  6
CONTINUOUS
  0
LAYER
  2
1
 70
     0
 62
    30
  6
CONTINUOUS
  0
LAYER
  2
4
 70
     0
 62
    33
  6
CONTINUOUS
  0
LAYER
  2
ﾚｲﾔ3
 70
     0
 62
    46
  6
CONTINUOUS
  0
LAYER
  2
外形線
 70
     0
 62
    49
  6
CONTINUOUS
  0
LAYER
  2
部品
 70
     0
 62
    14
  6
CONTINUOUS
  0
LAYER
  2
サッシ芯
 70
     0
 62
    17
  6
DASHDOTX2
  0
LAYER
  2
寸法線
 70
     0
 62
    62
  6
CONTINUOUS
  0
LAYER
  2
姿図外形線
 70
     0
 62
    65
  6
CONTINUOUS
  0
LAYER
  2
姿補助線
 70
     0
 62
    30
  6
CONTINUOUS
  0
LAYER
  2
透視線
 70
     0
 62
    78
  6
DOT
  0
LAYER
  2
用紙
 70
     0
 62
    81
  6
CONTINUOUS
  0
LAYER
  2
実線図枠
 70
     0
 62
    94
  6
CONTINUOUS
  0
LAYER
  2
補助図枠
 70
     0
 62
    97
  6
CONTINUOUS
  0
LAYER
  2
建具記号
 70
     0
 62
   110
  6
CONTINUOUS
  0
LAYER
  2
補助文字
 70
     0
 62
   113
  6
CONTINUOUS
  0
ENDTAB
  0
TABLE
  2
STYLE
 70
    10
  0
STYLE
  2
STANDARD
 70
     0
 40
1.0
 41
1.0
 42
1.0
 50
0.0
 71
     0
  3
TXT
  4
BIGFONT
  0
STYLE
  2
TATE
 70
     4
 40
1.0
 41
1.0
 42
1.0
 50
0.0
 71
     0
  3
TXT
  4
BIGFONT
  0
STYLE
  2
TextStyle03
 70
     0
 40
1.0
 41
1.0
 42
1.0
 50
0.0
 71
     0
  3
MONOTXT
  4
BIGFONT
  0
STYLE
  2
TextStyle04
 70
     0
 40
1.0
 41
1.0
 42
1.0
 50
0.0
 71
     0
  3
MONOTXT
  4
BIGFONT
  0
STYLE
  2
TextStyle05
 70
     0
 40
1.0
 41
1.0
 42
1.0
 50
0.0
 71
     0
  3
MONOTXT
  4
BIGFONT
  0
STYLE
  2
TextStyle06
 70
     0
 40
1.0
 41
1.0
 42
1.0
 50
0.0
 71
     0
  3
MONOTXT
  4
BIGFONT
  0
STYLE
  2
TextStyle07
 70
     0
 40
1.0
 41
1.0
 42
1.0
 50
0.0
 71
     0
  3
MONOTXT
  4
BIGFONT
  0
STYLE
  2
TextStyle08
 70
     0
 40
1.0
 41
1.0
 42
1.0
 50
0.0
 71
     0
  3
MONOTXT
  4
BIGFONT
  0
STYLE
  2
TextStyle09
 70
     0
 40
1.0
 41
1.0
 42
1.0
 50
0.0
 71
     0
  3
MONOTXT
  4
BIGFONT
  0
STYLE
  2
TextStyle10
 70
     0
 40
1.0
 41
1.0
 42
1.0
 50
0.0
 71
     0
  3
MONOTXT
  4
BIGFONT
  0
ENDTAB
  0
ENDSEC
  0
SECTION
  2
BLOCKS
  0
BLOCK
  2
*GRP_0001
 70
    65
 10
0.0
 20
0.0
  0
LINE
  8
型材断面
  6
CONTINUOUS
 10
195.0
 20
133.5
 11
195.0
 21
-133.5
  0
LINE
  8
型材断面
  6
CONTINUOUS
 10
195.0
 20
-133.5
 11
-185.0
 21
-133.5
  0
LINE
  8
型材断面
  6
CONTINUOUS
 10
-185.0
 20
-133.5
 11
-185.0
 21
133.5
  0
LINE
  8
型材断面
  6
CONTINUOUS
 10
195.0
 20
133.5
 11
-185.0
 21
133.5
  0
LINE
  8
型材断面
  6
CONTINUOUS
 10
145.0
 20
-133.5
 11
145.0
 21
-118.5
  0
LINE
  8
型材断面
  6
CONTINUOUS
 10
195.0
 20
-118.5
 11
145.0
 21
-118.5
  0
ENDBLK
  0
BLOCK
  2
*DIM_0002
 70
    65
 10
0.0
 20
0.0
  0
LINE
  8
寸法
  6
BYBLOCK
 62
     0
 10
-37.30308
 20
-62.95793
 11
10.999902
 21
-62.95793
  0
LINE
  8
寸法
  6
BYBLOCK
 62
     0
 10
10.999902
 20
-79.624597
 11
10.999902
 21
-62.95793
  0
POINT
  8
寸法
 62
     0
 10
10.999902
 20
-62.95793
  0
TEXT
  7
TextStyle03
  8
寸法
  6
CONTINUOUS
 62
     0
 10
10.65
 20
-73.7375
  1
500
 40
3.0
 50
90.0
 72
     5
 11
10.65
 21
-68.8625
  0
ENDBLK
  0
BLOCK
  2
*DIM_0003
 70
    65
 10
0.0
 20
0.0
  0
LINE
  8
寸法
  6
BYBLOCK
 62
     0
 10
32.39956
 20
64.756625
 11
31.662717
 21
64.756625
  0
LINE
  8
寸法
  6
BYBLOCK
 62
     0
 10
32.39956
 20
-1.910042
 11
31.662717
 21
-1.910042
  0
LINE
  8
寸法
  6
BYBLOCK
 62
     0
 10
31.662717
 20
64.756625
 11
31.662717
 21
-1.910042
  0
POINT
  8
寸法
 62
     0
 10
31.662717
 20
64.756625
  0
POINT
  8
寸法
 62
     0
 10
31.662717
 20
-1.910042
  0
TEXT
  7
TextStyle03
  8
寸法
  6
CONTINUOUS
 62
     0
 10
31.3
 20
19.68125
  1
呼称寸法　2000
 40
3.0
 50
90.0
 72
     5
 11
31.3
 21
43.11875
  0
ENDBLK
  0
BLOCK
  2
*DIM_0004
 70
    65
 10
0.0
 20
0.0
  0
LINE
  8
寸法
  6
BYBLOCK
 62
     0
 10
67.89685
 20
32.42329
 11
67.89685
 21
86.5884
  0
LINE
  8
寸法
  6
BYBLOCK
 62
     0
 10
84.563517
 20
86.5884
 11
67.89685
 21
86.5884
  0
POINT
  8
寸法
 62
     0
 10
84.563517
 20
86.5884
  0
POINT
  8
寸法
 62
     0
 10
67.89685
 20
86.5884
  0
TEXT
  7
TextStyle03
  8
寸法
  6
CONTINUOUS
 62
     0
 10
73.8125
 20
86.95
  1
500
 40
3.0
 72
     5
 11
78.6875
 21
86.95
  0
ENDBLK
  0
BLOCK
  2
*DIM_0005
 70
    65
 10
0.0
 20
0.0
  0
LINE
  8
寸法
  6
BYBLOCK
 62
     0
 10
-4.969747
 20
-29.63158
 11
-88.30308
 21
-29.63158
  0
POINT
  8
寸法
 62
     0
 10
-4.969747
 20
-29.63158
  0
POINT
  8
寸法
 62
     0
 10
-88.30308
 20
-29.63158
  0
TEXT
  7
TextStyle03
  8
寸法
  6
CONTINUOUS
 62
     0
 10
-58.34375
 20
-29.275
  1
呼称寸法　2500
 40
3.0
 72
     5
 11
-34.90625
 21
-29.275
  0
ENDBLK
  0
BLOCK
  2
*DIM_0006
 70
    65
 10
0.0
 20
0.0
  0
LINE
  8
寸法
  6
BYBLOCK
 62
     0
 10
-71.636413
 20
-5.54017
 11
-71.636413
 21
-10.057895
  0
LINE
  8
寸法
  6
BYBLOCK
 62
     0
 10
-21.636417
 20
-5.54017
 11
-21.636417
 21
-10.057895
  0
LINE
  8
寸法
  6
BYBLOCK
 62
     0
 10
-71.636413
 20
-10.057895
 11
-21.636417
 21
-10.057895
  0
POINT
  8
寸法
 62
     0
 10
-71.636413
 20
-10.057895
  0
POINT
  8
寸法
 62
     0
 10
-21.636417
 20
-10.057895
  0
TEXT
  7
TextStyle03
  8
寸法
  6
CONTINUOUS
 62
     0
 10
-49.93125
 20
-9.7
  1
1500
 40
3.0
 72
     5
 11
-43.36875
 21
-9.7
  0
ENDBLK
  0
BLOCK
  2
*DIM_0007
 70
    65
 10
0.0
 20
0.0
  0
LINE
  8
寸法
  6
BYBLOCK
 62
     0
 10
-2.689745
 20
-82.44724
 11
-2.689745
 21
-29.63158
  0
LINE
  8
寸法
  6
BYBLOCK
 62
     0
 10
-4.969747
 20
-29.63158
 11
-2.689745
 21
-29.63158
  0
POINT
  8
寸法
 62
     0
 10
-4.969747
 20
-29.63158
  0
POINT
  8
寸法
 62
     0
 10
-2.689745
 20
-29.63158
  0
TEXT
  7
TextStyle03
  8
寸法
  6
CONTINUOUS
 62
     0
 10
-0.38125
 20
-29.275
  1
68.4
 40
3.0
 72
     5
 11
6.18125
 21
-29.275
  0
ENDBLK
  0
BLOCK
  2
*DIM_0008
 70
    65
 10
0.0
 20
0.0
  0
LINE
  8
寸法
  6
BYBLOCK
 62
     0
 10
-90.583085
 20
-82.44724
 11
-90.583085
 21
-29.63158
  0
LINE
  8
寸法
  6
BYBLOCK
 62
     0
 10
-88.30308
 20
-29.63158
 11
-90.583085
 21
-29.63158
  0
POINT
  8
寸法
 62
     0
 10
-88.30308
 20
-29.63158
  0
POINT
  8
寸法
 62
     0
 10
-90.583085
 20
-29.63158
  0
TEXT
  7
TextStyle03
  8
寸法
  6
CONTINUOUS
 62
     0
 10
-99.48125
 20
-29.275
  1
68.4
 40
3.0
 72
     5
 11
-92.91875
 21
-29.275
  0
ENDBLK
  0
BLOCK
  2
*DIM_0009
 70
    65
 10
0.0
 20
0.0
  0
LINE
  8
寸法
  6
BYBLOCK
 62
     0
 10
116.665948
 20
-33.183237
 11
116.665948
 21
-24.211455
  0
LINE
  8
寸法
  6
BYBLOCK
 62
     0
 10
157.332612
 20
-33.183237
 11
157.332612
 21
-24.211455
  0
LINE
  8
寸法
  6
BYBLOCK
 62
     0
 10
116.665948
 20
-24.211455
 11
157.332612
 21
-24.211455
  0
POINT
  8
寸法
 62
     0
 10
116.665948
 20
-24.211455
  0
POINT
  8
寸法
 62
     0
 10
157.332612
 20
-24.211455
  0
TEXT
  7
TextStyle03
  8
寸法
  6
CONTINUOUS
 62
     0
 10
133.69375
 20
-23.85
  1
1220
 40
3.0
 72
     5
 11
140.25625
 21
-23.85
  0
ENDBLK
  0
BLOCK
  2
*DIM_0010
 70
    65
 10
0.0
 20
0.0
  0
LINE
  8
寸法
  6
BYBLOCK
 62
     0
 10
87.386158
 20
67.036622
 11
31.662717
 21
67.036622
  0
LINE
  8
寸法
  6
BYBLOCK
 62
     0
 10
31.662717
 20
64.756625
 11
31.662717
 21
67.036622
  0
POINT
  8
寸法
 62
     0
 10
31.662717
 20
64.756625
  0
POINT
  8
寸法
 62
     0
 10
31.662717
 20
67.036622
  0
TEXT
  7
TextStyle03
  8
寸法
  6
CONTINUOUS
 62
     0
 10
31.275
 20
69.34375
  1
68.4
 40
3.0
 50
90.0
 72
     5
 11
31.275
 21
75.90625
  0
ENDBLK
  0
BLOCK
  2
*DIM_0011
 70
    65
 10
0.0
 20
0.0
  0
LINE
  8
寸法
  6
BYBLOCK
 62
     0
 10
87.386158
 20
-4.190045
 11
31.662717
 21
-4.190045
  0
LINE
  8
寸法
  6
BYBLOCK
 62
     0
 10
31.662717
 20
-1.910042
 11
31.662717
 21
-4.190045
  0
POINT
  8
寸法
 62
     0
 10
31.662717
 20
-1.910042
  0
POINT
  8
寸法
 62
     0
 10
31.662717
 20
-4.190045
  0
TEXT
  7
TextStyle03
  8
寸法
  6
CONTINUOUS
 62
     0
 10
31.275
 20
-13.10625
  1
68.4
 40
3.0
 50
90.0
 72
     5
 11
31.275
 21
-6.54375
  0
ENDBLK
  0
BLOCK
  2
*DIM_0012
 70
    65
 10
0.0
 20
0.0
  0
LINE
  8
寸法
  6
BYBLOCK
 62
     0
 10
84.563517
 20
67.42329
 11
84.563517
 21
86.5884
  0
LINE
  8
寸法
  6
BYBLOCK
 62
     0
 10
91.3468
 20
67.72329
 11
91.3468
 21
86.5884
  0
LINE
  8
寸法
  6
BYBLOCK
 62
     0
 10
84.563517
 20
86.5884
 11
91.3468
 21
86.5884
  0
POINT
  8
寸法
 62
     0
 10
84.563517
 20
86.5884
  0
POINT
  8
寸法
 62
     0
 10
91.3468
 20
86.5884
  0
TEXT
  7
TextStyle03
  8
寸法
  6
CONTINUOUS
 62
     0
 10
92.25
 20
86.95
  1
203.5
 40
3.0
 72
     5
 11
100.5
 21
86.95
  0
ENDBLK
  0
BLOCK
  2
*DIM_0013
 70
    65
 10
0.0
 20
0.0
  0
LINE
  8
寸法
  6
BYBLOCK
 62
     0
 10
-2.30308
 20
-79.624597
 11
10.999902
 21
-79.624597
  0
LINE
  8
寸法
  6
BYBLOCK
 62
     0
 10
-2.00308
 20
-86.407882
 11
10.999902
 21
-86.407882
  0
LINE
  8
寸法
  6
BYBLOCK
 62
     0
 10
10.999902
 20
-79.624597
 11
10.999902
 21
-86.407882
  0
POINT
  8
寸法
 62
     0
 10
10.999902
 20
-79.624597
  0
POINT
  8
寸法
 62
     0
 10
10.999902
 20
-86.407882
  0
TEXT
  7
TextStyle03
  8
寸法
  6
CONTINUOUS
 62
     0
 10
13.975
 20
-87.15
  1
203.5
 40
3.0
 50
90.0
 72
     5
 11
13.975
 21
-78.9
  0
ENDBLK
  0
BLOCK
  2
*DIM_0014
 70
    65
 10
0.0
 20
0.0
  0
LINE
  8
寸法
  6
BYBLOCK
 62
     0
 10
-1.33962
 20
60.856625
 11
5.437673
 21
60.856625
  0
LINE
  8
寸法
  6
BYBLOCK
 62
     0
 10
5.437673
 20
64.756625
 11
5.437673
 21
60.856625
  0
POINT
  8
寸法
 62
     0
 10
5.437673
 20
64.756625
  0
POINT
  8
寸法
 62
     0
 10
5.437673
 20
60.856625
  0
TEXT
  7
TextStyle03
  8
寸法
  6
CONTINUOUS
 62
     0
 10
5.075
 20
65.4125
  1
117
 40
3.0
 50
90.0
 72
     5
 11
5.075
 21
70.2875
  0
ENDBLK
  0
BLOCK
  2
*DIM_0015
 70
    65
 10
0.0
 20
0.0
  0
LINE
  8
寸法
  6
BYBLOCK
 62
     0
 10
-1.33962
 20
1.98996
 11
5.437673
 21
1.98996
  0
LINE
  8
寸法
  6
BYBLOCK
 62
     0
 10
5.437673
 20
-1.91004
 11
5.437673
 21
1.98996
  0
POINT
  8
寸法
 62
     0
 10
5.437673
 20
-1.91004
  0
POINT
  8
寸法
 62
     0
 10
5.437673
 20
1.98996
  0
TEXT
  7
TextStyle03
  8
寸法
  6
CONTINUOUS
 62
     0
 10
5.4
 20
-8.1875
  1
117
 40
3.0
 50
90.0
 72
     5
 11
5.4
 21
-3.3125
  0
ENDBLK
  0
BLOCK
  2
*GRP_0016
 70
    65
 10
0.0
 20
0.0
  0
LINE
  8
別途部材
  6
CONTINUOUS
 62
    96
 10
-89.969747
 20
-79.624597
 11
-90.369747
 21
-80.624597
  0
LINE
  8
別途部材
  6
CONTINUOUS
 10
-90.369747
 20
-80.624597
 11
-46.636413
 21
-80.624597
  0
LINE
  8
別途部材
  6
CONTINUOUS
 62
    96
 10
-89.969747
 20
-79.624597
 11
-46.636413
 21
-79.624597
  0
LINE
  8
別途部材
  6
CONTINUOUS
 10
-47.136413
 20
-79.624597
 11
-47.136413
 21
-61.95793
  0
LINE
  8
別途部材
  6
CONTINUOUS
 10
-50.136413
 20
-79.624597
 11
-50.136413
 21
-61.95793
  0
LINE
  8
別途部材
  6
CONTINUOUS
 10
-47.136413
 20
-61.95793
 11
-48.136413
 21
-62.95793
  0
LINE
  8
別途部材
  6
CONTINUOUS
 10
-51.136413
 20
-79.624597
 11
-51.136413
 21
-61.95793
  0
LINE
  8
別途部材
  6
CONTINUOUS
 10
-49.136413
 20
-62.95793
 11
-50.136413
 21
-61.95793
  0
LINE
  8
別途部材
  6
CONTINUOUS
 10
-51.136413
 20
-61.95793
 11
-52.136413
 21
-62.95793
  0
LINE
  8
別途部材
  6
CONTINUOUS
 10
-50.136413
 20
-61.95793
 11
-51.136413
 21
-61.95793
  0
LINE
  8
別途部材
  6
CONTINUOUS
 10
-53.136413
 20
-62.95793
 11
-54.136413
 21
-61.95793
  0
LINE
  8
別途部材
  6
CONTINUOUS
 10
-55.136413
 20
-61.95793
 11
-56.136413
 21
-62.95793
  0
LINE
  8
別途部材
  6
CONTINUOUS
 10
-54.136413
 20
-61.95793
 11
-55.136413
 21
-61.95793
  0
LINE
  8
別途部材
  6
CONTINUOUS
 10
-49.136413
 20
-79.624597
 11
-49.136413
 21
-62.95793
  0
LINE
  8
別途部材
  6
CONTINUOUS
 10
-52.136413
 20
-79.624597
 11
-52.136413
 21
-62.95793
  0
LINE
  8
別途部材
  6
CONTINUOUS
 10
-53.136413
 20
-79.624597
 11
-53.136413
 21
-62.95793
  0
LINE
  8
別途部材
  6
CONTINUOUS
 10
-54.136413
 20
-79.624597
 11
-54.136413
 21
-61.95793
  0
LINE
  8
別途部材
  6
CONTINUOUS
 10
-55.136413
 20
-79.624597
 11
-55.136413
 21
-61.95793
  0
LINE
  8
別途部材
  6
CONTINUOUS
 10
-56.136413
 20
-79.624597
 11
-56.136413
 21
-62.95793
  0
LINE
  8
別途部材
  6
CONTINUOUS
 10
-52.136413
 20
-62.95793
 11
-53.136413
 21
-62.95793
  0
LINE
  8
別途部材
  6
CONTINUOUS
 10
-48.136413
 20
-79.624597
 11
-48.136413
 21
-62.95793
  0
LINE
  8
別途部材
  6
CONTINUOUS
 10
-49.136413
 20
-62.95793
 11
-48.136413
 21
-62.95793
  0
LINE
  8
別途部材
  6
CONTINUOUS
 10
-47.136413
 20
-61.95793
 11
-46.136413
 21
-61.95793
  0
LINE
  8
別途部材
  6
CONTINUOUS
 10
-58.136413
 20
-79.624597
 11
-58.136413
 21
-61.95793
  0
LINE
  8
別途部材
  6
CONTINUOUS
 10
-59.136413
 20
-79.624597
 11
-59.136413
 21
-61.95793
  0
LINE
  8
別途部材
  6
CONTINUOUS
 10
-57.136413
 20
-62.95793
 11
-58.136413
 21
-61.95793
  0
LINE
  8
別途部材
  6
CONTINUOUS
 10
-59.136413
 20
-61.95793
 11
-60.136413
 21
-62.95793
  0
LINE
  8
別途部材
  6
CONTINUOUS
 10
-58.136413
 20
-61.95793
 11
-59.136413
 21
-61.95793
  0
LINE
  8
別途部材
  6
CONTINUOUS
 10
-61.136413
 20
-62.95793
 11
-62.136413
 21
-61.95793
  0
LINE
  8
別途部材
  6
CONTINUOUS
 10
-63.136413
 20
-61.95793
 11
-64.136413
 21
-62.95793
  0
LINE
  8
別途部材
  6
CONTINUOUS
 10
-62.136413
 20
-61.95793
 11
-63.136413
 21
-61.95793
  0
LINE
  8
別途部材
  6
CONTINUOUS
 10
-57.136413
 20
-79.624597
 11
-57.136413
 21
-62.95793
  0
LINE
  8
別途部材
  6
CONTINUOUS
 10
-60.136413
 20
-79.624597
 11
-60.136413
 21
-62.95793
  0
LINE
  8
別途部材
  6
CONTINUOUS
 10
-61.136413
 20
-79.624597
 11
-61.136413
 21
-62.95793
  0
LINE
  8
別途部材
  6
CONTINUOUS
 10
-62.136413
 20
-79.624597
 11
-62.136413
 21
-61.95793
  0
LINE
  8
別途部材
  6
CONTINUOUS
 10
-63.136413
 20
-79.624597
 11
-63.136413
 21
-61.95793
  0
LINE
  8
別途部材
  6
CONTINUOUS
 10
-64.136413
 20
-79.624597
 11
-64.136413
 21
-62.95793
  0
LINE
  8
別途部材
  6
CONTINUOUS
 10
-60.136413
 20
-62.95793
 11
-61.136413
 21
-62.95793
  0
LINE
  8
別途部材
  6
CONTINUOUS
 10
-57.136413
 20
-62.95793
 11
-56.136413
 21
-62.95793
  0
LINE
  8
別途部材
  6
CONTINUOUS
 10
-66.136413
 20
-79.624597
 11
-66.136413
 21
-61.95793
  0
LINE
  8
別途部材
  6
CONTINUOUS
 10
-67.136413
 20
-79.624597
 11
-67.136413
 21
-61.95793
  0
LINE
  8
別途部材
  6
CONTINUOUS
 10
-65.136413
 20
-62.95793
 11
-66.136413
 21
-61.95793
  0
LINE
  8
別途部材
  6
CONTINUOUS
 10
-67.136413
 20
-61.95793
 11
-68.136413
 21
-62.95793
  0
LINE
  8
別途部材
  6
CONTINUOUS
 10
-66.136413
 20
-61.95793
 11
-67.136413
 21
-61.95793
  0
LINE
  8
別途部材
  6
CONTINUOUS
 10
-69.136413
 20
-62.95793
 11
-70.136413
 21
-61.95793
  0
LINE
  8
別途部材
  6
CONTINUOUS
 10
-71.136413
 20
-61.95793
 11
-72.136413
 21
-62.95793
  0
LINE
  8
別途部材
  6
CONTINUOUS
 10
-70.136413
 20
-61.95793
 11
-71.136413
 21
-61.95793
  0
LINE
  8
別途部材
  6
CONTINUOUS
 10
-65.136413
 20
-79.624597
 11
-65.136413
 21
-62.95793
  0
LINE
  8
別途部材
  6
CONTINUOUS
 10
-68.136413
 20
-79.624597
 11
-68.136413
 21
-62.95793
  0
LINE
  8
別途部材
  6
CONTINUOUS
 10
-69.136413
 20
-79.624597
 11
-69.136413
 21
-62.95793
  0
LINE
  8
別途部材
  6
CONTINUOUS
 10
-70.136413
 20
-79.624597
 11
-70.136413
 21
-61.95793
  0
LINE
  8
別途部材
  6
CONTINUOUS
 10
-71.136413
 20
-79.624597
 11
-71.136413
 21
-61.95793
  0
LINE
  8
別途部材
  6
CONTINUOUS
 10
-72.136413
 20
-79.624597
 11
-72.136413
 21
-62.95793
  0
LINE
  8
別途部材
  6
CONTINUOUS
 10
-68.136413
 20
-62.95793
 11
-69.136413
 21
-62.95793
  0
LINE
  8
別途部材
  6
CONTINUOUS
 10
-65.136413
 20
-62.95793
 11
-64.136413
 21
-62.95793
  0
ARC
  8
別途部材
  6
CONTINUOUS
 10
-71.636413
 20
-79.624597
 40
16.666667
 50
91.719131
 51
180.0
  0
LINE
  8
別途部材
  6
CONTINUOUS
 62
    96
 10
-3.30308
 20
-79.624597
 11
-2.90308
 21
-80.624597
  0
LINE
  8
別途部材
  6
CONTINUOUS
 10
-2.90308
 20
-80.624597
 11
-46.636413
 21
-80.624597
  0
LINE
  8
別途部材
  6
CONTINUOUS
 62
    96
 10
-3.30308
 20
-79.624597
 11
-46.636413
 21
-79.624597
  0
LINE
  8
別途部材
  6
CONTINUOUS
 10
-46.136413
 20
-79.624597
 11
-46.136413
 21
-61.95793
  0
LINE
  8
別途部材
  6
CONTINUOUS
 10
-43.136413
 20
-79.624597
 11
-43.136413
 21
-61.95793
  0
LINE
  8
別途部材
  6
CONTINUOUS
 10
-46.136413
 20
-61.95793
 11
-45.136413
 21
-62.95793
  0
LINE
  8
別途部材
  6
CONTINUOUS
 10
-42.136413
 20
-79.624597
 11
-42.136413
 21
-61.95793
  0
LINE
  8
別途部材
  6
CONTINUOUS
 10
-44.136413
 20
-62.95793
 11
-43.136413
 21
-61.95793
  0
LINE
  8
別途部材
  6
CONTINUOUS
 10
-42.136413
 20
-61.95793
 11
-41.136413
 21
-62.95793
  0
LINE
  8
別途部材
  6
CONTINUOUS
 10
-43.136413
 20
-61.95793
 11
-42.136413
 21
-61.95793
  0
LINE
  8
別途部材
  6
CONTINUOUS
 10
-40.136413
 20
-62.95793
 11
-39.136413
 21
-61.95793
  0
LINE
  8
別途部材
  6
CONTINUOUS
 10
-38.136413
 20
-61.95793
 11
-37.136413
 21
-62.95793
  0
LINE
  8
別途部材
  6
CONTINUOUS
 10
-39.136413
 20
-61.95793
 11
-38.136413
 21
-61.95793
  0
LINE
  8
別途部材
  6
CONTINUOUS
 10
-44.136413
 20
-79.624597
 11
-44.136413
 21
-62.95793
  0
LINE
  8
別途部材
  6
CONTINUOUS
 10
-41.136413
 20
-79.624597
 11
-41.136413
 21
-62.95793
  0
LINE
  8
別途部材
  6
CONTINUOUS
 10
-40.136413
 20
-79.624597
 11
-40.136413
 21
-62.95793
  0
LINE
  8
別途部材
  6
CONTINUOUS
 10
-39.136413
 20
-79.624597
 11
-39.136413
 21
-61.95793
  0
LINE
  8
別途部材
  6
CONTINUOUS
 10
-38.136413
 20
-79.624597
 11
-38.136413
 21
-61.95793
  0
LINE
  8
別途部材
  6
CONTINUOUS
 10
-37.136413
 20
-79.624597
 11
-37.136413
 21
-62.95793
  0
LINE
  8
別途部材
  6
CONTINUOUS
 10
-41.136413
 20
-62.95793
 11
-40.136413
 21
-62.95793
  0
LINE
  8
別途部材
  6
CONTINUOUS
 10
-45.136413
 20
-79.624597
 11
-45.136413
 21
-62.95793
  0
LINE
  8
別途部材
  6
CONTINUOUS
 10
-44.136413
 20
-62.95793
 11
-45.136413
 21
-62.95793
  0
LINE
  8
別途部材
  6
CONTINUOUS
 10
-46.136413
 20
-61.95793
 11
-47.136413
 21
-61.95793
  0
LINE
  8
別途部材
  6
CONTINUOUS
 10
-35.136413
 20
-79.624597
 11
-35.136413
 21
-61.95793
  0
LINE
  8
別途部材
  6
CONTINUOUS
 10
-34.136413
 20
-79.624597
 11
-34.136413
 21
-61.95793
  0
LINE
  8
別途部材
  6
CONTINUOUS
 10
-36.136413
 20
-62.95793
 11
-35.136413
 21
-61.95793
  0
LINE
  8
別途部材
  6
CONTINUOUS
 10
-34.136413
 20
-61.95793
 11
-33.136413
 21
-62.95793
  0
LINE
  8
別途部材
  6
CONTINUOUS
 10
-35.136413
 20
-61.95793
 11
-34.136413
 21
-61.95793
  0
LINE
  8
別途部材
  6
CONTINUOUS
 10
-32.136413
 20
-62.95793
 11
-31.136413
 21
-61.95793
  0
LINE
  8
別途部材
  6
CONTINUOUS
 10
-30.136413
 20
-61.95793
 11
-29.136413
 21
-62.95793
  0
LINE
  8
別途部材
  6
CONTINUOUS
 10
-31.136413
 20
-61.95793
 11
-30.136413
 21
-61.95793
  0
LINE
  8
別途部材
  6
CONTINUOUS
 10
-36.136413
 20
-79.624597
 11
-36.136413
 21
-62.95793
  0
LINE
  8
別途部材
  6
CONTINUOUS
 10
-33.136413
 20
-79.624597
 11
-33.136413
 21
-62.95793
  0
LINE
  8
別途部材
  6
CONTINUOUS
 10
-32.136413
 20
-79.624597
 11
-32.136413
 21
-62.95793
  0
LINE
  8
別途部材
  6
CONTINUOUS
 10
-31.136413
 20
-79.624597
 11
-31.136413
 21
-61.95793
  0
LINE
  8
別途部材
  6
CONTINUOUS
 10
-30.136413
 20
-79.624597
 11
-30.136413
 21
-61.95793
  0
LINE
  8
別途部材
  6
CONTINUOUS
 10
-29.136413
 20
-79.624597
 11
-29.136413
 21
-62.95793
  0
LINE
  8
別途部材
  6
CONTINUOUS
 10
-33.136413
 20
-62.95793
 11
-32.136413
 21
-62.95793
  0
LINE
  8
別途部材
  6
CONTINUOUS
 10
-36.136413
 20
-62.95793
 11
-37.136413
 21
-62.95793
  0
LINE
  8
別途部材
  6
CONTINUOUS
 10
-27.136413
 20
-79.624597
 11
-27.136413
 21
-61.95793
  0
LINE
  8
別途部材
  6
CONTINUOUS
 10
-26.136413
 20
-79.624597
 11
-26.136413
 21
-61.95793
  0
LINE
  8
別途部材
  6
CONTINUOUS
 10
-28.136413
 20
-62.95793
 11
-27.136413
 21
-61.95793
  0
LINE
  8
別途部材
  6
CONTINUOUS
 10
-26.136413
 20
-61.95793
 11
-25.136413
 21
-62.95793
  0
LINE
  8
別途部材
  6
CONTINUOUS
 10
-27.136413
 20
-61.95793
 11
-26.136413
 21
-61.95793
  0
LINE
  8
別途部材
  6
CONTINUOUS
 10
-24.136413
 20
-62.95793
 11
-23.136413
 21
-61.95793
  0
LINE
  8
別途部材
  6
CONTINUOUS
 10
-22.136413
 20
-61.95793
 11
-21.136413
 21
-62.95793
  0
LINE
  8
別途部材
  6
CONTINUOUS
 10
-23.136413
 20
-61.95793
 11
-22.136413
 21
-61.95793
  0
LINE
  8
別途部材
  6
CONTINUOUS
 10
-28.136413
 20
-79.624597
 11
-28.136413
 21
-62.95793
  0
LINE
  8
別途部材
  6
CONTINUOUS
 10
-25.136413
 20
-79.624597
 11
-25.136413
 21
-62.95793
  0
LINE
  8
別途部材
  6
CONTINUOUS
 10
-24.136413
 20
-79.624597
 11
-24.136413
 21
-62.95793
  0
LINE
  8
別途部材
  6
CONTINUOUS
 10
-23.136413
 20
-79.624597
 11
-23.136413
 21
-61.95793
  0
LINE
  8
別途部材
  6
CONTINUOUS
 10
-22.136413
 20
-79.624597
 11
-22.136413
 21
-61.95793
  0
LINE
  8
別途部材
  6
CONTINUOUS
 10
-21.136413
 20
-79.624597
 11
-21.136413
 21
-62.95793
  0
LINE
  8
別途部材
  6
CONTINUOUS
 10
-25.136413
 20
-62.95793
 11
-24.136413
 21
-62.95793
  0
LINE
  8
別途部材
  6
CONTINUOUS
 10
-28.136413
 20
-62.95793
 11
-29.136413
 21
-62.95793
  0
ARC
  8
別途部材
  6
CONTINUOUS
 10
-21.636413
 20
-79.624597
 40
16.666667
 50
0.0
 51
88.280869
  0
ENDBLK
  0
BLOCK
  2
*GRP_0017
 70
    65
 10
0.0
 20
0.0
  0
LINE
  8
補助線
  6
BYBLOCK
 62
    64
 10
-84.905428
 20
-84.53178
 11
-85.034073
 21
-84.637745
  0
LINE
  8
補助線
  6
BYBLOCK
 62
    64
 10
-85.022735
 20
-84.520438
 11
-84.916767
 21
-84.649085
  0
LINE
  8
補助線
  6
BYBLOCK
 62
    64
 10
-72.68429
 20
-74.46509
 11
-72.812935
 21
-74.571053
  0
LINE
  8
補助線
  6
BYBLOCK
 62
    64
 10
-72.801595
 20
-74.453748
 11
-72.69563
 21
-74.582392
  0
LINE
  8
補助線
  6
BYBLOCK
 62
    64
 10
-60.591795
 20
-64.504363
 11
-60.463152
 21
-64.398398
  0
LINE
  8
補助線
  6
BYBLOCK
 62
    64
 10
-60.580458
 20
-64.387055
 11
-60.47449
 21
-64.515703
  0
LINE
  8
型材断面
  6
CONTINUOUS
 10
-85.756862
 20
-84.153475
 11
-85.824895
 21
-84.857302
  0
LINE
  8
型材断面
  6
CONTINUOUS
 10
-85.824895
 20
-84.857302
 11
-85.401035
 21
-85.371875
  0
LINE
  8
型材断面
  6
CONTINUOUS
 10
-85.401035
 20
-85.371875
 11
-84.69721
 21
-85.43991
  0
LINE
  8
型材断面
  6
CONTINUOUS
 10
-60.800012
 20
-63.596235
 11
-60.096187
 21
-63.66427
  0
LINE
  8
型材断面
  6
CONTINUOUS
 10
-60.096187
 20
-63.66427
 11
-59.672325
 21
-64.178842
  0
LINE
  8
型材断面
  6
CONTINUOUS
 10
-59.672325
 20
-64.178842
 11
-59.74036
 21
-64.88267
  0
LINE
  8
型材断面
  6
CONTINUOUS
 10
-85.756862
 20
-84.153475
 11
-60.800012
 21
-63.596235
  0
LINE
  8
型材断面
  6
CONTINUOUS
 10
-84.69721
 20
-85.43991
 11
-59.74036
 21
-64.88267
  0
CIRCLE
  8
ボルト／ビス
  6
CONTINUOUS
 10
-84.96975
 20
-84.584763
 40
0.250185
  0
CIRCLE
  8
ボルト／ビス
  6
CONTINUOUS
 10
-84.96975
 20
-84.584763
 40
0.301025
  0
LINE
  8
ボルト／ビス
  6
CONTINUOUS
 62
    64
 10
-85.21652
 20
-84.625962
 11
-85.128815
 21
-84.391655
  0
LINE
  8
ボルト／ビス
  6
CONTINUOUS
 62
    64
 10
-84.882045
 20
-84.350453
 11
-85.128815
 21
-84.391655
  0
LINE
  8
ボルト／ビス
  6
CONTINUOUS
 62
    64
 10
-85.057455
 20
-84.819073
 11
-84.810685
 21
-84.77787
  0
LINE
  8
ボルト／ビス
  6
CONTINUOUS
 62
    64
 10
-84.72298
 20
-84.543563
 11
-84.810685
 21
-84.77787
  0
LINE
  8
ボルト／ビス
  6
CONTINUOUS
 62
    64
 10
-85.21652
 20
-84.625962
 11
-85.057455
 21
-84.819073
  0
LINE
  8
ボルト／ビス
  6
CONTINUOUS
 62
    64
 10
-84.882045
 20
-84.350453
 11
-84.72298
 21
-84.543563
  0
CIRCLE
  8
ボルト／ビス
  6
CONTINUOUS
 62
    64
 10
-84.96975
 20
-84.584763
 40
0.216668
  0
CIRCLE
  8
ボルト／ビス
  6
CONTINUOUS
 10
-72.748613
 20
-74.51807
 40
0.250185
  0
CIRCLE
  8
ボルト／ビス
  6
CONTINUOUS
 10
-72.748613
 20
-74.51807
 40
0.301025
  0
LINE
  8
ボルト／ビス
  6
CONTINUOUS
 62
    64
 10
-72.995382
 20
-74.559273
 11
-72.907678
 21
-74.324963
  0
LINE
  8
ボルト／ビス
  6
CONTINUOUS
 62
    64
 10
-72.660905
 20
-74.283763
 11
-72.907678
 21
-74.324963
  0
LINE
  8
ボルト／ビス
  6
CONTINUOUS
 62
    64
 10
-72.836318
 20
-74.75238
 11
-72.589545
 21
-74.71118
  0
LINE
  8
ボルト／ビス
  6
CONTINUOUS
 62
    64
 10
-72.50184
 20
-74.47687
 11
-72.589545
 21
-74.71118
  0
LINE
  8
ボルト／ビス
  6
CONTINUOUS
 62
    64
 10
-72.995382
 20
-74.559273
 11
-72.836318
 21
-74.75238
  0
LINE
  8
ボルト／ビス
  6
CONTINUOUS
 62
    64
 10
-72.660905
 20
-74.283763
 11
-72.50184
 21
-74.47687
  0
CIRCLE
  8
ボルト／ビス
  6
CONTINUOUS
 62
    64
 10
-72.748613
 20
-74.51807
 40
0.216668
  0
CIRCLE
  8
ボルト／ビス
  6
CONTINUOUS
 10
-60.527473
 20
-64.45138
 40
0.250185
  0
CIRCLE
  8
ボルト／ビス
  6
CONTINUOUS
 10
-60.527473
 20
-64.45138
 40
0.301025
  0
LINE
  8
ボルト／ビス
  6
CONTINUOUS
 62
    64
 10
-60.439768
 20
-64.21707
 11
-60.686538
 21
-64.258273
  0
LINE
  8
ボルト／ビス
  6
CONTINUOUS
 62
    64
 10
-60.774245
 20
-64.49258
 11
-60.686538
 21
-64.258273
  0
LINE
  8
ボルト／ビス
  6
CONTINUOUS
 62
    64
 10
-60.280703
 20
-64.41018
 11
-60.368408
 21
-64.644488
  0
LINE
  8
ボルト／ビス
  6
CONTINUOUS
 62
    64
 10
-60.615178
 20
-64.68569
 11
-60.368408
 21
-64.644488
  0
LINE
  8
ボルト／ビス
  6
CONTINUOUS
 62
    64
 10
-60.439768
 20
-64.21707
 11
-60.280703
 21
-64.41018
  0
LINE
  8
ボルト／ビス
  6
CONTINUOUS
 62
    64
 10
-60.774245
 20
-64.49258
 11
-60.615178
 21
-64.68569
  0
CIRCLE
  8
ボルト／ビス
  6
CONTINUOUS
 62
    64
 10
-60.527473
 20
-64.45138
 40
0.216668
  0
ENDBLK
  0
BLOCK
  2
*GRP_0018
 70
    65
 10
0.0
 20
0.0
  0
LINE
  8
補助線
  6
BYBLOCK
 62
    64
 10
-60.591798
 20
-84.53178
 11
-60.463152
 21
-84.637745
  0
LINE
  8
補助線
  6
BYBLOCK
 62
    64
 10
-60.47449
 20
-84.520438
 11
-60.580458
 21
-84.649085
  0
LINE
  8
補助線
  6
BYBLOCK
 62
    64
 10
-72.812935
 20
-74.46509
 11
-72.68429
 21
-74.571053
  0
LINE
  8
補助線
  6
BYBLOCK
 62
    64
 10
-72.69563
 20
-74.453748
 11
-72.801595
 21
-74.582392
  0
LINE
  8
補助線
  6
BYBLOCK
 62
    64
 10
-84.90543
 20
-64.504363
 11
-85.034073
 21
-64.398398
  0
LINE
  8
補助線
  6
BYBLOCK
 62
    64
 10
-84.916767
 20
-64.387055
 11
-85.022735
 21
-64.515703
  0
LINE
  8
型材断面
  6
CONTINUOUS
 10
-59.740362
 20
-84.153475
 11
-59.67233
 21
-84.857302
  0
LINE
  8
型材断面
  6
CONTINUOUS
 10
-59.67233
 20
-84.857302
 11
-60.09619
 21
-85.371875
  0
LINE
  8
型材断面
  6
CONTINUOUS
 10
-60.09619
 20
-85.371875
 11
-60.800015
 21
-85.43991
  0
LINE
  8
型材断面
  6
CONTINUOUS
 10
-84.697213
 20
-63.596235
 11
-85.401037
 21
-63.66427
  0
LINE
  8
型材断面
  6
CONTINUOUS
 10
-85.401037
 20
-63.66427
 11
-85.8249
 21
-64.178842
  0
LINE
  8
型材断面
  6
CONTINUOUS
 10
-85.8249
 20
-64.178842
 11
-85.756865
 21
-64.88267
  0
LINE
  8
型材断面
  6
CONTINUOUS
 10
-59.740362
 20
-84.153475
 11
-84.697213
 21
-63.596235
  0
LINE
  8
型材断面
  6
CONTINUOUS
 10
-60.800015
 20
-85.43991
 11
-85.756865
 21
-64.88267
  0
CIRCLE
  8
ボルト／ビス
  6
CONTINUOUS
 10
-60.527475
 20
-84.584763
 40
0.250185
  0
CIRCLE
  8
ボルト／ビス
  6
CONTINUOUS
 10
-60.527475
 20
-84.584763
 40
0.301025
  0
LINE
  8
ボルト／ビス
  6
CONTINUOUS
 62
    64
 10
-60.280705
 20
-84.625962
 11
-60.36841
 21
-84.391655
  0
LINE
  8
ボルト／ビス
  6
CONTINUOUS
 62
    64
 10
-60.61518
 20
-84.350453
 11
-60.36841
 21
-84.391655
  0
LINE
  8
ボルト／ビス
  6
CONTINUOUS
 62
    64
 10
-60.43977
 20
-84.819073
 11
-60.68654
 21
-84.77787
  0
LINE
  8
ボルト／ビス
  6
CONTINUOUS
 62
    64
 10
-60.774245
 20
-84.543563
 11
-60.68654
 21
-84.77787
  0
LINE
  8
ボルト／ビス
  6
CONTINUOUS
 62
    64
 10
-60.280705
 20
-84.625962
 11
-60.43977
 21
-84.819073
  0
LINE
  8
ボルト／ビス
  6
CONTINUOUS
 62
    64
 10
-60.61518
 20
-84.350453
 11
-60.774245
 21
-84.543563
  0
CIRCLE
  8
ボルト／ビス
  6
CONTINUOUS
 62
    64
 10
-60.527475
 20
-84.584763
 40
0.216668
  0
CIRCLE
  8
ボルト／ビス
  6
CONTINUOUS
 10
-72.748613
 20
-74.51807
 40
0.250185
  0
CIRCLE
  8
ボルト／ビス
  6
CONTINUOUS
 10
-72.748613
 20
-74.51807
 40
0.301025
  0
LINE
  8
ボルト／ビス
  6
CONTINUOUS
 62
    64
 10
-72.501843
 20
-74.559273
 11
-72.589548
 21
-74.324963
  0
LINE
  8
ボルト／ビス
  6
CONTINUOUS
 62
    64
 10
-72.83632
 20
-74.283763
 11
-72.589548
 21
-74.324963
  0
LINE
  8
ボルト／ビス
  6
CONTINUOUS
 62
    64
 10
-72.660908
 20
-74.75238
 11
-72.90768
 21
-74.71118
  0
LINE
  8
ボルト／ビス
  6
CONTINUOUS
 62
    64
 10
-72.995385
 20
-74.47687
 11
-72.90768
 21
-74.71118
  0
LINE
  8
ボルト／ビス
  6
CONTINUOUS
 62
    64
 10
-72.501843
 20
-74.559273
 11
-72.660908
 21
-74.75238
  0
LINE
  8
ボルト／ビス
  6
CONTINUOUS
 62
    64
 10
-72.83632
 20
-74.283763
 11
-72.995385
 21
-74.47687
  0
CIRCLE
  8
ボルト／ビス
  6
CONTINUOUS
 62
    64
 10
-72.748613
 20
-74.51807
 40
0.216668
  0
CIRCLE
  8
ボルト／ビス
  6
CONTINUOUS
 10
-84.969752
 20
-64.45138
 40
0.250185
  0
CIRCLE
  8
ボルト／ビス
  6
CONTINUOUS
 10
-84.969752
 20
-64.45138
 40
0.301025
  0
LINE
  8
ボルト／ビス
  6
CONTINUOUS
 62
    64
 10
-85.057457
 20
-64.21707
 11
-84.810688
 21
-64.258273
  0
LINE
  8
ボルト／ビス
  6
CONTINUOUS
 62
    64
 10
-84.72298
 20
-64.49258
 11
-84.810688
 21
-64.258273
  0
LINE
  8
ボルト／ビス
  6
CONTINUOUS
 62
    64
 10
-85.216522
 20
-64.41018
 11
-85.128817
 21
-64.644488
  0
LINE
  8
ボルト／ビス
  6
CONTINUOUS
 62
    64
 10
-84.882048
 20
-64.68569
 11
-85.128817
 21
-64.644488
  0
LINE
  8
ボルト／ビス
  6
CONTINUOUS
 62
    64
 10
-85.057457
 20
-64.21707
 11
-85.216522
 21
-64.41018
  0
LINE
  8
ボルト／ビス
  6
CONTINUOUS
 62
    64
 10
-84.72298
 20
-64.49258
 11
-84.882048
 21
-64.68569
  0
CIRCLE
  8
ボルト／ビス
  6
CONTINUOUS
 62
    64
 10
-84.969752
 20
-64.45138
 40
0.216668
  0
ENDBLK
  0
BLOCK
  2
*GRP_0019
 70
    65
 10
0.0
 20
0.0
  0
LINE
  8
補助線
  6
BYBLOCK
 62
    64
 10
-8.367403
 20
-84.53178
 11
-8.238757
 21
-84.637745
  0
LINE
  8
補助線
  6
BYBLOCK
 62
    64
 10
-8.250095
 20
-84.520438
 11
-8.356063
 21
-84.649085
  0
LINE
  8
補助線
  6
BYBLOCK
 62
    64
 10
-20.58854
 20
-74.46509
 11
-20.459895
 21
-74.571053
  0
LINE
  8
補助線
  6
BYBLOCK
 62
    64
 10
-20.471235
 20
-74.453748
 11
-20.5772
 21
-74.582392
  0
LINE
  8
補助線
  6
BYBLOCK
 62
    64
 10
-32.681035
 20
-64.504363
 11
-32.809677
 21
-64.398398
  0
LINE
  8
補助線
  6
BYBLOCK
 62
    64
 10
-32.692372
 20
-64.387055
 11
-32.79834
 21
-64.515703
  0
LINE
  8
型材断面
  6
CONTINUOUS
 10
-7.515967
 20
-84.153475
 11
-7.447935
 21
-84.857302
  0
LINE
  8
型材断面
  6
CONTINUOUS
 10
-7.447935
 20
-84.857302
 11
-7.871795
 21
-85.371875
  0
LINE
  8
型材断面
  6
CONTINUOUS
 10
-7.871795
 20
-85.371875
 11
-8.57562
 21
-85.43991
  0
LINE
  8
型材断面
  6
CONTINUOUS
 10
-32.472818
 20
-63.596235
 11
-33.176642
 21
-63.66427
  0
LINE
  8
型材断面
  6
CONTINUOUS
 10
-33.176642
 20
-63.66427
 11
-33.600505
 21
-64.178842
  0
LINE
  8
型材断面
  6
CONTINUOUS
 10
-33.600505
 20
-64.178842
 11
-33.53247
 21
-64.88267
  0
LINE
  8
型材断面
  6
CONTINUOUS
 10
-7.515967
 20
-84.153475
 11
-32.472818
 21
-63.596235
  0
LINE
  8
型材断面
  6
CONTINUOUS
 10
-8.57562
 20
-85.43991
 11
-33.53247
 21
-64.88267
  0
CIRCLE
  8
ボルト／ビス
  6
CONTINUOUS
 10
-8.30308
 20
-84.584763
 40
0.250185
  0
CIRCLE
  8
ボルト／ビス
  6
CONTINUOUS
 10
-8.30308
 20
-84.584763
 40
0.301025
  0
LINE
  8
ボルト／ビス
  6
CONTINUOUS
 62
    64
 10
-8.05631
 20
-84.625962
 11
-8.144015
 21
-84.391655
  0
LINE
  8
ボルト／ビス
  6
CONTINUOUS
 62
    64
 10
-8.390785
 20
-84.350453
 11
-8.144015
 21
-84.391655
  0
LINE
  8
ボルト／ビス
  6
CONTINUOUS
 62
    64
 10
-8.215375
 20
-84.819073
 11
-8.462145
 21
-84.77787
  0
LINE
  8
ボルト／ビス
  6
CONTINUOUS
 62
    64
 10
-8.54985
 20
-84.543563
 11
-8.462145
 21
-84.77787
  0
LINE
  8
ボルト／ビス
  6
CONTINUOUS
 62
    64
 10
-8.05631
 20
-84.625962
 11
-8.215375
 21
-84.819073
  0
LINE
  8
ボルト／ビス
  6
CONTINUOUS
 62
    64
 10
-8.390785
 20
-84.350453
 11
-8.54985
 21
-84.543563
  0
CIRCLE
  8
ボルト／ビス
  6
CONTINUOUS
 62
    64
 10
-8.30308
 20
-84.584763
 40
0.216668
  0
CIRCLE
  8
ボルト／ビス
  6
CONTINUOUS
 10
-20.524218
 20
-74.51807
 40
0.250185
  0
CIRCLE
  8
ボルト／ビス
  6
CONTINUOUS
 10
-20.524218
 20
-74.51807
 40
0.301025
  0
LINE
  8
ボルト／ビス
  6
CONTINUOUS
 62
    64
 10
-20.277448
 20
-74.559273
 11
-20.365153
 21
-74.324963
  0
LINE
  8
ボルト／ビス
  6
CONTINUOUS
 62
    64
 10
-20.611925
 20
-74.283763
 11
-20.365153
 21
-74.324963
  0
LINE
  8
ボルト／ビス
  6
CONTINUOUS
 62
    64
 10
-20.436513
 20
-74.75238
 11
-20.683285
 21
-74.71118
  0
LINE
  8
ボルト／ビス
  6
CONTINUOUS
 62
    64
 10
-20.77099
 20
-74.47687
 11
-20.683285
 21
-74.71118
  0
LINE
  8
ボルト／ビス
  6
CONTINUOUS
 62
    64
 10
-20.277448
 20
-74.559273
 11
-20.436513
 21
-74.75238
  0
LINE
  8
ボルト／ビス
  6
CONTINUOUS
 62
    64
 10
-20.611925
 20
-74.283763
 11
-20.77099
 21
-74.47687
  0
CIRCLE
  8
ボルト／ビス
  6
CONTINUOUS
 62
    64
 10
-20.524218
 20
-74.51807
 40
0.216668
  0
CIRCLE
  8
ボルト／ビス
  6
CONTINUOUS
 10
-32.745357
 20
-64.45138
 40
0.250185
  0
CIRCLE
  8
ボルト／ビス
  6
CONTINUOUS
 10
-32.745357
 20
-64.45138
 40
0.301025
  0
LINE
  8
ボルト／ビス
  6
CONTINUOUS
 62
    64
 10
-32.833062
 20
-64.21707
 11
-32.586293
 21
-64.258273
  0
LINE
  8
ボルト／ビス
  6
CONTINUOUS
 62
    64
 10
-32.498585
 20
-64.49258
 11
-32.586293
 21
-64.258273
  0
LINE
  8
ボルト／ビス
  6
CONTINUOUS
 62
    64
 10
-32.992127
 20
-64.41018
 11
-32.904422
 21
-64.644488
  0
LINE
  8
ボルト／ビス
  6
CONTINUOUS
 62
    64
 10
-32.657653
 20
-64.68569
 11
-32.904422
 21
-64.644488
  0
LINE
  8
ボルト／ビス
  6
CONTINUOUS
 62
    64
 10
-32.833062
 20
-64.21707
 11
-32.992127
 21
-64.41018
  0
LINE
  8
ボルト／ビス
  6
CONTINUOUS
 62
    64
 10
-32.498585
 20
-64.49258
 11
-32.657653
 21
-64.68569
  0
CIRCLE
  8
ボルト／ビス
  6
CONTINUOUS
 62
    64
 10
-32.745357
 20
-64.45138
 40
0.216668
  0
ENDBLK
  0
BLOCK
  2
*GRP_0020
 70
    65
 10
0.0
 20
0.0
  0
LINE
  8
補助線
  6
BYBLOCK
 62
    64
 10
-32.681033
 20
-84.53178
 11
-32.809677
 21
-84.637745
  0
LINE
  8
補助線
  6
BYBLOCK
 62
    64
 10
-32.79834
 20
-84.520438
 11
-32.692372
 21
-84.649085
  0
LINE
  8
補助線
  6
BYBLOCK
 62
    64
 10
-20.459895
 20
-74.46509
 11
-20.58854
 21
-74.571053
  0
LINE
  8
補助線
  6
BYBLOCK
 62
    64
 10
-20.5772
 20
-74.453748
 11
-20.471235
 21
-74.582392
  0
LINE
  8
補助線
  6
BYBLOCK
 62
    64
 10
-8.3674
 20
-64.504363
 11
-8.238757
 21
-64.398398
  0
LINE
  8
補助線
  6
BYBLOCK
 62
    64
 10
-8.356063
 20
-64.387055
 11
-8.250095
 21
-64.515703
  0
LINE
  8
型材断面
  6
CONTINUOUS
 10
-33.532467
 20
-84.153475
 11
-33.6005
 21
-84.857302
  0
LINE
  8
型材断面
  6
CONTINUOUS
 10
-33.6005
 20
-84.857302
 11
-33.17664
 21
-85.371875
  0
LINE
  8
型材断面
  6
CONTINUOUS
 10
-33.17664
 20
-85.371875
 11
-32.472815
 21
-85.43991
  0
LINE
  8
型材断面
  6
CONTINUOUS
 10
-8.575618
 20
-63.596235
 11
-7.871792
 21
-63.66427
  0
LINE
  8
型材断面
  6
CONTINUOUS
 10
-7.871792
 20
-63.66427
 11
-7.44793
 21
-64.178842
  0
LINE
  8
型材断面
  6
CONTINUOUS
 10
-7.44793
 20
-64.178842
 11
-7.515965
 21
-64.88267
  0
LINE
  8
型材断面
  6
CONTINUOUS
 10
-33.532467
 20
-84.153475
 11
-8.575618
 21
-63.596235
  0
LINE
  8
型材断面
  6
CONTINUOUS
 10
-32.472815
 20
-85.43991
 11
-7.515965
 21
-64.88267
  0
CIRCLE
  8
ボルト／ビス
  6
CONTINUOUS
 10
-32.745355
 20
-84.584763
 40
0.250185
  0
CIRCLE
  8
ボルト／ビス
  6
CONTINUOUS
 10
-32.745355
 20
-84.584763
 40
0.301025
  0
LINE
  8
ボルト／ビス
  6
CONTINUOUS
 62
    64
 10
-32.992125
 20
-84.625962
 11
-32.90442
 21
-84.391655
  0
LINE
  8
ボルト／ビス
  6
CONTINUOUS
 62
    64
 10
-32.65765
 20
-84.350453
 11
-32.90442
 21
-84.391655
  0
LINE
  8
ボルト／ビス
  6
CONTINUOUS
 62
    64
 10
-32.83306
 20
-84.819073
 11
-32.58629
 21
-84.77787
  0
LINE
  8
ボルト／ビス
  6
CONTINUOUS
 62
    64
 10
-32.498585
 20
-84.543563
 11
-32.58629
 21
-84.77787
  0
LINE
  8
ボルト／ビス
  6
CONTINUOUS
 62
    64
 10
-32.992125
 20
-84.625962
 11
-32.83306
 21
-84.819073
  0
LINE
  8
ボルト／ビス
  6
CONTINUOUS
 62
    64
 10
-32.65765
 20
-84.350453
 11
-32.498585
 21
-84.543563
  0
CIRCLE
  8
ボルト／ビス
  6
CONTINUOUS
 62
    64
 10
-32.745355
 20
-84.584763
 40
0.216668
  0
CIRCLE
  8
ボルト／ビス
  6
CONTINUOUS
 10
-20.524218
 20
-74.51807
 40
0.250185
  0
CIRCLE
  8
ボルト／ビス
  6
CONTINUOUS
 10
-20.524218
 20
-74.51807
 40
0.301025
  0
LINE
  8
ボルト／ビス
  6
CONTINUOUS
 62
    64
 10
-20.770987
 20
-74.559273
 11
-20.683283
 21
-74.324963
  0
LINE
  8
ボルト／ビス
  6
CONTINUOUS
 62
    64
 10
-20.43651
 20
-74.283763
 11
-20.683283
 21
-74.324963
  0
LINE
  8
ボルト／ビス
  6
CONTINUOUS
 62
    64
 10
-20.611923
 20
-74.75238
 11
-20.36515
 21
-74.71118
  0
LINE
  8
ボルト／ビス
  6
CONTINUOUS
 62
    64
 10
-20.277445
 20
-74.47687
 11
-20.36515
 21
-74.71118
  0
LINE
  8
ボルト／ビス
  6
CONTINUOUS
 62
    64
 10
-20.770987
 20
-74.559273
 11
-20.611923
 21
-74.75238
  0
LINE
  8
ボルト／ビス
  6
CONTINUOUS
 62
    64
 10
-20.43651
 20
-74.283763
 11
-20.277445
 21
-74.47687
  0
CIRCLE
  8
ボルト／ビス
  6
CONTINUOUS
 62
    64
 10
-20.524218
 20
-74.51807
 40
0.216668
  0
CIRCLE
  8
ボルト／ビス
  6
CONTINUOUS
 10
-8.303078
 20
-64.45138
 40
0.250185
  0
CIRCLE
  8
ボルト／ビス
  6
CONTINUOUS
 10
-8.303078
 20
-64.45138
 40
0.301025
  0
LINE
  8
ボルト／ビス
  6
CONTINUOUS
 62
    64
 10
-8.215373
 20
-64.21707
 11
-8.462143
 21
-64.258273
  0
LINE
  8
ボルト／ビス
  6
CONTINUOUS
 62
    64
 10
-8.54985
 20
-64.49258
 11
-8.462143
 21
-64.258273
  0
LINE
  8
ボルト／ビス
  6
CONTINUOUS
 62
    64
 10
-8.056308
 20
-64.41018
 11
-8.144013
 21
-64.644488
  0
LINE
  8
ボルト／ビス
  6
CONTINUOUS
 62
    64
 10
-8.390783
 20
-64.68569
 11
-8.144013
 21
-64.644488
  0
LINE
  8
ボルト／ビス
  6
CONTINUOUS
 62
    64
 10
-8.215373
 20
-64.21707
 11
-8.056308
 21
-64.41018
  0
LINE
  8
ボルト／ビス
  6
CONTINUOUS
 62
    64
 10
-8.54985
 20
-64.49258
 11
-8.390783
 21
-64.68569
  0
CIRCLE
  8
ボルト／ビス
  6
CONTINUOUS
 62
    64
 10
-8.303078
 20
-64.45138
 40
0.216668
  0
ENDBLK
  0
BLOCK
  2
*DIM_0021
 70
    65
 10
0.0
 20
0.0
  0
LINE
  8
寸法
  6
BYBLOCK
 62
     0
 10
-91.30308
 20
8.08996
 11
-120.792158
 21
8.08996
  0
LINE
  8
寸法
  6
BYBLOCK
 62
     0
 10
-91.30308
 20
31.423293
 11
-120.792158
 21
31.423293
  0
LINE
  8
寸法
  6
BYBLOCK
 62
     0
 10
-120.792158
 20
8.08996
 11
-120.792158
 21
31.423293
  0
POINT
  8
寸法
 62
     0
 10
-120.792158
 20
8.08996
  0
POINT
  8
寸法
 62
     0
 10
-120.792158
 20
31.423293
  0
TEXT
  7
TextStyle03
  8
寸法
  6
CONTINUOUS
 62
     0
 10
-121.175
 20
17.3125
  1
700
 40
3.0
 50
90.0
 72
     5
 11
-121.175
 21
22.1875
  0
ENDBLK
  0
BLOCK
  2
*DIM_0022
 70
    65
 10
0.0
 20
0.0
  0
LINE
  8
寸法
  6
BYBLOCK
 62
     0
 10
-91.30308
 20
54.756625
 11
-120.792158
 21
54.756625
  0
LINE
  8
寸法
  6
BYBLOCK
 62
     0
 10
-120.792158
 20
31.423293
 11
-120.792158
 21
54.756625
  0
POINT
  8
寸法
 62
     0
 10
-120.792158
 20
54.756625
  0
TEXT
  7
TextStyle03
  8
寸法
  6
CONTINUOUS
 62
     0
 10
-121.175
 20
40.6375
  1
700
 40
3.0
 50
90.0
 72
     5
 11
-121.175
 21
45.5125
  0
ENDBLK
  0
BLOCK
  2
*DIM_0023
 70
    65
 10
0.0
 20
0.0
  0
LINE
  8
寸法
  6
BYBLOCK
 62
     0
 10
-81.636415
 20
67.756625
 11
-81.636415
 21
97.504245
  0
LINE
  8
寸法
  6
BYBLOCK
 62
     0
 10
-58.303082
 20
67.756625
 11
-58.303082
 21
97.504245
  0
LINE
  8
寸法
  6
BYBLOCK
 62
     0
 10
-81.636415
 20
97.504245
 11
-58.303082
 21
97.504245
  0
POINT
  8
寸法
 62
     0
 10
-81.636415
 20
97.504245
  0
POINT
  8
寸法
 62
     0
 10
-58.303082
 20
97.504245
  0
TEXT
  7
TextStyle03
  8
寸法
  6
CONTINUOUS
 62
     0
 10
-72.4125
 20
97.85
  1
700
 40
3.0
 72
     5
 11
-67.5375
 21
97.85
  0
ENDBLK
  0
BLOCK
  2
*DIM_0024
 70
    65
 10
0.0
 20
0.0
  0
LINE
  8
寸法
  6
BYBLOCK
 62
     0
 10
-34.969747
 20
67.756625
 11
-34.969747
 21
97.504245
  0
LINE
  8
寸法
  6
BYBLOCK
 62
     0
 10
-58.303082
 20
97.504245
 11
-34.969747
 21
97.504245
  0
POINT
  8
寸法
 62
     0
 10
-34.969747
 20
97.504245
  0
TEXT
  7
TextStyle03
  8
寸法
  6
CONTINUOUS
 62
     0
 10
-49.0875
 20
97.85
  1
700
 40
3.0
 72
     5
 11
-44.2125
 21
97.85
  0
ENDBLK
  0
BLOCK
  2
*DIM_0025
 70
    65
 10
0.0
 20
0.0
  0
LINE
  8
寸法
  6
BYBLOCK
 62
     0
 10
-11.636415
 20
67.756625
 11
-11.636415
 21
97.504245
  0
LINE
  8
寸法
  6
BYBLOCK
 62
     0
 10
-34.969747
 20
97.504245
 11
-11.636415
 21
97.504245
  0
POINT
  8
寸法
 62
     0
 10
-11.636415
 20
97.504245
  0
TEXT
  7
TextStyle03
  8
寸法
  6
CONTINUOUS
 62
     0
 10
-25.7375
 20
97.85
  1
700
 40
3.0
 72
     5
 11
-20.8625
 21
97.85
  0
ENDBLK
  0
BLOCK
  2
*DIM_0026
 70
    65
 10
0.0
 20
0.0
  0
LINE
  8
寸法
  6
BYBLOCK
 62
     0
 10
160.332612
 20
-33.849905
 11
168.071428
 21
-33.849905
  0
LINE
  8
寸法
  6
BYBLOCK
 62
     0
 10
160.332612
 20
-99.849905
 11
168.071428
 21
-99.849905
  0
LINE
  8
寸法
  6
BYBLOCK
 62
     0
 10
168.071428
 20
-33.849905
 11
168.071428
 21
-99.849905
  0
POINT
  8
寸法
 62
     0
 10
168.071428
 20
-33.849905
  0
POINT
  8
寸法
 62
     0
 10
168.071428
 20
-99.849905
  0
TEXT
  7
TextStyle03
  8
寸法
  6
CONTINUOUS
 62
     0
 10
167.675
 20
-70.13125
  1
1980
 40
3.0
 50
90.0
 72
     5
 11
167.675
 21
-63.56875
  0
ENDBLK
  0
BLOCK
  2
*DIM_0027
 70
    65
 10
0.0
 20
0.0
  0
LINE
  8
寸法
  6
BYBLOCK
 62
     0
 10
-18.636417
 20
-45.45793
 11
10.999902
 21
-45.45793
  0
LINE
  8
寸法
  6
BYBLOCK
 62
     0
 10
10.999902
 20
-62.95793
 11
10.999902
 21
-45.45793
  0
POINT
  8
寸法
 62
     0
 10
10.999902
 20
-62.95793
  0
POINT
  8
寸法
 62
     0
 10
10.999902
 20
-45.45793
  0
TEXT
  7
TextStyle03
  8
寸法
  6
CONTINUOUS
 62
     0
 10
15.6
 20
-63.04375
  1
上昇491以上
 40
3.0
 50
90.0
 72
     5
 11
15.6
 21
-44.85625
  0
ENDBLK
  0
BLOCK
  2
*GRP_0028
 70
    65
 10
0.0
 20
0.0
  0
LINE
  8
ボルト／ビス
  6
CONTINUOUS
 10
84.563517
 20
65.42329
 11
84.096853
 21
65.42329
  0
LINE
  8
ボルト／ビス
  6
CONTINUOUS
 10
84.563517
 20
65.056625
 11
84.496853
 21
65.056625
  0
LINE
  8
ボルト／ビス
  6
CONTINUOUS
 10
84.496853
 20
65.056625
 11
84.496853
 21
65.789957
  0
LINE
  8
ボルト／ビス
  6
CONTINUOUS
 10
84.496853
 20
65.789957
 11
84.563517
 21
65.789957
  0
LINE
  8
ボルト／ビス
  6
CONTINUOUS
 10
84.563517
 20
65.056625
 11
84.563517
 21
65.789957
  0
LINE
  8
ボルト／ビス
  6
CONTINUOUS
 10
84.463517
 20
65.12329
 11
84.496853
 21
65.12329
  0
LINE
  8
ボルト／ビス
  6
CONTINUOUS
 10
84.463517
 20
65.12329
 11
84.463517
 21
65.72329
  0
LINE
  8
ボルト／ビス
  6
CONTINUOUS
 10
84.463517
 20
65.72329
 11
84.496853
 21
65.72329
  0
LINE
  8
ボルト／ビス
  6
CONTINUOUS
 62
    64
 10
84.263517
 20
65.262915
 11
84.275193
 21
65.23084
  0
ARC
  8
ボルト／ビス
  6
CONTINUOUS
 62
    64
 10
84.368494
 20
65.278955
 40
0.104978
 50
152.721967
 51
180.0
  0
ARC
  8
ボルト／ビス
  6
CONTINUOUS
 62
    64
 10
84.665918
 20
65.423292
 40
0.402402
 50
166.165002
 51
193.834985
  0
LINE
  8
ボルト／ビス
  6
CONTINUOUS
 62
    64
 10
84.263517
 20
65.583665
 11
84.275193
 21
65.61574
  0
ARC
  8
ボルト／ビス
  6
CONTINUOUS
 62
    64
 10
84.368494
 20
65.56763
 40
0.104978
 50
180.0
 51
207.278033
  0
LINE
  8
ボルト／ビス
  6
CONTINUOUS
 62
    64
 10
84.263517
 20
65.262915
 11
84.263517
 21
65.583665
  0
LINE
  8
ボルト／ビス
  6
CONTINUOUS
 62
    64
 10
84.275193
 20
65.61574
 11
84.396853
 21
65.61574
  0
LINE
  8
ボルト／ビス
  6
CONTINUOUS
 62
    64
 10
84.275193
 20
65.519515
 11
84.396853
 21
65.519515
  0
LINE
  8
ボルト／ビス
  6
CONTINUOUS
 62
    64
 10
84.275193
 20
65.23084
 11
84.396853
 21
65.23084
  0
LINE
  8
ボルト／ビス
  6
CONTINUOUS
 62
    64
 10
84.275193
 20
65.327065
 11
84.396853
 21
65.327065
  0
LINE
  8
ボルト／ビス
  6
CONTINUOUS
 10
84.396853
 20
65.23084
 11
84.396853
 21
65.61574
  0
LINE
  8
ボルト／ビス
  6
CONTINUOUS
 10
84.396853
 20
65.22329
 11
84.463517
 21
65.22329
  0
LINE
  8
ボルト／ビス
  6
CONTINUOUS
 10
84.396853
 20
65.22329
 11
84.396853
 21
65.62329
  0
LINE
  8
ボルト／ビス
  6
CONTINUOUS
 10
84.396853
 20
65.62329
 11
84.463517
 21
65.62329
  0
ENDBLK
  0
BLOCK
  2
*GRP_0029
 70
    65
 10
0.0
 20
0.0
  0
LINE
  8
ボルト／ビス
  6
CONTINUOUS
 10
84.563517
 20
-2.57671
 11
84.096853
 21
-2.57671
  0
LINE
  8
ボルト／ビス
  6
CONTINUOUS
 10
84.563517
 20
-2.943375
 11
84.496853
 21
-2.943375
  0
LINE
  8
ボルト／ビス
  6
CONTINUOUS
 10
84.496853
 20
-2.943375
 11
84.496853
 21
-2.210042
  0
LINE
  8
ボルト／ビス
  6
CONTINUOUS
 10
84.496853
 20
-2.210042
 11
84.563517
 21
-2.210042
  0
LINE
  8
ボルト／ビス
  6
CONTINUOUS
 10
84.563517
 20
-2.943375
 11
84.563517
 21
-2.210042
  0
LINE
  8
ボルト／ビス
  6
CONTINUOUS
 10
84.463517
 20
-2.87671
 11
84.496853
 21
-2.87671
  0
LINE
  8
ボルト／ビス
  6
CONTINUOUS
 10
84.463517
 20
-2.87671
 11
84.463517
 21
-2.27671
  0
LINE
  8
ボルト／ビス
  6
CONTINUOUS
 10
84.463517
 20
-2.27671
 11
84.496853
 21
-2.27671
  0
LINE
  8
ボルト／ビス
  6
CONTINUOUS
 62
    64
 10
84.263517
 20
-2.737085
 11
84.275193
 21
-2.76916
  0
ARC
  8
ボルト／ビス
  6
CONTINUOUS
 62
    64
 10
84.368494
 20
-2.721045
 40
0.104978
 50
152.721967
 51
180.0
  0
ARC
  8
ボルト／ビス
  6
CONTINUOUS
 62
    64
 10
84.665918
 20
-2.576708
 40
0.402402
 50
166.165002
 51
193.834985
  0
LINE
  8
ボルト／ビス
  6
CONTINUOUS
 62
    64
 10
84.263517
 20
-2.416335
 11
84.275193
 21
-2.38426
  0
ARC
  8
ボルト／ビス
  6
CONTINUOUS
 62
    64
 10
84.368494
 20
-2.43237
 40
0.104978
 50
180.0
 51
207.278033
  0
LINE
  8
ボルト／ビス
  6
CONTINUOUS
 62
    64
 10
84.263517
 20
-2.737085
 11
84.263517
 21
-2.416335
  0
LINE
  8
ボルト／ビス
  6
CONTINUOUS
 62
    64
 10
84.275193
 20
-2.38426
 11
84.396853
 21
-2.38426
  0
LINE
  8
ボルト／ビス
  6
CONTINUOUS
 62
    64
 10
84.275193
 20
-2.480485
 11
84.396853
 21
-2.480485
  0
LINE
  8
ボルト／ビス
  6
CONTINUOUS
 62
    64
 10
84.275193
 20
-2.76916
 11
84.396853
 21
-2.76916
  0
LINE
  8
ボルト／ビス
  6
CONTINUOUS
 62
    64
 10
84.275193
 20
-2.672935
 11
84.396853
 21
-2.672935
  0
LINE
  8
ボルト／ビス
  6
CONTINUOUS
 10
84.396853
 20
-2.76916
 11
84.396853
 21
-2.38426
  0
LINE
  8
ボルト／ビス
  6
CONTINUOUS
 10
84.396853
 20
-2.77671
 11
84.463517
 21
-2.77671
  0
LINE
  8
ボルト／ビス
  6
CONTINUOUS
 10
84.396853
 20
-2.77671
 11
84.396853
 21
-2.37671
  0
LINE
  8
ボルト／ビス
  6
CONTINUOUS
 10
84.396853
 20
-2.37671
 11
84.463517
 21
-2.37671
  0
ENDBLK
  0
BLOCK
  2
*GRP_0030
 70
    65
 10
0.0
 20
0.0
  0
LINE
  8
ボルト／ビス
  6
CONTINUOUS
 10
-4.30308
 20
-79.624597
 11
-4.30308
 21
-79.157932
  0
LINE
  8
ボルト／ビス
  6
CONTINUOUS
 10
-4.669745
 20
-79.624597
 11
-4.669745
 21
-79.557932
  0
LINE
  8
ボルト／ビス
  6
CONTINUOUS
 10
-4.669745
 20
-79.557932
 11
-3.936413
 21
-79.557932
  0
LINE
  8
ボルト／ビス
  6
CONTINUOUS
 10
-3.936413
 20
-79.557932
 11
-3.936413
 21
-79.624597
  0
LINE
  8
ボルト／ビス
  6
CONTINUOUS
 10
-4.669745
 20
-79.624597
 11
-3.936413
 21
-79.624597
  0
LINE
  8
ボルト／ビス
  6
CONTINUOUS
 10
-4.60308
 20
-79.524597
 11
-4.60308
 21
-79.557932
  0
LINE
  8
ボルト／ビス
  6
CONTINUOUS
 10
-4.60308
 20
-79.524597
 11
-4.00308
 21
-79.524597
  0
LINE
  8
ボルト／ビス
  6
CONTINUOUS
 10
-4.00308
 20
-79.524597
 11
-4.00308
 21
-79.557932
  0
LINE
  8
ボルト／ビス
  6
CONTINUOUS
 62
    64
 10
-4.463455
 20
-79.324597
 11
-4.49553
 21
-79.336272
  0
ARC
  8
ボルト／ビス
  6
CONTINUOUS
 62
    64
 10
-4.447416
 20
-79.429574
 40
0.104978
 50
62.721967
 51
90.0
  0
ARC
  8
ボルト／ビス
  6
CONTINUOUS
 62
    64
 10
-4.303079
 20
-79.726998
 40
0.402402
 50
76.165002
 51
103.834985
  0
LINE
  8
ボルト／ビス
  6
CONTINUOUS
 62
    64
 10
-4.142705
 20
-79.324597
 11
-4.11063
 21
-79.336272
  0
ARC
  8
ボルト／ビス
  6
CONTINUOUS
 62
    64
 10
-4.158741
 20
-79.429574
 40
0.104978
 50
90.0
 51
117.278033
  0
LINE
  8
ボルト／ビス
  6
CONTINUOUS
 62
    64
 10
-4.463455
 20
-79.324597
 11
-4.142705
 21
-79.324597
  0
LINE
  8
ボルト／ビス
  6
CONTINUOUS
 62
    64
 10
-4.11063
 20
-79.336272
 11
-4.11063
 21
-79.457932
  0
LINE
  8
ボルト／ビス
  6
CONTINUOUS
 62
    64
 10
-4.206855
 20
-79.336272
 11
-4.206855
 21
-79.457932
  0
LINE
  8
ボルト／ビス
  6
CONTINUOUS
 62
    64
 10
-4.49553
 20
-79.336272
 11
-4.49553
 21
-79.457932
  0
LINE
  8
ボルト／ビス
  6
CONTINUOUS
 62
    64
 10
-4.399305
 20
-79.336272
 11
-4.399305
 21
-79.457932
  0
LINE
  8
ボルト／ビス
  6
CONTINUOUS
 10
-4.49553
 20
-79.457932
 11
-4.11063
 21
-79.457932
  0
LINE
  8
ボルト／ビス
  6
CONTINUOUS
 10
-4.50308
 20
-79.457932
 11
-4.50308
 21
-79.524597
  0
LINE
  8
ボルト／ビス
  6
CONTINUOUS
 10
-4.50308
 20
-79.457932
 11
-4.10308
 21
-79.457932
  0
LINE
  8
ボルト／ビス
  6
CONTINUOUS
 10
-4.10308
 20
-79.457932
 11
-4.10308
 21
-79.524597
  0
ENDBLK
  0
BLOCK
  2
*GRP_0031
 70
    65
 10
0.0
 20
0.0
  0
LINE
  8
ボルト／ビス
  6
DOT
 10
-4.30308
 20
-62.124597
 11
-4.30308
 21
-61.657932
  0
LINE
  8
ボルト／ビス
  6
DOT
 10
-4.669745
 20
-62.124597
 11
-4.669745
 21
-62.057932
  0
LINE
  8
ボルト／ビス
  6
DOT
 10
-4.669745
 20
-62.057932
 11
-3.936413
 21
-62.057932
  0
LINE
  8
ボルト／ビス
  6
DOT
 10
-3.936413
 20
-62.057932
 11
-3.936413
 21
-62.124597
  0
LINE
  8
ボルト／ビス
  6
DOT
 10
-4.669745
 20
-62.124597
 11
-3.936413
 21
-62.124597
  0
LINE
  8
ボルト／ビス
  6
DOT
 10
-4.60308
 20
-62.024597
 11
-4.60308
 21
-62.057932
  0
LINE
  8
ボルト／ビス
  6
DOT
 10
-4.60308
 20
-62.024597
 11
-4.00308
 21
-62.024597
  0
LINE
  8
ボルト／ビス
  6
DOT
 10
-4.00308
 20
-62.024597
 11
-4.00308
 21
-62.057932
  0
LINE
  8
ボルト／ビス
  6
DOT
 62
    64
 10
-4.463455
 20
-61.824597
 11
-4.49553
 21
-61.836272
  0
ARC
  8
ボルト／ビス
  6
DOT
 62
    64
 10
-4.447416
 20
-61.929574
 40
0.104978
 50
62.721967
 51
90.0
  0
ARC
  8
ボルト／ビス
  6
DOT
 62
    64
 10
-4.303079
 20
-62.226998
 40
0.402402
 50
76.165002
 51
103.834985
  0
LINE
  8
ボルト／ビス
  6
DOT
 62
    64
 10
-4.142705
 20
-61.824597
 11
-4.11063
 21
-61.836272
  0
ARC
  8
ボルト／ビス
  6
DOT
 62
    64
 10
-4.158741
 20
-61.929574
 40
0.104978
 50
90.0
 51
117.278033
  0
LINE
  8
ボルト／ビス
  6
DOT
 62
    64
 10
-4.463455
 20
-61.824597
 11
-4.142705
 21
-61.824597
  0
LINE
  8
ボルト／ビス
  6
DOT
 62
    64
 10
-4.11063
 20
-61.836272
 11
-4.11063
 21
-61.957932
  0
LINE
  8
ボルト／ビス
  6
DOT
 62
    64
 10
-4.206855
 20
-61.836272
 11
-4.206855
 21
-61.957932
  0
LINE
  8
ボルト／ビス
  6
DOT
 62
    64
 10
-4.49553
 20
-61.836272
 11
-4.49553
 21
-61.957932
  0
LINE
  8
ボルト／ビス
  6
DOT
 62
    64
 10
-4.399305
 20
-61.836272
 11
-4.399305
 21
-61.957932
  0
LINE
  8
ボルト／ビス
  6
DOT
 10
-4.49553
 20
-61.957932
 11
-4.11063
 21
-61.957932
  0
LINE
  8
ボルト／ビス
  6
DOT
 10
-4.50308
 20
-61.957932
 11
-4.50308
 21
-62.024597
  0
LINE
  8
ボルト／ビス
  6
DOT
 10
-4.50308
 20
-61.957932
 11
-4.10308
 21
-61.957932
  0
LINE
  8
ボルト／ビス
  6
DOT
 10
-4.10308
 20
-61.957932
 11
-4.10308
 21
-62.024597
  0
ENDBLK
  0
BLOCK
  2
*GRP_0032
 70
    65
 10
0.0
 20
0.0
  0
LINE
  8
ボルト／ビス
  6
CONTINUOUS
 10
-88.96975
 20
-79.624597
 11
-88.96975
 21
-79.157932
  0
LINE
  8
ボルト／ビス
  6
CONTINUOUS
 10
-89.336415
 20
-79.624597
 11
-89.336415
 21
-79.557932
  0
LINE
  8
ボルト／ビス
  6
CONTINUOUS
 10
-89.336415
 20
-79.557932
 11
-88.603082
 21
-79.557932
  0
LINE
  8
ボルト／ビス
  6
CONTINUOUS
 10
-88.603082
 20
-79.557932
 11
-88.603082
 21
-79.624597
  0
LINE
  8
ボルト／ビス
  6
CONTINUOUS
 10
-89.336415
 20
-79.624597
 11
-88.603082
 21
-79.624597
  0
LINE
  8
ボルト／ビス
  6
CONTINUOUS
 10
-89.26975
 20
-79.524597
 11
-89.26975
 21
-79.557932
  0
LINE
  8
ボルト／ビス
  6
CONTINUOUS
 10
-89.26975
 20
-79.524597
 11
-88.66975
 21
-79.524597
  0
LINE
  8
ボルト／ビス
  6
CONTINUOUS
 10
-88.66975
 20
-79.524597
 11
-88.66975
 21
-79.557932
  0
LINE
  8
ボルト／ビス
  6
CONTINUOUS
 62
    64
 10
-89.130125
 20
-79.324597
 11
-89.1622
 21
-79.336272
  0
ARC
  8
ボルト／ビス
  6
CONTINUOUS
 62
    64
 10
-89.114086
 20
-79.429574
 40
0.104978
 50
62.721967
 51
90.0
  0
ARC
  8
ボルト／ビス
  6
CONTINUOUS
 62
    64
 10
-88.969749
 20
-79.726998
 40
0.402402
 50
76.165002
 51
103.834985
  0
LINE
  8
ボルト／ビス
  6
CONTINUOUS
 62
    64
 10
-88.809375
 20
-79.324597
 11
-88.7773
 21
-79.336272
  0
ARC
  8
ボルト／ビス
  6
CONTINUOUS
 62
    64
 10
-88.825411
 20
-79.429574
 40
0.104978
 50
90.0
 51
117.278033
  0
LINE
  8
ボルト／ビス
  6
CONTINUOUS
 62
    64
 10
-89.130125
 20
-79.324597
 11
-88.809375
 21
-79.324597
  0
LINE
  8
ボルト／ビス
  6
CONTINUOUS
 62
    64
 10
-88.7773
 20
-79.336272
 11
-88.7773
 21
-79.457932
  0
LINE
  8
ボルト／ビス
  6
CONTINUOUS
 62
    64
 10
-88.873525
 20
-79.336272
 11
-88.873525
 21
-79.457932
  0
LINE
  8
ボルト／ビス
  6
CONTINUOUS
 62
    64
 10
-89.1622
 20
-79.336272
 11
-89.1622
 21
-79.457932
  0
LINE
  8
ボルト／ビス
  6
CONTINUOUS
 62
    64
 10
-89.065975
 20
-79.336272
 11
-89.065975
 21
-79.457932
  0
LINE
  8
ボルト／ビス
  6
CONTINUOUS
 10
-89.1622
 20
-79.457932
 11
-88.7773
 21
-79.457932
  0
LINE
  8
ボルト／ビス
  6
CONTINUOUS
 10
-89.16975
 20
-79.457932
 11
-89.16975
 21
-79.524597
  0
LINE
  8
ボルト／ビス
  6
CONTINUOUS
 10
-89.16975
 20
-79.457932
 11
-88.76975
 21
-79.457932
  0
LINE
  8
ボルト／ビス
  6
CONTINUOUS
 10
-88.76975
 20
-79.457932
 11
-88.76975
 21
-79.524597
  0
ENDBLK
  0
BLOCK
  2
*GRP_0033
 70
    65
 10
0.0
 20
0.0
  0
LINE
  8
ボルト／ビス
  6
DOT
 10
-88.96975
 20
-62.124597
 11
-88.96975
 21
-61.657932
  0
LINE
  8
ボルト／ビス
  6
DOT
 10
-89.336415
 20
-62.124597
 11
-89.336415
 21
-62.057932
  0
LINE
  8
ボルト／ビス
  6
DOT
 10
-89.336415
 20
-62.057932
 11
-88.603082
 21
-62.057932
  0
LINE
  8
ボルト／ビス
  6
DOT
 10
-88.603082
 20
-62.057932
 11
-88.603082
 21
-62.124597
  0
LINE
  8
ボルト／ビス
  6
DOT
 10
-89.336415
 20
-62.124597
 11
-88.603082
 21
-62.124597
  0
LINE
  8
ボルト／ビス
  6
DOT
 10
-89.26975
 20
-62.024597
 11
-89.26975
 21
-62.057932
  0
LINE
  8
ボルト／ビス
  6
DOT
 10
-89.26975
 20
-62.024597
 11
-88.66975
 21
-62.024597
  0
LINE
  8
ボルト／ビス
  6
DOT
 10
-88.66975
 20
-62.024597
 11
-88.66975
 21
-62.057932
  0
LINE
  8
ボルト／ビス
  6
DOT
 62
    64
 10
-89.130125
 20
-61.824597
 11
-89.1622
 21
-61.836272
  0
ARC
  8
ボルト／ビス
  6
DOT
 62
    64
 10
-89.114086
 20
-61.929574
 40
0.104978
 50
62.721967
 51
90.0
  0
ARC
  8
ボルト／ビス
  6
DOT
 62
    64
 10
-88.969749
 20
-62.226998
 40
0.402402
 50
76.165002
 51
103.834985
  0
LINE
  8
ボルト／ビス
  6
DOT
 62
    64
 10
-88.809375
 20
-61.824597
 11
-88.7773
 21
-61.836272
  0
ARC
  8
ボルト／ビス
  6
DOT
 62
    64
 10
-88.825411
 20
-61.929574
 40
0.104978
 50
90.0
 51
117.278033
  0
LINE
  8
ボルト／ビス
  6
DOT
 62
    64
 10
-89.130125
 20
-61.824597
 11
-88.809375
 21
-61.824597
  0
LINE
  8
ボルト／ビス
  6
DOT
 62
    64
 10
-88.7773
 20
-61.836272
 11
-88.7773
 21
-61.957932
  0
LINE
  8
ボルト／ビス
  6
DOT
 62
    64
 10
-88.873525
 20
-61.836272
 11
-88.873525
 21
-61.957932
  0
LINE
  8
ボルト／ビス
  6
DOT
 62
    64
 10
-89.1622
 20
-61.836272
 11
-89.1622
 21
-61.957932
  0
LINE
  8
ボルト／ビス
  6
DOT
 62
    64
 10
-89.065975
 20
-61.836272
 11
-89.065975
 21
-61.957932
  0
LINE
  8
ボルト／ビス
  6
DOT
 10
-89.1622
 20
-61.957932
 11
-88.7773
 21
-61.957932
  0
LINE
  8
ボルト／ビス
  6
DOT
 10
-89.16975
 20
-61.957932
 11
-89.16975
 21
-62.024597
  0
LINE
  8
ボルト／ビス
  6
DOT
 10
-89.16975
 20
-61.957932
 11
-88.76975
 21
-61.957932
  0
LINE
  8
ボルト／ビス
  6
DOT
 10
-88.76975
 20
-61.957932
 11
-88.76975
 21
-62.024597
  0
ENDBLK
  0
ENDSEC
  0
SECTION
  2
ENTITIES
  0
POLYLINE
  8
通り芯
  6
CONTINUOUS
 66
     1
 70
     1
  0
VERTEX
  8
通り芯
 10
-210.0
 20
-148.5
  0
VERTEX
  8
通り芯
 10
210.0
 20
-148.5
  0
VERTEX
  8
通り芯
 10
210.0
 20
148.5
  0
VERTEX
  8
通り芯
 10
-210.0
 20
148.5
  0
SEQEND
  0
INSERT
  2
*GRP_0001
  8
型材断面
  6
CONTINUOUS
 10
0.0
 20
0.0
  0
LINE
  8
型材断面
  6
DASHDOT
 10
-4.969747
 20
64.756625
 11
-4.969747
 21
-87.251428
  0
LINE
  8
型材断面
  6
DASHDOT
 10
-46.636415
 20
64.756625
 11
-46.636415
 21
-87.251428
  0
LINE
  8
型材断面
  6
DASHDOT
 10
-88.30308
 20
64.756625
 11
-88.30308
 21
-87.251428
  0
LINE
  8
型材断面
  6
DOT
 10
-88.303082
 20
32.673293
 11
-56.286415
 21
32.673293
  0
LINE
  8
型材断面
  6
DOT
 10
-88.303082
 20
30.173293
 11
-56.286415
 21
30.173293
  0
LINE
  8
型材断面
  6
DASHDOT
 10
92.707015
 20
-1.910042
 11
-88.30308
 21
-1.910042
  0
LINE
  8
型材断面
  6
DASHDOT
 10
92.707015
 20
31.423293
 11
-88.30308
 21
31.423293
  0
LINE
  8
型材断面
  6
DASHDOT
 10
92.707015
 20
64.756625
 11
-88.30308
 21
64.756625
  0
LINE
  8
型材断面
  6
DOT
 10
-45.386415
 20
-1.910042
 11
-45.386415
 21
64.756625
  0
LINE
  8
型材断面
  6
DOT
 10
-47.886415
 20
-1.910042
 11
-47.886415
 21
64.756625
  0
LINE
  8
型材断面
  6
DOT
 10
-70.45308
 20
32.673293
 11
-47.886415
 21
32.673293
  0
LINE
  8
型材断面
  6
DOT
 10
-70.45308
 20
30.173293
 11
-47.886415
 21
30.173293
  0
LINE
  8
型材断面
  6
DOT
 10
-4.969747
 20
32.673293
 11
-45.386415
 21
32.673293
  0
LINE
  8
型材断面
  6
DOT
 10
-4.969747
 20
30.173293
 11
-45.386415
 21
30.173293
  0
POLYLINE
  8
型材断面
  6
CONTINUOUS
 66
     1
 70
     1
  0
VERTEX
  8
型材断面
 10
-36.783512
 20
-11.012788
  0
VERTEX
  8
型材断面
 10
-55.555443
 20
-11.012788
  0
VERTEX
  8
型材断面
 10
-55.555443
 20
-15.74963
  0
VERTEX
  8
型材断面
 10
-36.783512
 20
-15.74963
  0
SEQEND
  0
POLYLINE
  8
型材断面
  6
CONTINUOUS
 66
     1
 70
     1
  0
VERTEX
  8
型材断面
 10
-36.783512
 20
75.205727
  0
VERTEX
  8
型材断面
 10
-55.555443
 20
75.205727
  0
VERTEX
  8
型材断面
 10
-55.555443
 20
79.94257
  0
VERTEX
  8
型材断面
 10
-36.783512
 20
79.94257
  0
SEQEND
  0
LINE
  8
型材断面
  6
CONTINUOUS
 10
-90.93321
 20
31.423293
 11
-93.523718
 21
32.918923
  0
LINE
  8
型材断面
  6
CONTINUOUS
 10
-90.93321
 20
31.423293
 11
-93.523718
 21
29.927663
  0
LINE
  8
型材断面
  6
CONTINUOUS
 10
-93.523718
 20
29.927663
 11
-93.523718
 21
32.918923
  0
LINE
  8
型材断面
  6
CONTINUOUS
 10
-129.155288
 20
102.734097
 11
-128.559232
 21
100.14359
  0
LINE
  8
型材断面
  6
CONTINUOUS
 10
-129.155288
 20
102.734097
 11
-129.751345
 21
100.14359
  0
LINE
  8
型材断面
  6
CONTINUOUS
 10
-129.751345
 20
100.14359
 11
-128.559232
 21
100.14359
  0
LINE
  8
型材断面
  6
CONTINUOUS
 10
-135.177875
 20
96.864697
 11
-88.936097
 21
96.864697
  0
LINE
  8
型材断面
  6
CONTINUOUS
 10
-129.155288
 20
109.263973
 11
-130.650918
 21
106.673465
  0
LINE
  8
型材断面
  6
CONTINUOUS
 10
-129.155288
 20
109.263973
 11
-127.659657
 21
106.673465
  0
LINE
  8
型材断面
  6
CONTINUOUS
 10
-127.659657
 20
106.673465
 11
-130.650918
 21
106.673465
  0
LINE
  8
型材断面
  6
CONTINUOUS
 10
-135.177875
 20
105.73487
 11
-88.936097
 21
105.73487
  0
LINE
  8
型材断面
  6
CONTINUOUS
 10
-135.177875
 20
91.076665
 11
-88.936097
 21
91.076665
  0
LINE
  8
型材断面
  6
CONTINUOUS
 10
-71.636413
 20
-4.54017
 11
-73.132042
 21
-7.130678
  0
LINE
  8
型材断面
  6
CONTINUOUS
 10
-71.636413
 20
-4.54017
 11
-70.140783
 21
-7.130678
  0
LINE
  8
型材断面
  6
CONTINUOUS
 10
-70.140783
 20
-7.130678
 11
-73.132042
 21
-7.130678
  0
LINE
  8
型材断面
  6
CONTINUOUS
 10
-71.636413
 20
67.386755
 11
-73.132042
 21
69.977262
  0
LINE
  8
型材断面
  6
CONTINUOUS
 10
-71.636413
 20
67.386755
 11
-70.140783
 21
69.977262
  0
LINE
  8
型材断面
  6
CONTINUOUS
 10
-70.140783
 20
69.977262
 11
-73.132042
 21
69.977262
  0
LINE
  8
型材断面
  6
CONTINUOUS
 10
-2.33962
 20
31.423293
 11
0.250887
 21
32.918923
  0
LINE
  8
型材断面
  6
CONTINUOUS
 10
-2.33962
 20
31.423293
 11
0.250887
 21
29.927663
  0
LINE
  8
型材断面
  6
CONTINUOUS
 10
0.250887
 20
29.927663
 11
0.250887
 21
32.918923
  0
LINE
  8
型材断面
  6
CONTINUOUS
 10
-21.636417
 20
-4.54017
 11
-20.140787
 21
-7.130678
  0
LINE
  8
型材断面
  6
CONTINUOUS
 10
-21.636417
 20
-4.54017
 11
-23.132048
 21
-7.130678
  0
LINE
  8
型材断面
  6
CONTINUOUS
 10
-23.132048
 20
-7.130678
 11
-20.140787
 21
-7.130678
  0
LINE
  8
型材断面
  6
CONTINUOUS
 10
-21.636417
 20
67.386755
 11
-20.140787
 21
69.977262
  0
LINE
  8
型材断面
  6
CONTINUOUS
 10
-21.636417
 20
67.386755
 11
-23.132048
 21
69.977262
  0
LINE
  8
型材断面
  6
CONTINUOUS
 10
-23.132048
 20
69.977262
 11
-20.140787
 21
69.977262
  0
LINE
  8
型材断面
  6
DASHDOT
 10
85.5968
 20
-1.910045
 11
91.616865
 21
-1.910045
  0
LINE
  8
型材断面
  6
CONTINUOUS
 62
    47
 10
87.880133
 20
-3.30671
 11
87.880133
 21
-2.52671
  0
LINE
  8
型材断面
  6
CONTINUOUS
 10
86.0468
 20
-3.40671
 11
85.5968
 21
-3.40671
  0
LINE
  8
型材断面
  6
CONTINUOUS
 62
    47
 10
88.719492
 20
-4.190045
 11
88.386158
 21
-4.190045
  0
LINE
  8
型材断面
  6
CONTINUOUS
 62
    47
 10
88.386158
 20
-4.190045
 11
88.286158
 21
-3.40671
  0
LINE
  8
型材断面
  6
CONTINUOUS
 62
    47
 10
87.880133
 20
-3.40671
 11
88.286158
 21
-3.40671
  0
LINE
  8
型材断面
  6
CONTINUOUS
 62
    47
 10
87.880133
 20
-3.87671
 11
86.0468
 21
-3.87671
  0
LINE
  8
型材断面
  6
CONTINUOUS
 62
    47
 10
91.8468
 20
-3.310045
 11
91.3468
 21
-3.310045
  0
LINE
  8
型材断面
  6
CONTINUOUS
 62
    47
 10
91.3468
 20
-3.87671
 11
88.719492
 21
-3.87671
  0
LINE
  8
型材断面
  6
CONTINUOUS
 62
    47
 10
91.8468
 20
-3.310045
 11
91.8468
 21
31.42329
  0
LINE
  8
型材断面
  6
CONTINUOUS
 62
    47
 10
91.3468
 20
-3.87671
 11
91.3468
 21
31.42329
  0
LINE
  8
型材断面
  6
CONTINUOUS
 62
    47
 10
88.719492
 20
-4.190045
 11
88.719492
 21
31.42329
  0
LINE
  8
型材断面
  6
CONTINUOUS
 10
88.386158
 20
-4.190045
 11
88.386158
 21
31.42329
  0
LINE
  8
型材断面
  6
CONTINUOUS
 62
    47
 10
87.880133
 20
-3.87671
 11
87.880133
 21
31.42329
  0
LINE
  8
型材断面
  6
CONTINUOUS
 10
88.286158
 20
-3.40671
 11
88.286158
 21
31.42329
  0
LINE
  8
型材断面
  6
CONTINUOUS
 10
86.0468
 20
-3.87671
 11
86.0468
 21
31.42329
  0
LINE
  8
型材断面
  6
CONTINUOUS
 62
    47
 10
87.880133
 20
66.15329
 11
87.880133
 21
65.37329
  0
LINE
  8
型材断面
  6
CONTINUOUS
 10
86.0468
 20
66.25329
 11
85.5968
 21
66.25329
  0
LINE
  8
型材断面
  6
CONTINUOUS
 62
    47
 10
88.719492
 20
67.036622
 11
88.386158
 21
67.036622
  0
LINE
  8
型材断面
  6
CONTINUOUS
 62
    47
 10
88.386158
 20
67.036622
 11
88.286158
 21
66.25329
  0
LINE
  8
型材断面
  6
CONTINUOUS
 62
    47
 10
87.880133
 20
66.25329
 11
88.286158
 21
66.25329
  0
LINE
  8
型材断面
  6
CONTINUOUS
 62
    47
 10
87.880133
 20
66.72329
 11
86.0468
 21
66.72329
  0
LINE
  8
型材断面
  6
CONTINUOUS
 62
    47
 10
91.8468
 20
66.156623
 11
91.3468
 21
66.156623
  0
LINE
  8
型材断面
  6
CONTINUOUS
 62
    47
 10
91.3468
 20
66.72329
 11
88.719492
 21
66.72329
  0
LINE
  8
型材断面
  6
CONTINUOUS
 62
    47
 10
91.8468
 20
66.156623
 11
91.8468
 21
31.42329
  0
LINE
  8
型材断面
  6
CONTINUOUS
 62
    47
 10
91.3468
 20
66.72329
 11
91.3468
 21
31.42329
  0
LINE
  8
型材断面
  6
CONTINUOUS
 62
    47
 10
88.719492
 20
67.036622
 11
88.719492
 21
31.42329
  0
LINE
  8
型材断面
  6
CONTINUOUS
 10
88.386158
 20
67.036622
 11
88.386158
 21
31.42329
  0
LINE
  8
型材断面
  6
CONTINUOUS
 62
    47
 10
87.880133
 20
66.72329
 11
87.880133
 21
31.42329
  0
LINE
  8
型材断面
  6
CONTINUOUS
 10
88.286158
 20
66.25329
 11
88.286158
 21
31.42329
  0
LINE
  8
型材断面
  6
CONTINUOUS
 10
86.0468
 20
66.72329
 11
86.0468
 21
31.42329
  0
LINE
  8
型材断面
  6
DASHDOT
 10
-88.303085
 20
-80.657882
 11
-88.303085
 21
-86.677948
  0
LINE
  8
型材断面
  6
CONTINUOUS
 62
    47
 10
-89.69975
 20
-82.941215
 11
-88.91975
 21
-82.941215
  0
LINE
  8
型材断面
  6
CONTINUOUS
 10
-89.79975
 20
-81.107882
 11
-89.79975
 21
-80.657882
  0
LINE
  8
型材断面
  6
CONTINUOUS
 62
    47
 10
-90.583085
 20
-83.780575
 11
-90.583085
 21
-83.44724
  0
LINE
  8
型材断面
  6
CONTINUOUS
 62
    47
 10
-90.583085
 20
-83.44724
 11
-89.79975
 21
-83.34724
  0
LINE
  8
型材断面
  6
CONTINUOUS
 62
    47
 10
-89.79975
 20
-82.941215
 11
-89.79975
 21
-83.34724
  0
LINE
  8
型材断面
  6
CONTINUOUS
 62
    47
 10
-90.26975
 20
-82.941215
 11
-90.26975
 21
-81.107882
  0
LINE
  8
型材断面
  6
CONTINUOUS
 62
    47
 10
-89.703085
 20
-86.907882
 11
-89.703085
 21
-86.407882
  0
LINE
  8
型材断面
  6
CONTINUOUS
 62
    47
 10
-90.26975
 20
-86.407882
 11
-90.26975
 21
-83.780575
  0
LINE
  8
型材断面
  6
CONTINUOUS
 10
-90.26975
 20
-81.107882
 11
-46.636415
 21
-81.107882
  0
LINE
  8
型材断面
  6
CONTINUOUS
 62
    47
 10
-90.26975
 20
-82.941215
 11
-46.636415
 21
-82.941215
  0
LINE
  8
型材断面
  6
CONTINUOUS
 62
    47
 10
-90.583085
 20
-83.780575
 11
-46.636415
 21
-83.780575
  0
LINE
  8
型材断面
  6
CONTINUOUS
 10
-90.583085
 20
-83.44724
 11
-46.636415
 21
-83.44724
  0
LINE
  8
型材断面
  6
CONTINUOUS
 10
-89.79975
 20
-83.34724
 11
-46.636415
 21
-83.34724
  0
LINE
  8
型材断面
  6
CONTINUOUS
 62
    47
 10
-89.703085
 20
-86.907882
 11
-46.636415
 21
-86.907882
  0
LINE
  8
型材断面
  6
CONTINUOUS
 62
    47
 10
-90.26975
 20
-86.407882
 11
-46.636415
 21
-86.407882
  0
LINE
  8
型材断面
  6
CONTINUOUS
 62
    47
 10
-3.57308
 20
-82.941215
 11
-4.35308
 21
-82.941215
  0
LINE
  8
型材断面
  6
CONTINUOUS
 10
-3.47308
 20
-81.107882
 11
-3.47308
 21
-80.657882
  0
LINE
  8
型材断面
  6
CONTINUOUS
 62
    47
 10
-2.689745
 20
-83.780575
 11
-2.689745
 21
-83.44724
  0
LINE
  8
型材断面
  6
CONTINUOUS
 62
    47
 10
-2.689745
 20
-83.44724
 11
-3.47308
 21
-83.34724
  0
LINE
  8
型材断面
  6
CONTINUOUS
 62
    47
 10
-3.47308
 20
-82.941215
 11
-3.47308
 21
-83.34724
  0
LINE
  8
型材断面
  6
CONTINUOUS
 62
    47
 10
-3.00308
 20
-82.941215
 11
-3.00308
 21
-81.107882
  0
LINE
  8
型材断面
  6
CONTINUOUS
 62
    47
 10
-3.569745
 20
-86.907882
 11
-3.569745
 21
-86.407882
  0
LINE
  8
型材断面
  6
CONTINUOUS
 62
    47
 10
-3.00308
 20
-86.407882
 11
-3.00308
 21
-83.780575
  0
LINE
  8
型材断面
  6
CONTINUOUS
 10
-3.00308
 20
-81.107882
 11
-46.636415
 21
-81.107882
  0
LINE
  8
型材断面
  6
CONTINUOUS
 62
    47
 10
-3.00308
 20
-82.941215
 11
-46.636415
 21
-82.941215
  0
LINE
  8
型材断面
  6
CONTINUOUS
 62
    47
 10
-2.689745
 20
-83.780575
 11
-46.636415
 21
-83.780575
  0
LINE
  8
型材断面
  6
CONTINUOUS
 10
-2.689745
 20
-83.44724
 11
-46.636415
 21
-83.44724
  0
LINE
  8
型材断面
  6
CONTINUOUS
 10
-3.47308
 20
-83.34724
 11
-46.636415
 21
-83.34724
  0
LINE
  8
型材断面
  6
CONTINUOUS
 62
    47
 10
-3.569745
 20
-86.907882
 11
-46.636415
 21
-86.907882
  0
LINE
  8
型材断面
  6
CONTINUOUS
 62
    47
 10
-3.00308
 20
-86.407882
 11
-46.636415
 21
-86.407882
  0
LINE
  8
型材断面
  6
CONTINUOUS
 10
-2.90308
 20
-3.97671
 11
-2.689745
 21
-4.190045
  0
LINE
  8
型材断面
  6
CONTINUOUS
 10
-2.689745
 20
-4.190045
 11
-46.636415
 21
-4.190045
  0
LINE
  8
型材断面
  6
CONTINUOUS
 10
-2.689745
 20
-4.190045
 11
-2.689745
 21
31.423293
  0
LINE
  8
型材断面
  6
CONTINUOUS
 10
-2.90308
 20
66.823295
 11
-2.689745
 21
67.03663
  0
LINE
  8
型材断面
  6
CONTINUOUS
 10
-2.689745
 20
67.03663
 11
-46.636415
 21
67.03663
  0
LINE
  8
型材断面
  6
CONTINUOUS
 10
-2.689745
 20
67.03663
 11
-2.689745
 21
31.423293
  0
LINE
  8
型材断面
  6
CONTINUOUS
 10
-90.36975
 20
66.823295
 11
-90.583085
 21
67.03663
  0
LINE
  8
型材断面
  6
CONTINUOUS
 10
-90.583085
 20
67.03663
 11
-46.636415
 21
67.03663
  0
LINE
  8
型材断面
  6
CONTINUOUS
 10
-90.583085
 20
67.03663
 11
-90.583085
 21
31.423293
  0
LINE
  8
型材断面
  6
CONTINUOUS
 10
-90.36975
 20
-3.97671
 11
-90.583085
 21
-4.190045
  0
LINE
  8
型材断面
  6
CONTINUOUS
 10
-90.583085
 20
-4.190045
 11
-46.636415
 21
-4.190045
  0
LINE
  8
型材断面
  6
CONTINUOUS
 10
-90.583085
 20
-4.190045
 11
-90.583085
 21
31.423293
  0
LINE
  8
型材断面
  6
CONTINUOUS
 10
-2.33962
 20
60.856625
 11
0.250887
 21
60.260568
  0
LINE
  8
型材断面
  6
CONTINUOUS
 10
-2.33962
 20
60.856625
 11
0.250887
 21
61.452683
  0
LINE
  8
型材断面
  6
CONTINUOUS
 10
0.250887
 20
61.452683
 11
0.250887
 21
60.260568
  0
LINE
  8
型材断面
  6
CONTINUOUS
 10
-2.33962
 20
1.98996
 11
0.250887
 21
2.586017
  0
LINE
  8
型材断面
  6
CONTINUOUS
 10
-2.33962
 20
1.98996
 11
0.250887
 21
1.393902
  0
LINE
  8
型材断面
  6
CONTINUOUS
 10
0.250887
 20
1.393902
 11
0.250887
 21
2.586017
  0
LINE
  8
型材断面
  6
CONTINUOUS
 10
-90.93321
 20
60.856625
 11
-93.523718
 21
60.260568
  0
LINE
  8
型材断面
  6
CONTINUOUS
 10
-90.93321
 20
60.856625
 11
-93.523718
 21
61.452683
  0
LINE
  8
型材断面
  6
CONTINUOUS
 10
-93.523718
 20
61.452683
 11
-93.523718
 21
60.260568
  0
LINE
  8
型材断面
  6
CONTINUOUS
 10
-90.93321
 20
1.98996
 11
-93.523718
 21
2.586017
  0
LINE
  8
型材断面
  6
CONTINUOUS
 10
-90.93321
 20
1.98996
 11
-93.523718
 21
1.393902
  0
LINE
  8
型材断面
  6
CONTINUOUS
 10
-93.523718
 20
1.393902
 11
-93.523718
 21
2.586017
  0
LINE
  8
型材断面
  6
DOT
 62
    47
 10
-89.69975
 20
-65.441215
 11
-88.91975
 21
-65.441215
  0
LINE
  8
型材断面
  6
DOT
 10
-89.79975
 20
-63.607882
 11
-89.79975
 21
-63.157882
  0
LINE
  8
型材断面
  6
DOT
 62
    47
 10
-90.583085
 20
-66.280575
 11
-90.583085
 21
-65.94724
  0
LINE
  8
型材断面
  6
DOT
 62
    47
 10
-90.583085
 20
-65.94724
 11
-89.79975
 21
-65.84724
  0
LINE
  8
型材断面
  6
DOT
 62
    47
 10
-89.79975
 20
-65.441215
 11
-89.79975
 21
-65.84724
  0
LINE
  8
型材断面
  6
DOT
 62
    47
 10
-90.26975
 20
-65.441215
 11
-90.26975
 21
-63.607882
  0
LINE
  8
型材断面
  6
DOT
 10
-20.13975
 20
-63.607882
 11
-20.13975
 21
-63.157882
  0
LINE
  8
型材断面
  6
DOT
 10
-90.26975
 20
-63.607882
 11
-46.636415
 21
-63.607882
  0
LINE
  8
型材断面
  6
DOT
 62
    47
 10
-90.26975
 20
-65.441215
 11
-46.636415
 21
-65.441215
  0
LINE
  8
型材断面
  6
DOT
 62
    47
 10
-90.583085
 20
-66.280575
 11
-46.636415
 21
-66.280575
  0
LINE
  8
型材断面
  6
DOT
 10
-90.583085
 20
-65.94724
 11
-46.636415
 21
-65.94724
  0
LINE
  8
型材断面
  6
DOT
 10
-89.79975
 20
-65.84724
 11
-46.636415
 21
-65.84724
  0
LINE
  8
型材断面
  6
DOT
 62
    47
 10
-3.57308
 20
-65.441215
 11
-4.35308
 21
-65.441215
  0
LINE
  8
型材断面
  6
DOT
 10
-3.47308
 20
-63.607882
 11
-3.47308
 21
-63.157882
  0
LINE
  8
型材断面
  6
DOT
 62
    47
 10
-2.689745
 20
-66.280575
 11
-2.689745
 21
-65.94724
  0
LINE
  8
型材断面
  6
DOT
 62
    47
 10
-2.689745
 20
-65.94724
 11
-3.47308
 21
-65.84724
  0
LINE
  8
型材断面
  6
DOT
 62
    47
 10
-3.47308
 20
-65.441215
 11
-3.47308
 21
-65.84724
  0
LINE
  8
型材断面
  6
DOT
 62
    47
 10
-3.00308
 20
-65.441215
 11
-3.00308
 21
-63.607882
  0
LINE
  8
型材断面
  6
DOT
 10
-3.00308
 20
-63.607882
 11
-46.636415
 21
-63.607882
  0
LINE
  8
型材断面
  6
DOT
 62
    47
 10
-3.00308
 20
-65.441215
 11
-46.636415
 21
-65.441215
  0
LINE
  8
型材断面
  6
DOT
 62
    47
 10
-2.689745
 20
-66.280575
 11
-46.636415
 21
-66.280575
  0
LINE
  8
型材断面
  6
DOT
 10
-2.689745
 20
-65.94724
 11
-46.636415
 21
-65.94724
  0
LINE
  8
型材断面
  6
DOT
 10
-3.47308
 20
-65.84724
 11
-46.636415
 21
-65.84724
  0
INSERT
  2
*GRP_0017
  8
型材断面
  6
CONTINUOUS
 10
0.0
 20
0.0
  0
INSERT
  2
*GRP_0018
  8
型材断面
  6
CONTINUOUS
 10
0.0
 20
0.0
  0
INSERT
  2
*GRP_0019
  8
型材断面
  6
CONTINUOUS
 10
0.0
 20
0.0
  0
INSERT
  2
*GRP_0020
  8
型材断面
  6
CONTINUOUS
 10
0.0
 20
0.0
  0
LINE
  8
型材断面
  6
CONTINUOUS
 10
-135.177875
 20
85.288632
 11
-88.936097
 21
85.288632
  0
TEXT
  7
TextStyle03
  8
文字
  6
CONTINUOUS
 10
-54.55
 20
-14.7
  1
可動装置側
 40
3.0
 72
     5
 11
-38.05
 21
-14.7
  0
TEXT
  7
TextStyle03
  8
文字
  6
CONTINUOUS
 10
-54.55
 20
75.975
  1
可動装置側
 40
3.0
 72
     5
 11
-38.05
 21
75.975
  0
TEXT
  7
TextStyle03
  8
文字
  6
CONTINUOUS
 10
-127.025
 20
2.025
  1
アンカーピッチ
 40
3.0
 50
90.0
 72
     5
 11
-127.025
 21
25.275
  0
TEXT
  7
TextStyle03
  8
文字
  6
CONTINUOUS
 10
-126.35
 20
101.325
  1
はケーシング位置を示す
 40
3.0
 72
     5
 11
-89.6
 21
101.325
  0
TEXT
  7
TextStyle03
  8
文字
  6
CONTINUOUS
 10
-126.35
 20
97.95
  1
４ヶ所中1ヶ所に設定
 40
3.0
 72
     5
 11
-94.6625
 21
97.95
  0
TEXT
  7
TextStyle03
  8
文字
  6
CONTINUOUS
 10
-126.35
 20
106.85
  1
は排水穴位置を示す
 40
3.0
 72
     5
 11
-96.35
 21
106.85
  0
TEXT
  7
TextStyle03
  8
文字
  6
CONTINUOUS
 10
-130.075
 20
91.975
  1
アンカー数量　１４ヶ所
 40
3.0
 72
     5
 11
-93.325
 21
91.975
  0
TEXT
  7
TextStyle03
  8
文字
  6
CONTINUOUS
 10
136.475
 20
-91.75
  1
網入り6.8t
 40
3.0
 72
     5
 11
153.1625
 21
-91.75
  0
TEXT
  7
TextStyle03
  8
文字
  6
CONTINUOUS
 10
142.775
 20
-96.375
  1
×２枚
 40
3.0
 72
     5
 11
152.525
 21
-96.375
  0
TEXT
  7
TextStyle03
  8
文字
  6
CONTINUOUS
 10
-81.675
 20
102.75
  1
アンカーピッチ
 40
3.0
 72
     5
 11
-58.425
 21
102.75
  0
TEXT
  7
TextStyle03
  8
文字
  6
CONTINUOUS
 10
-130.125
 20
86.2
  1
アームユニット数　４ヶ所
 40
3.0
 72
     5
 11
-90.0
 21
86.2
  0
TEXT
  7
TextStyle03
  8
文字
  6
CONTINUOUS
 10
78.1
 20
125.25
  1
シリーズ：ＳＴＤＬ
 40
5.0
 72
     5
 11
128.1
 21
125.25
  0
TEXT
  7
TextStyle03
  8
文字
  6
CONTINUOUS
 10
78.1
 20
119.625
  1
　　　　　（上下可動）2000×2500タイプ
 40
5.0
 72
     5
 11
184.35
 21
119.625
  0
TEXT
  7
TextStyle03
  8
文字
  6
CONTINUOUS
 10
78.1
 20
114.0
  1
図面名　：外観姿図
 40
5.0
 72
     5
 11
128.1
 21
114.0
  0
TEXT
  7
TextStyle03
  8
文字
  6
CONTINUOUS
 10
78.1
 20
108.375
  1
　　　　　　
 40
5.0
 72
     5
 11
111.225
 21
108.375
  0
TEXT
  7
TextStyle03
  8
文字
  6
CONTINUOUS
 10
77.425
 20
103.975
  1
ＮＳコード：ＮＳＤＳＬ
 40
5.0
 72
     5
 11
138.675
 21
103.975
  0
INSERT
  2
*DIM_0002
  8
寸法
  6
CONTINUOUS
 10
0.0
 20
0.0
  0
INSERT
  2
*DIM_0003
  8
寸法
  6
CONTINUOUS
 10
0.0
 20
0.0
  0
INSERT
  2
*DIM_0004
  8
寸法
  6
CONTINUOUS
 10
0.0
 20
0.0
  0
INSERT
  2
*DIM_0005
  8
寸法
  6
CONTINUOUS
 10
0.0
 20
0.0
  0
INSERT
  2
*DIM_0006
  8
寸法
  6
CONTINUOUS
 10
0.0
 20
0.0
  0
INSERT
  2
*DIM_0007
  8
寸法
  6
CONTINUOUS
 10
0.0
 20
0.0
  0
INSERT
  2
*DIM_0008
  8
寸法
  6
CONTINUOUS
 10
0.0
 20
0.0
  0
INSERT
  2
*DIM_0009
  8
寸法
  6
CONTINUOUS
 10
0.0
 20
0.0
  0
INSERT
  2
*DIM_0010
  8
寸法
  6
CONTINUOUS
 10
0.0
 20
0.0
  0
INSERT
  2
*DIM_0011
  8
寸法
  6
CONTINUOUS
 10
0.0
 20
0.0
  0
INSERT
  2
*DIM_0012
  8
寸法
  6
CONTINUOUS
 10
0.0
 20
0.0
  0
INSERT
  2
*DIM_0013
  8
寸法
  6
CONTINUOUS
 10
0.0
 20
0.0
  0
INSERT
  2
*DIM_0014
  8
寸法
  6
CONTINUOUS
 10
0.0
 20
0.0
  0
INSERT
  2
*DIM_0015
  8
寸法
  6
CONTINUOUS
 10
0.0
 20
0.0
  0
INSERT
  2
*DIM_0021
  8
寸法
  6
CONTINUOUS
 10
0.0
 20
0.0
  0
INSERT
  2
*DIM_0022
  8
寸法
  6
CONTINUOUS
 10
0.0
 20
0.0
  0
INSERT
  2
*DIM_0023
  8
寸法
  6
CONTINUOUS
 10
0.0
 20
0.0
  0
INSERT
  2
*DIM_0024
  8
寸法
  6
CONTINUOUS
 10
0.0
 20
0.0
  0
INSERT
  2
*DIM_0025
  8
寸法
  6
CONTINUOUS
 10
0.0
 20
0.0
  0
INSERT
  2
*DIM_0026
  8
寸法
  6
CONTINUOUS
 10
0.0
 20
0.0
  0
INSERT
  2
*DIM_0027
  8
寸法
  6
CONTINUOUS
 10
0.0
 20
0.0
  0
LINE
  8
別途部材
  6
CONTINUOUS
 10
-2.90308
 20
-3.97671
 11
-3.30308
 21
-3.57671
  0
LINE
  8
別途部材
  6
CONTINUOUS
 10
-4.969747
 20
-1.910042
 11
-13.029003
 21
6.149215
  0
LINE
  8
別途部材
  6
CONTINUOUS
 10
-2.90308
 20
-3.97671
 11
-2.90308
 21
31.423293
  0
LINE
  8
別途部材
  6
CONTINUOUS
 10
-3.30308
 20
-3.57671
 11
-3.30308
 21
31.423293
  0
LINE
  8
別途部材
  6
CONTINUOUS
 10
-2.90308
 20
66.823295
 11
-3.30308
 21
66.423295
  0
LINE
  8
別途部材
  6
CONTINUOUS
 10
-4.969747
 20
64.756627
 11
-13.029003
 21
56.69737
  0
LINE
  8
別途部材
  6
CONTINUOUS
 10
-2.90308
 20
66.823295
 11
-2.90308
 21
31.423293
  0
LINE
  8
別途部材
  6
CONTINUOUS
 10
-3.30308
 20
66.423295
 11
-3.30308
 21
31.423293
  0
LINE
  8
別途部材
  6
CONTINUOUS
 62
    96
 10
84.563517
 20
-3.57671
 11
85.563517
 21
-3.97671
  0
ARC
  8
別途部材
  6
CONTINUOUS
 10
109.563514
 20
31.42329
 40
41.666665
 50
180.0
 51
233.130105
  0
ARC
  8
別途部材
  6
CONTINUOUS
 10
109.563514
 20
31.423291
 40
41.666665
 50
126.869895
 51
180.0
  0
LINE
  8
別途部材
  6
CONTINUOUS
 10
85.563517
 20
-3.97671
 11
85.563517
 21
31.42329
  0
LINE
  8
別途部材
  6
CONTINUOUS
 62
    96
 10
84.563517
 20
-3.57671
 11
84.563517
 21
31.42329
  0
LINE
  8
別途部材
  6
CONTINUOUS
 62
    96
 10
84.563517
 20
66.42329
 11
85.563517
 21
66.82329
  0
LINE
  8
別途部材
  6
CONTINUOUS
 10
85.563517
 20
66.82329
 11
85.563517
 21
31.42329
  0
LINE
  8
別途部材
  6
CONTINUOUS
 62
    96
 10
84.563517
 20
66.42329
 11
84.563517
 21
31.42329
  0
LINE
  8
別途部材
  6
CONTINUOUS
 10
-3.30308
 20
66.423295
 11
-46.636415
 21
66.423295
  0
LINE
  8
別途部材
  6
CONTINUOUS
 10
-2.90308
 20
66.823295
 11
-46.636415
 21
66.823295
  0
LINE
  8
別途部材
  6
CONTINUOUS
 10
-2.90308
 20
-3.97671
 11
-46.636415
 21
-3.97671
  0
LINE
  8
別途部材
  6
CONTINUOUS
 10
-3.30308
 20
-3.57671
 11
-46.636415
 21
-3.57671
  0
LINE
  8
別途部材
  6
CONTINUOUS
 10
-90.36975
 20
-3.97671
 11
-89.96975
 21
-3.57671
  0
LINE
  8
別途部材
  6
CONTINUOUS
 10
-88.303082
 20
-1.910042
 11
-80.243828
 21
6.149215
  0
LINE
  8
別途部材
  6
CONTINUOUS
 10
-90.36975
 20
-3.97671
 11
-90.36975
 21
31.423293
  0
LINE
  8
別途部材
  6
CONTINUOUS
 10
-89.96975
 20
-3.57671
 11
-89.96975
 21
31.423293
  0
LINE
  8
別途部材
  6
CONTINUOUS
 10
-90.36975
 20
66.823295
 11
-89.96975
 21
66.423295
  0
LINE
  8
別途部材
  6
CONTINUOUS
 10
-88.303082
 20
64.756627
 11
-80.243828
 21
56.69737
  0
LINE
  8
別途部材
  6
CONTINUOUS
 10
-90.36975
 20
66.823295
 11
-90.36975
 21
31.423293
  0
LINE
  8
別途部材
  6
CONTINUOUS
 10
-89.96975
 20
66.423295
 11
-89.96975
 21
31.423293
  0
LINE
  8
別途部材
  6
CONTINUOUS
 10
-89.96975
 20
66.423295
 11
-46.636415
 21
66.423295
  0
LINE
  8
別途部材
  6
CONTINUOUS
 10
-90.36975
 20
66.823295
 11
-46.636415
 21
66.823295
  0
LINE
  8
別途部材
  6
CONTINUOUS
 10
-90.36975
 20
-3.97671
 11
-46.636415
 21
-3.97671
  0
LINE
  8
別途部材
  6
CONTINUOUS
 10
-89.96975
 20
-3.57671
 11
-46.636415
 21
-3.57671
  0
INSERT
  2
*GRP_0016
  8
別途部材
  6
CONTINUOUS
 10
0.0
 20
0.0
  0
LINE
  8
別途部材
  6
DOT
 62
    96
 10
-3.30308
 20
-62.124597
 11
-2.90308
 21
-63.124597
  0
LINE
  8
別途部材
  6
DOT
 10
-2.90308
 20
-63.124597
 11
-46.636415
 21
-63.124597
  0
LINE
  8
別途部材
  6
DOT
 62
    96
 10
-3.30308
 20
-62.124597
 11
-46.636415
 21
-62.124597
  0
LINE
  8
別途部材
  6
DOT
 62
    96
 10
-89.96975
 20
-62.124597
 11
-90.36975
 21
-63.124597
  0
LINE
  8
別途部材
  6
DOT
 10
-90.36975
 20
-63.124597
 11
-46.636415
 21
-63.124597
  0
LINE
  8
別途部材
  6
DOT
 62
    96
 10
-89.96975
 20
-62.124597
 11
-46.636415
 21
-62.124597
  0
ARC
  8
別途部材
  6
DOT
 10
-71.636412
 20
-62.124597
 40
16.666667
 50
90.0
 51
180.0
  0
ARC
  8
別途部材
  6
DOT
 10
-21.636418
 20
-62.124597
 40
16.666667
 50
0.0
 51
90.0
  0
LINE
  8
別途部材
  6
DOT
 10
-46.636415
 20
-45.45793
 11
-21.636417
 21
-45.45793
  0
LINE
  8
別途部材
  6
DOT
 10
-46.636415
 20
-45.45793
 11
-71.636413
 21
-45.45793
  0
INSERT
  2
*GRP_0028
  8
別途部材
  6
DOT
 10
0.0
 20
0.0
  0
INSERT
  2
*GRP_0029
  8
別途部材
  6
DOT
 10
0.0
 20
0.0
  0
INSERT
  2
*GRP_0030
  8
別途部材
  6
DOT
 10
0.0
 20
0.0
  0
INSERT
  2
*GRP_0031
  8
別途部材
  6
DOT
 10
0.0
 20
0.0
  0
INSERT
  2
*GRP_0032
  8
別途部材
  6
DOT
 10
0.0
 20
0.0
  0
INSERT
  2
*GRP_0033
  8
別途部材
  6
DOT
 10
0.0
 20
0.0
  0
LINE
  8
曲げ物
  6
CONTINUOUS
 10
157.332612
 20
-99.849905
 11
116.665948
 21
-99.849905
  0
LINE
  8
曲げ物
  6
CONTINUOUS
 10
116.665948
 20
-99.849905
 11
116.665948
 21
-33.849905
  0
LINE
  8
曲げ物
  6
CONTINUOUS
 10
116.665948
 20
-33.849905
 11
157.332612
 21
-33.849905
  0
LINE
  8
曲げ物
  6
CONTINUOUS
 10
157.332612
 20
-99.849905
 11
157.332612
 21
-33.849905
  0
ENDSEC
  0
EOF
