  0
SECTION
  2
HEADER
  9
$EXTMIN
 10
-210.0
 20
-148.5
  9
$EXTMAX
 10
210.0
 20
148.5
  9
$PDMODE
 70
    32
  9
$PDSIZE
 40
1.5
  9
$LTSCALE
 40
10.0
  0
ENDSEC
  0
SECTION
  2
TABLES
  0
TABLE
  2
LTYPE
 70
    15
  0
LTYPE
  2
CONTINUOUS
 70
    64
  3
実線
 72
    65
 73
     0
 40
0.0
  0
LTYPE
  2
DASHED
 70
    64
  3
破線A
 72
    65
 73
     2
 40
0.6
 49
0.4
 49
-0.2
  0
LTYPE
  2
DASHEDX2
 70
    64
  3
破線B
 72
    65
 73
     2
 40
1.3
 49
0.9
 49
-0.4
  0
LTYPE
  2
DASHDOT
 70
    64
  3
１点鎖線A
 72
    65
 73
     4
 40
0.5375
 49
0.375
 49
-0.05
 49
0.0625
 49
-0.05
  0
LTYPE
  2
DASHDOTX2
 70
    64
  3
１点鎖線B
 72
    65
 73
     4
 40
1.075
 49
0.75
 49
-0.1
 49
0.125
 49
-0.1
  0
LTYPE
  2
DIVIDE2
 70
    64
  3
２点鎖線A
 72
    65
 73
     6
 40
0.5125
 49
0.3
 49
-0.0375
 49
0.05
 49
-0.0375
 49
0.05
 49
-0.0375
  0
LTYPE
  2
DIVIDE
 70
    64
  3
２点鎖線B
 72
    65
 73
     6
 40
1.05
 49
0.55
 49
-0.1
 49
0.1
 49
-0.1
 49
0.1
 49
-0.1
  0
LTYPE
  2
DOT
 70
    64
  3
点線A
 72
    65
 73
     2
 40
0.1125
 49
0.0625
 49
-0.05
  0
LTYPE
  2
DOTX2
 70
    64
  3
点線B
 72
    65
 73
     2
 40
0.275
 49
0.15
 49
-0.125
  0
LTYPE
  2
CONTINUOUS
 70
    64
  3
実線
 72
    65
 73
     0
 40
0.0
  0
LTYPE
  2
CONTINUOUS
 70
    64
  3
実線
 72
    65
 73
     0
 40
0.0
  0
LTYPE
  2
CONTINUOUS
 70
    64
  3
実線
 72
    65
 73
     0
 40
0.0
  0
LTYPE
  2
CONTINUOUS
 70
    64
  3
実線
 72
    65
 73
     0
 40
0.0
  0
LTYPE
  2
CONTINUOUS
 70
    64
  3
実線
 72
    65
 73
     0
 40
0.0
  0
LTYPE
  2
CONTINUOUS
 70
    64
  3
実線
 72
    65
 73
     0
 40
0.0
  0
ENDTAB
  0
TABLE
  2
LAYER
 70
    34
  0
LAYER
  2
通り芯
 70
     0
 62
    15
  6
CONTINUOUS
  0
LAYER
  2
補助線
 70
     0
 62
    16
  6
DOT
  0
LAYER
  2
躯体
 70
     0
 62
    31
  6
CONTINUOUS
  0
LAYER
  2
型材
 70
     0
 62
    32
  6
CONTINUOUS
  0
LAYER
  2
型材断面
 70
     0
 62
    47
  6
CONTINUOUS
  0
LAYER
  2
ガラス
 70
     0
 62
    48
  6
CONTINUOUS
  0
LAYER
  2
ゴム等
 70
     0
 62
    63
  6
CONTINUOUS
  0
LAYER
  2
ボルト／ビス
 70
     0
 62
    64
  6
CONTINUOUS
  0
LAYER
  2
文字
 70
     0
 62
    79
  6
CONTINUOUS
  0
LAYER
  2
寸法
 70
     0
 62
    80
  6
CONTINUOUS
  0
LAYER
  2
ﾊｯﾁﾝｸﾞ
 70
     0
 62
    95
  6
CONTINUOUS
  0
LAYER
  2
別途部材
 70
     0
 62
    96
  6
CONTINUOUS
  0
LAYER
  2
曲げ物
 70
     0
 62
   111
  6
CONTINUOUS
  0
LAYER
  2
鉄骨等
 70
     0
 62
   112
  6
CONTINUOUS
  0
LAYER
  2
St
 70
     0
 62
   127
  6
CONTINUOUS
  0
LAYER
  2
その他部品等
 70
     0
 62
   128
  6
CONTINUOUS
  0
LAYER
  2
ｶﾞｽｹｯﾄ
 70
     0
 62
   143
  6
CONTINUOUS
  0
LAYER
  2
ｽｹｯﾁ
 70
     0
 62
    14
  6
CONTINUOUS
  0
LAYER
  2
0
 70
     0
 62
    17
  6
CONTINUOUS
  0
LAYER
  2
1
 70
     0
 62
    30
  6
CONTINUOUS
  0
LAYER
  2
4
 70
     0
 62
    33
  6
CONTINUOUS
  0
LAYER
  2
ﾚｲﾔ3
 70
     0
 62
    46
  6
CONTINUOUS
  0
LAYER
  2
外形線
 70
     0
 62
    49
  6
CONTINUOUS
  0
LAYER
  2
部品
 70
     0
 62
    14
  6
CONTINUOUS
  0
LAYER
  2
サッシ芯
 70
     0
 62
    17
  6
DASHDOTX2
  0
LAYER
  2
寸法線
 70
     0
 62
    62
  6
CONTINUOUS
  0
LAYER
  2
姿図外形線
 70
     0
 62
    65
  6
CONTINUOUS
  0
LAYER
  2
姿補助線
 70
     0
 62
    30
  6
CONTINUOUS
  0
LAYER
  2
透視線
 70
     0
 62
    78
  6
DOT
  0
LAYER
  2
用紙
 70
     0
 62
    81
  6
CONTINUOUS
  0
LAYER
  2
実線図枠
 70
     0
 62
    94
  6
CONTINUOUS
  0
LAYER
  2
補助図枠
 70
     0
 62
    97
  6
CONTINUOUS
  0
LAYER
  2
建具記号
 70
     0
 62
   110
  6
CONTINUOUS
  0
LAYER
  2
補助文字
 70
     0
 62
   113
  6
CONTINUOUS
  0
ENDTAB
  0
TABLE
  2
STYLE
 70
    10
  0
STYLE
  2
STANDARD
 70
     0
 40
1.0
 41
1.0
 42
1.0
 50
0.0
 71
     0
  3
TXT
  4
BIGFONT
  0
STYLE
  2
TATE
 70
     4
 40
1.0
 41
1.0
 42
1.0
 50
0.0
 71
     0
  3
TXT
  4
BIGFONT
  0
STYLE
  2
TextStyle03
 70
     0
 40
1.0
 41
1.0
 42
1.0
 50
0.0
 71
     0
  3
MONOTXT
  4
BIGFONT
  0
STYLE
  2
TextStyle04
 70
     0
 40
1.0
 41
1.0
 42
1.0
 50
0.0
 71
     0
  3
MONOTXT
  4
BIGFONT
  0
STYLE
  2
TextStyle05
 70
     0
 40
1.0
 41
1.0
 42
1.0
 50
0.0
 71
     0
  3
MONOTXT
  4
BIGFONT
  0
STYLE
  2
TextStyle06
 70
     0
 40
1.0
 41
1.0
 42
1.0
 50
0.0
 71
     0
  3
MONOTXT
  4
BIGFONT
  0
STYLE
  2
TextStyle07
 70
     0
 40
1.0
 41
1.0
 42
1.0
 50
0.0
 71
     0
  3
MONOTXT
  4
BIGFONT
  0
STYLE
  2
TextStyle08
 70
     0
 40
1.0
 41
1.0
 42
1.0
 50
0.0
 71
     0
  3
MONOTXT
  4
BIGFONT
  0
STYLE
  2
TextStyle09
 70
     0
 40
1.0
 41
1.0
 42
1.0
 50
0.0
 71
     0
  3
MONOTXT
  4
BIGFONT
  0
STYLE
  2
TextStyle10
 70
     0
 40
1.0
 41
1.0
 42
1.0
 50
0.0
 71
     0
  3
MONOTXT
  4
BIGFONT
  0
ENDTAB
  0
ENDSEC
  0
SECTION
  2
BLOCKS
  0
BLOCK
  2
*GRP_0001
 70
    65
 10
0.0
 20
0.0
  0
LINE
  8
型材断面
  6
CONTINUOUS
 10
195.0
 20
133.5
 11
195.0
 21
-133.5
  0
LINE
  8
型材断面
  6
CONTINUOUS
 10
195.0
 20
-133.5
 11
-185.0
 21
-133.5
  0
LINE
  8
型材断面
  6
CONTINUOUS
 10
-185.0
 20
-133.5
 11
-185.0
 21
133.5
  0
LINE
  8
型材断面
  6
CONTINUOUS
 10
195.0
 20
133.5
 11
-185.0
 21
133.5
  0
LINE
  8
型材断面
  6
CONTINUOUS
 10
145.0
 20
-133.5
 11
145.0
 21
-118.5
  0
LINE
  8
型材断面
  6
CONTINUOUS
 10
195.0
 20
-118.5
 11
145.0
 21
-118.5
  0
ENDBLK
  0
BLOCK
  2
*DIM_0002
 70
    65
 10
0.0
 20
0.0
  0
LINE
  8
寸法
  6
BYBLOCK
 62
     0
 10
-128.742993
 20
-22.207025
 11
-128.742993
 21
-22.536362
  0
LINE
  8
寸法
  6
BYBLOCK
 62
     0
 10
71.257007
 20
-22.207025
 11
71.257007
 21
-22.536362
  0
LINE
  8
寸法
  6
BYBLOCK
 62
     0
 10
-128.742993
 20
-22.536362
 11
71.257007
 21
-22.536362
  0
POINT
  8
寸法
 62
     0
 10
-128.742993
 20
-22.536362
  0
POINT
  8
寸法
 62
     0
 10
71.257007
 20
-22.536362
  0
TEXT
  7
TextStyle03
  8
寸法
  6
CONTINUOUS
 62
     0
 10
-40.46875
 20
-22.175
  1
呼称寸法　6000
 40
3.0
 72
     5
 11
-17.03125
 21
-22.175
  0
ENDBLK
  0
BLOCK
  2
*DIM_0003
 70
    65
 10
0.0
 20
0.0
  0
LINE
  8
寸法
  6
BYBLOCK
 62
     0
 10
50.59034
 20
-67.95793
 11
87.226657
 21
-67.95793
  0
LINE
  8
寸法
  6
BYBLOCK
 62
     0
 10
87.226657
 20
-79.624597
 11
87.226657
 21
-67.95793
  0
POINT
  8
寸法
 62
     0
 10
87.226657
 20
-79.624597
  0
POINT
  8
寸法
 62
     0
 10
87.226657
 20
-67.95793
  0
TEXT
  7
TextStyle03
  8
寸法
  6
CONTINUOUS
 62
     0
 10
86.85
 20
-76.2375
  1
350
 40
3.0
 50
90.0
 72
     5
 11
86.85
 21
-71.3625
  0
ENDBLK
  0
BLOCK
  2
*DIM_0004
 70
    65
 10
0.0
 20
0.0
  0
LINE
  8
寸法
  6
BYBLOCK
 62
     0
 10
-112.076325
 20
9.76892
 11
-112.076325
 21
4.684867
  0
LINE
  8
寸法
  6
BYBLOCK
 62
     0
 10
-28.742993
 20
9.76892
 11
-28.742993
 21
4.684867
  0
LINE
  8
寸法
  6
BYBLOCK
 62
     0
 10
-112.076325
 20
4.684867
 11
-28.742993
 21
4.684867
  0
POINT
  8
寸法
 62
     0
 10
-112.076325
 20
4.684867
  0
POINT
  8
寸法
 62
     0
 10
-28.742993
 20
4.684867
  0
TEXT
  7
TextStyle03
  8
寸法
  6
CONTINUOUS
 62
     0
 10
-73.70625
 20
5.05
  1
2500
 40
3.0
 72
     5
 11
-67.14375
 21
5.05
  0
ENDBLK
  0
BLOCK
  2
*DIM_0005
 70
    65
 10
0.0
 20
0.0
  0
LINE
  8
寸法
  6
BYBLOCK
 62
     0
 10
54.59034
 20
9.76892
 11
54.59034
 21
4.684867
  0
LINE
  8
寸法
  6
BYBLOCK
 62
     0
 10
-28.742993
 20
4.684867
 11
54.59034
 21
4.684867
  0
POINT
  8
寸法
 62
     0
 10
54.59034
 20
4.684867
  0
TEXT
  7
TextStyle03
  8
寸法
  6
CONTINUOUS
 62
     0
 10
9.61875
 20
5.05
  1
2500
 40
3.0
 72
     5
 11
16.18125
 21
5.05
  0
ENDBLK
  0
BLOCK
  2
*DIM_0006
 70
    65
 10
0.0
 20
0.0
  0
LINE
  8
寸法
  6
BYBLOCK
 62
     0
 10
105.276657
 20
13.399048
 11
105.276657
 21
56.73238
  0
POINT
  8
寸法
 62
     0
 10
105.276657
 20
13.399048
  0
POINT
  8
寸法
 62
     0
 10
105.276657
 20
56.73238
  0
TEXT
  7
TextStyle03
  8
寸法
  6
CONTINUOUS
 62
     0
 10
104.9
 20
23.33125
  1
呼称寸法　1300
 40
3.0
 50
90.0
 72
     5
 11
104.9
 21
46.76875
  0
ENDBLK
  0
BLOCK
  2
*DIM_0007
 70
    65
 10
0.0
 20
0.0
  0
LINE
  8
寸法
  6
BYBLOCK
 62
     0
 10
149.123605
 20
36.065715
 11
149.123605
 21
72.668433
  0
LINE
  8
寸法
  6
BYBLOCK
 62
     0
 10
160.790272
 20
72.668433
 11
149.123605
 21
72.668433
  0
POINT
  8
寸法
 62
     0
 10
149.123605
 20
72.668433
  0
TEXT
  7
TextStyle03
  8
寸法
  6
CONTINUOUS
 62
     0
 10
152.5125
 20
73.025
  1
350
 40
3.0
 72
     5
 11
157.3875
 21
73.025
  0
ENDBLK
  0
BLOCK
  2
*DIM_0008
 70
    65
 10
0.0
 20
0.0
  0
LINE
  8
寸法
  6
BYBLOCK
 62
     0
 10
160.790272
 20
59.39905
 11
160.790272
 21
72.668433
  0
LINE
  8
寸法
  6
BYBLOCK
 62
     0
 10
167.573558
 20
59.69905
 11
167.573558
 21
72.668433
  0
LINE
  8
寸法
  6
BYBLOCK
 62
     0
 10
160.790272
 20
72.668433
 11
167.573558
 21
72.668433
  0
POINT
  8
寸法
 62
     0
 10
160.790272
 20
72.668433
  0
POINT
  8
寸法
 62
     0
 10
167.573558
 20
72.668433
  0
TEXT
  7
TextStyle03
  8
寸法
  6
CONTINUOUS
 62
     0
 10
168.425
 20
73.025
  1
203.5
 40
3.0
 72
     5
 11
176.675
 21
73.025
  0
ENDBLK
  0
BLOCK
  2
*DIM_0009
 70
    65
 10
0.0
 20
0.0
  0
LINE
  8
寸法
  6
BYBLOCK
 62
     0
 10
73.923675
 20
-79.624597
 11
87.226657
 21
-79.624597
  0
LINE
  8
寸法
  6
BYBLOCK
 62
     0
 10
74.223675
 20
-86.407882
 11
87.226657
 21
-86.407882
  0
LINE
  8
寸法
  6
BYBLOCK
 62
     0
 10
87.226657
 20
-79.624597
 11
87.226657
 21
-86.407882
  0
POINT
  8
寸法
 62
     0
 10
87.226657
 20
-79.624597
  0
POINT
  8
寸法
 62
     0
 10
87.226657
 20
-86.407882
  0
TEXT
  7
TextStyle03
  8
寸法
  6
CONTINUOUS
 62
     0
 10
86.8
 20
-95.575
  1
203.5
 40
3.0
 50
90.0
 72
     5
 11
86.8
 21
-87.325
  0
ENDBLK
  0
BLOCK
  2
*DIM_0010
 70
    65
 10
0.0
 20
0.0
  0
LINE
  8
寸法
  6
BYBLOCK
 62
     0
 10
163.612915
 20
59.012385
 11
105.276657
 21
59.012385
  0
LINE
  8
寸法
  6
BYBLOCK
 62
     0
 10
105.276657
 20
56.73238
 11
105.276657
 21
59.012385
  0
POINT
  8
寸法
 62
     0
 10
105.276657
 20
56.73238
  0
POINT
  8
寸法
 62
     0
 10
105.276657
 20
59.012385
  0
TEXT
  7
TextStyle03
  8
寸法
  6
CONTINUOUS
 62
     0
 10
104.85
 20
61.31875
  1
68.4
 40
3.0
 50
90.0
 72
     5
 11
104.85
 21
67.88125
  0
ENDBLK
  0
BLOCK
  2
*DIM_0011
 70
    65
 10
0.0
 20
0.0
  0
LINE
  8
寸法
  6
BYBLOCK
 62
     0
 10
163.612915
 20
11.119045
 11
105.276657
 21
11.119045
  0
LINE
  8
寸法
  6
BYBLOCK
 62
     0
 10
105.276657
 20
13.399048
 11
105.276657
 21
11.119045
  0
POINT
  8
寸法
 62
     0
 10
105.276657
 20
13.399048
  0
POINT
  8
寸法
 62
     0
 10
105.276657
 20
11.119045
  0
TEXT
  7
TextStyle03
  8
寸法
  6
CONTINUOUS
 62
     0
 10
104.85
 20
2.21875
  1
68.4
 40
3.0
 50
90.0
 72
     5
 11
104.85
 21
8.78125
  0
ENDBLK
  0
BLOCK
  2
*DIM_0012
 70
    65
 10
0.0
 20
0.0
  0
LINE
  8
寸法
  6
BYBLOCK
 62
     0
 10
73.53701
 20
-82.44724
 11
73.53701
 21
-22.536362
  0
LINE
  8
寸法
  6
BYBLOCK
 62
     0
 10
71.257007
 20
-22.536362
 11
73.53701
 21
-22.536362
  0
POINT
  8
寸法
 62
     0
 10
71.257007
 20
-22.536362
  0
POINT
  8
寸法
 62
     0
 10
73.53701
 20
-22.536362
  0
TEXT
  7
TextStyle03
  8
寸法
  6
CONTINUOUS
 62
     0
 10
75.79375
 20
-22.175
  1
68.4
 40
3.0
 72
     5
 11
82.35625
 21
-22.175
  0
ENDBLK
  0
BLOCK
  2
*DIM_0013
 70
    65
 10
0.0
 20
0.0
  0
LINE
  8
寸法
  6
BYBLOCK
 62
     0
 10
-131.022995
 20
-82.44724
 11
-131.022995
 21
-22.536362
  0
LINE
  8
寸法
  6
BYBLOCK
 62
     0
 10
-128.742993
 20
-22.536362
 11
-131.022995
 21
-22.536362
  0
POINT
  8
寸法
 62
     0
 10
-128.742993
 20
-22.536362
  0
POINT
  8
寸法
 62
     0
 10
-131.022995
 20
-22.536362
  0
TEXT
  7
TextStyle03
  8
寸法
  6
CONTINUOUS
 62
     0
 10
-139.93125
 20
-22.175
  1
68.4
 40
3.0
 72
     5
 11
-133.36875
 21
-22.175
  0
ENDBLK
  0
BLOCK
  2
*DIM_0014
 70
    65
 10
0.0
 20
0.0
  0
LINE
  8
寸法
  6
BYBLOCK
 62
     0
 10
74.887135
 20
52.83238
 11
81.664428
 21
52.83238
  0
LINE
  8
寸法
  6
BYBLOCK
 62
     0
 10
81.664428
 20
56.73238
 11
81.664428
 21
52.83238
  0
POINT
  8
寸法
 62
     0
 10
81.664428
 20
56.73238
  0
POINT
  8
寸法
 62
     0
 10
81.664428
 20
52.83238
  0
TEXT
  7
TextStyle03
  8
寸法
  6
CONTINUOUS
 62
     0
 10
81.3
 20
57.4125
  1
117
 40
3.0
 50
90.0
 72
     5
 11
81.3
 21
62.2875
  0
ENDBLK
  0
BLOCK
  2
*DIM_0015
 70
    65
 10
0.0
 20
0.0
  0
LINE
  8
寸法
  6
BYBLOCK
 62
     0
 10
74.887135
 20
17.29905
 11
81.664428
 21
17.29905
  0
LINE
  8
寸法
  6
BYBLOCK
 62
     0
 10
81.664428
 20
13.39905
 11
81.664428
 21
17.29905
  0
POINT
  8
寸法
 62
     0
 10
81.664428
 20
13.39905
  0
POINT
  8
寸法
 62
     0
 10
81.664428
 20
17.29905
  0
TEXT
  7
TextStyle03
  8
寸法
  6
CONTINUOUS
 62
     0
 10
81.725
 20
7.4625
  1
117
 40
3.0
 50
90.0
 72
     5
 11
81.725
 21
12.3375
  0
ENDBLK
  0
BLOCK
  2
*GRP_0016
 70
    65
 10
0.0
 20
0.0
  0
LINE
  8
別途部材
  6
CONTINUOUS
 62
    96
 10
-130.409657
 20
-79.624597
 11
-130.809657
 21
-80.624597
  0
LINE
  8
別途部材
  6
CONTINUOUS
 62
    96
 10
-130.409657
 20
-79.624597
 11
-28.742993
 21
-79.624597
  0
LINE
  8
別途部材
  6
CONTINUOUS
 10
-130.809657
 20
-80.624597
 11
-28.742993
 21
-80.624597
  0
ARC
  8
別途部材
  6
CONTINUOUS
 10
-107.076324
 20
-93.910312
 40
25.952382
 50
90.0
 51
146.601512
  0
LINE
  8
別途部材
  6
CONTINUOUS
 10
-29.242993
 20
-66.95793
 11
-30.242993
 21
-67.95793
  0
LINE
  8
別途部材
  6
CONTINUOUS
 10
-31.242993
 20
-67.95793
 11
-32.242993
 21
-66.95793
  0
LINE
  8
別途部材
  6
CONTINUOUS
 10
-33.242993
 20
-66.95793
 11
-34.242993
 21
-67.95793
  0
LINE
  8
別途部材
  6
CONTINUOUS
 10
-32.242993
 20
-66.95793
 11
-33.242993
 21
-66.95793
  0
LINE
  8
別途部材
  6
CONTINUOUS
 10
-29.242993
 20
-66.95793
 11
-28.742993
 21
-66.95793
  0
LINE
  8
別途部材
  6
CONTINUOUS
 10
-35.242993
 20
-67.95793
 11
-36.242993
 21
-66.95793
  0
LINE
  8
別途部材
  6
CONTINUOUS
 10
-37.242993
 20
-66.95793
 11
-38.242993
 21
-67.95793
  0
LINE
  8
別途部材
  6
CONTINUOUS
 10
-36.242993
 20
-66.95793
 11
-37.242993
 21
-66.95793
  0
LINE
  8
別途部材
  6
CONTINUOUS
 10
-39.242993
 20
-67.95793
 11
-40.242993
 21
-66.95793
  0
LINE
  8
別途部材
  6
CONTINUOUS
 10
-41.242993
 20
-66.95793
 11
-42.242993
 21
-67.95793
  0
LINE
  8
別途部材
  6
CONTINUOUS
 10
-40.242993
 20
-66.95793
 11
-41.242993
 21
-66.95793
  0
LINE
  8
別途部材
  6
CONTINUOUS
 10
-43.242993
 20
-67.95793
 11
-44.242993
 21
-66.95793
  0
LINE
  8
別途部材
  6
CONTINUOUS
 10
-45.242993
 20
-66.95793
 11
-46.242993
 21
-67.95793
  0
LINE
  8
別途部材
  6
CONTINUOUS
 10
-44.242993
 20
-66.95793
 11
-45.242993
 21
-66.95793
  0
LINE
  8
別途部材
  6
CONTINUOUS
 10
-47.242993
 20
-67.95793
 11
-48.242993
 21
-66.95793
  0
LINE
  8
別途部材
  6
CONTINUOUS
 10
-49.242993
 20
-66.95793
 11
-50.242993
 21
-67.95793
  0
LINE
  8
別途部材
  6
CONTINUOUS
 10
-48.242993
 20
-66.95793
 11
-49.242993
 21
-66.95793
  0
LINE
  8
別途部材
  6
CONTINUOUS
 10
-51.242993
 20
-67.95793
 11
-52.242993
 21
-66.95793
  0
LINE
  8
別途部材
  6
CONTINUOUS
 10
-53.242993
 20
-66.95793
 11
-54.242993
 21
-67.95793
  0
LINE
  8
別途部材
  6
CONTINUOUS
 10
-52.242993
 20
-66.95793
 11
-53.242993
 21
-66.95793
  0
LINE
  8
別途部材
  6
CONTINUOUS
 10
-55.242993
 20
-67.95793
 11
-56.242993
 21
-66.95793
  0
LINE
  8
別途部材
  6
CONTINUOUS
 10
-57.242993
 20
-66.95793
 11
-58.242993
 21
-67.95793
  0
LINE
  8
別途部材
  6
CONTINUOUS
 10
-56.242993
 20
-66.95793
 11
-57.242993
 21
-66.95793
  0
LINE
  8
別途部材
  6
CONTINUOUS
 10
-59.242993
 20
-67.95793
 11
-60.242993
 21
-66.95793
  0
LINE
  8
別途部材
  6
CONTINUOUS
 10
-61.242993
 20
-66.95793
 11
-62.242993
 21
-67.95793
  0
LINE
  8
別途部材
  6
CONTINUOUS
 10
-60.242993
 20
-66.95793
 11
-61.242993
 21
-66.95793
  0
LINE
  8
別途部材
  6
CONTINUOUS
 10
-63.242993
 20
-67.95793
 11
-64.242993
 21
-66.95793
  0
LINE
  8
別途部材
  6
CONTINUOUS
 10
-65.242993
 20
-66.95793
 11
-66.242993
 21
-67.95793
  0
LINE
  8
別途部材
  6
CONTINUOUS
 10
-64.242993
 20
-66.95793
 11
-65.242993
 21
-66.95793
  0
LINE
  8
別途部材
  6
CONTINUOUS
 10
-67.242993
 20
-67.95793
 11
-68.242993
 21
-66.95793
  0
LINE
  8
別途部材
  6
CONTINUOUS
 10
-69.242993
 20
-66.95793
 11
-70.242993
 21
-67.95793
  0
LINE
  8
別途部材
  6
CONTINUOUS
 10
-68.242993
 20
-66.95793
 11
-69.242993
 21
-66.95793
  0
LINE
  8
別途部材
  6
CONTINUOUS
 10
-71.242993
 20
-67.95793
 11
-72.242993
 21
-66.95793
  0
LINE
  8
別途部材
  6
CONTINUOUS
 10
-73.242993
 20
-66.95793
 11
-74.242993
 21
-67.95793
  0
LINE
  8
別途部材
  6
CONTINUOUS
 10
-72.242993
 20
-66.95793
 11
-73.242993
 21
-66.95793
  0
LINE
  8
別途部材
  6
CONTINUOUS
 10
-70.242993
 20
-67.95793
 11
-71.242993
 21
-67.95793
  0
LINE
  8
別途部材
  6
CONTINUOUS
 10
-66.242993
 20
-67.95793
 11
-67.242993
 21
-67.95793
  0
LINE
  8
別途部材
  6
CONTINUOUS
 10
-62.242993
 20
-67.95793
 11
-63.242993
 21
-67.95793
  0
LINE
  8
別途部材
  6
CONTINUOUS
 10
-58.242993
 20
-67.95793
 11
-59.242993
 21
-67.95793
  0
LINE
  8
別途部材
  6
CONTINUOUS
 10
-54.242993
 20
-67.95793
 11
-55.242993
 21
-67.95793
  0
LINE
  8
別途部材
  6
CONTINUOUS
 10
-50.242993
 20
-67.95793
 11
-51.242993
 21
-67.95793
  0
LINE
  8
別途部材
  6
CONTINUOUS
 10
-46.242993
 20
-67.95793
 11
-47.242993
 21
-67.95793
  0
LINE
  8
別途部材
  6
CONTINUOUS
 10
-42.242993
 20
-67.95793
 11
-43.242993
 21
-67.95793
  0
LINE
  8
別途部材
  6
CONTINUOUS
 10
-38.242993
 20
-67.95793
 11
-39.242993
 21
-67.95793
  0
LINE
  8
別途部材
  6
CONTINUOUS
 10
-34.242993
 20
-67.95793
 11
-35.242993
 21
-67.95793
  0
LINE
  8
別途部材
  6
CONTINUOUS
 10
-31.242993
 20
-67.95793
 11
-30.242993
 21
-67.95793
  0
LINE
  8
別途部材
  6
CONTINUOUS
 10
-71.242993
 20
-67.95793
 11
-71.242993
 21
-79.624597
  0
LINE
  8
別途部材
  6
CONTINUOUS
 10
-70.242993
 20
-67.95793
 11
-70.242993
 21
-79.624597
  0
LINE
  8
別途部材
  6
CONTINUOUS
 10
-72.242993
 20
-66.95793
 11
-72.242993
 21
-79.624597
  0
LINE
  8
別途部材
  6
CONTINUOUS
 10
-74.242993
 20
-67.95793
 11
-74.242993
 21
-79.624597
  0
LINE
  8
別途部材
  6
CONTINUOUS
 10
-73.242993
 20
-66.95793
 11
-73.242993
 21
-79.624597
  0
LINE
  8
別途部材
  6
CONTINUOUS
 10
-63.242993
 20
-67.95793
 11
-63.242993
 21
-79.624597
  0
LINE
  8
別途部材
  6
CONTINUOUS
 10
-65.242993
 20
-66.95793
 11
-65.242993
 21
-79.624597
  0
LINE
  8
別途部材
  6
CONTINUOUS
 10
-66.242993
 20
-67.95793
 11
-66.242993
 21
-79.624597
  0
LINE
  8
別途部材
  6
CONTINUOUS
 10
-68.242993
 20
-66.95793
 11
-68.242993
 21
-79.624597
  0
LINE
  8
別途部材
  6
CONTINUOUS
 10
-69.242993
 20
-66.95793
 11
-69.242993
 21
-79.624597
  0
LINE
  8
別途部材
  6
CONTINUOUS
 10
-67.242993
 20
-67.95793
 11
-67.242993
 21
-79.624597
  0
LINE
  8
別途部材
  6
CONTINUOUS
 10
-64.242993
 20
-66.95793
 11
-64.242993
 21
-79.624597
  0
LINE
  8
別途部材
  6
CONTINUOUS
 10
-62.242993
 20
-67.95793
 11
-62.242993
 21
-79.624597
  0
LINE
  8
別途部材
  6
CONTINUOUS
 10
-61.242993
 20
-66.95793
 11
-61.242993
 21
-79.624597
  0
LINE
  8
別途部材
  6
CONTINUOUS
 10
-51.242993
 20
-67.95793
 11
-51.242993
 21
-79.624597
  0
LINE
  8
別途部材
  6
CONTINUOUS
 10
-45.242993
 20
-66.95793
 11
-45.242993
 21
-79.624597
  0
LINE
  8
別途部材
  6
CONTINUOUS
 10
-44.242993
 20
-66.95793
 11
-44.242993
 21
-79.624597
  0
LINE
  8
別途部材
  6
CONTINUOUS
 10
-34.242993
 20
-67.95793
 11
-34.242993
 21
-79.624597
  0
LINE
  8
別途部材
  6
CONTINUOUS
 10
-29.242993
 20
-66.95793
 11
-29.242993
 21
-79.624597
  0
LINE
  8
別途部材
  6
CONTINUOUS
 10
-30.242993
 20
-67.95793
 11
-30.242993
 21
-79.624597
  0
LINE
  8
別途部材
  6
CONTINUOUS
 10
-32.242993
 20
-66.95793
 11
-32.242993
 21
-79.624597
  0
LINE
  8
別途部材
  6
CONTINUOUS
 10
-33.242993
 20
-66.95793
 11
-33.242993
 21
-79.624597
  0
LINE
  8
別途部材
  6
CONTINUOUS
 10
-35.242993
 20
-67.95793
 11
-35.242993
 21
-79.624597
  0
LINE
  8
別途部材
  6
CONTINUOUS
 10
-46.242993
 20
-67.95793
 11
-46.242993
 21
-79.624597
  0
LINE
  8
別途部材
  6
CONTINUOUS
 10
-47.242993
 20
-67.95793
 11
-47.242993
 21
-79.624597
  0
LINE
  8
別途部材
  6
CONTINUOUS
 10
-52.242993
 20
-66.95793
 11
-52.242993
 21
-79.624597
  0
LINE
  8
別途部材
  6
CONTINUOUS
 10
-54.242993
 20
-67.95793
 11
-54.242993
 21
-79.624597
  0
LINE
  8
別途部材
  6
CONTINUOUS
 10
-57.242993
 20
-66.95793
 11
-57.242993
 21
-79.624597
  0
LINE
  8
別途部材
  6
CONTINUOUS
 10
-60.242993
 20
-66.95793
 11
-60.242993
 21
-79.624597
  0
LINE
  8
別途部材
  6
CONTINUOUS
 10
-53.242993
 20
-66.95793
 11
-53.242993
 21
-79.624597
  0
LINE
  8
別途部材
  6
CONTINUOUS
 10
-55.242993
 20
-67.95793
 11
-55.242993
 21
-79.624597
  0
LINE
  8
別途部材
  6
CONTINUOUS
 10
-58.242993
 20
-67.95793
 11
-58.242993
 21
-79.624597
  0
LINE
  8
別途部材
  6
CONTINUOUS
 10
-59.242993
 20
-67.95793
 11
-59.242993
 21
-79.624597
  0
LINE
  8
別途部材
  6
CONTINUOUS
 10
-49.242993
 20
-66.95793
 11
-49.242993
 21
-79.624597
  0
LINE
  8
別途部材
  6
CONTINUOUS
 10
-48.242993
 20
-66.95793
 11
-48.242993
 21
-79.624597
  0
LINE
  8
別途部材
  6
CONTINUOUS
 10
-50.242993
 20
-67.95793
 11
-50.242993
 21
-79.624597
  0
LINE
  8
別途部材
  6
CONTINUOUS
 10
-56.242993
 20
-66.95793
 11
-56.242993
 21
-79.624597
  0
LINE
  8
別途部材
  6
CONTINUOUS
 10
-42.242993
 20
-67.95793
 11
-42.242993
 21
-79.624597
  0
LINE
  8
別途部材
  6
CONTINUOUS
 10
-43.242993
 20
-67.95793
 11
-43.242993
 21
-79.624597
  0
LINE
  8
別途部材
  6
CONTINUOUS
 10
-41.242993
 20
-66.95793
 11
-41.242993
 21
-79.624597
  0
LINE
  8
別途部材
  6
CONTINUOUS
 10
-39.242993
 20
-67.95793
 11
-39.242993
 21
-79.624597
  0
LINE
  8
別途部材
  6
CONTINUOUS
 10
-40.242993
 20
-66.95793
 11
-40.242993
 21
-79.624597
  0
LINE
  8
別途部材
  6
CONTINUOUS
 10
-38.242993
 20
-67.95793
 11
-38.242993
 21
-79.624597
  0
LINE
  8
別途部材
  6
CONTINUOUS
 10
-36.242993
 20
-66.95793
 11
-36.242993
 21
-79.624597
  0
LINE
  8
別途部材
  6
CONTINUOUS
 10
-37.242993
 20
-66.95793
 11
-37.242993
 21
-79.624597
  0
LINE
  8
別途部材
  6
CONTINUOUS
 10
-31.242993
 20
-67.95793
 11
-31.242993
 21
-79.624597
  0
LINE
  8
別途部材
  6
CONTINUOUS
 10
-75.242993
 20
-67.95793
 11
-76.242993
 21
-66.95793
  0
LINE
  8
別途部材
  6
CONTINUOUS
 10
-77.242993
 20
-66.95793
 11
-78.242993
 21
-67.95793
  0
LINE
  8
別途部材
  6
CONTINUOUS
 10
-76.242993
 20
-66.95793
 11
-77.242993
 21
-66.95793
  0
LINE
  8
別途部材
  6
CONTINUOUS
 10
-79.242993
 20
-67.95793
 11
-80.242993
 21
-66.95793
  0
LINE
  8
別途部材
  6
CONTINUOUS
 10
-81.242993
 20
-66.95793
 11
-82.242993
 21
-67.95793
  0
LINE
  8
別途部材
  6
CONTINUOUS
 10
-80.242993
 20
-66.95793
 11
-81.242993
 21
-66.95793
  0
LINE
  8
別途部材
  6
CONTINUOUS
 10
-83.242993
 20
-67.95793
 11
-84.242993
 21
-66.95793
  0
LINE
  8
別途部材
  6
CONTINUOUS
 10
-85.242993
 20
-66.95793
 11
-86.242993
 21
-67.95793
  0
LINE
  8
別途部材
  6
CONTINUOUS
 10
-84.242993
 20
-66.95793
 11
-85.242993
 21
-66.95793
  0
LINE
  8
別途部材
  6
CONTINUOUS
 10
-87.242993
 20
-67.95793
 11
-88.242993
 21
-66.95793
  0
LINE
  8
別途部材
  6
CONTINUOUS
 10
-89.242993
 20
-66.95793
 11
-90.242993
 21
-67.95793
  0
LINE
  8
別途部材
  6
CONTINUOUS
 10
-88.242993
 20
-66.95793
 11
-89.242993
 21
-66.95793
  0
LINE
  8
別途部材
  6
CONTINUOUS
 10
-91.242993
 20
-67.95793
 11
-92.242993
 21
-66.95793
  0
LINE
  8
別途部材
  6
CONTINUOUS
 10
-93.242993
 20
-66.95793
 11
-94.242993
 21
-67.95793
  0
LINE
  8
別途部材
  6
CONTINUOUS
 10
-92.242993
 20
-66.95793
 11
-93.242993
 21
-66.95793
  0
LINE
  8
別途部材
  6
CONTINUOUS
 10
-95.242993
 20
-67.95793
 11
-96.242993
 21
-66.95793
  0
LINE
  8
別途部材
  6
CONTINUOUS
 10
-97.242993
 20
-66.95793
 11
-98.242993
 21
-67.95793
  0
LINE
  8
別途部材
  6
CONTINUOUS
 10
-96.242993
 20
-66.95793
 11
-97.242993
 21
-66.95793
  0
LINE
  8
別途部材
  6
CONTINUOUS
 10
-99.242993
 20
-67.95793
 11
-100.242993
 21
-66.95793
  0
LINE
  8
別途部材
  6
CONTINUOUS
 10
-101.242993
 20
-66.95793
 11
-102.242993
 21
-67.95793
  0
LINE
  8
別途部材
  6
CONTINUOUS
 10
-100.242993
 20
-66.95793
 11
-101.242993
 21
-66.95793
  0
LINE
  8
別途部材
  6
CONTINUOUS
 10
-103.242993
 20
-67.95793
 11
-104.242993
 21
-66.95793
  0
LINE
  8
別途部材
  6
CONTINUOUS
 10
-105.242993
 20
-66.95793
 11
-106.242993
 21
-67.95793
  0
LINE
  8
別途部材
  6
CONTINUOUS
 10
-104.242993
 20
-66.95793
 11
-105.242993
 21
-66.95793
  0
LINE
  8
別途部材
  6
CONTINUOUS
 10
-106.242993
 20
-67.95793
 11
-107.242993
 21
-67.95793
  0
LINE
  8
別途部材
  6
CONTINUOUS
 10
-102.242993
 20
-67.95793
 11
-103.242993
 21
-67.95793
  0
LINE
  8
別途部材
  6
CONTINUOUS
 10
-98.242993
 20
-67.95793
 11
-99.242993
 21
-67.95793
  0
LINE
  8
別途部材
  6
CONTINUOUS
 10
-94.242993
 20
-67.95793
 11
-95.242993
 21
-67.95793
  0
LINE
  8
別途部材
  6
CONTINUOUS
 10
-90.242993
 20
-67.95793
 11
-91.242993
 21
-67.95793
  0
LINE
  8
別途部材
  6
CONTINUOUS
 10
-86.242993
 20
-67.95793
 11
-87.242993
 21
-67.95793
  0
LINE
  8
別途部材
  6
CONTINUOUS
 10
-82.242993
 20
-67.95793
 11
-83.242993
 21
-67.95793
  0
LINE
  8
別途部材
  6
CONTINUOUS
 10
-78.242993
 20
-67.95793
 11
-79.242993
 21
-67.95793
  0
LINE
  8
別途部材
  6
CONTINUOUS
 10
-74.242993
 20
-67.95793
 11
-75.242993
 21
-67.95793
  0
LINE
  8
別途部材
  6
CONTINUOUS
 10
-106.242993
 20
-67.95793
 11
-106.242993
 21
-79.624597
  0
LINE
  8
別途部材
  6
CONTINUOUS
 10
-99.242993
 20
-67.95793
 11
-99.242993
 21
-79.624597
  0
LINE
  8
別途部材
  6
CONTINUOUS
 10
-101.242993
 20
-66.95793
 11
-101.242993
 21
-79.624597
  0
LINE
  8
別途部材
  6
CONTINUOUS
 10
-102.242993
 20
-67.95793
 11
-102.242993
 21
-79.624597
  0
LINE
  8
別途部材
  6
CONTINUOUS
 10
-104.242993
 20
-66.95793
 11
-104.242993
 21
-79.624597
  0
LINE
  8
別途部材
  6
CONTINUOUS
 10
-105.242993
 20
-66.95793
 11
-105.242993
 21
-79.624597
  0
LINE
  8
別途部材
  6
CONTINUOUS
 10
-103.242993
 20
-67.95793
 11
-103.242993
 21
-79.624597
  0
LINE
  8
別途部材
  6
CONTINUOUS
 10
-100.242993
 20
-66.95793
 11
-100.242993
 21
-79.624597
  0
LINE
  8
別途部材
  6
CONTINUOUS
 10
-98.242993
 20
-67.95793
 11
-98.242993
 21
-79.624597
  0
LINE
  8
別途部材
  6
CONTINUOUS
 10
-97.242993
 20
-66.95793
 11
-97.242993
 21
-79.624597
  0
LINE
  8
別途部材
  6
CONTINUOUS
 10
-87.242993
 20
-67.95793
 11
-87.242993
 21
-79.624597
  0
LINE
  8
別途部材
  6
CONTINUOUS
 10
-81.242993
 20
-66.95793
 11
-81.242993
 21
-79.624597
  0
LINE
  8
別途部材
  6
CONTINUOUS
 10
-80.242993
 20
-66.95793
 11
-80.242993
 21
-79.624597
  0
LINE
  8
別途部材
  6
CONTINUOUS
 10
-82.242993
 20
-67.95793
 11
-82.242993
 21
-79.624597
  0
LINE
  8
別途部材
  6
CONTINUOUS
 10
-83.242993
 20
-67.95793
 11
-83.242993
 21
-79.624597
  0
LINE
  8
別途部材
  6
CONTINUOUS
 10
-88.242993
 20
-66.95793
 11
-88.242993
 21
-79.624597
  0
LINE
  8
別途部材
  6
CONTINUOUS
 10
-90.242993
 20
-67.95793
 11
-90.242993
 21
-79.624597
  0
LINE
  8
別途部材
  6
CONTINUOUS
 10
-93.242993
 20
-66.95793
 11
-93.242993
 21
-79.624597
  0
LINE
  8
別途部材
  6
CONTINUOUS
 10
-96.242993
 20
-66.95793
 11
-96.242993
 21
-79.624597
  0
LINE
  8
別途部材
  6
CONTINUOUS
 10
-89.242993
 20
-66.95793
 11
-89.242993
 21
-79.624597
  0
LINE
  8
別途部材
  6
CONTINUOUS
 10
-91.242993
 20
-67.95793
 11
-91.242993
 21
-79.624597
  0
LINE
  8
別途部材
  6
CONTINUOUS
 10
-94.242993
 20
-67.95793
 11
-94.242993
 21
-79.624597
  0
LINE
  8
別途部材
  6
CONTINUOUS
 10
-95.242993
 20
-67.95793
 11
-95.242993
 21
-79.624597
  0
LINE
  8
別途部材
  6
CONTINUOUS
 10
-85.242993
 20
-66.95793
 11
-85.242993
 21
-79.624597
  0
LINE
  8
別途部材
  6
CONTINUOUS
 10
-84.242993
 20
-66.95793
 11
-84.242993
 21
-79.624597
  0
LINE
  8
別途部材
  6
CONTINUOUS
 10
-86.242993
 20
-67.95793
 11
-86.242993
 21
-79.624597
  0
LINE
  8
別途部材
  6
CONTINUOUS
 10
-92.242993
 20
-66.95793
 11
-92.242993
 21
-79.624597
  0
LINE
  8
別途部材
  6
CONTINUOUS
 10
-78.242993
 20
-67.95793
 11
-78.242993
 21
-79.624597
  0
LINE
  8
別途部材
  6
CONTINUOUS
 10
-79.242993
 20
-67.95793
 11
-79.242993
 21
-79.624597
  0
LINE
  8
別途部材
  6
CONTINUOUS
 10
-77.242993
 20
-66.95793
 11
-77.242993
 21
-79.624597
  0
LINE
  8
別途部材
  6
CONTINUOUS
 10
-75.242993
 20
-67.95793
 11
-75.242993
 21
-79.624597
  0
LINE
  8
別途部材
  6
CONTINUOUS
 10
-76.242993
 20
-66.95793
 11
-76.242993
 21
-79.624597
  0
LINE
  8
別途部材
  6
CONTINUOUS
 62
    96
 10
72.923675
 20
-79.624597
 11
73.323675
 21
-80.624597
  0
LINE
  8
別途部材
  6
CONTINUOUS
 62
    96
 10
72.923675
 20
-79.624597
 11
-28.742993
 21
-79.624597
  0
LINE
  8
別途部材
  6
CONTINUOUS
 10
73.323675
 20
-80.624597
 11
-28.742993
 21
-80.624597
  0
ARC
  8
別途部材
  6
CONTINUOUS
 10
49.590341
 20
-93.910312
 40
25.952382
 50
33.398488
 51
90.0
  0
LINE
  8
別途部材
  6
CONTINUOUS
 10
-28.242993
 20
-66.95793
 11
-27.242993
 21
-67.95793
  0
LINE
  8
別途部材
  6
CONTINUOUS
 10
-26.242993
 20
-67.95793
 11
-25.242993
 21
-66.95793
  0
LINE
  8
別途部材
  6
CONTINUOUS
 10
-24.242993
 20
-66.95793
 11
-23.242993
 21
-67.95793
  0
LINE
  8
別途部材
  6
CONTINUOUS
 10
-25.242993
 20
-66.95793
 11
-24.242993
 21
-66.95793
  0
LINE
  8
別途部材
  6
CONTINUOUS
 10
-28.242993
 20
-66.95793
 11
-28.742993
 21
-66.95793
  0
LINE
  8
別途部材
  6
CONTINUOUS
 10
-22.242993
 20
-67.95793
 11
-21.242993
 21
-66.95793
  0
LINE
  8
別途部材
  6
CONTINUOUS
 10
-20.242993
 20
-66.95793
 11
-19.242993
 21
-67.95793
  0
LINE
  8
別途部材
  6
CONTINUOUS
 10
-21.242993
 20
-66.95793
 11
-20.242993
 21
-66.95793
  0
LINE
  8
別途部材
  6
CONTINUOUS
 10
-18.242993
 20
-67.95793
 11
-17.242993
 21
-66.95793
  0
LINE
  8
別途部材
  6
CONTINUOUS
 10
-16.242993
 20
-66.95793
 11
-15.242993
 21
-67.95793
  0
LINE
  8
別途部材
  6
CONTINUOUS
 10
-17.242993
 20
-66.95793
 11
-16.242993
 21
-66.95793
  0
LINE
  8
別途部材
  6
CONTINUOUS
 10
-14.242993
 20
-67.95793
 11
-13.242993
 21
-66.95793
  0
LINE
  8
別途部材
  6
CONTINUOUS
 10
-12.242993
 20
-66.95793
 11
-11.242993
 21
-67.95793
  0
LINE
  8
別途部材
  6
CONTINUOUS
 10
-13.242993
 20
-66.95793
 11
-12.242993
 21
-66.95793
  0
LINE
  8
別途部材
  6
CONTINUOUS
 10
-10.242993
 20
-67.95793
 11
-9.242993
 21
-66.95793
  0
LINE
  8
別途部材
  6
CONTINUOUS
 10
-8.242993
 20
-66.95793
 11
-7.242993
 21
-67.95793
  0
LINE
  8
別途部材
  6
CONTINUOUS
 10
-9.242993
 20
-66.95793
 11
-8.242993
 21
-66.95793
  0
LINE
  8
別途部材
  6
CONTINUOUS
 10
-6.242993
 20
-67.95793
 11
-5.242993
 21
-66.95793
  0
LINE
  8
別途部材
  6
CONTINUOUS
 10
-4.242993
 20
-66.95793
 11
-3.242993
 21
-67.95793
  0
LINE
  8
別途部材
  6
CONTINUOUS
 10
-5.242993
 20
-66.95793
 11
-4.242993
 21
-66.95793
  0
LINE
  8
別途部材
  6
CONTINUOUS
 10
-2.242993
 20
-67.95793
 11
-1.242993
 21
-66.95793
  0
LINE
  8
別途部材
  6
CONTINUOUS
 10
-0.242993
 20
-66.95793
 11
0.757007
 21
-67.95793
  0
LINE
  8
別途部材
  6
CONTINUOUS
 10
-1.242993
 20
-66.95793
 11
-0.242993
 21
-66.95793
  0
LINE
  8
別途部材
  6
CONTINUOUS
 10
1.757007
 20
-67.95793
 11
2.757007
 21
-66.95793
  0
LINE
  8
別途部材
  6
CONTINUOUS
 10
3.757007
 20
-66.95793
 11
4.757007
 21
-67.95793
  0
LINE
  8
別途部材
  6
CONTINUOUS
 10
2.757007
 20
-66.95793
 11
3.757007
 21
-66.95793
  0
LINE
  8
別途部材
  6
CONTINUOUS
 10
5.757007
 20
-67.95793
 11
6.757007
 21
-66.95793
  0
LINE
  8
別途部材
  6
CONTINUOUS
 10
7.757007
 20
-66.95793
 11
8.757007
 21
-67.95793
  0
LINE
  8
別途部材
  6
CONTINUOUS
 10
6.757007
 20
-66.95793
 11
7.757007
 21
-66.95793
  0
LINE
  8
別途部材
  6
CONTINUOUS
 10
9.757007
 20
-67.95793
 11
10.757007
 21
-66.95793
  0
LINE
  8
別途部材
  6
CONTINUOUS
 10
11.757007
 20
-66.95793
 11
12.757007
 21
-67.95793
  0
LINE
  8
別途部材
  6
CONTINUOUS
 10
10.757007
 20
-66.95793
 11
11.757007
 21
-66.95793
  0
LINE
  8
別途部材
  6
CONTINUOUS
 10
13.757007
 20
-67.95793
 11
14.757007
 21
-66.95793
  0
LINE
  8
別途部材
  6
CONTINUOUS
 10
15.757007
 20
-66.95793
 11
16.757007
 21
-67.95793
  0
LINE
  8
別途部材
  6
CONTINUOUS
 10
14.757007
 20
-66.95793
 11
15.757007
 21
-66.95793
  0
LINE
  8
別途部材
  6
CONTINUOUS
 10
12.757007
 20
-67.95793
 11
13.757007
 21
-67.95793
  0
LINE
  8
別途部材
  6
CONTINUOUS
 10
8.757007
 20
-67.95793
 11
9.757007
 21
-67.95793
  0
LINE
  8
別途部材
  6
CONTINUOUS
 10
4.757007
 20
-67.95793
 11
5.757007
 21
-67.95793
  0
LINE
  8
別途部材
  6
CONTINUOUS
 10
0.757007
 20
-67.95793
 11
1.757007
 21
-67.95793
  0
LINE
  8
別途部材
  6
CONTINUOUS
 10
-3.242993
 20
-67.95793
 11
-2.242993
 21
-67.95793
  0
LINE
  8
別途部材
  6
CONTINUOUS
 10
-7.242993
 20
-67.95793
 11
-6.242993
 21
-67.95793
  0
LINE
  8
別途部材
  6
CONTINUOUS
 10
-11.242993
 20
-67.95793
 11
-10.242993
 21
-67.95793
  0
LINE
  8
別途部材
  6
CONTINUOUS
 10
-15.242993
 20
-67.95793
 11
-14.242993
 21
-67.95793
  0
LINE
  8
別途部材
  6
CONTINUOUS
 10
-19.242993
 20
-67.95793
 11
-18.242993
 21
-67.95793
  0
LINE
  8
別途部材
  6
CONTINUOUS
 10
-23.242993
 20
-67.95793
 11
-22.242993
 21
-67.95793
  0
LINE
  8
別途部材
  6
CONTINUOUS
 10
-26.242993
 20
-67.95793
 11
-27.242993
 21
-67.95793
  0
LINE
  8
別途部材
  6
CONTINUOUS
 10
13.757007
 20
-67.95793
 11
13.757007
 21
-79.624597
  0
LINE
  8
別途部材
  6
CONTINUOUS
 10
12.757007
 20
-67.95793
 11
12.757007
 21
-79.624597
  0
LINE
  8
別途部材
  6
CONTINUOUS
 10
14.757007
 20
-66.95793
 11
14.757007
 21
-79.624597
  0
LINE
  8
別途部材
  6
CONTINUOUS
 10
16.757007
 20
-67.95793
 11
16.757007
 21
-79.624597
  0
LINE
  8
別途部材
  6
CONTINUOUS
 10
15.757007
 20
-66.95793
 11
15.757007
 21
-79.624597
  0
LINE
  8
別途部材
  6
CONTINUOUS
 10
5.757007
 20
-67.95793
 11
5.757007
 21
-79.624597
  0
LINE
  8
別途部材
  6
CONTINUOUS
 10
7.757007
 20
-66.95793
 11
7.757007
 21
-79.624597
  0
LINE
  8
別途部材
  6
CONTINUOUS
 10
8.757007
 20
-67.95793
 11
8.757007
 21
-79.624597
  0
LINE
  8
別途部材
  6
CONTINUOUS
 10
10.757007
 20
-66.95793
 11
10.757007
 21
-79.624597
  0
LINE
  8
別途部材
  6
CONTINUOUS
 10
11.757007
 20
-66.95793
 11
11.757007
 21
-79.624597
  0
LINE
  8
別途部材
  6
CONTINUOUS
 10
9.757007
 20
-67.95793
 11
9.757007
 21
-79.624597
  0
LINE
  8
別途部材
  6
CONTINUOUS
 10
6.757007
 20
-66.95793
 11
6.757007
 21
-79.624597
  0
LINE
  8
別途部材
  6
CONTINUOUS
 10
4.757007
 20
-67.95793
 11
4.757007
 21
-79.624597
  0
LINE
  8
別途部材
  6
CONTINUOUS
 10
3.757007
 20
-66.95793
 11
3.757007
 21
-79.624597
  0
LINE
  8
別途部材
  6
CONTINUOUS
 10
-6.242993
 20
-67.95793
 11
-6.242993
 21
-79.624597
  0
LINE
  8
別途部材
  6
CONTINUOUS
 10
-12.242993
 20
-66.95793
 11
-12.242993
 21
-79.624597
  0
LINE
  8
別途部材
  6
CONTINUOUS
 10
-13.242993
 20
-66.95793
 11
-13.242993
 21
-79.624597
  0
LINE
  8
別途部材
  6
CONTINUOUS
 10
-23.242993
 20
-67.95793
 11
-23.242993
 21
-79.624597
  0
LINE
  8
別途部材
  6
CONTINUOUS
 10
-28.242993
 20
-66.95793
 11
-28.242993
 21
-79.624597
  0
LINE
  8
別途部材
  6
CONTINUOUS
 10
-27.242993
 20
-67.95793
 11
-27.242993
 21
-79.624597
  0
LINE
  8
別途部材
  6
CONTINUOUS
 10
-25.242993
 20
-66.95793
 11
-25.242993
 21
-79.624597
  0
LINE
  8
別途部材
  6
CONTINUOUS
 10
-24.242993
 20
-66.95793
 11
-24.242993
 21
-79.624597
  0
LINE
  8
別途部材
  6
CONTINUOUS
 10
-22.242993
 20
-67.95793
 11
-22.242993
 21
-79.624597
  0
LINE
  8
別途部材
  6
CONTINUOUS
 10
-11.242993
 20
-67.95793
 11
-11.242993
 21
-79.624597
  0
LINE
  8
別途部材
  6
CONTINUOUS
 10
-10.242993
 20
-67.95793
 11
-10.242993
 21
-79.624597
  0
LINE
  8
別途部材
  6
CONTINUOUS
 10
-5.242993
 20
-66.95793
 11
-5.242993
 21
-79.624597
  0
LINE
  8
別途部材
  6
CONTINUOUS
 10
-3.242993
 20
-67.95793
 11
-3.242993
 21
-79.624597
  0
LINE
  8
別途部材
  6
CONTINUOUS
 10
-0.242993
 20
-66.95793
 11
-0.242993
 21
-79.624597
  0
LINE
  8
別途部材
  6
CONTINUOUS
 10
2.757007
 20
-66.95793
 11
2.757007
 21
-79.624597
  0
LINE
  8
別途部材
  6
CONTINUOUS
 10
-4.242993
 20
-66.95793
 11
-4.242993
 21
-79.624597
  0
LINE
  8
別途部材
  6
CONTINUOUS
 10
-2.242993
 20
-67.95793
 11
-2.242993
 21
-79.624597
  0
LINE
  8
別途部材
  6
CONTINUOUS
 10
0.757007
 20
-67.95793
 11
0.757007
 21
-79.624597
  0
LINE
  8
別途部材
  6
CONTINUOUS
 10
1.757007
 20
-67.95793
 11
1.757007
 21
-79.624597
  0
LINE
  8
別途部材
  6
CONTINUOUS
 10
-8.242993
 20
-66.95793
 11
-8.242993
 21
-79.624597
  0
LINE
  8
別途部材
  6
CONTINUOUS
 10
-9.242993
 20
-66.95793
 11
-9.242993
 21
-79.624597
  0
LINE
  8
別途部材
  6
CONTINUOUS
 10
-7.242993
 20
-67.95793
 11
-7.242993
 21
-79.624597
  0
LINE
  8
別途部材
  6
CONTINUOUS
 10
-1.242993
 20
-66.95793
 11
-1.242993
 21
-79.624597
  0
LINE
  8
別途部材
  6
CONTINUOUS
 10
-15.242993
 20
-67.95793
 11
-15.242993
 21
-79.624597
  0
LINE
  8
別途部材
  6
CONTINUOUS
 10
-14.242993
 20
-67.95793
 11
-14.242993
 21
-79.624597
  0
LINE
  8
別途部材
  6
CONTINUOUS
 10
-16.242993
 20
-66.95793
 11
-16.242993
 21
-79.624597
  0
LINE
  8
別途部材
  6
CONTINUOUS
 10
-18.242993
 20
-67.95793
 11
-18.242993
 21
-79.624597
  0
LINE
  8
別途部材
  6
CONTINUOUS
 10
-17.242993
 20
-66.95793
 11
-17.242993
 21
-79.624597
  0
LINE
  8
別途部材
  6
CONTINUOUS
 10
-19.242993
 20
-67.95793
 11
-19.242993
 21
-79.624597
  0
LINE
  8
別途部材
  6
CONTINUOUS
 10
-21.242993
 20
-66.95793
 11
-21.242993
 21
-79.624597
  0
LINE
  8
別途部材
  6
CONTINUOUS
 10
-20.242993
 20
-66.95793
 11
-20.242993
 21
-79.624597
  0
LINE
  8
別途部材
  6
CONTINUOUS
 10
-26.242993
 20
-67.95793
 11
-26.242993
 21
-79.624597
  0
LINE
  8
別途部材
  6
CONTINUOUS
 10
17.757007
 20
-67.95793
 11
18.757007
 21
-66.95793
  0
LINE
  8
別途部材
  6
CONTINUOUS
 10
19.757007
 20
-66.95793
 11
20.757007
 21
-67.95793
  0
LINE
  8
別途部材
  6
CONTINUOUS
 10
18.757007
 20
-66.95793
 11
19.757007
 21
-66.95793
  0
LINE
  8
別途部材
  6
CONTINUOUS
 10
21.757007
 20
-67.95793
 11
22.757007
 21
-66.95793
  0
LINE
  8
別途部材
  6
CONTINUOUS
 10
23.757007
 20
-66.95793
 11
24.757007
 21
-67.95793
  0
LINE
  8
別途部材
  6
CONTINUOUS
 10
22.757007
 20
-66.95793
 11
23.757007
 21
-66.95793
  0
LINE
  8
別途部材
  6
CONTINUOUS
 10
25.757007
 20
-67.95793
 11
26.757007
 21
-66.95793
  0
LINE
  8
別途部材
  6
CONTINUOUS
 10
27.757007
 20
-66.95793
 11
28.757007
 21
-67.95793
  0
LINE
  8
別途部材
  6
CONTINUOUS
 10
26.757007
 20
-66.95793
 11
27.757007
 21
-66.95793
  0
LINE
  8
別途部材
  6
CONTINUOUS
 10
29.757007
 20
-67.95793
 11
30.757007
 21
-66.95793
  0
LINE
  8
別途部材
  6
CONTINUOUS
 10
31.757007
 20
-66.95793
 11
32.757007
 21
-67.95793
  0
LINE
  8
別途部材
  6
CONTINUOUS
 10
30.757007
 20
-66.95793
 11
31.757007
 21
-66.95793
  0
LINE
  8
別途部材
  6
CONTINUOUS
 10
33.757007
 20
-67.95793
 11
34.757007
 21
-66.95793
  0
LINE
  8
別途部材
  6
CONTINUOUS
 10
35.757007
 20
-66.95793
 11
36.757007
 21
-67.95793
  0
LINE
  8
別途部材
  6
CONTINUOUS
 10
34.757007
 20
-66.95793
 11
35.757007
 21
-66.95793
  0
LINE
  8
別途部材
  6
CONTINUOUS
 10
37.757007
 20
-67.95793
 11
38.757007
 21
-66.95793
  0
LINE
  8
別途部材
  6
CONTINUOUS
 10
39.757007
 20
-66.95793
 11
40.757007
 21
-67.95793
  0
LINE
  8
別途部材
  6
CONTINUOUS
 10
38.757007
 20
-66.95793
 11
39.757007
 21
-66.95793
  0
LINE
  8
別途部材
  6
CONTINUOUS
 10
41.757007
 20
-67.95793
 11
42.757007
 21
-66.95793
  0
LINE
  8
別途部材
  6
CONTINUOUS
 10
43.757007
 20
-66.95793
 11
44.757007
 21
-67.95793
  0
LINE
  8
別途部材
  6
CONTINUOUS
 10
42.757007
 20
-66.95793
 11
43.757007
 21
-66.95793
  0
LINE
  8
別途部材
  6
CONTINUOUS
 10
45.757007
 20
-67.95793
 11
46.757007
 21
-66.95793
  0
LINE
  8
別途部材
  6
CONTINUOUS
 10
47.757007
 20
-66.95793
 11
48.757007
 21
-67.95793
  0
LINE
  8
別途部材
  6
CONTINUOUS
 10
46.757007
 20
-66.95793
 11
47.757007
 21
-66.95793
  0
LINE
  8
別途部材
  6
CONTINUOUS
 10
48.757007
 20
-67.95793
 11
49.757007
 21
-67.95793
  0
LINE
  8
別途部材
  6
CONTINUOUS
 10
44.757007
 20
-67.95793
 11
45.757007
 21
-67.95793
  0
LINE
  8
別途部材
  6
CONTINUOUS
 10
40.757007
 20
-67.95793
 11
41.757007
 21
-67.95793
  0
LINE
  8
別途部材
  6
CONTINUOUS
 10
36.757007
 20
-67.95793
 11
37.757007
 21
-67.95793
  0
LINE
  8
別途部材
  6
CONTINUOUS
 10
32.757007
 20
-67.95793
 11
33.757007
 21
-67.95793
  0
LINE
  8
別途部材
  6
CONTINUOUS
 10
28.757007
 20
-67.95793
 11
29.757007
 21
-67.95793
  0
LINE
  8
別途部材
  6
CONTINUOUS
 10
24.757007
 20
-67.95793
 11
25.757007
 21
-67.95793
  0
LINE
  8
別途部材
  6
CONTINUOUS
 10
20.757007
 20
-67.95793
 11
21.757007
 21
-67.95793
  0
LINE
  8
別途部材
  6
CONTINUOUS
 10
16.757007
 20
-67.95793
 11
17.757007
 21
-67.95793
  0
LINE
  8
別途部材
  6
CONTINUOUS
 10
48.757007
 20
-67.95793
 11
48.757007
 21
-79.624597
  0
LINE
  8
別途部材
  6
CONTINUOUS
 10
41.757007
 20
-67.95793
 11
41.757007
 21
-79.624597
  0
LINE
  8
別途部材
  6
CONTINUOUS
 10
43.757007
 20
-66.95793
 11
43.757007
 21
-79.624597
  0
LINE
  8
別途部材
  6
CONTINUOUS
 10
44.757007
 20
-67.95793
 11
44.757007
 21
-79.624597
  0
LINE
  8
別途部材
  6
CONTINUOUS
 10
46.757007
 20
-66.95793
 11
46.757007
 21
-79.624597
  0
LINE
  8
別途部材
  6
CONTINUOUS
 10
47.757007
 20
-66.95793
 11
47.757007
 21
-79.624597
  0
LINE
  8
別途部材
  6
CONTINUOUS
 10
45.757007
 20
-67.95793
 11
45.757007
 21
-79.624597
  0
LINE
  8
別途部材
  6
CONTINUOUS
 10
42.757007
 20
-66.95793
 11
42.757007
 21
-79.624597
  0
LINE
  8
別途部材
  6
CONTINUOUS
 10
40.757007
 20
-67.95793
 11
40.757007
 21
-79.624597
  0
LINE
  8
別途部材
  6
CONTINUOUS
 10
39.757007
 20
-66.95793
 11
39.757007
 21
-79.624597
  0
LINE
  8
別途部材
  6
CONTINUOUS
 10
29.757007
 20
-67.95793
 11
29.757007
 21
-79.624597
  0
LINE
  8
別途部材
  6
CONTINUOUS
 10
23.757007
 20
-66.95793
 11
23.757007
 21
-79.624597
  0
LINE
  8
別途部材
  6
CONTINUOUS
 10
22.757007
 20
-66.95793
 11
22.757007
 21
-79.624597
  0
LINE
  8
別途部材
  6
CONTINUOUS
 10
24.757007
 20
-67.95793
 11
24.757007
 21
-79.624597
  0
LINE
  8
別途部材
  6
CONTINUOUS
 10
25.757007
 20
-67.95793
 11
25.757007
 21
-79.624597
  0
LINE
  8
別途部材
  6
CONTINUOUS
 10
30.757007
 20
-66.95793
 11
30.757007
 21
-79.624597
  0
LINE
  8
別途部材
  6
CONTINUOUS
 10
32.757007
 20
-67.95793
 11
32.757007
 21
-79.624597
  0
LINE
  8
別途部材
  6
CONTINUOUS
 10
35.757007
 20
-66.95793
 11
35.757007
 21
-79.624597
  0
LINE
  8
別途部材
  6
CONTINUOUS
 10
38.757007
 20
-66.95793
 11
38.757007
 21
-79.624597
  0
LINE
  8
別途部材
  6
CONTINUOUS
 10
31.757007
 20
-66.95793
 11
31.757007
 21
-79.624597
  0
LINE
  8
別途部材
  6
CONTINUOUS
 10
33.757007
 20
-67.95793
 11
33.757007
 21
-79.624597
  0
LINE
  8
別途部材
  6
CONTINUOUS
 10
36.757007
 20
-67.95793
 11
36.757007
 21
-79.624597
  0
LINE
  8
別途部材
  6
CONTINUOUS
 10
37.757007
 20
-67.95793
 11
37.757007
 21
-79.624597
  0
LINE
  8
別途部材
  6
CONTINUOUS
 10
27.757007
 20
-66.95793
 11
27.757007
 21
-79.624597
  0
LINE
  8
別途部材
  6
CONTINUOUS
 10
26.757007
 20
-66.95793
 11
26.757007
 21
-79.624597
  0
LINE
  8
別途部材
  6
CONTINUOUS
 10
28.757007
 20
-67.95793
 11
28.757007
 21
-79.624597
  0
LINE
  8
別途部材
  6
CONTINUOUS
 10
34.757007
 20
-66.95793
 11
34.757007
 21
-79.624597
  0
LINE
  8
別途部材
  6
CONTINUOUS
 10
20.757007
 20
-67.95793
 11
20.757007
 21
-79.624597
  0
LINE
  8
別途部材
  6
CONTINUOUS
 10
21.757007
 20
-67.95793
 11
21.757007
 21
-79.624597
  0
LINE
  8
別途部材
  6
CONTINUOUS
 10
19.757007
 20
-66.95793
 11
19.757007
 21
-79.624597
  0
LINE
  8
別途部材
  6
CONTINUOUS
 10
17.757007
 20
-67.95793
 11
17.757007
 21
-79.624597
  0
LINE
  8
別途部材
  6
CONTINUOUS
 10
18.757007
 20
-66.95793
 11
18.757007
 21
-79.624597
  0
ENDBLK
  0
BLOCK
  2
*GRP_0017
 70
    65
 10
0.0
 20
0.0
  0
LINE
  8
補助線
  6
BYBLOCK
 62
    64
 10
-125.347738
 20
-84.528995
 11
-125.471583
 21
-84.64053
  0
LINE
  8
補助線
  6
BYBLOCK
 62
    64
 10
-125.46543
 20
-84.522837
 11
-125.353892
 21
-84.646685
  0
LINE
  8
補助線
  6
BYBLOCK
 62
    64
 10
-114.632635
 20
-74.87897
 11
-114.75648
 21
-74.990505
  0
LINE
  8
補助線
  6
BYBLOCK
 62
    64
 10
-114.750325
 20
-74.872812
 11
-114.63879
 21
-74.99666
  0
LINE
  8
補助線
  6
BYBLOCK
 62
    64
 10
-104.041378
 20
-65.34048
 11
-103.917535
 21
-65.228945
  0
LINE
  8
補助線
  6
BYBLOCK
 62
    64
 10
-104.035225
 20
-65.222787
 11
-103.923687
 21
-65.346635
  0
LINE
  8
型材断面
  6
CONTINUOUS
 10
-126.215027
 20
-84.188608
 11
-126.251955
 21
-84.894747
  0
LINE
  8
型材断面
  6
CONTINUOUS
 10
-126.251955
 20
-84.894747
 11
-125.805815
 21
-85.39013
  0
LINE
  8
型材断面
  6
CONTINUOUS
 10
-125.805815
 20
-85.39013
 11
-125.099673
 21
-85.42706
  0
LINE
  8
型材断面
  6
CONTINUOUS
 10
-104.28944
 20
-64.442418
 11
-103.5833
 21
-64.479348
  0
LINE
  8
型材断面
  6
CONTINUOUS
 10
-103.5833
 20
-64.479348
 11
-103.137158
 21
-64.974727
  0
LINE
  8
型材断面
  6
CONTINUOUS
 10
-103.137158
 20
-64.974727
 11
-103.174088
 21
-65.680872
  0
LINE
  8
型材断面
  6
CONTINUOUS
 10
-125.099673
 20
-85.42706
 11
-103.174088
 21
-65.680872
  0
LINE
  8
型材断面
  6
CONTINUOUS
 10
-126.215027
 20
-84.188608
 11
-104.28944
 21
-64.442418
  0
CIRCLE
  8
ボルト／ビス
  6
CONTINUOUS
 10
-125.40966
 20
-84.584763
 40
0.250185
  0
CIRCLE
  8
ボルト／ビス
  6
CONTINUOUS
 10
-125.40966
 20
-84.584763
 40
0.301025
  0
LINE
  8
ボルト／ビス
  6
CONTINUOUS
 62
    64
 10
-125.654373
 20
-84.636808
 11
-125.577088
 21
-84.398858
  0
LINE
  8
ボルト／ビス
  6
CONTINUOUS
 62
    64
 10
-125.332375
 20
-84.346813
 11
-125.577088
 21
-84.398858
  0
LINE
  8
ボルト／ビス
  6
CONTINUOUS
 62
    64
 10
-125.486945
 20
-84.822713
 11
-125.242232
 21
-84.770668
  0
LINE
  8
ボルト／ビス
  6
CONTINUOUS
 62
    64
 10
-125.164948
 20
-84.532718
 11
-125.242232
 21
-84.770668
  0
LINE
  8
ボルト／ビス
  6
CONTINUOUS
 62
    64
 10
-125.654373
 20
-84.636808
 11
-125.486945
 21
-84.822713
  0
LINE
  8
ボルト／ビス
  6
CONTINUOUS
 62
    64
 10
-125.332375
 20
-84.346813
 11
-125.164948
 21
-84.532718
  0
CIRCLE
  8
ボルト／ビス
  6
CONTINUOUS
 62
    64
 10
-125.40966
 20
-84.584763
 40
0.216668
  0
CIRCLE
  8
ボルト／ビス
  6
CONTINUOUS
 10
-114.694557
 20
-74.93474
 40
0.250185
  0
CIRCLE
  8
ボルト／ビス
  6
CONTINUOUS
 10
-114.694557
 20
-74.93474
 40
0.301025
  0
LINE
  8
ボルト／ビス
  6
CONTINUOUS
 62
    64
 10
-114.939272
 20
-74.986783
 11
-114.861985
 21
-74.748833
  0
LINE
  8
ボルト／ビス
  6
CONTINUOUS
 62
    64
 10
-114.617273
 20
-74.69679
 11
-114.861985
 21
-74.748833
  0
LINE
  8
ボルト／ビス
  6
CONTINUOUS
 62
    64
 10
-114.771845
 20
-75.172688
 11
-114.527132
 21
-75.120643
  0
LINE
  8
ボルト／ビス
  6
CONTINUOUS
 62
    64
 10
-114.449845
 20
-74.882695
 11
-114.527132
 21
-75.120643
  0
LINE
  8
ボルト／ビス
  6
CONTINUOUS
 62
    64
 10
-114.939272
 20
-74.986783
 11
-114.771845
 21
-75.172688
  0
LINE
  8
ボルト／ビス
  6
CONTINUOUS
 62
    64
 10
-114.617273
 20
-74.69679
 11
-114.449845
 21
-74.882695
  0
CIRCLE
  8
ボルト／ビス
  6
CONTINUOUS
 62
    64
 10
-114.694557
 20
-74.93474
 40
0.216668
  0
CIRCLE
  8
ボルト／ビス
  6
CONTINUOUS
 10
-103.979458
 20
-65.284713
 40
0.250185
  0
CIRCLE
  8
ボルト／ビス
  6
CONTINUOUS
 10
-103.979458
 20
-65.284713
 40
0.301025
  0
LINE
  8
ボルト／ビス
  6
CONTINUOUS
 62
    64
 10
-103.90217
 20
-65.046763
 11
-104.146882
 21
-65.098808
  0
LINE
  8
ボルト／ビス
  6
CONTINUOUS
 62
    64
 10
-104.224168
 20
-65.336758
 11
-104.146882
 21
-65.098808
  0
LINE
  8
ボルト／ビス
  6
CONTINUOUS
 62
    64
 10
-103.734743
 20
-65.232668
 11
-103.81203
 21
-65.470618
  0
LINE
  8
ボルト／ビス
  6
CONTINUOUS
 62
    64
 10
-104.056743
 20
-65.522663
 11
-103.81203
 21
-65.470618
  0
LINE
  8
ボルト／ビス
  6
CONTINUOUS
 62
    64
 10
-103.90217
 20
-65.046763
 11
-103.734743
 21
-65.232668
  0
LINE
  8
ボルト／ビス
  6
CONTINUOUS
 62
    64
 10
-104.224168
 20
-65.336758
 11
-104.056743
 21
-65.522663
  0
CIRCLE
  8
ボルト／ビス
  6
CONTINUOUS
 62
    64
 10
-103.979458
 20
-65.284713
 40
0.216668
  0
ENDBLK
  0
BLOCK
  2
*GRP_0018
 70
    65
 10
0.0
 20
0.0
  0
LINE
  8
補助線
  6
BYBLOCK
 62
    64
 10
-104.041378
 20
-84.528995
 11
-103.917533
 21
-84.64053
  0
LINE
  8
補助線
  6
BYBLOCK
 62
    64
 10
-103.923685
 20
-84.522837
 11
-104.035222
 21
-84.646685
  0
LINE
  8
補助線
  6
BYBLOCK
 62
    64
 10
-114.75648
 20
-74.87897
 11
-114.632635
 21
-74.990505
  0
LINE
  8
補助線
  6
BYBLOCK
 62
    64
 10
-114.63879
 20
-74.872812
 11
-114.750325
 21
-74.99666
  0
LINE
  8
補助線
  6
BYBLOCK
 62
    64
 10
-125.347738
 20
-65.34048
 11
-125.47158
 21
-65.228945
  0
LINE
  8
補助線
  6
BYBLOCK
 62
    64
 10
-125.35389
 20
-65.222787
 11
-125.465427
 21
-65.346635
  0
LINE
  8
型材断面
  6
CONTINUOUS
 10
-103.174088
 20
-84.188608
 11
-103.13716
 21
-84.894747
  0
LINE
  8
型材断面
  6
CONTINUOUS
 10
-103.13716
 20
-84.894747
 11
-103.5833
 21
-85.39013
  0
LINE
  8
型材断面
  6
CONTINUOUS
 10
-103.5833
 20
-85.39013
 11
-104.289443
 21
-85.42706
  0
LINE
  8
型材断面
  6
CONTINUOUS
 10
-125.099675
 20
-64.442418
 11
-125.805815
 21
-64.479348
  0
LINE
  8
型材断面
  6
CONTINUOUS
 10
-125.805815
 20
-64.479348
 11
-126.251958
 21
-64.974727
  0
LINE
  8
型材断面
  6
CONTINUOUS
 10
-126.251958
 20
-64.974727
 11
-126.215027
 21
-65.680872
  0
LINE
  8
型材断面
  6
CONTINUOUS
 10
-104.289443
 20
-85.42706
 11
-126.215027
 21
-65.680872
  0
LINE
  8
型材断面
  6
CONTINUOUS
 10
-103.174088
 20
-84.188608
 11
-125.099675
 21
-64.442418
  0
CIRCLE
  8
ボルト／ビス
  6
CONTINUOUS
 10
-103.979455
 20
-84.584763
 40
0.250185
  0
CIRCLE
  8
ボルト／ビス
  6
CONTINUOUS
 10
-103.979455
 20
-84.584763
 40
0.301025
  0
LINE
  8
ボルト／ビス
  6
CONTINUOUS
 62
    64
 10
-103.734743
 20
-84.636808
 11
-103.812028
 21
-84.398858
  0
LINE
  8
ボルト／ビス
  6
CONTINUOUS
 62
    64
 10
-104.05674
 20
-84.346813
 11
-103.812028
 21
-84.398858
  0
LINE
  8
ボルト／ビス
  6
CONTINUOUS
 62
    64
 10
-103.90217
 20
-84.822713
 11
-104.146882
 21
-84.770668
  0
LINE
  8
ボルト／ビス
  6
CONTINUOUS
 62
    64
 10
-104.224168
 20
-84.532718
 11
-104.146882
 21
-84.770668
  0
LINE
  8
ボルト／ビス
  6
CONTINUOUS
 62
    64
 10
-103.734743
 20
-84.636808
 11
-103.90217
 21
-84.822713
  0
LINE
  8
ボルト／ビス
  6
CONTINUOUS
 62
    64
 10
-104.05674
 20
-84.346813
 11
-104.224168
 21
-84.532718
  0
CIRCLE
  8
ボルト／ビス
  6
CONTINUOUS
 62
    64
 10
-103.979455
 20
-84.584763
 40
0.216668
  0
CIRCLE
  8
ボルト／ビス
  6
CONTINUOUS
 10
-114.694557
 20
-74.93474
 40
0.250185
  0
CIRCLE
  8
ボルト／ビス
  6
CONTINUOUS
 10
-114.694557
 20
-74.93474
 40
0.301025
  0
LINE
  8
ボルト／ビス
  6
CONTINUOUS
 62
    64
 10
-114.449842
 20
-74.986783
 11
-114.52713
 21
-74.748833
  0
LINE
  8
ボルト／ビス
  6
CONTINUOUS
 62
    64
 10
-114.771843
 20
-74.69679
 11
-114.52713
 21
-74.748833
  0
LINE
  8
ボルト／ビス
  6
CONTINUOUS
 62
    64
 10
-114.61727
 20
-75.172688
 11
-114.861982
 21
-75.120643
  0
LINE
  8
ボルト／ビス
  6
CONTINUOUS
 62
    64
 10
-114.93927
 20
-74.882695
 11
-114.861982
 21
-75.120643
  0
LINE
  8
ボルト／ビス
  6
CONTINUOUS
 62
    64
 10
-114.449842
 20
-74.986783
 11
-114.61727
 21
-75.172688
  0
LINE
  8
ボルト／ビス
  6
CONTINUOUS
 62
    64
 10
-114.771843
 20
-74.69679
 11
-114.93927
 21
-74.882695
  0
CIRCLE
  8
ボルト／ビス
  6
CONTINUOUS
 62
    64
 10
-114.694557
 20
-74.93474
 40
0.216668
  0
CIRCLE
  8
ボルト／ビス
  6
CONTINUOUS
 10
-125.409657
 20
-65.284713
 40
0.250185
  0
CIRCLE
  8
ボルト／ビス
  6
CONTINUOUS
 10
-125.409657
 20
-65.284713
 40
0.301025
  0
LINE
  8
ボルト／ビス
  6
CONTINUOUS
 62
    64
 10
-125.486945
 20
-65.046763
 11
-125.242232
 21
-65.098808
  0
LINE
  8
ボルト／ビス
  6
CONTINUOUS
 62
    64
 10
-125.164948
 20
-65.336758
 11
-125.242232
 21
-65.098808
  0
LINE
  8
ボルト／ビス
  6
CONTINUOUS
 62
    64
 10
-125.654373
 20
-65.232668
 11
-125.577085
 21
-65.470618
  0
LINE
  8
ボルト／ビス
  6
CONTINUOUS
 62
    64
 10
-125.332373
 20
-65.522663
 11
-125.577085
 21
-65.470618
  0
LINE
  8
ボルト／ビス
  6
CONTINUOUS
 62
    64
 10
-125.486945
 20
-65.046763
 11
-125.654373
 21
-65.232668
  0
LINE
  8
ボルト／ビス
  6
CONTINUOUS
 62
    64
 10
-125.164948
 20
-65.336758
 11
-125.332373
 21
-65.522663
  0
CIRCLE
  8
ボルト／ビス
  6
CONTINUOUS
 62
    64
 10
-125.409657
 20
-65.284713
 40
0.216668
  0
ENDBLK
  0
BLOCK
  2
*GRP_0019
 70
    65
 10
0.0
 20
0.0
  0
LINE
  8
補助線
  6
BYBLOCK
 62
    64
 10
67.861752
 20
-84.528995
 11
67.985598
 21
-84.64053
  0
LINE
  8
補助線
  6
BYBLOCK
 62
    64
 10
67.979445
 20
-84.522837
 11
67.867908
 21
-84.646685
  0
LINE
  8
補助線
  6
BYBLOCK
 62
    64
 10
57.14665
 20
-74.87897
 11
57.270495
 21
-74.990505
  0
LINE
  8
補助線
  6
BYBLOCK
 62
    64
 10
57.26434
 20
-74.872812
 11
57.152805
 21
-74.99666
  0
LINE
  8
補助線
  6
BYBLOCK
 62
    64
 10
46.555393
 20
-65.34048
 11
46.43155
 21
-65.228945
  0
LINE
  8
補助線
  6
BYBLOCK
 62
    64
 10
46.54924
 20
-65.222787
 11
46.437702
 21
-65.346635
  0
LINE
  8
型材断面
  6
CONTINUOUS
 10
68.729042
 20
-84.188608
 11
68.76597
 21
-84.894747
  0
LINE
  8
型材断面
  6
CONTINUOUS
 10
68.76597
 20
-84.894747
 11
68.31983
 21
-85.39013
  0
LINE
  8
型材断面
  6
CONTINUOUS
 10
68.31983
 20
-85.39013
 11
67.613688
 21
-85.42706
  0
LINE
  8
型材断面
  6
CONTINUOUS
 10
46.803455
 20
-64.442418
 11
46.097315
 21
-64.479348
  0
LINE
  8
型材断面
  6
CONTINUOUS
 10
46.097315
 20
-64.479348
 11
45.651173
 21
-64.974727
  0
LINE
  8
型材断面
  6
CONTINUOUS
 10
45.651173
 20
-64.974727
 11
45.688103
 21
-65.680872
  0
LINE
  8
型材断面
  6
CONTINUOUS
 10
67.613688
 20
-85.42706
 11
45.688103
 21
-65.680872
  0
LINE
  8
型材断面
  6
CONTINUOUS
 10
68.729042
 20
-84.188608
 11
46.803455
 21
-64.442418
  0
CIRCLE
  8
ボルト／ビス
  6
CONTINUOUS
 10
67.923675
 20
-84.584763
 40
0.250185
  0
CIRCLE
  8
ボルト／ビス
  6
CONTINUOUS
 10
67.923675
 20
-84.584763
 40
0.301025
  0
LINE
  8
ボルト／ビス
  6
CONTINUOUS
 62
    64
 10
68.168388
 20
-84.636808
 11
68.091102
 21
-84.398858
  0
LINE
  8
ボルト／ビス
  6
CONTINUOUS
 62
    64
 10
67.84639
 20
-84.346813
 11
68.091102
 21
-84.398858
  0
LINE
  8
ボルト／ビス
  6
CONTINUOUS
 62
    64
 10
68.00096
 20
-84.822713
 11
67.756248
 21
-84.770668
  0
LINE
  8
ボルト／ビス
  6
CONTINUOUS
 62
    64
 10
67.678962
 20
-84.532718
 11
67.756248
 21
-84.770668
  0
LINE
  8
ボルト／ビス
  6
CONTINUOUS
 62
    64
 10
68.168388
 20
-84.636808
 11
68.00096
 21
-84.822713
  0
LINE
  8
ボルト／ビス
  6
CONTINUOUS
 62
    64
 10
67.84639
 20
-84.346813
 11
67.678962
 21
-84.532718
  0
CIRCLE
  8
ボルト／ビス
  6
CONTINUOUS
 62
    64
 10
67.923675
 20
-84.584763
 40
0.216668
  0
CIRCLE
  8
ボルト／ビス
  6
CONTINUOUS
 10
57.208573
 20
-74.93474
 40
0.250185
  0
CIRCLE
  8
ボルト／ビス
  6
CONTINUOUS
 10
57.208573
 20
-74.93474
 40
0.301025
  0
LINE
  8
ボルト／ビス
  6
CONTINUOUS
 62
    64
 10
57.453288
 20
-74.986783
 11
57.376
 21
-74.748833
  0
LINE
  8
ボルト／ビス
  6
CONTINUOUS
 62
    64
 10
57.131287
 20
-74.69679
 11
57.376
 21
-74.748833
  0
LINE
  8
ボルト／ビス
  6
CONTINUOUS
 62
    64
 10
57.28586
 20
-75.172688
 11
57.041148
 21
-75.120643
  0
LINE
  8
ボルト／ビス
  6
CONTINUOUS
 62
    64
 10
56.96386
 20
-74.882695
 11
57.041148
 21
-75.120643
  0
LINE
  8
ボルト／ビス
  6
CONTINUOUS
 62
    64
 10
57.453288
 20
-74.986783
 11
57.28586
 21
-75.172688
  0
LINE
  8
ボルト／ビス
  6
CONTINUOUS
 62
    64
 10
57.131287
 20
-74.69679
 11
56.96386
 21
-74.882695
  0
CIRCLE
  8
ボルト／ビス
  6
CONTINUOUS
 62
    64
 10
57.208573
 20
-74.93474
 40
0.216668
  0
CIRCLE
  8
ボルト／ビス
  6
CONTINUOUS
 10
46.493472
 20
-65.284713
 40
0.250185
  0
CIRCLE
  8
ボルト／ビス
  6
CONTINUOUS
 10
46.493472
 20
-65.284713
 40
0.301025
  0
LINE
  8
ボルト／ビス
  6
CONTINUOUS
 62
    64
 10
46.416185
 20
-65.046763
 11
46.660897
 21
-65.098808
  0
LINE
  8
ボルト／ビス
  6
CONTINUOUS
 62
    64
 10
46.738183
 20
-65.336758
 11
46.660897
 21
-65.098808
  0
LINE
  8
ボルト／ビス
  6
CONTINUOUS
 62
    64
 10
46.248757
 20
-65.232668
 11
46.326045
 21
-65.470618
  0
LINE
  8
ボルト／ビス
  6
CONTINUOUS
 62
    64
 10
46.570758
 20
-65.522663
 11
46.326045
 21
-65.470618
  0
LINE
  8
ボルト／ビス
  6
CONTINUOUS
 62
    64
 10
46.416185
 20
-65.046763
 11
46.248757
 21
-65.232668
  0
LINE
  8
ボルト／ビス
  6
CONTINUOUS
 62
    64
 10
46.738183
 20
-65.336758
 11
46.570758
 21
-65.522663
  0
CIRCLE
  8
ボルト／ビス
  6
CONTINUOUS
 62
    64
 10
46.493472
 20
-65.284713
 40
0.216668
  0
ENDBLK
  0
BLOCK
  2
*GRP_0020
 70
    65
 10
0.0
 20
0.0
  0
LINE
  8
補助線
  6
BYBLOCK
 62
    64
 10
46.555393
 20
-84.528995
 11
46.431547
 21
-84.64053
  0
LINE
  8
補助線
  6
BYBLOCK
 62
    64
 10
46.4377
 20
-84.522837
 11
46.549237
 21
-84.646685
  0
LINE
  8
補助線
  6
BYBLOCK
 62
    64
 10
57.270495
 20
-74.87897
 11
57.14665
 21
-74.990505
  0
LINE
  8
補助線
  6
BYBLOCK
 62
    64
 10
57.152805
 20
-74.872812
 11
57.26434
 21
-74.99666
  0
LINE
  8
補助線
  6
BYBLOCK
 62
    64
 10
67.861752
 20
-65.34048
 11
67.985595
 21
-65.228945
  0
LINE
  8
補助線
  6
BYBLOCK
 62
    64
 10
67.867905
 20
-65.222787
 11
67.979443
 21
-65.346635
  0
LINE
  8
型材断面
  6
CONTINUOUS
 10
45.688103
 20
-84.188608
 11
45.651175
 21
-84.894747
  0
LINE
  8
型材断面
  6
CONTINUOUS
 10
45.651175
 20
-84.894747
 11
46.097315
 21
-85.39013
  0
LINE
  8
型材断面
  6
CONTINUOUS
 10
46.097315
 20
-85.39013
 11
46.803457
 21
-85.42706
  0
LINE
  8
型材断面
  6
CONTINUOUS
 10
67.61369
 20
-64.442418
 11
68.31983
 21
-64.479348
  0
LINE
  8
型材断面
  6
CONTINUOUS
 10
68.31983
 20
-64.479348
 11
68.765972
 21
-64.974727
  0
LINE
  8
型材断面
  6
CONTINUOUS
 10
68.765972
 20
-64.974727
 11
68.729042
 21
-65.680872
  0
LINE
  8
型材断面
  6
CONTINUOUS
 10
46.803457
 20
-85.42706
 11
68.729042
 21
-65.680872
  0
LINE
  8
型材断面
  6
CONTINUOUS
 10
45.688103
 20
-84.188608
 11
67.61369
 21
-64.442418
  0
CIRCLE
  8
ボルト／ビス
  6
CONTINUOUS
 10
46.49347
 20
-84.584763
 40
0.250185
  0
CIRCLE
  8
ボルト／ビス
  6
CONTINUOUS
 10
46.49347
 20
-84.584763
 40
0.301025
  0
LINE
  8
ボルト／ビス
  6
CONTINUOUS
 62
    64
 10
46.248757
 20
-84.636808
 11
46.326043
 21
-84.398858
  0
LINE
  8
ボルト／ビス
  6
CONTINUOUS
 62
    64
 10
46.570755
 20
-84.346813
 11
46.326043
 21
-84.398858
  0
LINE
  8
ボルト／ビス
  6
CONTINUOUS
 62
    64
 10
46.416185
 20
-84.822713
 11
46.660897
 21
-84.770668
  0
LINE
  8
ボルト／ビス
  6
CONTINUOUS
 62
    64
 10
46.738183
 20
-84.532718
 11
46.660897
 21
-84.770668
  0
LINE
  8
ボルト／ビス
  6
CONTINUOUS
 62
    64
 10
46.248757
 20
-84.636808
 11
46.416185
 21
-84.822713
  0
LINE
  8
ボルト／ビス
  6
CONTINUOUS
 62
    64
 10
46.570755
 20
-84.346813
 11
46.738183
 21
-84.532718
  0
CIRCLE
  8
ボルト／ビス
  6
CONTINUOUS
 62
    64
 10
46.49347
 20
-84.584763
 40
0.216668
  0
CIRCLE
  8
ボルト／ビス
  6
CONTINUOUS
 10
57.208573
 20
-74.93474
 40
0.250185
  0
CIRCLE
  8
ボルト／ビス
  6
CONTINUOUS
 10
57.208573
 20
-74.93474
 40
0.301025
  0
LINE
  8
ボルト／ビス
  6
CONTINUOUS
 62
    64
 10
56.963858
 20
-74.986783
 11
57.041145
 21
-74.748833
  0
LINE
  8
ボルト／ビス
  6
CONTINUOUS
 62
    64
 10
57.285858
 20
-74.69679
 11
57.041145
 21
-74.748833
  0
LINE
  8
ボルト／ビス
  6
CONTINUOUS
 62
    64
 10
57.131285
 20
-75.172688
 11
57.375998
 21
-75.120643
  0
LINE
  8
ボルト／ビス
  6
CONTINUOUS
 62
    64
 10
57.453285
 20
-74.882695
 11
57.375998
 21
-75.120643
  0
LINE
  8
ボルト／ビス
  6
CONTINUOUS
 62
    64
 10
56.963858
 20
-74.986783
 11
57.131285
 21
-75.172688
  0
LINE
  8
ボルト／ビス
  6
CONTINUOUS
 62
    64
 10
57.285858
 20
-74.69679
 11
57.453285
 21
-74.882695
  0
CIRCLE
  8
ボルト／ビス
  6
CONTINUOUS
 62
    64
 10
57.208573
 20
-74.93474
 40
0.216668
  0
CIRCLE
  8
ボルト／ビス
  6
CONTINUOUS
 10
67.923673
 20
-65.284713
 40
0.250185
  0
CIRCLE
  8
ボルト／ビス
  6
CONTINUOUS
 10
67.923673
 20
-65.284713
 40
0.301025
  0
LINE
  8
ボルト／ビス
  6
CONTINUOUS
 62
    64
 10
68.00096
 20
-65.046763
 11
67.756248
 21
-65.098808
  0
LINE
  8
ボルト／ビス
  6
CONTINUOUS
 62
    64
 10
67.678962
 20
-65.336758
 11
67.756248
 21
-65.098808
  0
LINE
  8
ボルト／ビス
  6
CONTINUOUS
 62
    64
 10
68.168388
 20
-65.232668
 11
68.0911
 21
-65.470618
  0
LINE
  8
ボルト／ビス
  6
CONTINUOUS
 62
    64
 10
67.846387
 20
-65.522663
 11
68.0911
 21
-65.470618
  0
LINE
  8
ボルト／ビス
  6
CONTINUOUS
 62
    64
 10
68.00096
 20
-65.046763
 11
68.168388
 21
-65.232668
  0
LINE
  8
ボルト／ビス
  6
CONTINUOUS
 62
    64
 10
67.678962
 20
-65.336758
 11
67.846387
 21
-65.522663
  0
CIRCLE
  8
ボルト／ビス
  6
CONTINUOUS
 62
    64
 10
67.923673
 20
-65.284713
 40
0.216668
  0
ENDBLK
  0
BLOCK
  2
*GRP_0021
 70
    65
 10
0.0
 20
0.0
  0
LINE
  8
補助線
  6
BYBLOCK
 62
    64
 10
-18.089812
 20
-84.528995
 11
-17.965967
 21
-84.64053
  0
LINE
  8
補助線
  6
BYBLOCK
 62
    64
 10
-17.97212
 20
-84.522837
 11
-18.083658
 21
-84.646685
  0
LINE
  8
補助線
  6
BYBLOCK
 62
    64
 10
-28.804915
 20
-74.87897
 11
-28.68107
 21
-74.990505
  0
LINE
  8
補助線
  6
BYBLOCK
 62
    64
 10
-28.687225
 20
-74.872812
 11
-28.79876
 21
-74.99666
  0
LINE
  8
補助線
  6
BYBLOCK
 62
    64
 10
-39.396173
 20
-65.34048
 11
-39.520015
 21
-65.228945
  0
LINE
  8
補助線
  6
BYBLOCK
 62
    64
 10
-39.402325
 20
-65.222787
 11
-39.513862
 21
-65.346635
  0
LINE
  8
型材断面
  6
CONTINUOUS
 10
-17.222523
 20
-84.188608
 11
-17.185595
 21
-84.894747
  0
LINE
  8
型材断面
  6
CONTINUOUS
 10
-17.185595
 20
-84.894747
 11
-17.631735
 21
-85.39013
  0
LINE
  8
型材断面
  6
CONTINUOUS
 10
-17.631735
 20
-85.39013
 11
-18.337878
 21
-85.42706
  0
LINE
  8
型材断面
  6
CONTINUOUS
 10
-39.14811
 20
-64.442418
 11
-39.85425
 21
-64.479348
  0
LINE
  8
型材断面
  6
CONTINUOUS
 10
-39.85425
 20
-64.479348
 11
-40.300393
 21
-64.974727
  0
LINE
  8
型材断面
  6
CONTINUOUS
 10
-40.300393
 20
-64.974727
 11
-40.263462
 21
-65.680872
  0
LINE
  8
型材断面
  6
CONTINUOUS
 10
-18.337878
 20
-85.42706
 11
-40.263462
 21
-65.680872
  0
LINE
  8
型材断面
  6
CONTINUOUS
 10
-17.222523
 20
-84.188608
 11
-39.14811
 21
-64.442418
  0
CIRCLE
  8
ボルト／ビス
  6
CONTINUOUS
 10
-18.02789
 20
-84.584763
 40
0.250185
  0
CIRCLE
  8
ボルト／ビス
  6
CONTINUOUS
 10
-18.02789
 20
-84.584763
 40
0.301025
  0
LINE
  8
ボルト／ビス
  6
CONTINUOUS
 62
    64
 10
-17.783177
 20
-84.636808
 11
-17.860462
 21
-84.398858
  0
LINE
  8
ボルト／ビス
  6
CONTINUOUS
 62
    64
 10
-18.105175
 20
-84.346813
 11
-17.860462
 21
-84.398858
  0
LINE
  8
ボルト／ビス
  6
CONTINUOUS
 62
    64
 10
-17.950605
 20
-84.822713
 11
-18.195317
 21
-84.770668
  0
LINE
  8
ボルト／ビス
  6
CONTINUOUS
 62
    64
 10
-18.272602
 20
-84.532718
 11
-18.195317
 21
-84.770668
  0
LINE
  8
ボルト／ビス
  6
CONTINUOUS
 62
    64
 10
-17.783177
 20
-84.636808
 11
-17.950605
 21
-84.822713
  0
LINE
  8
ボルト／ビス
  6
CONTINUOUS
 62
    64
 10
-18.105175
 20
-84.346813
 11
-18.272602
 21
-84.532718
  0
CIRCLE
  8
ボルト／ビス
  6
CONTINUOUS
 62
    64
 10
-18.02789
 20
-84.584763
 40
0.216668
  0
CIRCLE
  8
ボルト／ビス
  6
CONTINUOUS
 10
-28.742993
 20
-74.93474
 40
0.250185
  0
CIRCLE
  8
ボルト／ビス
  6
CONTINUOUS
 10
-28.742993
 20
-74.93474
 40
0.301025
  0
LINE
  8
ボルト／ビス
  6
CONTINUOUS
 62
    64
 10
-28.498278
 20
-74.986783
 11
-28.575565
 21
-74.748833
  0
LINE
  8
ボルト／ビス
  6
CONTINUOUS
 62
    64
 10
-28.820277
 20
-74.69679
 11
-28.575565
 21
-74.748833
  0
LINE
  8
ボルト／ビス
  6
CONTINUOUS
 62
    64
 10
-28.665705
 20
-75.172688
 11
-28.910418
 21
-75.120643
  0
LINE
  8
ボルト／ビス
  6
CONTINUOUS
 62
    64
 10
-28.987705
 20
-74.882695
 11
-28.910418
 21
-75.120643
  0
LINE
  8
ボルト／ビス
  6
CONTINUOUS
 62
    64
 10
-28.498278
 20
-74.986783
 11
-28.665705
 21
-75.172688
  0
LINE
  8
ボルト／ビス
  6
CONTINUOUS
 62
    64
 10
-28.820277
 20
-74.69679
 11
-28.987705
 21
-74.882695
  0
CIRCLE
  8
ボルト／ビス
  6
CONTINUOUS
 62
    64
 10
-28.742993
 20
-74.93474
 40
0.216668
  0
CIRCLE
  8
ボルト／ビス
  6
CONTINUOUS
 10
-39.458093
 20
-65.284713
 40
0.250185
  0
CIRCLE
  8
ボルト／ビス
  6
CONTINUOUS
 10
-39.458093
 20
-65.284713
 40
0.301025
  0
LINE
  8
ボルト／ビス
  6
CONTINUOUS
 62
    64
 10
-39.53538
 20
-65.046763
 11
-39.290668
 21
-65.098808
  0
LINE
  8
ボルト／ビス
  6
CONTINUOUS
 62
    64
 10
-39.213382
 20
-65.336758
 11
-39.290668
 21
-65.098808
  0
LINE
  8
ボルト／ビス
  6
CONTINUOUS
 62
    64
 10
-39.702808
 20
-65.232668
 11
-39.62552
 21
-65.470618
  0
LINE
  8
ボルト／ビス
  6
CONTINUOUS
 62
    64
 10
-39.380807
 20
-65.522663
 11
-39.62552
 21
-65.470618
  0
LINE
  8
ボルト／ビス
  6
CONTINUOUS
 62
    64
 10
-39.53538
 20
-65.046763
 11
-39.702808
 21
-65.232668
  0
LINE
  8
ボルト／ビス
  6
CONTINUOUS
 62
    64
 10
-39.213382
 20
-65.336758
 11
-39.380807
 21
-65.522663
  0
CIRCLE
  8
ボルト／ビス
  6
CONTINUOUS
 62
    64
 10
-39.458093
 20
-65.284713
 40
0.216668
  0
ENDBLK
  0
BLOCK
  2
*GRP_0022
 70
    65
 10
0.0
 20
0.0
  0
LINE
  8
補助線
  6
BYBLOCK
 62
    64
 10
-39.396173
 20
-84.528995
 11
-39.520017
 21
-84.64053
  0
LINE
  8
補助線
  6
BYBLOCK
 62
    64
 10
-39.513865
 20
-84.522837
 11
-39.402327
 21
-84.646685
  0
LINE
  8
補助線
  6
BYBLOCK
 62
    64
 10
-28.68107
 20
-74.87897
 11
-28.804915
 21
-74.990505
  0
LINE
  8
補助線
  6
BYBLOCK
 62
    64
 10
-28.79876
 20
-74.872812
 11
-28.687225
 21
-74.99666
  0
LINE
  8
補助線
  6
BYBLOCK
 62
    64
 10
-18.089812
 20
-65.34048
 11
-17.96597
 21
-65.228945
  0
LINE
  8
補助線
  6
BYBLOCK
 62
    64
 10
-18.08366
 20
-65.222787
 11
-17.972123
 21
-65.346635
  0
LINE
  8
型材断面
  6
CONTINUOUS
 10
-40.263462
 20
-84.188608
 11
-40.30039
 21
-84.894747
  0
LINE
  8
型材断面
  6
CONTINUOUS
 10
-40.30039
 20
-84.894747
 11
-39.85425
 21
-85.39013
  0
LINE
  8
型材断面
  6
CONTINUOUS
 10
-39.85425
 20
-85.39013
 11
-39.148107
 21
-85.42706
  0
LINE
  8
型材断面
  6
CONTINUOUS
 10
-18.337875
 20
-64.442418
 11
-17.631735
 21
-64.479348
  0
LINE
  8
型材断面
  6
CONTINUOUS
 10
-17.631735
 20
-64.479348
 11
-17.185592
 21
-64.974727
  0
LINE
  8
型材断面
  6
CONTINUOUS
 10
-17.185592
 20
-64.974727
 11
-17.222523
 21
-65.680872
  0
LINE
  8
型材断面
  6
CONTINUOUS
 10
-39.148107
 20
-85.42706
 11
-17.222523
 21
-65.680872
  0
LINE
  8
型材断面
  6
CONTINUOUS
 10
-40.263462
 20
-84.188608
 11
-18.337875
 21
-64.442418
  0
CIRCLE
  8
ボルト／ビス
  6
CONTINUOUS
 10
-39.458095
 20
-84.584763
 40
0.250185
  0
CIRCLE
  8
ボルト／ビス
  6
CONTINUOUS
 10
-39.458095
 20
-84.584763
 40
0.301025
  0
LINE
  8
ボルト／ビス
  6
CONTINUOUS
 62
    64
 10
-39.702808
 20
-84.636808
 11
-39.625522
 21
-84.398858
  0
LINE
  8
ボルト／ビス
  6
CONTINUOUS
 62
    64
 10
-39.38081
 20
-84.346813
 11
-39.625522
 21
-84.398858
  0
LINE
  8
ボルト／ビス
  6
CONTINUOUS
 62
    64
 10
-39.53538
 20
-84.822713
 11
-39.290668
 21
-84.770668
  0
LINE
  8
ボルト／ビス
  6
CONTINUOUS
 62
    64
 10
-39.213382
 20
-84.532718
 11
-39.290668
 21
-84.770668
  0
LINE
  8
ボルト／ビス
  6
CONTINUOUS
 62
    64
 10
-39.702808
 20
-84.636808
 11
-39.53538
 21
-84.822713
  0
LINE
  8
ボルト／ビス
  6
CONTINUOUS
 62
    64
 10
-39.38081
 20
-84.346813
 11
-39.213382
 21
-84.532718
  0
CIRCLE
  8
ボルト／ビス
  6
CONTINUOUS
 62
    64
 10
-39.458095
 20
-84.584763
 40
0.216668
  0
CIRCLE
  8
ボルト／ビス
  6
CONTINUOUS
 10
-28.742993
 20
-74.93474
 40
0.250185
  0
CIRCLE
  8
ボルト／ビス
  6
CONTINUOUS
 10
-28.742993
 20
-74.93474
 40
0.301025
  0
LINE
  8
ボルト／ビス
  6
CONTINUOUS
 62
    64
 10
-28.987708
 20
-74.986783
 11
-28.91042
 21
-74.748833
  0
LINE
  8
ボルト／ビス
  6
CONTINUOUS
 62
    64
 10
-28.665708
 20
-74.69679
 11
-28.91042
 21
-74.748833
  0
LINE
  8
ボルト／ビス
  6
CONTINUOUS
 62
    64
 10
-28.82028
 20
-75.172688
 11
-28.575568
 21
-75.120643
  0
LINE
  8
ボルト／ビス
  6
CONTINUOUS
 62
    64
 10
-28.49828
 20
-74.882695
 11
-28.575568
 21
-75.120643
  0
LINE
  8
ボルト／ビス
  6
CONTINUOUS
 62
    64
 10
-28.987708
 20
-74.986783
 11
-28.82028
 21
-75.172688
  0
LINE
  8
ボルト／ビス
  6
CONTINUOUS
 62
    64
 10
-28.665708
 20
-74.69679
 11
-28.49828
 21
-74.882695
  0
CIRCLE
  8
ボルト／ビス
  6
CONTINUOUS
 62
    64
 10
-28.742993
 20
-74.93474
 40
0.216668
  0
CIRCLE
  8
ボルト／ビス
  6
CONTINUOUS
 10
-18.027892
 20
-65.284713
 40
0.250185
  0
CIRCLE
  8
ボルト／ビス
  6
CONTINUOUS
 10
-18.027892
 20
-65.284713
 40
0.301025
  0
LINE
  8
ボルト／ビス
  6
CONTINUOUS
 62
    64
 10
-17.950605
 20
-65.046763
 11
-18.195317
 21
-65.098808
  0
LINE
  8
ボルト／ビス
  6
CONTINUOUS
 62
    64
 10
-18.272602
 20
-65.336758
 11
-18.195317
 21
-65.098808
  0
LINE
  8
ボルト／ビス
  6
CONTINUOUS
 62
    64
 10
-17.783177
 20
-65.232668
 11
-17.860465
 21
-65.470618
  0
LINE
  8
ボルト／ビス
  6
CONTINUOUS
 62
    64
 10
-18.105177
 20
-65.522663
 11
-17.860465
 21
-65.470618
  0
LINE
  8
ボルト／ビス
  6
CONTINUOUS
 62
    64
 10
-17.950605
 20
-65.046763
 11
-17.783177
 21
-65.232668
  0
LINE
  8
ボルト／ビス
  6
CONTINUOUS
 62
    64
 10
-18.272602
 20
-65.336758
 11
-18.105177
 21
-65.522663
  0
CIRCLE
  8
ボルト／ビス
  6
CONTINUOUS
 62
    64
 10
-18.027892
 20
-65.284713
 40
0.216668
  0
ENDBLK
  0
BLOCK
  2
*DIM_0023
 70
    65
 10
0.0
 20
0.0
  0
LINE
  8
寸法
  6
BYBLOCK
 62
     0
 10
-131.742993
 20
23.399048
 11
-160.688158
 21
23.399048
  0
LINE
  8
寸法
  6
BYBLOCK
 62
     0
 10
-131.742993
 20
46.732382
 11
-160.688158
 21
46.732382
  0
LINE
  8
寸法
  6
BYBLOCK
 62
     0
 10
-160.688158
 20
23.399048
 11
-160.688158
 21
46.732382
  0
POINT
  8
寸法
 62
     0
 10
-160.688158
 20
23.399048
  0
POINT
  8
寸法
 62
     0
 10
-160.688158
 20
46.732382
  0
TEXT
  7
TextStyle03
  8
寸法
  6
CONTINUOUS
 62
     0
 10
-161.0
 20
32.6125
  1
700
 40
3.0
 50
90.0
 72
     5
 11
-161.0
 21
37.4875
  0
ENDBLK
  0
BLOCK
  2
*DIM_0024
 70
    65
 10
0.0
 20
0.0
  0
LINE
  8
寸法
  6
BYBLOCK
 62
     0
 10
-122.076325
 20
59.73238
 11
-122.076325
 21
88.840452
  0
LINE
  8
寸法
  6
BYBLOCK
 62
     0
 10
-98.742993
 20
59.73238
 11
-98.742993
 21
88.840452
  0
LINE
  8
寸法
  6
BYBLOCK
 62
     0
 10
-122.076325
 20
88.840452
 11
-98.742993
 21
88.840452
  0
POINT
  8
寸法
 62
     0
 10
-122.076325
 20
88.840452
  0
POINT
  8
寸法
 62
     0
 10
-98.742993
 20
88.840452
  0
TEXT
  7
TextStyle03
  8
寸法
  6
CONTINUOUS
 62
     0
 10
-112.8625
 20
89.2
  1
700
 40
3.0
 72
     5
 11
-107.9875
 21
89.2
  0
ENDBLK
  0
BLOCK
  2
*DIM_0025
 70
    65
 10
0.0
 20
0.0
  0
LINE
  8
寸法
  6
BYBLOCK
 62
     0
 10
-75.40966
 20
59.73238
 11
-75.40966
 21
88.840452
  0
LINE
  8
寸法
  6
BYBLOCK
 62
     0
 10
-98.742993
 20
88.840452
 11
-75.40966
 21
88.840452
  0
POINT
  8
寸法
 62
     0
 10
-75.40966
 20
88.840452
  0
TEXT
  7
TextStyle03
  8
寸法
  6
CONTINUOUS
 62
     0
 10
-89.5375
 20
89.2
  1
700
 40
3.0
 72
     5
 11
-84.6625
 21
89.2
  0
ENDBLK
  0
BLOCK
  2
*DIM_0026
 70
    65
 10
0.0
 20
0.0
  0
LINE
  8
寸法
  6
BYBLOCK
 62
     0
 10
-52.076325
 20
59.73238
 11
-52.076325
 21
88.840452
  0
LINE
  8
寸法
  6
BYBLOCK
 62
     0
 10
-75.40966
 20
88.840452
 11
-52.076325
 21
88.840452
  0
POINT
  8
寸法
 62
     0
 10
-52.076325
 20
88.840452
  0
TEXT
  7
TextStyle03
  8
寸法
  6
CONTINUOUS
 62
     0
 10
-66.1875
 20
89.2
  1
700
 40
3.0
 72
     5
 11
-61.3125
 21
89.2
  0
ENDBLK
  0
BLOCK
  2
*DIM_0027
 70
    65
 10
0.0
 20
0.0
  0
LINE
  8
寸法
  6
BYBLOCK
 62
     0
 10
-28.742993
 20
59.73238
 11
-28.742993
 21
88.840452
  0
LINE
  8
寸法
  6
BYBLOCK
 62
     0
 10
-52.076325
 20
88.840452
 11
-28.742993
 21
88.840452
  0
POINT
  8
寸法
 62
     0
 10
-28.742993
 20
88.840452
  0
TEXT
  7
TextStyle03
  8
寸法
  6
CONTINUOUS
 62
     0
 10
-42.8625
 20
89.2
  1
700
 40
3.0
 72
     5
 11
-37.9875
 21
89.2
  0
ENDBLK
  0
BLOCK
  2
*DIM_0028
 70
    65
 10
0.0
 20
0.0
  0
LINE
  8
寸法
  6
BYBLOCK
 62
     0
 10
-5.40966
 20
59.73238
 11
-5.40966
 21
88.840452
  0
LINE
  8
寸法
  6
BYBLOCK
 62
     0
 10
-28.742993
 20
88.840452
 11
-5.40966
 21
88.840452
  0
POINT
  8
寸法
 62
     0
 10
-5.40966
 20
88.840452
  0
TEXT
  7
TextStyle03
  8
寸法
  6
CONTINUOUS
 62
     0
 10
-19.5375
 20
89.2
  1
700
 40
3.0
 72
     5
 11
-14.6625
 21
89.2
  0
ENDBLK
  0
BLOCK
  2
*DIM_0029
 70
    65
 10
0.0
 20
0.0
  0
LINE
  8
寸法
  6
BYBLOCK
 62
     0
 10
17.923675
 20
59.73238
 11
17.923675
 21
88.840452
  0
LINE
  8
寸法
  6
BYBLOCK
 62
     0
 10
-5.40966
 20
88.840452
 11
17.923675
 21
88.840452
  0
POINT
  8
寸法
 62
     0
 10
17.923675
 20
88.840452
  0
TEXT
  7
TextStyle03
  8
寸法
  6
CONTINUOUS
 62
     0
 10
3.8125
 20
89.2
  1
700
 40
3.0
 72
     5
 11
8.6875
 21
89.2
  0
ENDBLK
  0
BLOCK
  2
*DIM_0030
 70
    65
 10
0.0
 20
0.0
  0
LINE
  8
寸法
  6
BYBLOCK
 62
     0
 10
41.257007
 20
59.73238
 11
41.257007
 21
88.840452
  0
LINE
  8
寸法
  6
BYBLOCK
 62
     0
 10
17.923675
 20
88.840452
 11
41.257007
 21
88.840452
  0
POINT
  8
寸法
 62
     0
 10
41.257007
 20
88.840452
  0
TEXT
  7
TextStyle03
  8
寸法
  6
CONTINUOUS
 62
     0
 10
27.1375
 20
89.2
  1
700
 40
3.0
 72
     5
 11
32.0125
 21
89.2
  0
ENDBLK
  0
BLOCK
  2
*DIM_0031
 70
    65
 10
0.0
 20
0.0
  0
LINE
  8
寸法
  6
BYBLOCK
 62
     0
 10
64.59034
 20
59.73238
 11
64.59034
 21
88.840452
  0
LINE
  8
寸法
  6
BYBLOCK
 62
     0
 10
41.257007
 20
88.840452
 11
64.59034
 21
88.840452
  0
POINT
  8
寸法
 62
     0
 10
64.59034
 20
88.840452
  0
TEXT
  7
TextStyle03
  8
寸法
  6
CONTINUOUS
 62
     0
 10
50.4625
 20
89.2
  1
700
 40
3.0
 72
     5
 11
55.3375
 21
89.2
  0
ENDBLK
  0
BLOCK
  2
*DIM_0032
 70
    65
 10
0.0
 20
0.0
  0
LINE
  8
寸法
  6
BYBLOCK
 62
     0
 10
155.127518
 20
-49.867045
 11
164.757653
 21
-49.867045
  0
LINE
  8
寸法
  6
BYBLOCK
 62
     0
 10
155.127518
 20
-92.533713
 11
164.757653
 21
-92.533713
  0
LINE
  8
寸法
  6
BYBLOCK
 62
     0
 10
164.757653
 20
-49.867045
 11
164.757653
 21
-92.533713
  0
POINT
  8
寸法
 62
     0
 10
164.757653
 20
-49.867045
  0
POINT
  8
寸法
 62
     0
 10
164.757653
 20
-92.533713
  0
TEXT
  7
TextStyle03
  8
寸法
  6
CONTINUOUS
 62
     0
 10
164.375
 20
-74.50625
  1
1280
 40
3.0
 50
90.0
 72
     5
 11
164.375
 21
-67.94375
  0
ENDBLK
  0
BLOCK
  2
*DIM_0033
 70
    65
 10
0.0
 20
0.0
  0
LINE
  8
寸法
  6
CONTINUOUS
 10
154.127518
 20
-37.29517
 11
122.027518
 21
-37.29517
  0
POINT
  8
寸法
 10
154.127518
 20
-37.29517
  0
POINT
  8
寸法
 10
122.027518
 20
-37.29517
  0
TEXT
  7
TextStyle03
  8
寸法
  6
CONTINUOUS
 10
135.6375
 20
-36.95
  1
963
 40
3.0
 72
     5
 11
140.5125
 21
-36.95
  0
ENDBLK
  0
BLOCK
  2
*DIM_0034
 70
    65
 10
0.0
 20
0.0
  0
LINE
  8
寸法
  6
BYBLOCK
 62
     0
 10
52.59034
 20
-51.291262
 11
87.226657
 21
-51.291262
  0
LINE
  8
寸法
  6
BYBLOCK
 62
     0
 10
87.226657
 20
-67.95793
 11
87.226657
 21
-51.291262
  0
POINT
  8
寸法
 62
     0
 10
87.226657
 20
-67.95793
  0
POINT
  8
寸法
 62
     0
 10
87.226657
 20
-51.291262
  0
TEXT
  7
TextStyle03
  8
寸法
  6
CONTINUOUS
 62
     0
 10
92.275
 20
-68.81875
  1
上昇473以上
 40
3.0
 50
90.0
 72
     5
 11
92.275
 21
-50.63125
  0
ENDBLK
  0
BLOCK
  2
*GRP_0035
 70
    65
 10
0.0
 20
0.0
  0
LINE
  8
ボルト／ビス
  6
CONTINUOUS
 10
160.790272
 20
57.39905
 11
160.323608
 21
57.39905
  0
LINE
  8
ボルト／ビス
  6
CONTINUOUS
 10
160.790272
 20
57.032385
 11
160.723608
 21
57.032385
  0
LINE
  8
ボルト／ビス
  6
CONTINUOUS
 10
160.723608
 20
57.032385
 11
160.723608
 21
57.765718
  0
LINE
  8
ボルト／ビス
  6
CONTINUOUS
 10
160.723608
 20
57.765718
 11
160.790272
 21
57.765718
  0
LINE
  8
ボルト／ビス
  6
CONTINUOUS
 10
160.790272
 20
57.032385
 11
160.790272
 21
57.765718
  0
LINE
  8
ボルト／ビス
  6
CONTINUOUS
 10
160.690272
 20
57.09905
 11
160.723608
 21
57.09905
  0
LINE
  8
ボルト／ビス
  6
CONTINUOUS
 10
160.690272
 20
57.09905
 11
160.690272
 21
57.69905
  0
LINE
  8
ボルト／ビス
  6
CONTINUOUS
 10
160.690272
 20
57.69905
 11
160.723608
 21
57.69905
  0
LINE
  8
ボルト／ビス
  6
CONTINUOUS
 62
    64
 10
160.490273
 20
57.238675
 11
160.501947
 21
57.2066
  0
ARC
  8
ボルト／ビス
  6
CONTINUOUS
 62
    64
 10
160.59525
 20
57.254715
 40
0.104978
 50
152.721967
 51
180.0
  0
ARC
  8
ボルト／ビス
  6
CONTINUOUS
 62
    64
 10
160.892674
 20
57.399052
 40
0.402402
 50
166.165002
 51
193.834985
  0
LINE
  8
ボルト／ビス
  6
CONTINUOUS
 62
    64
 10
160.490273
 20
57.559425
 11
160.501947
 21
57.5915
  0
ARC
  8
ボルト／ビス
  6
CONTINUOUS
 62
    64
 10
160.59525
 20
57.54339
 40
0.104978
 50
180.0
 51
207.278033
  0
LINE
  8
ボルト／ビス
  6
CONTINUOUS
 62
    64
 10
160.490273
 20
57.238675
 11
160.490273
 21
57.559425
  0
LINE
  8
ボルト／ビス
  6
CONTINUOUS
 62
    64
 10
160.501947
 20
57.5915
 11
160.623608
 21
57.5915
  0
LINE
  8
ボルト／ビス
  6
CONTINUOUS
 62
    64
 10
160.501947
 20
57.495275
 11
160.623608
 21
57.495275
  0
LINE
  8
ボルト／ビス
  6
CONTINUOUS
 62
    64
 10
160.501947
 20
57.2066
 11
160.623608
 21
57.2066
  0
LINE
  8
ボルト／ビス
  6
CONTINUOUS
 62
    64
 10
160.501947
 20
57.302825
 11
160.623608
 21
57.302825
  0
LINE
  8
ボルト／ビス
  6
CONTINUOUS
 10
160.623608
 20
57.2066
 11
160.623608
 21
57.5915
  0
LINE
  8
ボルト／ビス
  6
CONTINUOUS
 10
160.623608
 20
57.19905
 11
160.690272
 21
57.19905
  0
LINE
  8
ボルト／ビス
  6
CONTINUOUS
 10
160.623608
 20
57.19905
 11
160.623608
 21
57.59905
  0
LINE
  8
ボルト／ビス
  6
CONTINUOUS
 10
160.623608
 20
57.59905
 11
160.690272
 21
57.59905
  0
ENDBLK
  0
BLOCK
  2
*GRP_0036
 70
    65
 10
0.0
 20
0.0
  0
LINE
  8
ボルト／ビス
  6
CONTINUOUS
 10
160.790272
 20
12.73238
 11
160.323608
 21
12.73238
  0
LINE
  8
ボルト／ビス
  6
CONTINUOUS
 10
160.790272
 20
12.365715
 11
160.723608
 21
12.365715
  0
LINE
  8
ボルト／ビス
  6
CONTINUOUS
 10
160.723608
 20
12.365715
 11
160.723608
 21
13.099048
  0
LINE
  8
ボルト／ビス
  6
CONTINUOUS
 10
160.723608
 20
13.099048
 11
160.790272
 21
13.099048
  0
LINE
  8
ボルト／ビス
  6
CONTINUOUS
 10
160.790272
 20
12.365715
 11
160.790272
 21
13.099048
  0
LINE
  8
ボルト／ビス
  6
CONTINUOUS
 10
160.690272
 20
12.43238
 11
160.723608
 21
12.43238
  0
LINE
  8
ボルト／ビス
  6
CONTINUOUS
 10
160.690272
 20
12.43238
 11
160.690272
 21
13.03238
  0
LINE
  8
ボルト／ビス
  6
CONTINUOUS
 10
160.690272
 20
13.03238
 11
160.723608
 21
13.03238
  0
LINE
  8
ボルト／ビス
  6
CONTINUOUS
 62
    64
 10
160.490273
 20
12.572005
 11
160.501947
 21
12.53993
  0
ARC
  8
ボルト／ビス
  6
CONTINUOUS
 62
    64
 10
160.59525
 20
12.588045
 40
0.104978
 50
152.721967
 51
180.0
  0
ARC
  8
ボルト／ビス
  6
CONTINUOUS
 62
    64
 10
160.892674
 20
12.732382
 40
0.402402
 50
166.165002
 51
193.834985
  0
LINE
  8
ボルト／ビス
  6
CONTINUOUS
 62
    64
 10
160.490273
 20
12.892755
 11
160.501947
 21
12.92483
  0
ARC
  8
ボルト／ビス
  6
CONTINUOUS
 62
    64
 10
160.59525
 20
12.87672
 40
0.104978
 50
180.0
 51
207.278033
  0
LINE
  8
ボルト／ビス
  6
CONTINUOUS
 62
    64
 10
160.490273
 20
12.572005
 11
160.490273
 21
12.892755
  0
LINE
  8
ボルト／ビス
  6
CONTINUOUS
 62
    64
 10
160.501947
 20
12.92483
 11
160.623608
 21
12.92483
  0
LINE
  8
ボルト／ビス
  6
CONTINUOUS
 62
    64
 10
160.501947
 20
12.828605
 11
160.623608
 21
12.828605
  0
LINE
  8
ボルト／ビス
  6
CONTINUOUS
 62
    64
 10
160.501947
 20
12.53993
 11
160.623608
 21
12.53993
  0
LINE
  8
ボルト／ビス
  6
CONTINUOUS
 62
    64
 10
160.501947
 20
12.636155
 11
160.623608
 21
12.636155
  0
LINE
  8
ボルト／ビス
  6
CONTINUOUS
 10
160.623608
 20
12.53993
 11
160.623608
 21
12.92483
  0
LINE
  8
ボルト／ビス
  6
CONTINUOUS
 10
160.623608
 20
12.53238
 11
160.690272
 21
12.53238
  0
LINE
  8
ボルト／ビス
  6
CONTINUOUS
 10
160.623608
 20
12.53238
 11
160.623608
 21
12.93238
  0
LINE
  8
ボルト／ビス
  6
CONTINUOUS
 10
160.623608
 20
12.93238
 11
160.690272
 21
12.93238
  0
ENDBLK
  0
BLOCK
  2
*GRP_0037
 70
    65
 10
0.0
 20
0.0
  0
LINE
  8
ボルト／ビス
  6
CONTINUOUS
 10
71.923675
 20
-79.624597
 11
71.923675
 21
-79.157932
  0
LINE
  8
ボルト／ビス
  6
CONTINUOUS
 10
71.55701
 20
-79.624597
 11
71.55701
 21
-79.557932
  0
LINE
  8
ボルト／ビス
  6
CONTINUOUS
 10
71.55701
 20
-79.557932
 11
72.290343
 21
-79.557932
  0
LINE
  8
ボルト／ビス
  6
CONTINUOUS
 10
72.290343
 20
-79.557932
 11
72.290343
 21
-79.624597
  0
LINE
  8
ボルト／ビス
  6
CONTINUOUS
 10
71.55701
 20
-79.624597
 11
72.290343
 21
-79.624597
  0
LINE
  8
ボルト／ビス
  6
CONTINUOUS
 10
71.623675
 20
-79.524597
 11
71.623675
 21
-79.557932
  0
LINE
  8
ボルト／ビス
  6
CONTINUOUS
 10
71.623675
 20
-79.524597
 11
72.223675
 21
-79.524597
  0
LINE
  8
ボルト／ビス
  6
CONTINUOUS
 10
72.223675
 20
-79.524597
 11
72.223675
 21
-79.557932
  0
LINE
  8
ボルト／ビス
  6
CONTINUOUS
 62
    64
 10
71.7633
 20
-79.324597
 11
71.731225
 21
-79.336272
  0
ARC
  8
ボルト／ビス
  6
CONTINUOUS
 62
    64
 10
71.77934
 20
-79.429573
 40
0.104978
 50
62.721967
 51
90.0
  0
ARC
  8
ボルト／ビス
  6
CONTINUOUS
 62
    64
 10
71.923678
 20
-79.726996
 40
0.402402
 50
76.165002
 51
103.834985
  0
LINE
  8
ボルト／ビス
  6
CONTINUOUS
 62
    64
 10
72.08405
 20
-79.324597
 11
72.116125
 21
-79.336272
  0
ARC
  8
ボルト／ビス
  6
CONTINUOUS
 62
    64
 10
72.068016
 20
-79.429573
 40
0.104978
 50
90.0
 51
117.278033
  0
LINE
  8
ボルト／ビス
  6
CONTINUOUS
 62
    64
 10
71.7633
 20
-79.324597
 11
72.08405
 21
-79.324597
  0
LINE
  8
ボルト／ビス
  6
CONTINUOUS
 62
    64
 10
72.116125
 20
-79.336272
 11
72.116125
 21
-79.457932
  0
LINE
  8
ボルト／ビス
  6
CONTINUOUS
 62
    64
 10
72.0199
 20
-79.336272
 11
72.0199
 21
-79.457932
  0
LINE
  8
ボルト／ビス
  6
CONTINUOUS
 62
    64
 10
71.731225
 20
-79.336272
 11
71.731225
 21
-79.457932
  0
LINE
  8
ボルト／ビス
  6
CONTINUOUS
 62
    64
 10
71.82745
 20
-79.336272
 11
71.82745
 21
-79.457932
  0
LINE
  8
ボルト／ビス
  6
CONTINUOUS
 10
71.731225
 20
-79.457932
 11
72.116125
 21
-79.457932
  0
LINE
  8
ボルト／ビス
  6
CONTINUOUS
 10
71.723675
 20
-79.457932
 11
71.723675
 21
-79.524597
  0
LINE
  8
ボルト／ビス
  6
CONTINUOUS
 10
71.723675
 20
-79.457932
 11
72.123675
 21
-79.457932
  0
LINE
  8
ボルト／ビス
  6
CONTINUOUS
 10
72.123675
 20
-79.457932
 11
72.123675
 21
-79.524597
  0
ENDBLK
  0
BLOCK
  2
*GRP_0038
 70
    65
 10
0.0
 20
0.0
  0
LINE
  8
ボルト／ビス
  6
DOT
 10
71.923675
 20
-62.95793
 11
71.923675
 21
-62.491265
  0
LINE
  8
ボルト／ビス
  6
DOT
 10
71.55701
 20
-62.95793
 11
71.55701
 21
-62.891265
  0
LINE
  8
ボルト／ビス
  6
DOT
 10
71.55701
 20
-62.891265
 11
72.290343
 21
-62.891265
  0
LINE
  8
ボルト／ビス
  6
DOT
 10
72.290343
 20
-62.891265
 11
72.290343
 21
-62.95793
  0
LINE
  8
ボルト／ビス
  6
DOT
 10
71.55701
 20
-62.95793
 11
72.290343
 21
-62.95793
  0
LINE
  8
ボルト／ビス
  6
DOT
 10
71.623675
 20
-62.85793
 11
71.623675
 21
-62.891265
  0
LINE
  8
ボルト／ビス
  6
DOT
 10
71.623675
 20
-62.85793
 11
72.223675
 21
-62.85793
  0
LINE
  8
ボルト／ビス
  6
DOT
 10
72.223675
 20
-62.85793
 11
72.223675
 21
-62.891265
  0
LINE
  8
ボルト／ビス
  6
DOT
 62
    64
 10
71.7633
 20
-62.65793
 11
71.731225
 21
-62.669605
  0
ARC
  8
ボルト／ビス
  6
DOT
 62
    64
 10
71.779339
 20
-62.762906
 40
0.104978
 50
62.721967
 51
90.0
  0
ARC
  8
ボルト／ビス
  6
DOT
 62
    64
 10
71.923676
 20
-63.06033
 40
0.402402
 50
76.165002
 51
103.834985
  0
LINE
  8
ボルト／ビス
  6
DOT
 62
    64
 10
72.08405
 20
-62.65793
 11
72.116125
 21
-62.669605
  0
ARC
  8
ボルト／ビス
  6
DOT
 62
    64
 10
72.068014
 20
-62.762906
 40
0.104978
 50
90.0
 51
117.278033
  0
LINE
  8
ボルト／ビス
  6
DOT
 62
    64
 10
71.7633
 20
-62.65793
 11
72.08405
 21
-62.65793
  0
LINE
  8
ボルト／ビス
  6
DOT
 62
    64
 10
72.116125
 20
-62.669605
 11
72.116125
 21
-62.791265
  0
LINE
  8
ボルト／ビス
  6
DOT
 62
    64
 10
72.0199
 20
-62.669605
 11
72.0199
 21
-62.791265
  0
LINE
  8
ボルト／ビス
  6
DOT
 62
    64
 10
71.731225
 20
-62.669605
 11
71.731225
 21
-62.791265
  0
LINE
  8
ボルト／ビス
  6
DOT
 62
    64
 10
71.82745
 20
-62.669605
 11
71.82745
 21
-62.791265
  0
LINE
  8
ボルト／ビス
  6
DOT
 10
71.731225
 20
-62.791265
 11
72.116125
 21
-62.791265
  0
LINE
  8
ボルト／ビス
  6
DOT
 10
71.723675
 20
-62.791265
 11
71.723675
 21
-62.85793
  0
LINE
  8
ボルト／ビス
  6
DOT
 10
71.723675
 20
-62.791265
 11
72.123675
 21
-62.791265
  0
LINE
  8
ボルト／ビス
  6
DOT
 10
72.123675
 20
-62.791265
 11
72.123675
 21
-62.85793
  0
ENDBLK
  0
BLOCK
  2
*GRP_0039
 70
    65
 10
0.0
 20
0.0
  0
LINE
  8
ボルト／ビス
  6
CONTINUOUS
 10
-129.40966
 20
-79.624597
 11
-129.40966
 21
-79.157932
  0
LINE
  8
ボルト／ビス
  6
CONTINUOUS
 10
-129.776325
 20
-79.624597
 11
-129.776325
 21
-79.557932
  0
LINE
  8
ボルト／ビス
  6
CONTINUOUS
 10
-129.776325
 20
-79.557932
 11
-129.042993
 21
-79.557932
  0
LINE
  8
ボルト／ビス
  6
CONTINUOUS
 10
-129.042993
 20
-79.557932
 11
-129.042993
 21
-79.624597
  0
LINE
  8
ボルト／ビス
  6
CONTINUOUS
 10
-129.776325
 20
-79.624597
 11
-129.042993
 21
-79.624597
  0
LINE
  8
ボルト／ビス
  6
CONTINUOUS
 10
-129.70966
 20
-79.524597
 11
-129.70966
 21
-79.557932
  0
LINE
  8
ボルト／ビス
  6
CONTINUOUS
 10
-129.70966
 20
-79.524597
 11
-129.10966
 21
-79.524597
  0
LINE
  8
ボルト／ビス
  6
CONTINUOUS
 10
-129.10966
 20
-79.524597
 11
-129.10966
 21
-79.557932
  0
LINE
  8
ボルト／ビス
  6
CONTINUOUS
 62
    64
 10
-129.570035
 20
-79.324597
 11
-129.60211
 21
-79.336272
  0
ARC
  8
ボルト／ビス
  6
CONTINUOUS
 62
    64
 10
-129.553995
 20
-79.429573
 40
0.104978
 50
62.721967
 51
90.0
  0
ARC
  8
ボルト／ビス
  6
CONTINUOUS
 62
    64
 10
-129.409657
 20
-79.726996
 40
0.402402
 50
76.165002
 51
103.834985
  0
LINE
  8
ボルト／ビス
  6
CONTINUOUS
 62
    64
 10
-129.249285
 20
-79.324597
 11
-129.21721
 21
-79.336272
  0
ARC
  8
ボルト／ビス
  6
CONTINUOUS
 62
    64
 10
-129.265319
 20
-79.429573
 40
0.104978
 50
90.0
 51
117.278033
  0
LINE
  8
ボルト／ビス
  6
CONTINUOUS
 62
    64
 10
-129.570035
 20
-79.324597
 11
-129.249285
 21
-79.324597
  0
LINE
  8
ボルト／ビス
  6
CONTINUOUS
 62
    64
 10
-129.21721
 20
-79.336272
 11
-129.21721
 21
-79.457932
  0
LINE
  8
ボルト／ビス
  6
CONTINUOUS
 62
    64
 10
-129.313435
 20
-79.336272
 11
-129.313435
 21
-79.457932
  0
LINE
  8
ボルト／ビス
  6
CONTINUOUS
 62
    64
 10
-129.60211
 20
-79.336272
 11
-129.60211
 21
-79.457932
  0
LINE
  8
ボルト／ビス
  6
CONTINUOUS
 62
    64
 10
-129.505885
 20
-79.336272
 11
-129.505885
 21
-79.457932
  0
LINE
  8
ボルト／ビス
  6
CONTINUOUS
 10
-129.60211
 20
-79.457932
 11
-129.21721
 21
-79.457932
  0
LINE
  8
ボルト／ビス
  6
CONTINUOUS
 10
-129.60966
 20
-79.457932
 11
-129.60966
 21
-79.524597
  0
LINE
  8
ボルト／ビス
  6
CONTINUOUS
 10
-129.60966
 20
-79.457932
 11
-129.20966
 21
-79.457932
  0
LINE
  8
ボルト／ビス
  6
CONTINUOUS
 10
-129.20966
 20
-79.457932
 11
-129.20966
 21
-79.524597
  0
ENDBLK
  0
BLOCK
  2
*GRP_0040
 70
    65
 10
0.0
 20
0.0
  0
LINE
  8
ボルト／ビス
  6
DOT
 10
-129.40966
 20
-62.95793
 11
-129.40966
 21
-62.491265
  0
LINE
  8
ボルト／ビス
  6
DOT
 10
-129.776325
 20
-62.95793
 11
-129.776325
 21
-62.891265
  0
LINE
  8
ボルト／ビス
  6
DOT
 10
-129.776325
 20
-62.891265
 11
-129.042993
 21
-62.891265
  0
LINE
  8
ボルト／ビス
  6
DOT
 10
-129.042993
 20
-62.891265
 11
-129.042993
 21
-62.95793
  0
LINE
  8
ボルト／ビス
  6
DOT
 10
-129.776325
 20
-62.95793
 11
-129.042993
 21
-62.95793
  0
LINE
  8
ボルト／ビス
  6
DOT
 10
-129.70966
 20
-62.85793
 11
-129.70966
 21
-62.891265
  0
LINE
  8
ボルト／ビス
  6
DOT
 10
-129.70966
 20
-62.85793
 11
-129.10966
 21
-62.85793
  0
LINE
  8
ボルト／ビス
  6
DOT
 10
-129.10966
 20
-62.85793
 11
-129.10966
 21
-62.891265
  0
LINE
  8
ボルト／ビス
  6
DOT
 62
    64
 10
-129.570035
 20
-62.65793
 11
-129.60211
 21
-62.669605
  0
ARC
  8
ボルト／ビス
  6
DOT
 62
    64
 10
-129.553996
 20
-62.762906
 40
0.104978
 50
62.721967
 51
90.0
  0
ARC
  8
ボルト／ビス
  6
DOT
 62
    64
 10
-129.409659
 20
-63.06033
 40
0.402402
 50
76.165002
 51
103.834985
  0
LINE
  8
ボルト／ビス
  6
DOT
 62
    64
 10
-129.249285
 20
-62.65793
 11
-129.21721
 21
-62.669605
  0
ARC
  8
ボルト／ビス
  6
DOT
 62
    64
 10
-129.265321
 20
-62.762906
 40
0.104978
 50
90.0
 51
117.278033
  0
LINE
  8
ボルト／ビス
  6
DOT
 62
    64
 10
-129.570035
 20
-62.65793
 11
-129.249285
 21
-62.65793
  0
LINE
  8
ボルト／ビス
  6
DOT
 62
    64
 10
-129.21721
 20
-62.669605
 11
-129.21721
 21
-62.791265
  0
LINE
  8
ボルト／ビス
  6
DOT
 62
    64
 10
-129.313435
 20
-62.669605
 11
-129.313435
 21
-62.791265
  0
LINE
  8
ボルト／ビス
  6
DOT
 62
    64
 10
-129.60211
 20
-62.669605
 11
-129.60211
 21
-62.791265
  0
LINE
  8
ボルト／ビス
  6
DOT
 62
    64
 10
-129.505885
 20
-62.669605
 11
-129.505885
 21
-62.791265
  0
LINE
  8
ボルト／ビス
  6
DOT
 10
-129.60211
 20
-62.791265
 11
-129.21721
 21
-62.791265
  0
LINE
  8
ボルト／ビス
  6
DOT
 10
-129.60966
 20
-62.791265
 11
-129.60966
 21
-62.85793
  0
LINE
  8
ボルト／ビス
  6
DOT
 10
-129.60966
 20
-62.791265
 11
-129.20966
 21
-62.791265
  0
LINE
  8
ボルト／ビス
  6
DOT
 10
-129.20966
 20
-62.791265
 11
-129.20966
 21
-62.85793
  0
ENDBLK
  0
ENDSEC
  0
SECTION
  2
ENTITIES
  0
POLYLINE
  8
通り芯
  6
CONTINUOUS
 66
     1
 70
     1
  0
VERTEX
  8
通り芯
 10
-210.0
 20
-148.5
  0
VERTEX
  8
通り芯
 10
210.0
 20
-148.5
  0
VERTEX
  8
通り芯
 10
210.0
 20
148.5
  0
VERTEX
  8
通り芯
 10
-210.0
 20
148.5
  0
SEQEND
  0
INSERT
  2
*GRP_0001
  8
型材断面
  6
CONTINUOUS
 10
0.0
 20
0.0
  0
LINE
  8
型材断面
  6
DASHDOT
 10
-128.742993
 20
13.399048
 11
168.93377
 21
13.399048
  0
LINE
  8
型材断面
  6
DASHDOT
 10
-128.742993
 20
56.73238
 11
168.93377
 21
56.73238
  0
LINE
  8
型材断面
  6
DOT
 10
-29.992993
 20
13.399048
 11
-29.992993
 21
56.73238
  0
LINE
  8
型材断面
  6
DOT
 10
-27.492993
 20
13.399048
 11
-27.492993
 21
56.73238
  0
LINE
  8
型材断面
  6
DASHDOT
 10
-128.742993
 20
35.065715
 11
168.93377
 21
35.065715
  0
POLYLINE
  8
型材断面
  6
CONTINUOUS
 66
     1
 70
     1
  0
VERTEX
  8
型材断面
 10
-19.342983
 20
66.508305
  0
VERTEX
  8
型材断面
 10
-38.114912
 20
66.508305
  0
VERTEX
  8
型材断面
 10
-38.114912
 20
71.245147
  0
VERTEX
  8
型材断面
 10
-19.342983
 20
71.245147
  0
SEQEND
  0
LINE
  8
型材断面
  6
DASHDOT
 10
-128.742993
 20
-87.251428
 11
-128.742993
 21
56.73238
  0
LINE
  8
型材断面
  6
DASHDOT
 10
-28.742993
 20
-87.251428
 11
-28.742993
 21
56.73238
  0
LINE
  8
型材断面
  6
DASHDOT
 10
71.257007
 20
-87.251428
 11
71.257007
 21
56.73238
  0
POLYLINE
  8
型材断面
  6
CONTINUOUS
 66
     1
 70
     1
  0
VERTEX
  8
型材断面
 10
-19.342983
 20
3.623125
  0
VERTEX
  8
型材断面
 10
-38.114912
 20
3.623125
  0
VERTEX
  8
型材断面
 10
-38.114912
 20
-1.113717
  0
VERTEX
  8
型材断面
 10
-19.342983
 20
-1.113717
  0
SEQEND
  0
LINE
  8
型材断面
  6
CONTINUOUS
 10
-131.373123
 20
35.065715
 11
-133.96363
 21
36.561345
  0
LINE
  8
型材断面
  6
CONTINUOUS
 10
-131.373123
 20
35.065715
 11
-133.96363
 21
33.570085
  0
LINE
  8
型材断面
  6
CONTINUOUS
 10
-133.96363
 20
33.570085
 11
-133.96363
 21
36.561345
  0
LINE
  8
型材断面
  6
CONTINUOUS
 10
-112.076325
 20
59.36251
 11
-113.571955
 21
61.953017
  0
LINE
  8
型材断面
  6
CONTINUOUS
 10
-112.076325
 20
59.36251
 11
-110.580695
 21
61.953017
  0
LINE
  8
型材断面
  6
CONTINUOUS
 10
-110.580695
 20
61.953017
 11
-113.571955
 21
61.953017
  0
LINE
  8
型材断面
  6
CONTINUOUS
 10
-28.742993
 20
59.36251
 11
-30.238623
 21
61.953017
  0
LINE
  8
型材断面
  6
CONTINUOUS
 10
-28.742993
 20
59.36251
 11
-27.247362
 21
61.953017
  0
LINE
  8
型材断面
  6
CONTINUOUS
 10
-27.247362
 20
61.953017
 11
-30.238623
 21
61.953017
  0
LINE
  8
型材断面
  6
CONTINUOUS
 10
54.59034
 20
59.36251
 11
53.09471
 21
61.953017
  0
LINE
  8
型材断面
  6
CONTINUOUS
 10
54.59034
 20
59.36251
 11
56.08597
 21
61.953017
  0
LINE
  8
型材断面
  6
CONTINUOUS
 10
56.08597
 20
61.953017
 11
53.09471
 21
61.953017
  0
LINE
  8
型材断面
  6
CONTINUOUS
 10
-169.5952
 20
94.709852
 11
-168.999145
 21
92.119345
  0
LINE
  8
型材断面
  6
CONTINUOUS
 10
-169.5952
 20
94.709852
 11
-170.191258
 21
92.119345
  0
LINE
  8
型材断面
  6
CONTINUOUS
 10
-170.191258
 20
92.119345
 11
-168.999145
 21
92.119345
  0
LINE
  8
型材断面
  6
CONTINUOUS
 10
-175.617788
 20
88.840452
 11
-129.37601
 21
88.840452
  0
LINE
  8
型材断面
  6
CONTINUOUS
 10
-169.5952
 20
101.239727
 11
-171.09083
 21
98.64922
  0
LINE
  8
型材断面
  6
CONTINUOUS
 10
-169.5952
 20
101.239727
 11
-168.09957
 21
98.64922
  0
LINE
  8
型材断面
  6
CONTINUOUS
 10
-168.09957
 20
98.64922
 11
-171.09083
 21
98.64922
  0
LINE
  8
型材断面
  6
CONTINUOUS
 10
-175.617788
 20
97.710625
 11
-129.37601
 21
97.710625
  0
LINE
  8
型材断面
  6
CONTINUOUS
 10
-175.617788
 20
83.05242
 11
-129.37601
 21
83.05242
  0
LINE
  8
型材断面
  6
CONTINUOUS
 10
-112.076325
 20
10.76892
 11
-113.571955
 21
8.178413
  0
LINE
  8
型材断面
  6
CONTINUOUS
 10
-112.076325
 20
10.76892
 11
-110.580695
 21
8.178413
  0
LINE
  8
型材断面
  6
CONTINUOUS
 10
-110.580695
 20
8.178413
 11
-113.571955
 21
8.178413
  0
LINE
  8
型材断面
  6
CONTINUOUS
 10
-28.742993
 20
10.76892
 11
-30.238623
 21
8.178413
  0
LINE
  8
型材断面
  6
CONTINUOUS
 10
-28.742993
 20
10.76892
 11
-27.247362
 21
8.178413
  0
LINE
  8
型材断面
  6
CONTINUOUS
 10
-27.247362
 20
8.178413
 11
-30.238623
 21
8.178413
  0
LINE
  8
型材断面
  6
CONTINUOUS
 10
54.59034
 20
10.76892
 11
53.09471
 21
8.178413
  0
LINE
  8
型材断面
  6
CONTINUOUS
 10
54.59034
 20
10.76892
 11
56.08597
 21
8.178413
  0
LINE
  8
型材断面
  6
CONTINUOUS
 10
56.08597
 20
8.178413
 11
53.09471
 21
8.178413
  0
LINE
  8
型材断面
  6
CONTINUOUS
 10
73.887138
 20
35.065715
 11
76.477645
 21
36.561345
  0
LINE
  8
型材断面
  6
CONTINUOUS
 10
73.887138
 20
35.065715
 11
76.477645
 21
33.570085
  0
LINE
  8
型材断面
  6
CONTINUOUS
 10
76.477645
 20
33.570085
 11
76.477645
 21
36.561345
  0
LINE
  8
型材断面
  6
DASHDOT
 10
161.823558
 20
13.399045
 11
167.843622
 21
13.399045
  0
LINE
  8
型材断面
  6
CONTINUOUS
 62
    47
 10
164.10689
 20
12.00238
 11
164.10689
 21
12.78238
  0
LINE
  8
型材断面
  6
CONTINUOUS
 10
162.273558
 20
11.90238
 11
161.823558
 21
11.90238
  0
LINE
  8
型材断面
  6
CONTINUOUS
 62
    47
 10
164.94625
 20
11.119045
 11
164.612915
 21
11.119045
  0
LINE
  8
型材断面
  6
CONTINUOUS
 62
    47
 10
164.612915
 20
11.119045
 11
164.512915
 21
11.90238
  0
LINE
  8
型材断面
  6
CONTINUOUS
 62
    47
 10
164.10689
 20
11.90238
 11
164.512915
 21
11.90238
  0
LINE
  8
型材断面
  6
CONTINUOUS
 62
    47
 10
164.10689
 20
11.43238
 11
162.273558
 21
11.43238
  0
LINE
  8
型材断面
  6
CONTINUOUS
 62
    47
 10
168.073558
 20
11.999045
 11
167.573558
 21
11.999045
  0
LINE
  8
型材断面
  6
CONTINUOUS
 62
    47
 10
167.573558
 20
11.43238
 11
164.94625
 21
11.43238
  0
LINE
  8
型材断面
  6
CONTINUOUS
 10
162.273558
 20
11.43238
 11
162.273558
 21
35.065715
  0
LINE
  8
型材断面
  6
CONTINUOUS
 62
    47
 10
164.10689
 20
11.43238
 11
164.10689
 21
35.065715
  0
LINE
  8
型材断面
  6
CONTINUOUS
 10
164.512915
 20
11.90238
 11
164.512915
 21
35.065715
  0
LINE
  8
型材断面
  6
CONTINUOUS
 10
164.612915
 20
11.119045
 11
164.612915
 21
35.065715
  0
LINE
  8
型材断面
  6
CONTINUOUS
 62
    47
 10
164.94625
 20
11.119045
 11
164.94625
 21
35.065715
  0
LINE
  8
型材断面
  6
CONTINUOUS
 62
    47
 10
167.573558
 20
11.43238
 11
167.573558
 21
35.065715
  0
LINE
  8
型材断面
  6
CONTINUOUS
 62
    47
 10
168.073558
 20
11.999045
 11
168.073558
 21
35.065715
  0
LINE
  8
型材断面
  6
CONTINUOUS
 10
162.273558
 20
58.22905
 11
161.823558
 21
58.22905
  0
LINE
  8
型材断面
  6
CONTINUOUS
 62
    47
 10
164.94625
 20
59.012385
 11
164.612915
 21
59.012385
  0
LINE
  8
型材断面
  6
CONTINUOUS
 62
    47
 10
164.612915
 20
59.012385
 11
164.512915
 21
58.22905
  0
LINE
  8
型材断面
  6
CONTINUOUS
 62
    47
 10
164.10689
 20
58.22905
 11
164.512915
 21
58.22905
  0
LINE
  8
型材断面
  6
CONTINUOUS
 62
    47
 10
164.10689
 20
58.69905
 11
162.273558
 21
58.69905
  0
LINE
  8
型材断面
  6
CONTINUOUS
 62
    47
 10
168.073558
 20
58.132385
 11
167.573558
 21
58.132385
  0
LINE
  8
型材断面
  6
CONTINUOUS
 62
    47
 10
167.573558
 20
58.69905
 11
164.94625
 21
58.69905
  0
LINE
  8
型材断面
  6
CONTINUOUS
 10
162.273558
 20
58.69905
 11
162.273558
 21
35.065715
  0
LINE
  8
型材断面
  6
CONTINUOUS
 62
    47
 10
164.10689
 20
58.69905
 11
164.10689
 21
35.065715
  0
LINE
  8
型材断面
  6
CONTINUOUS
 10
164.512915
 20
58.22905
 11
164.512915
 21
35.065715
  0
LINE
  8
型材断面
  6
CONTINUOUS
 10
164.612915
 20
59.012385
 11
164.612915
 21
35.065715
  0
LINE
  8
型材断面
  6
CONTINUOUS
 62
    47
 10
164.94625
 20
59.012385
 11
164.94625
 21
35.065715
  0
LINE
  8
型材断面
  6
CONTINUOUS
 62
    47
 10
167.573558
 20
58.69905
 11
167.573558
 21
35.065715
  0
LINE
  8
型材断面
  6
CONTINUOUS
 62
    47
 10
168.073558
 20
58.132385
 11
168.073558
 21
35.065715
  0
LINE
  8
型材断面
  6
CONTINUOUS
 62
    47
 10
72.653675
 20
-82.941215
 11
71.873675
 21
-82.941215
  0
LINE
  8
型材断面
  6
CONTINUOUS
 10
72.753675
 20
-81.107882
 11
72.753675
 21
-80.657882
  0
LINE
  8
型材断面
  6
CONTINUOUS
 62
    47
 10
73.53701
 20
-83.780575
 11
73.53701
 21
-83.44724
  0
LINE
  8
型材断面
  6
CONTINUOUS
 62
    47
 10
73.53701
 20
-83.44724
 11
72.753675
 21
-83.34724
  0
LINE
  8
型材断面
  6
CONTINUOUS
 62
    47
 10
72.753675
 20
-82.941215
 11
72.753675
 21
-83.34724
  0
LINE
  8
型材断面
  6
CONTINUOUS
 62
    47
 10
73.223675
 20
-82.941215
 11
73.223675
 21
-81.107882
  0
LINE
  8
型材断面
  6
CONTINUOUS
 62
    47
 10
72.65701
 20
-86.907882
 11
72.65701
 21
-86.407882
  0
LINE
  8
型材断面
  6
CONTINUOUS
 62
    47
 10
73.223675
 20
-86.407882
 11
73.223675
 21
-83.780575
  0
LINE
  8
型材断面
  6
CONTINUOUS
 10
73.323675
 20
58.79905
 11
73.53701
 21
59.012385
  0
LINE
  8
型材断面
  6
CONTINUOUS
 10
73.53701
 20
59.012385
 11
73.53701
 21
35.065715
  0
LINE
  8
型材断面
  6
CONTINUOUS
 10
73.223675
 20
-81.107882
 11
-28.742993
 21
-81.107882
  0
LINE
  8
型材断面
  6
CONTINUOUS
 62
    47
 10
73.223675
 20
-82.941215
 11
-28.742993
 21
-82.941215
  0
LINE
  8
型材断面
  6
CONTINUOUS
 10
72.753675
 20
-83.34724
 11
-28.742993
 21
-83.34724
  0
LINE
  8
型材断面
  6
CONTINUOUS
 10
73.53701
 20
-83.44724
 11
-28.742993
 21
-83.44724
  0
LINE
  8
型材断面
  6
CONTINUOUS
 62
    47
 10
73.53701
 20
-83.780575
 11
-28.742993
 21
-83.780575
  0
LINE
  8
型材断面
  6
CONTINUOUS
 62
    47
 10
72.65701
 20
-86.907882
 11
-28.742993
 21
-86.907882
  0
LINE
  8
型材断面
  6
CONTINUOUS
 62
    47
 10
73.223675
 20
-86.407882
 11
-28.742993
 21
-86.407882
  0
LINE
  8
型材断面
  6
CONTINUOUS
 62
    47
 10
-130.13966
 20
-82.941215
 11
-129.35966
 21
-82.941215
  0
LINE
  8
型材断面
  6
CONTINUOUS
 10
-130.23966
 20
-81.107882
 11
-130.23966
 21
-80.657882
  0
LINE
  8
型材断面
  6
CONTINUOUS
 62
    47
 10
-131.022995
 20
-83.780575
 11
-131.022995
 21
-83.44724
  0
LINE
  8
型材断面
  6
CONTINUOUS
 62
    47
 10
-131.022995
 20
-83.44724
 11
-130.23966
 21
-83.34724
  0
LINE
  8
型材断面
  6
CONTINUOUS
 62
    47
 10
-130.23966
 20
-82.941215
 11
-130.23966
 21
-83.34724
  0
LINE
  8
型材断面
  6
CONTINUOUS
 62
    47
 10
-130.70966
 20
-82.941215
 11
-130.70966
 21
-81.107882
  0
LINE
  8
型材断面
  6
CONTINUOUS
 62
    47
 10
-130.142995
 20
-86.907882
 11
-130.142995
 21
-86.407882
  0
LINE
  8
型材断面
  6
CONTINUOUS
 62
    47
 10
-130.70966
 20
-86.407882
 11
-130.70966
 21
-83.780575
  0
LINE
  8
型材断面
  6
CONTINUOUS
 10
-130.70966
 20
-81.107882
 11
-28.742993
 21
-81.107882
  0
LINE
  8
型材断面
  6
CONTINUOUS
 62
    47
 10
-130.70966
 20
-82.941215
 11
-28.742993
 21
-82.941215
  0
LINE
  8
型材断面
  6
CONTINUOUS
 10
-130.23966
 20
-83.34724
 11
-28.742993
 21
-83.34724
  0
LINE
  8
型材断面
  6
CONTINUOUS
 10
-131.022995
 20
-83.44724
 11
-28.742993
 21
-83.44724
  0
LINE
  8
型材断面
  6
CONTINUOUS
 62
    47
 10
-131.022995
 20
-83.780575
 11
-28.742993
 21
-83.780575
  0
LINE
  8
型材断面
  6
CONTINUOUS
 62
    47
 10
-130.142995
 20
-86.907882
 11
-28.742993
 21
-86.907882
  0
LINE
  8
型材断面
  6
CONTINUOUS
 62
    47
 10
-130.70966
 20
-86.407882
 11
-28.742993
 21
-86.407882
  0
LINE
  8
型材断面
  6
DOT
 62
    47
 10
72.653675
 20
-66.274547
 11
71.873675
 21
-66.274547
  0
LINE
  8
型材断面
  6
DOT
 10
72.753675
 20
-64.441215
 11
72.753675
 21
-63.991215
  0
LINE
  8
型材断面
  6
DOT
 62
    47
 10
73.53701
 20
-67.113908
 11
73.53701
 21
-66.780573
  0
LINE
  8
型材断面
  6
DOT
 62
    47
 10
73.53701
 20
-66.780573
 11
72.753675
 21
-66.680573
  0
LINE
  8
型材断面
  6
DOT
 62
    47
 10
72.753675
 20
-66.274547
 11
72.753675
 21
-66.680573
  0
LINE
  8
型材断面
  6
DOT
 62
    47
 10
73.223675
 20
-66.274547
 11
73.223675
 21
-64.441215
  0
LINE
  8
型材断面
  6
DOT
 10
73.223675
 20
-64.441215
 11
-28.742993
 21
-64.441215
  0
LINE
  8
型材断面
  6
DOT
 62
    47
 10
73.223675
 20
-66.274547
 11
-28.742993
 21
-66.274547
  0
LINE
  8
型材断面
  6
DOT
 10
72.753675
 20
-66.680573
 11
-28.742993
 21
-66.680573
  0
LINE
  8
型材断面
  6
DOT
 10
73.53701
 20
-66.780573
 11
-28.742993
 21
-66.780573
  0
LINE
  8
型材断面
  6
DOT
 62
    47
 10
73.53701
 20
-67.113908
 11
-28.742993
 21
-67.113908
  0
LINE
  8
型材断面
  6
DOT
 62
    47
 10
-130.13966
 20
-66.274547
 11
-129.35966
 21
-66.274547
  0
LINE
  8
型材断面
  6
DOT
 10
-130.23966
 20
-64.441215
 11
-130.23966
 21
-63.991215
  0
LINE
  8
型材断面
  6
DOT
 62
    47
 10
-131.022995
 20
-67.113908
 11
-131.022995
 21
-66.780573
  0
LINE
  8
型材断面
  6
DOT
 62
    47
 10
-131.022995
 20
-66.780573
 11
-130.23966
 21
-66.680573
  0
LINE
  8
型材断面
  6
DOT
 62
    47
 10
-130.23966
 20
-66.274547
 11
-130.23966
 21
-66.680573
  0
LINE
  8
型材断面
  6
DOT
 62
    47
 10
-130.70966
 20
-66.274547
 11
-130.70966
 21
-64.441215
  0
LINE
  8
型材断面
  6
DOT
 10
-130.70966
 20
-64.441215
 11
-28.742993
 21
-64.441215
  0
LINE
  8
型材断面
  6
DOT
 62
    47
 10
-130.70966
 20
-66.274547
 11
-28.742993
 21
-66.274547
  0
LINE
  8
型材断面
  6
DOT
 10
-130.23966
 20
-66.680573
 11
-28.742993
 21
-66.680573
  0
LINE
  8
型材断面
  6
DOT
 10
-131.022995
 20
-66.780573
 11
-28.742993
 21
-66.780573
  0
LINE
  8
型材断面
  6
DOT
 62
    47
 10
-131.022995
 20
-67.113908
 11
-28.742993
 21
-67.113908
  0
LINE
  8
型材断面
  6
CONTINUOUS
 10
73.53701
 20
59.012385
 11
-28.742993
 21
59.012385
  0
LINE
  8
型材断面
  6
CONTINUOUS
 10
73.323675
 20
11.33238
 11
73.53701
 21
11.119045
  0
LINE
  8
型材断面
  6
CONTINUOUS
 10
73.53701
 20
11.119045
 11
73.53701
 21
35.065715
  0
LINE
  8
型材断面
  6
CONTINUOUS
 10
73.53701
 20
11.119045
 11
-28.742993
 21
11.119045
  0
LINE
  8
型材断面
  6
CONTINUOUS
 10
-130.80966
 20
11.33238
 11
-131.022995
 21
11.119045
  0
LINE
  8
型材断面
  6
CONTINUOUS
 10
-131.022995
 20
11.119045
 11
-131.022995
 21
35.065715
  0
LINE
  8
型材断面
  6
CONTINUOUS
 10
-131.022995
 20
11.119045
 11
-28.742993
 21
11.119045
  0
LINE
  8
型材断面
  6
CONTINUOUS
 10
-130.80966
 20
58.79905
 11
-131.022995
 21
59.012385
  0
LINE
  8
型材断面
  6
CONTINUOUS
 10
-131.022995
 20
59.012385
 11
-131.022995
 21
35.065715
  0
LINE
  8
型材断面
  6
CONTINUOUS
 10
-131.022995
 20
59.012385
 11
-28.742993
 21
59.012385
  0
LINE
  8
型材断面
  6
CONTINUOUS
 10
73.887135
 20
52.83238
 11
76.477643
 21
52.236322
  0
LINE
  8
型材断面
  6
CONTINUOUS
 10
73.887135
 20
52.83238
 11
76.477643
 21
53.428437
  0
LINE
  8
型材断面
  6
CONTINUOUS
 10
76.477643
 20
53.428437
 11
76.477643
 21
52.236322
  0
LINE
  8
型材断面
  6
CONTINUOUS
 10
73.887135
 20
17.29905
 11
76.477643
 21
17.895108
  0
LINE
  8
型材断面
  6
CONTINUOUS
 10
73.887135
 20
17.29905
 11
76.477643
 21
16.702993
  0
LINE
  8
型材断面
  6
CONTINUOUS
 10
76.477643
 20
16.702993
 11
76.477643
 21
17.895108
  0
LINE
  8
型材断面
  6
CONTINUOUS
 10
-131.37312
 20
52.83238
 11
-133.963627
 21
52.236322
  0
LINE
  8
型材断面
  6
CONTINUOUS
 10
-131.37312
 20
52.83238
 11
-133.963627
 21
53.428437
  0
LINE
  8
型材断面
  6
CONTINUOUS
 10
-133.963627
 20
53.428437
 11
-133.963627
 21
52.236322
  0
LINE
  8
型材断面
  6
CONTINUOUS
 10
-131.37312
 20
17.29905
 11
-133.963627
 21
17.895108
  0
LINE
  8
型材断面
  6
CONTINUOUS
 10
-131.37312
 20
17.29905
 11
-133.963627
 21
16.702993
  0
LINE
  8
型材断面
  6
CONTINUOUS
 10
-133.963627
 20
16.702993
 11
-133.963627
 21
17.895108
  0
INSERT
  2
*GRP_0017
  8
型材断面
  6
CONTINUOUS
 10
0.0
 20
0.0
  0
INSERT
  2
*GRP_0018
  8
型材断面
  6
CONTINUOUS
 10
0.0
 20
0.0
  0
INSERT
  2
*GRP_0019
  8
型材断面
  6
CONTINUOUS
 10
0.0
 20
0.0
  0
INSERT
  2
*GRP_0020
  8
型材断面
  6
CONTINUOUS
 10
0.0
 20
0.0
  0
INSERT
  2
*GRP_0021
  8
型材断面
  6
CONTINUOUS
 10
0.0
 20
0.0
  0
INSERT
  2
*GRP_0022
  8
型材断面
  6
CONTINUOUS
 10
0.0
 20
0.0
  0
LINE
  8
型材断面
  6
CONTINUOUS
 10
-175.617788
 20
77.264387
 11
-129.37601
 21
77.264387
  0
LINE
  8
型材断面
  6
DASHDOT
 10
-95.636327
 20
13.399048
 11
-95.636327
 21
56.73238
  0
LINE
  8
型材断面
  6
DOT
 10
-96.886327
 20
13.399048
 11
-96.886327
 21
56.73238
  0
LINE
  8
型材断面
  6
DOT
 10
-94.386327
 20
13.399048
 11
-94.386327
 21
56.73238
  0
LINE
  8
型材断面
  6
DASHDOT
 10
-62.189663
 20
13.399048
 11
-62.189663
 21
56.73238
  0
LINE
  8
型材断面
  6
DOT
 10
-63.439663
 20
13.399048
 11
-63.439663
 21
56.73238
  0
LINE
  8
型材断面
  6
DOT
 10
-60.939663
 20
13.399048
 11
-60.939663
 21
56.73238
  0
LINE
  8
型材断面
  6
DASHDOT
 10
38.150343
 20
13.399048
 11
38.150343
 21
56.73238
  0
LINE
  8
型材断面
  6
DOT
 10
39.400343
 20
13.399048
 11
39.400343
 21
56.73238
  0
LINE
  8
型材断面
  6
DOT
 10
36.900343
 20
13.399048
 11
36.900343
 21
56.73238
  0
LINE
  8
型材断面
  6
DASHDOT
 10
4.703678
 20
13.399048
 11
4.703678
 21
56.73238
  0
LINE
  8
型材断面
  6
DOT
 10
5.953678
 20
13.399048
 11
5.953678
 21
56.73238
  0
LINE
  8
型材断面
  6
DOT
 10
3.453678
 20
13.399048
 11
3.453678
 21
56.73238
  0
TEXT
  7
TextStyle03
  8
文字
  6
CONTINUOUS
 10
-37.025
 20
67.2
  1
可動装置側
 40
3.0
 72
     5
 11
-20.525
 21
67.2
  0
TEXT
  7
TextStyle03
  8
文字
  6
CONTINUOUS
 10
-37.025
 20
-0.075
  1
可動装置側
 40
3.0
 72
     5
 11
-20.525
 21
-0.075
  0
TEXT
  7
TextStyle03
  8
文字
  6
CONTINUOUS
 10
-166.2
 20
23.975
  1
アンカーピッチ
 40
3.0
 50
90.0
 72
     5
 11
-166.2
 21
47.225
  0
TEXT
  7
TextStyle03
  8
文字
  6
CONTINUOUS
 10
-166.775
 20
93.325
  1
はケーシング位置を示す
 40
3.0
 72
     5
 11
-130.025
 21
93.325
  0
TEXT
  7
TextStyle03
  8
文字
  6
CONTINUOUS
 10
-166.775
 20
89.95
  1
４ヶ所中1ヶ所に設定
 40
3.0
 72
     5
 11
-135.0875
 21
89.95
  0
TEXT
  7
TextStyle03
  8
文字
  6
CONTINUOUS
 10
-166.775
 20
98.85
  1
は排水穴位置を示す
 40
3.0
 72
     5
 11
-136.775
 21
98.85
  0
TEXT
  7
TextStyle03
  8
文字
  6
CONTINUOUS
 10
-115.3
 20
93.875
  1
アンカーピッチ
 40
3.0
 72
     5
 11
-92.05
 21
93.875
  0
TEXT
  7
TextStyle03
  8
文字
  6
CONTINUOUS
 10
135.8
 20
-86.1
  1
網入り6.8t
 40
3.0
 72
     5
 11
152.4875
 21
-86.1
  0
TEXT
  7
TextStyle03
  8
文字
  6
CONTINUOUS
 10
142.475
 20
-90.775
  1
×６枚
 40
3.0
 72
     5
 11
152.225
 21
-90.775
  0
TEXT
  7
TextStyle03
  8
文字
  6
CONTINUOUS
 10
-170.5
 20
83.975
  1
アンカー数量　２２ヶ所
 40
3.0
 72
     5
 11
-133.75
 21
83.975
  0
TEXT
  7
TextStyle03
  8
文字
  6
CONTINUOUS
 10
-175.5
 20
73.25
  1
※重量に依るのでご相談ください
 40
3.0
 72
     5
 11
-125.25
 21
73.25
  0
TEXT
  7
TextStyle03
  8
文字
  6
CONTINUOUS
 10
-175.5
 20
78.2
  1
アームユニット数　※６～８ヶ所
 40
3.0
 72
     5
 11
-125.25
 21
78.2
  0
LINE
  8
文字
  6
CONTINUOUS
 10
122.027518
 20
-37.29517
 11
122.027518
 21
-48.121338
  0
LINE
  8
文字
  6
CONTINUOUS
 10
154.127518
 20
-37.29517
 11
154.127518
 21
-48.121338
  0
TEXT
  7
TextStyle03
  8
文字
  6
CONTINUOUS
 10
78.1
 20
125.25
  1
シリーズ：ＳＴＤＬ
 40
5.0
 72
     5
 11
128.1
 21
125.25
  0
TEXT
  7
TextStyle03
  8
文字
  6
CONTINUOUS
 10
78.1
 20
119.625
  1
　　　　　（上下可動）1300×6000タイプ
 40
5.0
 72
     5
 11
184.35
 21
119.625
  0
TEXT
  7
TextStyle03
  8
文字
  6
CONTINUOUS
 10
78.1
 20
114.0
  1
図面名　：外観姿図
 40
5.0
 72
     5
 11
128.1
 21
114.0
  0
TEXT
  7
TextStyle03
  8
文字
  6
CONTINUOUS
 10
78.1
 20
108.375
  1
　　　　　　
 40
5.0
 72
     5
 11
111.225
 21
108.375
  0
TEXT
  7
TextStyle03
  8
文字
  6
CONTINUOUS
 10
77.425
 20
103.975
  1
ＮＳコード：ＮＳＤＳＬ
 40
5.0
 72
     5
 11
138.675
 21
103.975
  0
INSERT
  2
*DIM_0002
  8
寸法
  6
CONTINUOUS
 10
0.0
 20
0.0
  0
INSERT
  2
*DIM_0003
  8
寸法
  6
CONTINUOUS
 10
0.0
 20
0.0
  0
INSERT
  2
*DIM_0004
  8
寸法
  6
CONTINUOUS
 10
0.0
 20
0.0
  0
INSERT
  2
*DIM_0005
  8
寸法
  6
CONTINUOUS
 10
0.0
 20
0.0
  0
INSERT
  2
*DIM_0006
  8
寸法
  6
CONTINUOUS
 10
0.0
 20
0.0
  0
INSERT
  2
*DIM_0007
  8
寸法
  6
CONTINUOUS
 10
0.0
 20
0.0
  0
INSERT
  2
*DIM_0008
  8
寸法
  6
CONTINUOUS
 10
0.0
 20
0.0
  0
INSERT
  2
*DIM_0009
  8
寸法
  6
CONTINUOUS
 10
0.0
 20
0.0
  0
INSERT
  2
*DIM_0010
  8
寸法
  6
CONTINUOUS
 10
0.0
 20
0.0
  0
INSERT
  2
*DIM_0011
  8
寸法
  6
CONTINUOUS
 10
0.0
 20
0.0
  0
INSERT
  2
*DIM_0012
  8
寸法
  6
CONTINUOUS
 10
0.0
 20
0.0
  0
INSERT
  2
*DIM_0013
  8
寸法
  6
CONTINUOUS
 10
0.0
 20
0.0
  0
INSERT
  2
*DIM_0014
  8
寸法
  6
CONTINUOUS
 10
0.0
 20
0.0
  0
INSERT
  2
*DIM_0015
  8
寸法
  6
CONTINUOUS
 10
0.0
 20
0.0
  0
INSERT
  2
*DIM_0023
  8
寸法
  6
CONTINUOUS
 10
0.0
 20
0.0
  0
INSERT
  2
*DIM_0024
  8
寸法
  6
CONTINUOUS
 10
0.0
 20
0.0
  0
INSERT
  2
*DIM_0025
  8
寸法
  6
CONTINUOUS
 10
0.0
 20
0.0
  0
INSERT
  2
*DIM_0026
  8
寸法
  6
CONTINUOUS
 10
0.0
 20
0.0
  0
INSERT
  2
*DIM_0027
  8
寸法
  6
CONTINUOUS
 10
0.0
 20
0.0
  0
INSERT
  2
*DIM_0028
  8
寸法
  6
CONTINUOUS
 10
0.0
 20
0.0
  0
INSERT
  2
*DIM_0029
  8
寸法
  6
CONTINUOUS
 10
0.0
 20
0.0
  0
INSERT
  2
*DIM_0030
  8
寸法
  6
CONTINUOUS
 10
0.0
 20
0.0
  0
INSERT
  2
*DIM_0031
  8
寸法
  6
CONTINUOUS
 10
0.0
 20
0.0
  0
INSERT
  2
*DIM_0032
  8
寸法
  6
CONTINUOUS
 10
0.0
 20
0.0
  0
INSERT
  2
*DIM_0033
  8
寸法
  6
CONTINUOUS
 10
0.0
 20
0.0
  0
INSERT
  2
*DIM_0034
  8
寸法
  6
CONTINUOUS
 10
0.0
 20
0.0
  0
LINE
  8
別途部材
  6
CONTINUOUS
 10
-130.80966
 20
11.33238
 11
-130.40966
 21
11.73238
  0
LINE
  8
別途部材
  6
CONTINUOUS
 10
-128.742993
 20
13.399048
 11
-120.683738
 21
21.458305
  0
LINE
  8
別途部材
  6
CONTINUOUS
 10
-130.40966
 20
11.73238
 11
-28.742993
 21
11.73238
  0
LINE
  8
別途部材
  6
CONTINUOUS
 10
-130.80966
 20
11.33238
 11
-28.742993
 21
11.33238
  0
LINE
  8
別途部材
  6
CONTINUOUS
 10
73.323675
 20
11.33238
 11
72.923675
 21
11.73238
  0
LINE
  8
別途部材
  6
CONTINUOUS
 10
71.257007
 20
13.399048
 11
63.197753
 21
21.458305
  0
LINE
  8
別途部材
  6
CONTINUOUS
 10
72.923675
 20
11.73238
 11
-28.742993
 21
11.73238
  0
LINE
  8
別途部材
  6
CONTINUOUS
 10
73.323675
 20
11.33238
 11
-28.742993
 21
11.33238
  0
LINE
  8
別途部材
  6
CONTINUOUS
 10
72.923675
 20
11.73238
 11
72.923675
 21
35.065715
  0
LINE
  8
別途部材
  6
CONTINUOUS
 10
73.323675
 20
11.33238
 11
73.323675
 21
35.065715
  0
LINE
  8
別途部材
  6
CONTINUOUS
 10
-130.80966
 20
11.33238
 11
-130.80966
 21
35.065715
  0
LINE
  8
別途部材
  6
CONTINUOUS
 10
-130.40966
 20
11.73238
 11
-130.40966
 21
35.065715
  0
LINE
  8
別途部材
  6
CONTINUOUS
 10
-130.80966
 20
58.79905
 11
-130.40966
 21
58.39905
  0
LINE
  8
別途部材
  6
CONTINUOUS
 10
-128.742993
 20
56.732382
 11
-120.683738
 21
48.673125
  0
LINE
  8
別途部材
  6
CONTINUOUS
 10
-130.40966
 20
58.39905
 11
-28.742993
 21
58.39905
  0
LINE
  8
別途部材
  6
CONTINUOUS
 10
-130.80966
 20
58.79905
 11
-28.742993
 21
58.79905
  0
LINE
  8
別途部材
  6
CONTINUOUS
 10
73.323675
 20
58.79905
 11
72.923675
 21
58.39905
  0
LINE
  8
別途部材
  6
CONTINUOUS
 10
71.257007
 20
56.732382
 11
63.197753
 21
48.673125
  0
LINE
  8
別途部材
  6
CONTINUOUS
 10
72.923675
 20
58.39905
 11
-28.742993
 21
58.39905
  0
LINE
  8
別途部材
  6
CONTINUOUS
 10
73.323675
 20
58.79905
 11
-28.742993
 21
58.79905
  0
LINE
  8
別途部材
  6
CONTINUOUS
 10
72.923675
 20
58.39905
 11
72.923675
 21
35.065715
  0
LINE
  8
別途部材
  6
CONTINUOUS
 10
73.323675
 20
58.79905
 11
73.323675
 21
35.065715
  0
LINE
  8
別途部材
  6
CONTINUOUS
 10
-130.80966
 20
58.79905
 11
-130.80966
 21
35.065715
  0
LINE
  8
別途部材
  6
CONTINUOUS
 10
-130.40966
 20
58.39905
 11
-130.40966
 21
35.065715
  0
LINE
  8
別途部材
  6
CONTINUOUS
 62
    96
 10
160.790272
 20
11.73238
 11
161.790272
 21
11.33238
  0
LINE
  8
別途部材
  6
CONTINUOUS
 10
161.790272
 20
11.33238
 11
161.790272
 21
35.065715
  0
LINE
  8
別途部材
  6
CONTINUOUS
 62
    96
 10
160.790272
 20
11.73238
 11
160.790272
 21
35.065715
  0
LINE
  8
別途部材
  6
CONTINUOUS
 62
    96
 10
160.790272
 20
58.39905
 11
161.790272
 21
58.79905
  0
LINE
  8
別途部材
  6
CONTINUOUS
 10
161.790272
 20
58.79905
 11
161.790272
 21
35.065715
  0
LINE
  8
別途部材
  6
CONTINUOUS
 62
    96
 10
160.790272
 20
58.39905
 11
160.790272
 21
35.065715
  0
ARC
  8
別途部材
  6
CONTINUOUS
 10
175.075984
 20
35.065713
 40
25.95238
 50
123.398485
 51
236.601515
  0
LINE
  8
別途部材
  6
DOT
 62
    96
 10
-130.40966
 20
-62.95793
 11
-130.80966
 21
-63.95793
  0
LINE
  8
別途部材
  6
DOT
 62
    96
 10
-130.40966
 20
-62.95793
 11
-28.742993
 21
-62.95793
  0
LINE
  8
別途部材
  6
DOT
 10
-130.80966
 20
-63.95793
 11
-28.742993
 21
-63.95793
  0
LINE
  8
別途部材
  6
DOT
 62
    96
 10
72.923675
 20
-62.95793
 11
73.323675
 21
-63.95793
  0
LINE
  8
別途部材
  6
DOT
 62
    96
 10
72.923675
 20
-62.95793
 11
-28.742993
 21
-62.95793
  0
LINE
  8
別途部材
  6
DOT
 10
73.323675
 20
-63.95793
 11
-28.742993
 21
-63.95793
  0
ARC
  8
別途部材
  6
DOT
 10
-107.076325
 20
-77.243645
 40
25.952382
 50
90.0
 51
146.601512
  0
LINE
  8
別途部材
  6
DOT
 10
-28.742993
 20
-51.291262
 11
-107.076325
 21
-51.291262
  0
ARC
  8
別途部材
  6
DOT
 10
49.59034
 20
-77.243645
 40
25.952382
 50
33.398488
 51
90.0
  0
LINE
  8
別途部材
  6
DOT
 10
-28.742993
 20
-51.291262
 11
49.59034
 21
-51.291262
  0
INSERT
  2
*GRP_0016
  8
別途部材
  6
CONTINUOUS
 10
0.0
 20
0.0
  0
INSERT
  2
*GRP_0035
  8
別途部材
  6
DOT
 10
0.0
 20
0.0
  0
INSERT
  2
*GRP_0036
  8
別途部材
  6
DOT
 10
0.0
 20
0.0
  0
INSERT
  2
*GRP_0037
  8
別途部材
  6
DOT
 10
0.0
 20
0.0
  0
INSERT
  2
*GRP_0038
  8
別途部材
  6
DOT
 10
0.0
 20
0.0
  0
INSERT
  2
*GRP_0039
  8
別途部材
  6
DOT
 10
0.0
 20
0.0
  0
INSERT
  2
*GRP_0040
  8
別途部材
  6
DOT
 10
0.0
 20
0.0
  0
LINE
  8
曲げ物
  6
CONTINUOUS
 10
122.027518
 20
-92.533713
 11
122.027518
 21
-49.867045
  0
LINE
  8
曲げ物
  6
CONTINUOUS
 10
154.127518
 20
-49.867045
 11
154.127518
 21
-92.533713
  0
LINE
  8
曲げ物
  6
CONTINUOUS
 10
122.027518
 20
-49.867045
 11
154.127518
 21
-49.867045
  0
LINE
  8
曲げ物
  6
CONTINUOUS
 10
122.027518
 20
-92.533713
 11
154.127518
 21
-92.533713
  0
ENDSEC
  0
EOF
