  0
SECTION
  2
HEADER
  9
$EXTMIN
 10
-210.0
 20
-148.5
  9
$EXTMAX
 10
210.0
 20
148.5
  9
$PDMODE
 70
    32
  9
$PDSIZE
 40
1.5
  9
$LTSCALE
 40
10.0
  0
ENDSEC
  0
SECTION
  2
TABLES
  0
TABLE
  2
LTYPE
 70
    15
  0
LTYPE
  2
CONTINUOUS
 70
    64
  3
実線
 72
    65
 73
     0
 40
0.0
  0
LTYPE
  2
DASHED
 70
    64
  3
破線A
 72
    65
 73
     2
 40
0.6
 49
0.4
 49
-0.2
  0
LTYPE
  2
DASHEDX2
 70
    64
  3
破線B
 72
    65
 73
     2
 40
1.3
 49
0.9
 49
-0.4
  0
LTYPE
  2
DASHDOT
 70
    64
  3
１点鎖線A
 72
    65
 73
     4
 40
0.5375
 49
0.375
 49
-0.05
 49
0.0625
 49
-0.05
  0
LTYPE
  2
DASHDOTX2
 70
    64
  3
１点鎖線B
 72
    65
 73
     4
 40
1.075
 49
0.75
 49
-0.1
 49
0.125
 49
-0.1
  0
LTYPE
  2
DIVIDE2
 70
    64
  3
２点鎖線A
 72
    65
 73
     6
 40
0.5125
 49
0.3
 49
-0.0375
 49
0.05
 49
-0.0375
 49
0.05
 49
-0.0375
  0
LTYPE
  2
DIVIDE
 70
    64
  3
２点鎖線B
 72
    65
 73
     6
 40
1.05
 49
0.55
 49
-0.1
 49
0.1
 49
-0.1
 49
0.1
 49
-0.1
  0
LTYPE
  2
DOT
 70
    64
  3
点線A
 72
    65
 73
     2
 40
0.1125
 49
0.0625
 49
-0.05
  0
LTYPE
  2
DOTX2
 70
    64
  3
点線B
 72
    65
 73
     2
 40
0.275
 49
0.15
 49
-0.125
  0
LTYPE
  2
CONTINUOUS
 70
    64
  3
実線
 72
    65
 73
     0
 40
0.0
  0
LTYPE
  2
CONTINUOUS
 70
    64
  3
実線
 72
    65
 73
     0
 40
0.0
  0
LTYPE
  2
CONTINUOUS
 70
    64
  3
実線
 72
    65
 73
     0
 40
0.0
  0
LTYPE
  2
CONTINUOUS
 70
    64
  3
実線
 72
    65
 73
     0
 40
0.0
  0
LTYPE
  2
CONTINUOUS
 70
    64
  3
実線
 72
    65
 73
     0
 40
0.0
  0
LTYPE
  2
CONTINUOUS
 70
    64
  3
実線
 72
    65
 73
     0
 40
0.0
  0
ENDTAB
  0
TABLE
  2
LAYER
 70
    34
  0
LAYER
  2
通り芯
 70
     0
 62
    15
  6
CONTINUOUS
  0
LAYER
  2
補助線
 70
     0
 62
    16
  6
DOT
  0
LAYER
  2
躯体
 70
     0
 62
    31
  6
CONTINUOUS
  0
LAYER
  2
型材
 70
     0
 62
    32
  6
CONTINUOUS
  0
LAYER
  2
型材断面
 70
     0
 62
    47
  6
CONTINUOUS
  0
LAYER
  2
ガラス
 70
     0
 62
    48
  6
CONTINUOUS
  0
LAYER
  2
ゴム等
 70
     0
 62
    63
  6
CONTINUOUS
  0
LAYER
  2
ボルト／ビス
 70
     0
 62
    64
  6
CONTINUOUS
  0
LAYER
  2
文字
 70
     0
 62
    79
  6
CONTINUOUS
  0
LAYER
  2
寸法
 70
     0
 62
    80
  6
CONTINUOUS
  0
LAYER
  2
ﾊｯﾁﾝｸﾞ
 70
     0
 62
    95
  6
CONTINUOUS
  0
LAYER
  2
別途部材
 70
     0
 62
    96
  6
CONTINUOUS
  0
LAYER
  2
曲げ物
 70
     0
 62
   111
  6
CONTINUOUS
  0
LAYER
  2
鉄骨等
 70
     0
 62
   112
  6
CONTINUOUS
  0
LAYER
  2
St
 70
     0
 62
   127
  6
CONTINUOUS
  0
LAYER
  2
その他部品等
 70
     0
 62
   128
  6
CONTINUOUS
  0
LAYER
  2
ｶﾞｽｹｯﾄ
 70
     0
 62
   143
  6
CONTINUOUS
  0
LAYER
  2
ｽｹｯﾁ
 70
     0
 62
    14
  6
CONTINUOUS
  0
LAYER
  2
0
 70
     0
 62
    17
  6
CONTINUOUS
  0
LAYER
  2
1
 70
     0
 62
    30
  6
CONTINUOUS
  0
LAYER
  2
4
 70
     0
 62
    33
  6
CONTINUOUS
  0
LAYER
  2
ﾚｲﾔ3
 70
     0
 62
    46
  6
CONTINUOUS
  0
LAYER
  2
外形線
 70
     0
 62
    49
  6
CONTINUOUS
  0
LAYER
  2
部品
 70
     0
 62
    14
  6
CONTINUOUS
  0
LAYER
  2
サッシ芯
 70
     0
 62
    17
  6
DASHDOTX2
  0
LAYER
  2
寸法線
 70
     0
 62
    62
  6
CONTINUOUS
  0
LAYER
  2
姿図外形線
 70
     0
 62
    65
  6
CONTINUOUS
  0
LAYER
  2
姿補助線
 70
     0
 62
    30
  6
CONTINUOUS
  0
LAYER
  2
透視線
 70
     0
 62
    78
  6
DOT
  0
LAYER
  2
用紙
 70
     0
 62
    81
  6
CONTINUOUS
  0
LAYER
  2
実線図枠
 70
     0
 62
    94
  6
CONTINUOUS
  0
LAYER
  2
補助図枠
 70
     0
 62
    97
  6
CONTINUOUS
  0
LAYER
  2
建具記号
 70
     0
 62
   110
  6
CONTINUOUS
  0
LAYER
  2
補助文字
 70
     0
 62
   113
  6
CONTINUOUS
  0
ENDTAB
  0
TABLE
  2
STYLE
 70
    10
  0
STYLE
  2
STANDARD
 70
     0
 40
1.0
 41
1.0
 42
1.0
 50
0.0
 71
     0
  3
TXT
  4
BIGFONT
  0
STYLE
  2
TATE
 70
     4
 40
1.0
 41
1.0
 42
1.0
 50
0.0
 71
     0
  3
TXT
  4
BIGFONT
  0
STYLE
  2
TextStyle03
 70
     0
 40
1.0
 41
1.0
 42
1.0
 50
0.0
 71
     0
  3
MONOTXT
  4
BIGFONT
  0
STYLE
  2
TextStyle04
 70
     0
 40
1.0
 41
1.0
 42
1.0
 50
0.0
 71
     0
  3
MONOTXT
  4
BIGFONT
  0
STYLE
  2
TextStyle05
 70
     0
 40
1.0
 41
1.0
 42
1.0
 50
0.0
 71
     0
  3
MONOTXT
  4
BIGFONT
  0
STYLE
  2
TextStyle06
 70
     0
 40
1.0
 41
1.0
 42
1.0
 50
0.0
 71
     0
  3
MONOTXT
  4
BIGFONT
  0
STYLE
  2
TextStyle07
 70
     0
 40
1.0
 41
1.0
 42
1.0
 50
0.0
 71
     0
  3
MONOTXT
  4
BIGFONT
  0
STYLE
  2
TextStyle08
 70
     0
 40
1.0
 41
1.0
 42
1.0
 50
0.0
 71
     0
  3
MONOTXT
  4
BIGFONT
  0
STYLE
  2
TextStyle09
 70
     0
 40
1.0
 41
1.0
 42
1.0
 50
0.0
 71
     0
  3
MONOTXT
  4
BIGFONT
  0
STYLE
  2
TextStyle10
 70
     0
 40
1.0
 41
1.0
 42
1.0
 50
0.0
 71
     0
  3
MONOTXT
  4
BIGFONT
  0
ENDTAB
  0
ENDSEC
  0
SECTION
  2
BLOCKS
  0
BLOCK
  2
*GRP_0001
 70
    65
 10
0.0
 20
0.0
  0
LINE
  8
型材断面
  6
CONTINUOUS
 10
195.0
 20
133.5
 11
195.0
 21
-133.5
  0
LINE
  8
型材断面
  6
CONTINUOUS
 10
195.0
 20
-133.5
 11
-185.0
 21
-133.5
  0
LINE
  8
型材断面
  6
CONTINUOUS
 10
-185.0
 20
-133.5
 11
-185.0
 21
133.5
  0
LINE
  8
型材断面
  6
CONTINUOUS
 10
195.0
 20
133.5
 11
-185.0
 21
133.5
  0
LINE
  8
型材断面
  6
CONTINUOUS
 10
145.0
 20
-133.5
 11
145.0
 21
-118.5
  0
LINE
  8
型材断面
  6
CONTINUOUS
 10
195.0
 20
-118.5
 11
145.0
 21
-118.5
  0
ENDBLK
  0
BLOCK
  2
*DIM_0002
 70
    65
 10
0.0
 20
0.0
  0
LINE
  8
寸法
  6
BYBLOCK
 62
     0
 10
32.616278
 20
-67.95793
 11
69.252595
 21
-67.95793
  0
LINE
  8
寸法
  6
BYBLOCK
 62
     0
 10
69.252595
 20
-79.624597
 11
69.252595
 21
-67.95793
  0
POINT
  8
寸法
 62
     0
 10
69.252595
 20
-79.624597
  0
POINT
  8
寸法
 62
     0
 10
69.252595
 20
-67.95793
  0
TEXT
  7
TextStyle03
  8
寸法
  6
CONTINUOUS
 62
     0
 10
68.9
 20
-76.2375
  1
350
 40
3.0
 50
90.0
 72
     5
 11
68.9
 21
-71.3625
  0
ENDBLK
  0
BLOCK
  2
*DIM_0003
 70
    65
 10
0.0
 20
0.0
  0
LINE
  8
寸法
  6
BYBLOCK
 62
     0
 10
53.282945
 20
-22.536362
 11
-113.383723
 21
-22.536362
  0
POINT
  8
寸法
 62
     0
 10
53.282945
 20
-22.536362
  0
POINT
  8
寸法
 62
     0
 10
-113.383723
 20
-22.536362
  0
TEXT
  7
TextStyle03
  8
寸法
  6
CONTINUOUS
 62
     0
 10
-41.76875
 20
-22.175
  1
呼称寸法　5000
 40
3.0
 72
     5
 11
-18.33125
 21
-22.175
  0
ENDBLK
  0
BLOCK
  2
*DIM_0004
 70
    65
 10
0.0
 20
0.0
  0
LINE
  8
寸法
  6
BYBLOCK
 62
     0
 10
-96.717055
 20
9.76892
 11
-96.717055
 21
4.857895
  0
LINE
  8
寸法
  6
BYBLOCK
 62
     0
 10
-30.050388
 20
9.76892
 11
-30.050388
 21
4.857895
  0
LINE
  8
寸法
  6
BYBLOCK
 62
     0
 10
-96.717055
 20
4.857895
 11
-30.050388
 21
4.857895
  0
POINT
  8
寸法
 62
     0
 10
-96.717055
 20
4.857895
  0
POINT
  8
寸法
 62
     0
 10
-30.050388
 20
4.857895
  0
TEXT
  7
TextStyle03
  8
寸法
  6
CONTINUOUS
 62
     0
 10
-66.68125
 20
5.225
  1
2000
 40
3.0
 72
     5
 11
-60.11875
 21
5.225
  0
ENDBLK
  0
BLOCK
  2
*DIM_0005
 70
    65
 10
0.0
 20
0.0
  0
LINE
  8
寸法
  6
BYBLOCK
 62
     0
 10
36.61628
 20
9.76892
 11
36.61628
 21
4.857895
  0
LINE
  8
寸法
  6
BYBLOCK
 62
     0
 10
-30.050388
 20
4.857895
 11
36.61628
 21
4.857895
  0
POINT
  8
寸法
 62
     0
 10
36.61628
 20
4.857895
  0
TEXT
  7
TextStyle03
  8
寸法
  6
CONTINUOUS
 62
     0
 10
-0.00625
 20
5.225
  1
2000
 40
3.0
 72
     5
 11
6.55625
 21
5.225
  0
ENDBLK
  0
BLOCK
  2
*DIM_0006
 70
    65
 10
0.0
 20
0.0
  0
LINE
  8
寸法
  6
BYBLOCK
 62
     0
 10
87.302595
 20
13.399048
 11
87.302595
 21
56.73238
  0
POINT
  8
寸法
 62
     0
 10
87.302595
 20
13.399048
  0
POINT
  8
寸法
 62
     0
 10
87.302595
 20
56.73238
  0
TEXT
  7
TextStyle03
  8
寸法
  6
CONTINUOUS
 62
     0
 10
86.95
 20
23.33125
  1
呼称寸法　1300
 40
3.0
 50
90.0
 72
     5
 11
86.95
 21
46.76875
  0
ENDBLK
  0
BLOCK
  2
*DIM_0007
 70
    65
 10
0.0
 20
0.0
  0
LINE
  8
寸法
  6
BYBLOCK
 62
     0
 10
131.149542
 20
36.065715
 11
131.149542
 21
72.668433
  0
LINE
  8
寸法
  6
BYBLOCK
 62
     0
 10
142.81621
 20
72.668433
 11
131.149542
 21
72.668433
  0
POINT
  8
寸法
 62
     0
 10
131.149542
 20
72.668433
  0
TEXT
  7
TextStyle03
  8
寸法
  6
CONTINUOUS
 62
     0
 10
134.5625
 20
73.025
  1
350
 40
3.0
 72
     5
 11
139.4375
 21
73.025
  0
ENDBLK
  0
BLOCK
  2
*DIM_0008
 70
    65
 10
0.0
 20
0.0
  0
LINE
  8
寸法
  6
BYBLOCK
 62
     0
 10
142.81621
 20
59.39905
 11
142.81621
 21
72.668433
  0
LINE
  8
寸法
  6
BYBLOCK
 62
     0
 10
149.599495
 20
59.69905
 11
149.599495
 21
72.668433
  0
LINE
  8
寸法
  6
BYBLOCK
 62
     0
 10
142.81621
 20
72.668433
 11
149.599495
 21
72.668433
  0
POINT
  8
寸法
 62
     0
 10
142.81621
 20
72.668433
  0
POINT
  8
寸法
 62
     0
 10
149.599495
 20
72.668433
  0
TEXT
  7
TextStyle03
  8
寸法
  6
CONTINUOUS
 62
     0
 10
150.475
 20
73.025
  1
203.5
 40
3.0
 72
     5
 11
158.725
 21
73.025
  0
ENDBLK
  0
BLOCK
  2
*DIM_0009
 70
    65
 10
0.0
 20
0.0
  0
LINE
  8
寸法
  6
BYBLOCK
 62
     0
 10
55.949612
 20
-79.624597
 11
69.252595
 21
-79.624597
  0
LINE
  8
寸法
  6
BYBLOCK
 62
     0
 10
56.249612
 20
-86.407882
 11
69.252595
 21
-86.407882
  0
LINE
  8
寸法
  6
BYBLOCK
 62
     0
 10
69.252595
 20
-79.624597
 11
69.252595
 21
-86.407882
  0
POINT
  8
寸法
 62
     0
 10
69.252595
 20
-79.624597
  0
POINT
  8
寸法
 62
     0
 10
69.252595
 20
-86.407882
  0
TEXT
  7
TextStyle03
  8
寸法
  6
CONTINUOUS
 62
     0
 10
68.85
 20
-95.575
  1
203.5
 40
3.0
 50
90.0
 72
     5
 11
68.85
 21
-87.325
  0
ENDBLK
  0
BLOCK
  2
*DIM_0010
 70
    65
 10
0.0
 20
0.0
  0
LINE
  8
寸法
  6
BYBLOCK
 62
     0
 10
145.638853
 20
59.012385
 11
87.302595
 21
59.012385
  0
LINE
  8
寸法
  6
BYBLOCK
 62
     0
 10
87.302595
 20
56.73238
 11
87.302595
 21
59.012385
  0
POINT
  8
寸法
 62
     0
 10
87.302595
 20
56.73238
  0
POINT
  8
寸法
 62
     0
 10
87.302595
 20
59.012385
  0
TEXT
  7
TextStyle03
  8
寸法
  6
CONTINUOUS
 62
     0
 10
86.9
 20
61.31875
  1
68.4
 40
3.0
 50
90.0
 72
     5
 11
86.9
 21
67.88125
  0
ENDBLK
  0
BLOCK
  2
*DIM_0011
 70
    65
 10
0.0
 20
0.0
  0
LINE
  8
寸法
  6
BYBLOCK
 62
     0
 10
145.638853
 20
11.119045
 11
87.302595
 21
11.119045
  0
LINE
  8
寸法
  6
BYBLOCK
 62
     0
 10
87.302595
 20
13.399048
 11
87.302595
 21
11.119045
  0
POINT
  8
寸法
 62
     0
 10
87.302595
 20
13.399048
  0
POINT
  8
寸法
 62
     0
 10
87.302595
 20
11.119045
  0
TEXT
  7
TextStyle03
  8
寸法
  6
CONTINUOUS
 62
     0
 10
86.9
 20
2.21875
  1
68.4
 40
3.0
 50
90.0
 72
     5
 11
86.9
 21
8.78125
  0
ENDBLK
  0
BLOCK
  2
*DIM_0012
 70
    65
 10
0.0
 20
0.0
  0
LINE
  8
寸法
  6
BYBLOCK
 62
     0
 10
55.562947
 20
-82.44724
 11
55.562947
 21
-22.536362
  0
LINE
  8
寸法
  6
BYBLOCK
 62
     0
 10
53.282945
 20
-22.536362
 11
55.562947
 21
-22.536362
  0
POINT
  8
寸法
 62
     0
 10
53.282945
 20
-22.536362
  0
POINT
  8
寸法
 62
     0
 10
55.562947
 20
-22.536362
  0
TEXT
  7
TextStyle03
  8
寸法
  6
CONTINUOUS
 62
     0
 10
57.84375
 20
-22.175
  1
68.4
 40
3.0
 72
     5
 11
64.40625
 21
-22.175
  0
ENDBLK
  0
BLOCK
  2
*DIM_0013
 70
    65
 10
0.0
 20
0.0
  0
LINE
  8
寸法
  6
BYBLOCK
 62
     0
 10
-115.663723
 20
-82.44724
 11
-115.663723
 21
-22.536362
  0
LINE
  8
寸法
  6
BYBLOCK
 62
     0
 10
-113.383723
 20
-22.536362
 11
-115.663723
 21
-22.536362
  0
POINT
  8
寸法
 62
     0
 10
-113.383723
 20
-22.536362
  0
POINT
  8
寸法
 62
     0
 10
-115.663723
 20
-22.536362
  0
TEXT
  7
TextStyle03
  8
寸法
  6
CONTINUOUS
 62
     0
 10
-124.55625
 20
-22.175
  1
68.4
 40
3.0
 72
     5
 11
-117.99375
 21
-22.175
  0
ENDBLK
  0
BLOCK
  2
*DIM_0014
 70
    65
 10
0.0
 20
0.0
  0
LINE
  8
寸法
  6
BYBLOCK
 62
     0
 10
56.913073
 20
52.83238
 11
63.690365
 21
52.83238
  0
LINE
  8
寸法
  6
BYBLOCK
 62
     0
 10
63.690365
 20
56.73238
 11
63.690365
 21
52.83238
  0
POINT
  8
寸法
 62
     0
 10
63.690365
 20
56.73238
  0
POINT
  8
寸法
 62
     0
 10
63.690365
 20
52.83238
  0
TEXT
  7
TextStyle03
  8
寸法
  6
CONTINUOUS
 62
     0
 10
63.35
 20
57.4125
  1
117
 40
3.0
 50
90.0
 72
     5
 11
63.35
 21
62.2875
  0
ENDBLK
  0
BLOCK
  2
*DIM_0015
 70
    65
 10
0.0
 20
0.0
  0
LINE
  8
寸法
  6
BYBLOCK
 62
     0
 10
56.913073
 20
17.29905
 11
63.690365
 21
17.29905
  0
LINE
  8
寸法
  6
BYBLOCK
 62
     0
 10
63.690365
 20
13.39905
 11
63.690365
 21
17.29905
  0
POINT
  8
寸法
 62
     0
 10
63.690365
 20
13.39905
  0
POINT
  8
寸法
 62
     0
 10
63.690365
 20
17.29905
  0
TEXT
  7
TextStyle03
  8
寸法
  6
CONTINUOUS
 62
     0
 10
63.775
 20
7.4625
  1
117
 40
3.0
 50
90.0
 72
     5
 11
63.775
 21
12.3375
  0
ENDBLK
  0
BLOCK
  2
*GRP_0016
 70
    65
 10
0.0
 20
0.0
  0
LINE
  8
別途部材
  6
CONTINUOUS
 62
    96
 10
-115.050388
 20
-79.624597
 11
-115.450388
 21
-80.624597
  0
ARC
  8
別途部材
  6
CONTINUOUS
 10
-91.717053
 20
-93.910313
 40
25.952382
 50
90.0
 51
146.601512
  0
LINE
  8
別途部材
  6
CONTINUOUS
 62
    96
 10
-115.050388
 20
-79.624597
 11
-30.050388
 21
-79.624597
  0
LINE
  8
別途部材
  6
CONTINUOUS
 10
-115.450388
 20
-80.624597
 11
-30.050388
 21
-80.624597
  0
LINE
  8
別途部材
  6
CONTINUOUS
 10
-30.550388
 20
-66.95793
 11
-31.550388
 21
-67.95793
  0
LINE
  8
別途部材
  6
CONTINUOUS
 10
-32.550388
 20
-67.95793
 11
-33.550388
 21
-66.95793
  0
LINE
  8
別途部材
  6
CONTINUOUS
 10
-34.550388
 20
-66.95793
 11
-35.550388
 21
-67.95793
  0
LINE
  8
別途部材
  6
CONTINUOUS
 10
-33.550388
 20
-66.95793
 11
-34.550388
 21
-66.95793
  0
LINE
  8
別途部材
  6
CONTINUOUS
 10
-30.550388
 20
-66.95793
 11
-30.050388
 21
-66.95793
  0
LINE
  8
別途部材
  6
CONTINUOUS
 10
-36.550388
 20
-67.95793
 11
-37.550388
 21
-66.95793
  0
LINE
  8
別途部材
  6
CONTINUOUS
 10
-38.550388
 20
-66.95793
 11
-39.550388
 21
-67.95793
  0
LINE
  8
別途部材
  6
CONTINUOUS
 10
-37.550388
 20
-66.95793
 11
-38.550388
 21
-66.95793
  0
LINE
  8
別途部材
  6
CONTINUOUS
 10
-40.550388
 20
-67.95793
 11
-41.550388
 21
-66.95793
  0
LINE
  8
別途部材
  6
CONTINUOUS
 10
-42.550388
 20
-66.95793
 11
-43.550388
 21
-67.95793
  0
LINE
  8
別途部材
  6
CONTINUOUS
 10
-41.550388
 20
-66.95793
 11
-42.550388
 21
-66.95793
  0
LINE
  8
別途部材
  6
CONTINUOUS
 10
-44.550388
 20
-67.95793
 11
-45.550388
 21
-66.95793
  0
LINE
  8
別途部材
  6
CONTINUOUS
 10
-46.550388
 20
-66.95793
 11
-47.550388
 21
-67.95793
  0
LINE
  8
別途部材
  6
CONTINUOUS
 10
-45.550388
 20
-66.95793
 11
-46.550388
 21
-66.95793
  0
LINE
  8
別途部材
  6
CONTINUOUS
 10
-48.550388
 20
-67.95793
 11
-49.550388
 21
-66.95793
  0
LINE
  8
別途部材
  6
CONTINUOUS
 10
-50.550388
 20
-66.95793
 11
-51.550388
 21
-67.95793
  0
LINE
  8
別途部材
  6
CONTINUOUS
 10
-49.550388
 20
-66.95793
 11
-50.550388
 21
-66.95793
  0
LINE
  8
別途部材
  6
CONTINUOUS
 10
-52.550388
 20
-67.95793
 11
-53.550388
 21
-66.95793
  0
LINE
  8
別途部材
  6
CONTINUOUS
 10
-54.550388
 20
-66.95793
 11
-55.550388
 21
-67.95793
  0
LINE
  8
別途部材
  6
CONTINUOUS
 10
-53.550388
 20
-66.95793
 11
-54.550388
 21
-66.95793
  0
LINE
  8
別途部材
  6
CONTINUOUS
 10
-56.550388
 20
-67.95793
 11
-57.550388
 21
-66.95793
  0
LINE
  8
別途部材
  6
CONTINUOUS
 10
-58.550388
 20
-66.95793
 11
-59.550388
 21
-67.95793
  0
LINE
  8
別途部材
  6
CONTINUOUS
 10
-57.550388
 20
-66.95793
 11
-58.550388
 21
-66.95793
  0
LINE
  8
別途部材
  6
CONTINUOUS
 10
-60.550388
 20
-67.95793
 11
-61.550388
 21
-66.95793
  0
LINE
  8
別途部材
  6
CONTINUOUS
 10
-62.550388
 20
-66.95793
 11
-63.550388
 21
-67.95793
  0
LINE
  8
別途部材
  6
CONTINUOUS
 10
-61.550388
 20
-66.95793
 11
-62.550388
 21
-66.95793
  0
LINE
  8
別途部材
  6
CONTINUOUS
 10
-64.550388
 20
-67.95793
 11
-65.550388
 21
-66.95793
  0
LINE
  8
別途部材
  6
CONTINUOUS
 10
-66.550388
 20
-66.95793
 11
-67.550388
 21
-67.95793
  0
LINE
  8
別途部材
  6
CONTINUOUS
 10
-65.550388
 20
-66.95793
 11
-66.550388
 21
-66.95793
  0
LINE
  8
別途部材
  6
CONTINUOUS
 10
-68.550388
 20
-67.95793
 11
-69.550388
 21
-66.95793
  0
LINE
  8
別途部材
  6
CONTINUOUS
 10
-70.550388
 20
-66.95793
 11
-71.550388
 21
-67.95793
  0
LINE
  8
別途部材
  6
CONTINUOUS
 10
-69.550388
 20
-66.95793
 11
-70.550388
 21
-66.95793
  0
LINE
  8
別途部材
  6
CONTINUOUS
 10
-72.550388
 20
-67.95793
 11
-73.550388
 21
-66.95793
  0
LINE
  8
別途部材
  6
CONTINUOUS
 10
-74.550388
 20
-66.95793
 11
-75.550388
 21
-67.95793
  0
LINE
  8
別途部材
  6
CONTINUOUS
 10
-73.550388
 20
-66.95793
 11
-74.550388
 21
-66.95793
  0
LINE
  8
別途部材
  6
CONTINUOUS
 10
-71.550388
 20
-67.95793
 11
-72.550388
 21
-67.95793
  0
LINE
  8
別途部材
  6
CONTINUOUS
 10
-67.550388
 20
-67.95793
 11
-68.550388
 21
-67.95793
  0
LINE
  8
別途部材
  6
CONTINUOUS
 10
-63.550388
 20
-67.95793
 11
-64.550388
 21
-67.95793
  0
LINE
  8
別途部材
  6
CONTINUOUS
 10
-59.550388
 20
-67.95793
 11
-60.550388
 21
-67.95793
  0
LINE
  8
別途部材
  6
CONTINUOUS
 10
-55.550388
 20
-67.95793
 11
-56.550388
 21
-67.95793
  0
LINE
  8
別途部材
  6
CONTINUOUS
 10
-51.550388
 20
-67.95793
 11
-52.550388
 21
-67.95793
  0
LINE
  8
別途部材
  6
CONTINUOUS
 10
-47.550388
 20
-67.95793
 11
-48.550388
 21
-67.95793
  0
LINE
  8
別途部材
  6
CONTINUOUS
 10
-43.550388
 20
-67.95793
 11
-44.550388
 21
-67.95793
  0
LINE
  8
別途部材
  6
CONTINUOUS
 10
-39.550388
 20
-67.95793
 11
-40.550388
 21
-67.95793
  0
LINE
  8
別途部材
  6
CONTINUOUS
 10
-35.550388
 20
-67.95793
 11
-36.550388
 21
-67.95793
  0
LINE
  8
別途部材
  6
CONTINUOUS
 10
-32.550388
 20
-67.95793
 11
-31.550388
 21
-67.95793
  0
LINE
  8
別途部材
  6
CONTINUOUS
 10
-72.550388
 20
-67.95793
 11
-72.550388
 21
-79.624597
  0
LINE
  8
別途部材
  6
CONTINUOUS
 10
-71.550388
 20
-67.95793
 11
-71.550388
 21
-79.624597
  0
LINE
  8
別途部材
  6
CONTINUOUS
 10
-73.550388
 20
-66.95793
 11
-73.550388
 21
-79.624597
  0
LINE
  8
別途部材
  6
CONTINUOUS
 10
-75.550388
 20
-67.95793
 11
-75.550388
 21
-79.624597
  0
LINE
  8
別途部材
  6
CONTINUOUS
 10
-74.550388
 20
-66.95793
 11
-74.550388
 21
-79.624597
  0
LINE
  8
別途部材
  6
CONTINUOUS
 10
-64.550388
 20
-67.95793
 11
-64.550388
 21
-79.624597
  0
LINE
  8
別途部材
  6
CONTINUOUS
 10
-66.550388
 20
-66.95793
 11
-66.550388
 21
-79.624597
  0
LINE
  8
別途部材
  6
CONTINUOUS
 10
-67.550388
 20
-67.95793
 11
-67.550388
 21
-79.624597
  0
LINE
  8
別途部材
  6
CONTINUOUS
 10
-69.550388
 20
-66.95793
 11
-69.550388
 21
-79.624597
  0
LINE
  8
別途部材
  6
CONTINUOUS
 10
-70.550388
 20
-66.95793
 11
-70.550388
 21
-79.624597
  0
LINE
  8
別途部材
  6
CONTINUOUS
 10
-68.550388
 20
-67.95793
 11
-68.550388
 21
-79.624597
  0
LINE
  8
別途部材
  6
CONTINUOUS
 10
-65.550388
 20
-66.95793
 11
-65.550388
 21
-79.624597
  0
LINE
  8
別途部材
  6
CONTINUOUS
 10
-63.550388
 20
-67.95793
 11
-63.550388
 21
-79.624597
  0
LINE
  8
別途部材
  6
CONTINUOUS
 10
-62.550388
 20
-66.95793
 11
-62.550388
 21
-79.624597
  0
LINE
  8
別途部材
  6
CONTINUOUS
 10
-52.550388
 20
-67.95793
 11
-52.550388
 21
-79.624597
  0
LINE
  8
別途部材
  6
CONTINUOUS
 10
-46.550388
 20
-66.95793
 11
-46.550388
 21
-79.624597
  0
LINE
  8
別途部材
  6
CONTINUOUS
 10
-45.550388
 20
-66.95793
 11
-45.550388
 21
-79.624597
  0
LINE
  8
別途部材
  6
CONTINUOUS
 10
-35.550388
 20
-67.95793
 11
-35.550388
 21
-79.624597
  0
LINE
  8
別途部材
  6
CONTINUOUS
 10
-30.550388
 20
-66.95793
 11
-30.550388
 21
-79.624597
  0
LINE
  8
別途部材
  6
CONTINUOUS
 10
-31.550388
 20
-67.95793
 11
-31.550388
 21
-79.624597
  0
LINE
  8
別途部材
  6
CONTINUOUS
 10
-33.550388
 20
-66.95793
 11
-33.550388
 21
-79.624597
  0
LINE
  8
別途部材
  6
CONTINUOUS
 10
-34.550388
 20
-66.95793
 11
-34.550388
 21
-79.624597
  0
LINE
  8
別途部材
  6
CONTINUOUS
 10
-36.550388
 20
-67.95793
 11
-36.550388
 21
-79.624597
  0
LINE
  8
別途部材
  6
CONTINUOUS
 10
-47.550388
 20
-67.95793
 11
-47.550388
 21
-79.624597
  0
LINE
  8
別途部材
  6
CONTINUOUS
 10
-48.550388
 20
-67.95793
 11
-48.550388
 21
-79.624597
  0
LINE
  8
別途部材
  6
CONTINUOUS
 10
-53.550388
 20
-66.95793
 11
-53.550388
 21
-79.624597
  0
LINE
  8
別途部材
  6
CONTINUOUS
 10
-55.550388
 20
-67.95793
 11
-55.550388
 21
-79.624597
  0
LINE
  8
別途部材
  6
CONTINUOUS
 10
-58.550388
 20
-66.95793
 11
-58.550388
 21
-79.624597
  0
LINE
  8
別途部材
  6
CONTINUOUS
 10
-61.550388
 20
-66.95793
 11
-61.550388
 21
-79.624597
  0
LINE
  8
別途部材
  6
CONTINUOUS
 10
-54.550388
 20
-66.95793
 11
-54.550388
 21
-79.624597
  0
LINE
  8
別途部材
  6
CONTINUOUS
 10
-56.550388
 20
-67.95793
 11
-56.550388
 21
-79.624597
  0
LINE
  8
別途部材
  6
CONTINUOUS
 10
-59.550388
 20
-67.95793
 11
-59.550388
 21
-79.624597
  0
LINE
  8
別途部材
  6
CONTINUOUS
 10
-60.550388
 20
-67.95793
 11
-60.550388
 21
-79.624597
  0
LINE
  8
別途部材
  6
CONTINUOUS
 10
-50.550388
 20
-66.95793
 11
-50.550388
 21
-79.624597
  0
LINE
  8
別途部材
  6
CONTINUOUS
 10
-49.550388
 20
-66.95793
 11
-49.550388
 21
-79.624597
  0
LINE
  8
別途部材
  6
CONTINUOUS
 10
-51.550388
 20
-67.95793
 11
-51.550388
 21
-79.624597
  0
LINE
  8
別途部材
  6
CONTINUOUS
 10
-57.550388
 20
-66.95793
 11
-57.550388
 21
-79.624597
  0
LINE
  8
別途部材
  6
CONTINUOUS
 10
-43.550388
 20
-67.95793
 11
-43.550388
 21
-79.624597
  0
LINE
  8
別途部材
  6
CONTINUOUS
 10
-44.550388
 20
-67.95793
 11
-44.550388
 21
-79.624597
  0
LINE
  8
別途部材
  6
CONTINUOUS
 10
-42.550388
 20
-66.95793
 11
-42.550388
 21
-79.624597
  0
LINE
  8
別途部材
  6
CONTINUOUS
 10
-40.550388
 20
-67.95793
 11
-40.550388
 21
-79.624597
  0
LINE
  8
別途部材
  6
CONTINUOUS
 10
-41.550388
 20
-66.95793
 11
-41.550388
 21
-79.624597
  0
LINE
  8
別途部材
  6
CONTINUOUS
 10
-39.550388
 20
-67.95793
 11
-39.550388
 21
-79.624597
  0
LINE
  8
別途部材
  6
CONTINUOUS
 10
-37.550388
 20
-66.95793
 11
-37.550388
 21
-79.624597
  0
LINE
  8
別途部材
  6
CONTINUOUS
 10
-38.550388
 20
-66.95793
 11
-38.550388
 21
-79.624597
  0
LINE
  8
別途部材
  6
CONTINUOUS
 10
-32.550388
 20
-67.95793
 11
-32.550388
 21
-79.624597
  0
LINE
  8
別途部材
  6
CONTINUOUS
 10
-76.550388
 20
-67.95793
 11
-77.550388
 21
-66.95793
  0
LINE
  8
別途部材
  6
CONTINUOUS
 10
-78.550388
 20
-66.95793
 11
-79.550388
 21
-67.95793
  0
LINE
  8
別途部材
  6
CONTINUOUS
 10
-77.550388
 20
-66.95793
 11
-78.550388
 21
-66.95793
  0
LINE
  8
別途部材
  6
CONTINUOUS
 10
-80.550388
 20
-67.95793
 11
-81.550388
 21
-66.95793
  0
LINE
  8
別途部材
  6
CONTINUOUS
 10
-82.550388
 20
-66.95793
 11
-83.550388
 21
-67.95793
  0
LINE
  8
別途部材
  6
CONTINUOUS
 10
-81.550388
 20
-66.95793
 11
-82.550388
 21
-66.95793
  0
LINE
  8
別途部材
  6
CONTINUOUS
 10
-84.550388
 20
-67.95793
 11
-85.550388
 21
-66.95793
  0
LINE
  8
別途部材
  6
CONTINUOUS
 10
-86.550388
 20
-66.95793
 11
-87.550388
 21
-67.95793
  0
LINE
  8
別途部材
  6
CONTINUOUS
 10
-85.550388
 20
-66.95793
 11
-86.550388
 21
-66.95793
  0
LINE
  8
別途部材
  6
CONTINUOUS
 10
-88.550388
 20
-67.95793
 11
-89.550388
 21
-66.95793
  0
LINE
  8
別途部材
  6
CONTINUOUS
 10
-90.550388
 20
-66.95793
 11
-91.550388
 21
-67.95793
  0
LINE
  8
別途部材
  6
CONTINUOUS
 10
-89.550388
 20
-66.95793
 11
-90.550388
 21
-66.95793
  0
LINE
  8
別途部材
  6
CONTINUOUS
 10
-87.550388
 20
-67.95793
 11
-88.550388
 21
-67.95793
  0
LINE
  8
別途部材
  6
CONTINUOUS
 10
-83.550388
 20
-67.95793
 11
-84.550388
 21
-67.95793
  0
LINE
  8
別途部材
  6
CONTINUOUS
 10
-79.550388
 20
-67.95793
 11
-80.550388
 21
-67.95793
  0
LINE
  8
別途部材
  6
CONTINUOUS
 10
-75.550388
 20
-67.95793
 11
-76.550388
 21
-67.95793
  0
LINE
  8
別途部材
  6
CONTINUOUS
 10
-88.550388
 20
-67.95793
 11
-88.550388
 21
-79.624597
  0
LINE
  8
別途部材
  6
CONTINUOUS
 10
-82.550388
 20
-66.95793
 11
-82.550388
 21
-79.624597
  0
LINE
  8
別途部材
  6
CONTINUOUS
 10
-81.550388
 20
-66.95793
 11
-81.550388
 21
-79.624597
  0
LINE
  8
別途部材
  6
CONTINUOUS
 10
-83.550388
 20
-67.95793
 11
-83.550388
 21
-79.624597
  0
LINE
  8
別途部材
  6
CONTINUOUS
 10
-84.550388
 20
-67.95793
 11
-84.550388
 21
-79.624597
  0
LINE
  8
別途部材
  6
CONTINUOUS
 10
-89.550388
 20
-66.95793
 11
-89.550388
 21
-79.624597
  0
LINE
  8
別途部材
  6
CONTINUOUS
 10
-91.550388
 20
-67.95793
 11
-91.550388
 21
-79.624597
  0
LINE
  8
別途部材
  6
CONTINUOUS
 10
-90.550388
 20
-66.95793
 11
-90.550388
 21
-79.624597
  0
LINE
  8
別途部材
  6
CONTINUOUS
 10
-86.550388
 20
-66.95793
 11
-86.550388
 21
-79.624597
  0
LINE
  8
別途部材
  6
CONTINUOUS
 10
-85.550388
 20
-66.95793
 11
-85.550388
 21
-79.624597
  0
LINE
  8
別途部材
  6
CONTINUOUS
 10
-87.550388
 20
-67.95793
 11
-87.550388
 21
-79.624597
  0
LINE
  8
別途部材
  6
CONTINUOUS
 10
-79.550388
 20
-67.95793
 11
-79.550388
 21
-79.624597
  0
LINE
  8
別途部材
  6
CONTINUOUS
 10
-80.550388
 20
-67.95793
 11
-80.550388
 21
-79.624597
  0
LINE
  8
別途部材
  6
CONTINUOUS
 10
-78.550388
 20
-66.95793
 11
-78.550388
 21
-79.624597
  0
LINE
  8
別途部材
  6
CONTINUOUS
 10
-76.550388
 20
-67.95793
 11
-76.550388
 21
-79.624597
  0
LINE
  8
別途部材
  6
CONTINUOUS
 10
-77.550388
 20
-66.95793
 11
-77.550388
 21
-79.624597
  0
LINE
  8
別途部材
  6
CONTINUOUS
 62
    96
 10
54.949612
 20
-79.624597
 11
55.349612
 21
-80.624597
  0
ARC
  8
別途部材
  6
CONTINUOUS
 10
31.616278
 20
-93.910313
 40
25.952382
 50
33.398488
 51
90.0
  0
LINE
  8
別途部材
  6
CONTINUOUS
 62
    96
 10
54.949612
 20
-79.624597
 11
-30.050388
 21
-79.624597
  0
LINE
  8
別途部材
  6
CONTINUOUS
 10
55.349612
 20
-80.624597
 11
-30.050388
 21
-80.624597
  0
LINE
  8
別途部材
  6
CONTINUOUS
 10
-29.550388
 20
-66.95793
 11
-28.550388
 21
-67.95793
  0
LINE
  8
別途部材
  6
CONTINUOUS
 10
-27.550388
 20
-67.95793
 11
-26.550388
 21
-66.95793
  0
LINE
  8
別途部材
  6
CONTINUOUS
 10
-25.550388
 20
-66.95793
 11
-24.550388
 21
-67.95793
  0
LINE
  8
別途部材
  6
CONTINUOUS
 10
-26.550388
 20
-66.95793
 11
-25.550388
 21
-66.95793
  0
LINE
  8
別途部材
  6
CONTINUOUS
 10
-29.550388
 20
-66.95793
 11
-30.050388
 21
-66.95793
  0
LINE
  8
別途部材
  6
CONTINUOUS
 10
-23.550388
 20
-67.95793
 11
-22.550388
 21
-66.95793
  0
LINE
  8
別途部材
  6
CONTINUOUS
 10
-21.550388
 20
-66.95793
 11
-20.550388
 21
-67.95793
  0
LINE
  8
別途部材
  6
CONTINUOUS
 10
-22.550388
 20
-66.95793
 11
-21.550388
 21
-66.95793
  0
LINE
  8
別途部材
  6
CONTINUOUS
 10
-19.550388
 20
-67.95793
 11
-18.550388
 21
-66.95793
  0
LINE
  8
別途部材
  6
CONTINUOUS
 10
-17.550388
 20
-66.95793
 11
-16.550388
 21
-67.95793
  0
LINE
  8
別途部材
  6
CONTINUOUS
 10
-18.550388
 20
-66.95793
 11
-17.550388
 21
-66.95793
  0
LINE
  8
別途部材
  6
CONTINUOUS
 10
-15.550388
 20
-67.95793
 11
-14.550388
 21
-66.95793
  0
LINE
  8
別途部材
  6
CONTINUOUS
 10
-13.550388
 20
-66.95793
 11
-12.550388
 21
-67.95793
  0
LINE
  8
別途部材
  6
CONTINUOUS
 10
-14.550388
 20
-66.95793
 11
-13.550388
 21
-66.95793
  0
LINE
  8
別途部材
  6
CONTINUOUS
 10
-11.550388
 20
-67.95793
 11
-10.550388
 21
-66.95793
  0
LINE
  8
別途部材
  6
CONTINUOUS
 10
-9.550388
 20
-66.95793
 11
-8.550388
 21
-67.95793
  0
LINE
  8
別途部材
  6
CONTINUOUS
 10
-10.550388
 20
-66.95793
 11
-9.550388
 21
-66.95793
  0
LINE
  8
別途部材
  6
CONTINUOUS
 10
-7.550388
 20
-67.95793
 11
-6.550388
 21
-66.95793
  0
LINE
  8
別途部材
  6
CONTINUOUS
 10
-5.550388
 20
-66.95793
 11
-4.550388
 21
-67.95793
  0
LINE
  8
別途部材
  6
CONTINUOUS
 10
-6.550388
 20
-66.95793
 11
-5.550388
 21
-66.95793
  0
LINE
  8
別途部材
  6
CONTINUOUS
 10
-3.550388
 20
-67.95793
 11
-2.550388
 21
-66.95793
  0
LINE
  8
別途部材
  6
CONTINUOUS
 10
-1.550388
 20
-66.95793
 11
-0.550388
 21
-67.95793
  0
LINE
  8
別途部材
  6
CONTINUOUS
 10
-2.550388
 20
-66.95793
 11
-1.550388
 21
-66.95793
  0
LINE
  8
別途部材
  6
CONTINUOUS
 10
0.449612
 20
-67.95793
 11
1.449612
 21
-66.95793
  0
LINE
  8
別途部材
  6
CONTINUOUS
 10
2.449612
 20
-66.95793
 11
3.449612
 21
-67.95793
  0
LINE
  8
別途部材
  6
CONTINUOUS
 10
1.449612
 20
-66.95793
 11
2.449612
 21
-66.95793
  0
LINE
  8
別途部材
  6
CONTINUOUS
 10
4.449612
 20
-67.95793
 11
5.449612
 21
-66.95793
  0
LINE
  8
別途部材
  6
CONTINUOUS
 10
6.449612
 20
-66.95793
 11
7.449612
 21
-67.95793
  0
LINE
  8
別途部材
  6
CONTINUOUS
 10
5.449612
 20
-66.95793
 11
6.449612
 21
-66.95793
  0
LINE
  8
別途部材
  6
CONTINUOUS
 10
8.449612
 20
-67.95793
 11
9.449612
 21
-66.95793
  0
LINE
  8
別途部材
  6
CONTINUOUS
 10
10.449612
 20
-66.95793
 11
11.449612
 21
-67.95793
  0
LINE
  8
別途部材
  6
CONTINUOUS
 10
9.449612
 20
-66.95793
 11
10.449612
 21
-66.95793
  0
LINE
  8
別途部材
  6
CONTINUOUS
 10
12.449612
 20
-67.95793
 11
13.449612
 21
-66.95793
  0
LINE
  8
別途部材
  6
CONTINUOUS
 10
14.449612
 20
-66.95793
 11
15.449612
 21
-67.95793
  0
LINE
  8
別途部材
  6
CONTINUOUS
 10
13.449612
 20
-66.95793
 11
14.449612
 21
-66.95793
  0
LINE
  8
別途部材
  6
CONTINUOUS
 10
11.449612
 20
-67.95793
 11
12.449612
 21
-67.95793
  0
LINE
  8
別途部材
  6
CONTINUOUS
 10
7.449612
 20
-67.95793
 11
8.449612
 21
-67.95793
  0
LINE
  8
別途部材
  6
CONTINUOUS
 10
3.449612
 20
-67.95793
 11
4.449612
 21
-67.95793
  0
LINE
  8
別途部材
  6
CONTINUOUS
 10
-0.550388
 20
-67.95793
 11
0.449612
 21
-67.95793
  0
LINE
  8
別途部材
  6
CONTINUOUS
 10
-4.550388
 20
-67.95793
 11
-3.550388
 21
-67.95793
  0
LINE
  8
別途部材
  6
CONTINUOUS
 10
-8.550388
 20
-67.95793
 11
-7.550388
 21
-67.95793
  0
LINE
  8
別途部材
  6
CONTINUOUS
 10
-12.550388
 20
-67.95793
 11
-11.550388
 21
-67.95793
  0
LINE
  8
別途部材
  6
CONTINUOUS
 10
-16.550388
 20
-67.95793
 11
-15.550388
 21
-67.95793
  0
LINE
  8
別途部材
  6
CONTINUOUS
 10
-20.550388
 20
-67.95793
 11
-19.550388
 21
-67.95793
  0
LINE
  8
別途部材
  6
CONTINUOUS
 10
-24.550388
 20
-67.95793
 11
-23.550388
 21
-67.95793
  0
LINE
  8
別途部材
  6
CONTINUOUS
 10
-27.550388
 20
-67.95793
 11
-28.550388
 21
-67.95793
  0
LINE
  8
別途部材
  6
CONTINUOUS
 10
12.449612
 20
-67.95793
 11
12.449612
 21
-79.624597
  0
LINE
  8
別途部材
  6
CONTINUOUS
 10
11.449612
 20
-67.95793
 11
11.449612
 21
-79.624597
  0
LINE
  8
別途部材
  6
CONTINUOUS
 10
13.449612
 20
-66.95793
 11
13.449612
 21
-79.624597
  0
LINE
  8
別途部材
  6
CONTINUOUS
 10
15.449612
 20
-67.95793
 11
15.449612
 21
-79.624597
  0
LINE
  8
別途部材
  6
CONTINUOUS
 10
14.449612
 20
-66.95793
 11
14.449612
 21
-79.624597
  0
LINE
  8
別途部材
  6
CONTINUOUS
 10
4.449612
 20
-67.95793
 11
4.449612
 21
-79.624597
  0
LINE
  8
別途部材
  6
CONTINUOUS
 10
6.449612
 20
-66.95793
 11
6.449612
 21
-79.624597
  0
LINE
  8
別途部材
  6
CONTINUOUS
 10
7.449612
 20
-67.95793
 11
7.449612
 21
-79.624597
  0
LINE
  8
別途部材
  6
CONTINUOUS
 10
9.449612
 20
-66.95793
 11
9.449612
 21
-79.624597
  0
LINE
  8
別途部材
  6
CONTINUOUS
 10
10.449612
 20
-66.95793
 11
10.449612
 21
-79.624597
  0
LINE
  8
別途部材
  6
CONTINUOUS
 10
8.449612
 20
-67.95793
 11
8.449612
 21
-79.624597
  0
LINE
  8
別途部材
  6
CONTINUOUS
 10
5.449612
 20
-66.95793
 11
5.449612
 21
-79.624597
  0
LINE
  8
別途部材
  6
CONTINUOUS
 10
3.449612
 20
-67.95793
 11
3.449612
 21
-79.624597
  0
LINE
  8
別途部材
  6
CONTINUOUS
 10
2.449612
 20
-66.95793
 11
2.449612
 21
-79.624597
  0
LINE
  8
別途部材
  6
CONTINUOUS
 10
-7.550388
 20
-67.95793
 11
-7.550388
 21
-79.624597
  0
LINE
  8
別途部材
  6
CONTINUOUS
 10
-13.550388
 20
-66.95793
 11
-13.550388
 21
-79.624597
  0
LINE
  8
別途部材
  6
CONTINUOUS
 10
-14.550388
 20
-66.95793
 11
-14.550388
 21
-79.624597
  0
LINE
  8
別途部材
  6
CONTINUOUS
 10
-24.550388
 20
-67.95793
 11
-24.550388
 21
-79.624597
  0
LINE
  8
別途部材
  6
CONTINUOUS
 10
-29.550388
 20
-66.95793
 11
-29.550388
 21
-79.624597
  0
LINE
  8
別途部材
  6
CONTINUOUS
 10
-28.550388
 20
-67.95793
 11
-28.550388
 21
-79.624597
  0
LINE
  8
別途部材
  6
CONTINUOUS
 10
-26.550388
 20
-66.95793
 11
-26.550388
 21
-79.624597
  0
LINE
  8
別途部材
  6
CONTINUOUS
 10
-25.550388
 20
-66.95793
 11
-25.550388
 21
-79.624597
  0
LINE
  8
別途部材
  6
CONTINUOUS
 10
-23.550388
 20
-67.95793
 11
-23.550388
 21
-79.624597
  0
LINE
  8
別途部材
  6
CONTINUOUS
 10
-12.550388
 20
-67.95793
 11
-12.550388
 21
-79.624597
  0
LINE
  8
別途部材
  6
CONTINUOUS
 10
-11.550388
 20
-67.95793
 11
-11.550388
 21
-79.624597
  0
LINE
  8
別途部材
  6
CONTINUOUS
 10
-6.550388
 20
-66.95793
 11
-6.550388
 21
-79.624597
  0
LINE
  8
別途部材
  6
CONTINUOUS
 10
-4.550388
 20
-67.95793
 11
-4.550388
 21
-79.624597
  0
LINE
  8
別途部材
  6
CONTINUOUS
 10
-1.550388
 20
-66.95793
 11
-1.550388
 21
-79.624597
  0
LINE
  8
別途部材
  6
CONTINUOUS
 10
1.449612
 20
-66.95793
 11
1.449612
 21
-79.624597
  0
LINE
  8
別途部材
  6
CONTINUOUS
 10
-5.550388
 20
-66.95793
 11
-5.550388
 21
-79.624597
  0
LINE
  8
別途部材
  6
CONTINUOUS
 10
-3.550388
 20
-67.95793
 11
-3.550388
 21
-79.624597
  0
LINE
  8
別途部材
  6
CONTINUOUS
 10
-0.550388
 20
-67.95793
 11
-0.550388
 21
-79.624597
  0
LINE
  8
別途部材
  6
CONTINUOUS
 10
0.449612
 20
-67.95793
 11
0.449612
 21
-79.624597
  0
LINE
  8
別途部材
  6
CONTINUOUS
 10
-9.550388
 20
-66.95793
 11
-9.550388
 21
-79.624597
  0
LINE
  8
別途部材
  6
CONTINUOUS
 10
-10.550388
 20
-66.95793
 11
-10.550388
 21
-79.624597
  0
LINE
  8
別途部材
  6
CONTINUOUS
 10
-8.550388
 20
-67.95793
 11
-8.550388
 21
-79.624597
  0
LINE
  8
別途部材
  6
CONTINUOUS
 10
-2.550388
 20
-66.95793
 11
-2.550388
 21
-79.624597
  0
LINE
  8
別途部材
  6
CONTINUOUS
 10
-16.550388
 20
-67.95793
 11
-16.550388
 21
-79.624597
  0
LINE
  8
別途部材
  6
CONTINUOUS
 10
-15.550388
 20
-67.95793
 11
-15.550388
 21
-79.624597
  0
LINE
  8
別途部材
  6
CONTINUOUS
 10
-17.550388
 20
-66.95793
 11
-17.550388
 21
-79.624597
  0
LINE
  8
別途部材
  6
CONTINUOUS
 10
-19.550388
 20
-67.95793
 11
-19.550388
 21
-79.624597
  0
LINE
  8
別途部材
  6
CONTINUOUS
 10
-18.550388
 20
-66.95793
 11
-18.550388
 21
-79.624597
  0
LINE
  8
別途部材
  6
CONTINUOUS
 10
-20.550388
 20
-67.95793
 11
-20.550388
 21
-79.624597
  0
LINE
  8
別途部材
  6
CONTINUOUS
 10
-22.550388
 20
-66.95793
 11
-22.550388
 21
-79.624597
  0
LINE
  8
別途部材
  6
CONTINUOUS
 10
-21.550388
 20
-66.95793
 11
-21.550388
 21
-79.624597
  0
LINE
  8
別途部材
  6
CONTINUOUS
 10
-27.550388
 20
-67.95793
 11
-27.550388
 21
-79.624597
  0
LINE
  8
別途部材
  6
CONTINUOUS
 10
16.449612
 20
-67.95793
 11
17.449612
 21
-66.95793
  0
LINE
  8
別途部材
  6
CONTINUOUS
 10
18.449612
 20
-66.95793
 11
19.449612
 21
-67.95793
  0
LINE
  8
別途部材
  6
CONTINUOUS
 10
17.449612
 20
-66.95793
 11
18.449612
 21
-66.95793
  0
LINE
  8
別途部材
  6
CONTINUOUS
 10
20.449612
 20
-67.95793
 11
21.449612
 21
-66.95793
  0
LINE
  8
別途部材
  6
CONTINUOUS
 10
22.449612
 20
-66.95793
 11
23.449612
 21
-67.95793
  0
LINE
  8
別途部材
  6
CONTINUOUS
 10
21.449612
 20
-66.95793
 11
22.449612
 21
-66.95793
  0
LINE
  8
別途部材
  6
CONTINUOUS
 10
24.449612
 20
-67.95793
 11
25.449612
 21
-66.95793
  0
LINE
  8
別途部材
  6
CONTINUOUS
 10
26.449612
 20
-66.95793
 11
27.449612
 21
-67.95793
  0
LINE
  8
別途部材
  6
CONTINUOUS
 10
25.449612
 20
-66.95793
 11
26.449612
 21
-66.95793
  0
LINE
  8
別途部材
  6
CONTINUOUS
 10
28.449612
 20
-67.95793
 11
29.449612
 21
-66.95793
  0
LINE
  8
別途部材
  6
CONTINUOUS
 10
30.449612
 20
-66.95793
 11
31.449612
 21
-67.95793
  0
LINE
  8
別途部材
  6
CONTINUOUS
 10
29.449612
 20
-66.95793
 11
30.449612
 21
-66.95793
  0
LINE
  8
別途部材
  6
CONTINUOUS
 10
27.449612
 20
-67.95793
 11
28.449612
 21
-67.95793
  0
LINE
  8
別途部材
  6
CONTINUOUS
 10
23.449612
 20
-67.95793
 11
24.449612
 21
-67.95793
  0
LINE
  8
別途部材
  6
CONTINUOUS
 10
19.449612
 20
-67.95793
 11
20.449612
 21
-67.95793
  0
LINE
  8
別途部材
  6
CONTINUOUS
 10
15.449612
 20
-67.95793
 11
16.449612
 21
-67.95793
  0
LINE
  8
別途部材
  6
CONTINUOUS
 10
28.449612
 20
-67.95793
 11
28.449612
 21
-79.624597
  0
LINE
  8
別途部材
  6
CONTINUOUS
 10
22.449612
 20
-66.95793
 11
22.449612
 21
-79.624597
  0
LINE
  8
別途部材
  6
CONTINUOUS
 10
21.449612
 20
-66.95793
 11
21.449612
 21
-79.624597
  0
LINE
  8
別途部材
  6
CONTINUOUS
 10
23.449612
 20
-67.95793
 11
23.449612
 21
-79.624597
  0
LINE
  8
別途部材
  6
CONTINUOUS
 10
24.449612
 20
-67.95793
 11
24.449612
 21
-79.624597
  0
LINE
  8
別途部材
  6
CONTINUOUS
 10
29.449612
 20
-66.95793
 11
29.449612
 21
-79.624597
  0
LINE
  8
別途部材
  6
CONTINUOUS
 10
31.449612
 20
-67.95793
 11
31.449612
 21
-79.624597
  0
LINE
  8
別途部材
  6
CONTINUOUS
 10
30.449612
 20
-66.95793
 11
30.449612
 21
-79.624597
  0
LINE
  8
別途部材
  6
CONTINUOUS
 10
26.449612
 20
-66.95793
 11
26.449612
 21
-79.624597
  0
LINE
  8
別途部材
  6
CONTINUOUS
 10
25.449612
 20
-66.95793
 11
25.449612
 21
-79.624597
  0
LINE
  8
別途部材
  6
CONTINUOUS
 10
27.449612
 20
-67.95793
 11
27.449612
 21
-79.624597
  0
LINE
  8
別途部材
  6
CONTINUOUS
 10
19.449612
 20
-67.95793
 11
19.449612
 21
-79.624597
  0
LINE
  8
別途部材
  6
CONTINUOUS
 10
20.449612
 20
-67.95793
 11
20.449612
 21
-79.624597
  0
LINE
  8
別途部材
  6
CONTINUOUS
 10
18.449612
 20
-66.95793
 11
18.449612
 21
-79.624597
  0
LINE
  8
別途部材
  6
CONTINUOUS
 10
16.449612
 20
-67.95793
 11
16.449612
 21
-79.624597
  0
LINE
  8
別途部材
  6
CONTINUOUS
 10
17.449612
 20
-66.95793
 11
17.449612
 21
-79.624597
  0
ENDBLK
  0
BLOCK
  2
*GRP_0017
 70
    65
 10
0.0
 20
0.0
  0
LINE
  8
補助線
  6
BYBLOCK
 62
    64
 10
-109.988465
 20
-84.528995
 11
-110.11231
 21
-84.64053
  0
LINE
  8
補助線
  6
BYBLOCK
 62
    64
 10
-110.106157
 20
-84.522837
 11
-109.99462
 21
-84.646685
  0
LINE
  8
補助線
  6
BYBLOCK
 62
    64
 10
-99.273362
 20
-74.87897
 11
-99.397207
 21
-74.990505
  0
LINE
  8
補助線
  6
BYBLOCK
 62
    64
 10
-99.391053
 20
-74.872812
 11
-99.279518
 21
-74.99666
  0
LINE
  8
補助線
  6
BYBLOCK
 62
    64
 10
-88.682105
 20
-65.34048
 11
-88.558262
 21
-65.228945
  0
LINE
  8
補助線
  6
BYBLOCK
 62
    64
 10
-88.675953
 20
-65.222787
 11
-88.564415
 21
-65.346635
  0
LINE
  8
型材断面
  6
CONTINUOUS
 10
-110.855755
 20
-84.188608
 11
-110.892682
 21
-84.894747
  0
LINE
  8
型材断面
  6
CONTINUOUS
 10
-110.892682
 20
-84.894747
 11
-110.446543
 21
-85.39013
  0
LINE
  8
型材断面
  6
CONTINUOUS
 10
-110.446543
 20
-85.39013
 11
-109.7404
 21
-85.42706
  0
LINE
  8
型材断面
  6
CONTINUOUS
 10
-88.930167
 20
-64.442418
 11
-88.224028
 21
-64.479348
  0
LINE
  8
型材断面
  6
CONTINUOUS
 10
-88.224028
 20
-64.479348
 11
-87.777885
 21
-64.974727
  0
LINE
  8
型材断面
  6
CONTINUOUS
 10
-87.777885
 20
-64.974727
 11
-87.814815
 21
-65.680872
  0
LINE
  8
型材断面
  6
CONTINUOUS
 10
-109.7404
 20
-85.42706
 11
-87.814815
 21
-65.680872
  0
LINE
  8
型材断面
  6
CONTINUOUS
 10
-110.855755
 20
-84.188608
 11
-88.930167
 21
-64.442418
  0
CIRCLE
  8
ボルト／ビス
  6
CONTINUOUS
 10
-110.050388
 20
-84.584763
 40
0.250185
  0
CIRCLE
  8
ボルト／ビス
  6
CONTINUOUS
 10
-110.050388
 20
-84.584763
 40
0.301025
  0
LINE
  8
ボルト／ビス
  6
CONTINUOUS
 62
    64
 10
-110.2951
 20
-84.636808
 11
-110.217815
 21
-84.398858
  0
LINE
  8
ボルト／ビス
  6
CONTINUOUS
 62
    64
 10
-109.973103
 20
-84.346813
 11
-110.217815
 21
-84.398858
  0
LINE
  8
ボルト／ビス
  6
CONTINUOUS
 62
    64
 10
-110.127672
 20
-84.822713
 11
-109.88296
 21
-84.770668
  0
LINE
  8
ボルト／ビス
  6
CONTINUOUS
 62
    64
 10
-109.805675
 20
-84.532718
 11
-109.88296
 21
-84.770668
  0
LINE
  8
ボルト／ビス
  6
CONTINUOUS
 62
    64
 10
-110.2951
 20
-84.636808
 11
-110.127672
 21
-84.822713
  0
LINE
  8
ボルト／ビス
  6
CONTINUOUS
 62
    64
 10
-109.973103
 20
-84.346813
 11
-109.805675
 21
-84.532718
  0
CIRCLE
  8
ボルト／ビス
  6
CONTINUOUS
 62
    64
 10
-110.050388
 20
-84.584763
 40
0.216668
  0
CIRCLE
  8
ボルト／ビス
  6
CONTINUOUS
 10
-99.335285
 20
-74.93474
 40
0.250185
  0
CIRCLE
  8
ボルト／ビス
  6
CONTINUOUS
 10
-99.335285
 20
-74.93474
 40
0.301025
  0
LINE
  8
ボルト／ビス
  6
CONTINUOUS
 62
    64
 10
-99.58
 20
-74.986783
 11
-99.502712
 21
-74.748833
  0
LINE
  8
ボルト／ビス
  6
CONTINUOUS
 62
    64
 10
-99.258
 20
-74.69679
 11
-99.502712
 21
-74.748833
  0
LINE
  8
ボルト／ビス
  6
CONTINUOUS
 62
    64
 10
-99.412572
 20
-75.172688
 11
-99.16786
 21
-75.120643
  0
LINE
  8
ボルト／ビス
  6
CONTINUOUS
 62
    64
 10
-99.090572
 20
-74.882695
 11
-99.16786
 21
-75.120643
  0
LINE
  8
ボルト／ビス
  6
CONTINUOUS
 62
    64
 10
-99.58
 20
-74.986783
 11
-99.412572
 21
-75.172688
  0
LINE
  8
ボルト／ビス
  6
CONTINUOUS
 62
    64
 10
-99.258
 20
-74.69679
 11
-99.090572
 21
-74.882695
  0
CIRCLE
  8
ボルト／ビス
  6
CONTINUOUS
 62
    64
 10
-99.335285
 20
-74.93474
 40
0.216668
  0
CIRCLE
  8
ボルト／ビス
  6
CONTINUOUS
 10
-88.620185
 20
-65.284713
 40
0.250185
  0
CIRCLE
  8
ボルト／ビス
  6
CONTINUOUS
 10
-88.620185
 20
-65.284713
 40
0.301025
  0
LINE
  8
ボルト／ビス
  6
CONTINUOUS
 62
    64
 10
-88.542897
 20
-65.046763
 11
-88.78761
 21
-65.098808
  0
LINE
  8
ボルト／ビス
  6
CONTINUOUS
 62
    64
 10
-88.864895
 20
-65.336758
 11
-88.78761
 21
-65.098808
  0
LINE
  8
ボルト／ビス
  6
CONTINUOUS
 62
    64
 10
-88.37547
 20
-65.232668
 11
-88.452758
 21
-65.470618
  0
LINE
  8
ボルト／ビス
  6
CONTINUOUS
 62
    64
 10
-88.69747
 20
-65.522663
 11
-88.452758
 21
-65.470618
  0
LINE
  8
ボルト／ビス
  6
CONTINUOUS
 62
    64
 10
-88.542897
 20
-65.046763
 11
-88.37547
 21
-65.232668
  0
LINE
  8
ボルト／ビス
  6
CONTINUOUS
 62
    64
 10
-88.864895
 20
-65.336758
 11
-88.69747
 21
-65.522663
  0
CIRCLE
  8
ボルト／ビス
  6
CONTINUOUS
 62
    64
 10
-88.620185
 20
-65.284713
 40
0.216668
  0
ENDBLK
  0
BLOCK
  2
*GRP_0018
 70
    65
 10
0.0
 20
0.0
  0
LINE
  8
補助線
  6
BYBLOCK
 62
    64
 10
-88.682105
 20
-84.528995
 11
-88.55826
 21
-84.64053
  0
LINE
  8
補助線
  6
BYBLOCK
 62
    64
 10
-88.564412
 20
-84.522837
 11
-88.67595
 21
-84.646685
  0
LINE
  8
補助線
  6
BYBLOCK
 62
    64
 10
-99.397207
 20
-74.87897
 11
-99.273362
 21
-74.990505
  0
LINE
  8
補助線
  6
BYBLOCK
 62
    64
 10
-99.279518
 20
-74.872812
 11
-99.391053
 21
-74.99666
  0
LINE
  8
補助線
  6
BYBLOCK
 62
    64
 10
-109.988465
 20
-65.34048
 11
-110.112308
 21
-65.228945
  0
LINE
  8
補助線
  6
BYBLOCK
 62
    64
 10
-109.994618
 20
-65.222787
 11
-110.106155
 21
-65.346635
  0
LINE
  8
型材断面
  6
CONTINUOUS
 10
-87.814815
 20
-84.188608
 11
-87.777887
 21
-84.894747
  0
LINE
  8
型材断面
  6
CONTINUOUS
 10
-87.777887
 20
-84.894747
 11
-88.224028
 21
-85.39013
  0
LINE
  8
型材断面
  6
CONTINUOUS
 10
-88.224028
 20
-85.39013
 11
-88.93017
 21
-85.42706
  0
LINE
  8
型材断面
  6
CONTINUOUS
 10
-109.740402
 20
-64.442418
 11
-110.446543
 21
-64.479348
  0
LINE
  8
型材断面
  6
CONTINUOUS
 10
-110.446543
 20
-64.479348
 11
-110.892685
 21
-64.974727
  0
LINE
  8
型材断面
  6
CONTINUOUS
 10
-110.892685
 20
-64.974727
 11
-110.855755
 21
-65.680872
  0
LINE
  8
型材断面
  6
CONTINUOUS
 10
-88.93017
 20
-85.42706
 11
-110.855755
 21
-65.680872
  0
LINE
  8
型材断面
  6
CONTINUOUS
 10
-87.814815
 20
-84.188608
 11
-109.740402
 21
-64.442418
  0
CIRCLE
  8
ボルト／ビス
  6
CONTINUOUS
 10
-88.620183
 20
-84.584763
 40
0.250185
  0
CIRCLE
  8
ボルト／ビス
  6
CONTINUOUS
 10
-88.620183
 20
-84.584763
 40
0.301025
  0
LINE
  8
ボルト／ビス
  6
CONTINUOUS
 62
    64
 10
-88.37547
 20
-84.636808
 11
-88.452755
 21
-84.398858
  0
LINE
  8
ボルト／ビス
  6
CONTINUOUS
 62
    64
 10
-88.697468
 20
-84.346813
 11
-88.452755
 21
-84.398858
  0
LINE
  8
ボルト／ビス
  6
CONTINUOUS
 62
    64
 10
-88.542897
 20
-84.822713
 11
-88.78761
 21
-84.770668
  0
LINE
  8
ボルト／ビス
  6
CONTINUOUS
 62
    64
 10
-88.864895
 20
-84.532718
 11
-88.78761
 21
-84.770668
  0
LINE
  8
ボルト／ビス
  6
CONTINUOUS
 62
    64
 10
-88.37547
 20
-84.636808
 11
-88.542897
 21
-84.822713
  0
LINE
  8
ボルト／ビス
  6
CONTINUOUS
 62
    64
 10
-88.697468
 20
-84.346813
 11
-88.864895
 21
-84.532718
  0
CIRCLE
  8
ボルト／ビス
  6
CONTINUOUS
 62
    64
 10
-88.620183
 20
-84.584763
 40
0.216668
  0
CIRCLE
  8
ボルト／ビス
  6
CONTINUOUS
 10
-99.335285
 20
-74.93474
 40
0.250185
  0
CIRCLE
  8
ボルト／ビス
  6
CONTINUOUS
 10
-99.335285
 20
-74.93474
 40
0.301025
  0
LINE
  8
ボルト／ビス
  6
CONTINUOUS
 62
    64
 10
-99.09057
 20
-74.986783
 11
-99.167857
 21
-74.748833
  0
LINE
  8
ボルト／ビス
  6
CONTINUOUS
 62
    64
 10
-99.41257
 20
-74.69679
 11
-99.167857
 21
-74.748833
  0
LINE
  8
ボルト／ビス
  6
CONTINUOUS
 62
    64
 10
-99.257997
 20
-75.172688
 11
-99.50271
 21
-75.120643
  0
LINE
  8
ボルト／ビス
  6
CONTINUOUS
 62
    64
 10
-99.579997
 20
-74.882695
 11
-99.50271
 21
-75.120643
  0
LINE
  8
ボルト／ビス
  6
CONTINUOUS
 62
    64
 10
-99.09057
 20
-74.986783
 11
-99.257997
 21
-75.172688
  0
LINE
  8
ボルト／ビス
  6
CONTINUOUS
 62
    64
 10
-99.41257
 20
-74.69679
 11
-99.579997
 21
-74.882695
  0
CIRCLE
  8
ボルト／ビス
  6
CONTINUOUS
 62
    64
 10
-99.335285
 20
-74.93474
 40
0.216668
  0
CIRCLE
  8
ボルト／ビス
  6
CONTINUOUS
 10
-110.050385
 20
-65.284713
 40
0.250185
  0
CIRCLE
  8
ボルト／ビス
  6
CONTINUOUS
 10
-110.050385
 20
-65.284713
 40
0.301025
  0
LINE
  8
ボルト／ビス
  6
CONTINUOUS
 62
    64
 10
-110.127672
 20
-65.046763
 11
-109.88296
 21
-65.098808
  0
LINE
  8
ボルト／ビス
  6
CONTINUOUS
 62
    64
 10
-109.805675
 20
-65.336758
 11
-109.88296
 21
-65.098808
  0
LINE
  8
ボルト／ビス
  6
CONTINUOUS
 62
    64
 10
-110.2951
 20
-65.232668
 11
-110.217813
 21
-65.470618
  0
LINE
  8
ボルト／ビス
  6
CONTINUOUS
 62
    64
 10
-109.9731
 20
-65.522663
 11
-110.217813
 21
-65.470618
  0
LINE
  8
ボルト／ビス
  6
CONTINUOUS
 62
    64
 10
-110.127672
 20
-65.046763
 11
-110.2951
 21
-65.232668
  0
LINE
  8
ボルト／ビス
  6
CONTINUOUS
 62
    64
 10
-109.805675
 20
-65.336758
 11
-109.9731
 21
-65.522663
  0
CIRCLE
  8
ボルト／ビス
  6
CONTINUOUS
 62
    64
 10
-110.050385
 20
-65.284713
 40
0.216668
  0
ENDBLK
  0
BLOCK
  2
*GRP_0019
 70
    65
 10
0.0
 20
0.0
  0
LINE
  8
補助線
  6
BYBLOCK
 62
    64
 10
49.88769
 20
-84.528995
 11
50.011535
 21
-84.64053
  0
LINE
  8
補助線
  6
BYBLOCK
 62
    64
 10
50.005383
 20
-84.522837
 11
49.893845
 21
-84.646685
  0
LINE
  8
補助線
  6
BYBLOCK
 62
    64
 10
39.172588
 20
-74.87897
 11
39.296433
 21
-74.990505
  0
LINE
  8
補助線
  6
BYBLOCK
 62
    64
 10
39.290278
 20
-74.872812
 11
39.178743
 21
-74.99666
  0
LINE
  8
補助線
  6
BYBLOCK
 62
    64
 10
28.58133
 20
-65.34048
 11
28.457488
 21
-65.228945
  0
LINE
  8
補助線
  6
BYBLOCK
 62
    64
 10
28.575178
 20
-65.222787
 11
28.46364
 21
-65.346635
  0
LINE
  8
型材断面
  6
CONTINUOUS
 10
50.75498
 20
-84.188608
 11
50.791907
 21
-84.894747
  0
LINE
  8
型材断面
  6
CONTINUOUS
 10
50.791907
 20
-84.894747
 11
50.345767
 21
-85.39013
  0
LINE
  8
型材断面
  6
CONTINUOUS
 10
50.345767
 20
-85.39013
 11
49.639625
 21
-85.42706
  0
LINE
  8
型材断面
  6
CONTINUOUS
 10
28.829392
 20
-64.442418
 11
28.123252
 21
-64.479348
  0
LINE
  8
型材断面
  6
CONTINUOUS
 10
28.123252
 20
-64.479348
 11
27.67711
 21
-64.974727
  0
LINE
  8
型材断面
  6
CONTINUOUS
 10
27.67711
 20
-64.974727
 11
27.71404
 21
-65.680872
  0
LINE
  8
型材断面
  6
CONTINUOUS
 10
49.639625
 20
-85.42706
 11
27.71404
 21
-65.680872
  0
LINE
  8
型材断面
  6
CONTINUOUS
 10
50.75498
 20
-84.188608
 11
28.829392
 21
-64.442418
  0
CIRCLE
  8
ボルト／ビス
  6
CONTINUOUS
 10
49.949612
 20
-84.584763
 40
0.250185
  0
CIRCLE
  8
ボルト／ビス
  6
CONTINUOUS
 10
49.949612
 20
-84.584763
 40
0.301025
  0
LINE
  8
ボルト／ビス
  6
CONTINUOUS
 62
    64
 10
50.194325
 20
-84.636808
 11
50.11704
 21
-84.398858
  0
LINE
  8
ボルト／ビス
  6
CONTINUOUS
 62
    64
 10
49.872328
 20
-84.346813
 11
50.11704
 21
-84.398858
  0
LINE
  8
ボルト／ビス
  6
CONTINUOUS
 62
    64
 10
50.026898
 20
-84.822713
 11
49.782185
 21
-84.770668
  0
LINE
  8
ボルト／ビス
  6
CONTINUOUS
 62
    64
 10
49.7049
 20
-84.532718
 11
49.782185
 21
-84.770668
  0
LINE
  8
ボルト／ビス
  6
CONTINUOUS
 62
    64
 10
50.194325
 20
-84.636808
 11
50.026898
 21
-84.822713
  0
LINE
  8
ボルト／ビス
  6
CONTINUOUS
 62
    64
 10
49.872328
 20
-84.346813
 11
49.7049
 21
-84.532718
  0
CIRCLE
  8
ボルト／ビス
  6
CONTINUOUS
 62
    64
 10
49.949612
 20
-84.584763
 40
0.216668
  0
CIRCLE
  8
ボルト／ビス
  6
CONTINUOUS
 10
39.23451
 20
-74.93474
 40
0.250185
  0
CIRCLE
  8
ボルト／ビス
  6
CONTINUOUS
 10
39.23451
 20
-74.93474
 40
0.301025
  0
LINE
  8
ボルト／ビス
  6
CONTINUOUS
 62
    64
 10
39.479225
 20
-74.986783
 11
39.401937
 21
-74.748833
  0
LINE
  8
ボルト／ビス
  6
CONTINUOUS
 62
    64
 10
39.157225
 20
-74.69679
 11
39.401937
 21
-74.748833
  0
LINE
  8
ボルト／ビス
  6
CONTINUOUS
 62
    64
 10
39.311797
 20
-75.172688
 11
39.067085
 21
-75.120643
  0
LINE
  8
ボルト／ビス
  6
CONTINUOUS
 62
    64
 10
38.989797
 20
-74.882695
 11
39.067085
 21
-75.120643
  0
LINE
  8
ボルト／ビス
  6
CONTINUOUS
 62
    64
 10
39.479225
 20
-74.986783
 11
39.311797
 21
-75.172688
  0
LINE
  8
ボルト／ビス
  6
CONTINUOUS
 62
    64
 10
39.157225
 20
-74.69679
 11
38.989797
 21
-74.882695
  0
CIRCLE
  8
ボルト／ビス
  6
CONTINUOUS
 62
    64
 10
39.23451
 20
-74.93474
 40
0.216668
  0
CIRCLE
  8
ボルト／ビス
  6
CONTINUOUS
 10
28.51941
 20
-65.284713
 40
0.250185
  0
CIRCLE
  8
ボルト／ビス
  6
CONTINUOUS
 10
28.51941
 20
-65.284713
 40
0.301025
  0
LINE
  8
ボルト／ビス
  6
CONTINUOUS
 62
    64
 10
28.442123
 20
-65.046763
 11
28.686835
 21
-65.098808
  0
LINE
  8
ボルト／ビス
  6
CONTINUOUS
 62
    64
 10
28.76412
 20
-65.336758
 11
28.686835
 21
-65.098808
  0
LINE
  8
ボルト／ビス
  6
CONTINUOUS
 62
    64
 10
28.274695
 20
-65.232668
 11
28.351982
 21
-65.470618
  0
LINE
  8
ボルト／ビス
  6
CONTINUOUS
 62
    64
 10
28.596695
 20
-65.522663
 11
28.351982
 21
-65.470618
  0
LINE
  8
ボルト／ビス
  6
CONTINUOUS
 62
    64
 10
28.442123
 20
-65.046763
 11
28.274695
 21
-65.232668
  0
LINE
  8
ボルト／ビス
  6
CONTINUOUS
 62
    64
 10
28.76412
 20
-65.336758
 11
28.596695
 21
-65.522663
  0
CIRCLE
  8
ボルト／ビス
  6
CONTINUOUS
 62
    64
 10
28.51941
 20
-65.284713
 40
0.216668
  0
ENDBLK
  0
BLOCK
  2
*GRP_0020
 70
    65
 10
0.0
 20
0.0
  0
LINE
  8
補助線
  6
BYBLOCK
 62
    64
 10
28.58133
 20
-84.528995
 11
28.457485
 21
-84.64053
  0
LINE
  8
補助線
  6
BYBLOCK
 62
    64
 10
28.463638
 20
-84.522837
 11
28.575175
 21
-84.646685
  0
LINE
  8
補助線
  6
BYBLOCK
 62
    64
 10
39.296433
 20
-74.87897
 11
39.172588
 21
-74.990505
  0
LINE
  8
補助線
  6
BYBLOCK
 62
    64
 10
39.178743
 20
-74.872812
 11
39.290278
 21
-74.99666
  0
LINE
  8
補助線
  6
BYBLOCK
 62
    64
 10
49.88769
 20
-65.34048
 11
50.011533
 21
-65.228945
  0
LINE
  8
補助線
  6
BYBLOCK
 62
    64
 10
49.893843
 20
-65.222787
 11
50.00538
 21
-65.346635
  0
LINE
  8
型材断面
  6
CONTINUOUS
 10
27.71404
 20
-84.188608
 11
27.677112
 21
-84.894747
  0
LINE
  8
型材断面
  6
CONTINUOUS
 10
27.677112
 20
-84.894747
 11
28.123252
 21
-85.39013
  0
LINE
  8
型材断面
  6
CONTINUOUS
 10
28.123252
 20
-85.39013
 11
28.829395
 21
-85.42706
  0
LINE
  8
型材断面
  6
CONTINUOUS
 10
49.639627
 20
-64.442418
 11
50.345767
 21
-64.479348
  0
LINE
  8
型材断面
  6
CONTINUOUS
 10
50.345767
 20
-64.479348
 11
50.79191
 21
-64.974727
  0
LINE
  8
型材断面
  6
CONTINUOUS
 10
50.79191
 20
-64.974727
 11
50.75498
 21
-65.680872
  0
LINE
  8
型材断面
  6
CONTINUOUS
 10
28.829395
 20
-85.42706
 11
50.75498
 21
-65.680872
  0
LINE
  8
型材断面
  6
CONTINUOUS
 10
27.71404
 20
-84.188608
 11
49.639627
 21
-64.442418
  0
CIRCLE
  8
ボルト／ビス
  6
CONTINUOUS
 10
28.519407
 20
-84.584763
 40
0.250185
  0
CIRCLE
  8
ボルト／ビス
  6
CONTINUOUS
 10
28.519407
 20
-84.584763
 40
0.301025
  0
LINE
  8
ボルト／ビス
  6
CONTINUOUS
 62
    64
 10
28.274695
 20
-84.636808
 11
28.35198
 21
-84.398858
  0
LINE
  8
ボルト／ビス
  6
CONTINUOUS
 62
    64
 10
28.596693
 20
-84.346813
 11
28.35198
 21
-84.398858
  0
LINE
  8
ボルト／ビス
  6
CONTINUOUS
 62
    64
 10
28.442123
 20
-84.822713
 11
28.686835
 21
-84.770668
  0
LINE
  8
ボルト／ビス
  6
CONTINUOUS
 62
    64
 10
28.76412
 20
-84.532718
 11
28.686835
 21
-84.770668
  0
LINE
  8
ボルト／ビス
  6
CONTINUOUS
 62
    64
 10
28.274695
 20
-84.636808
 11
28.442123
 21
-84.822713
  0
LINE
  8
ボルト／ビス
  6
CONTINUOUS
 62
    64
 10
28.596693
 20
-84.346813
 11
28.76412
 21
-84.532718
  0
CIRCLE
  8
ボルト／ビス
  6
CONTINUOUS
 62
    64
 10
28.519407
 20
-84.584763
 40
0.216668
  0
CIRCLE
  8
ボルト／ビス
  6
CONTINUOUS
 10
39.23451
 20
-74.93474
 40
0.250185
  0
CIRCLE
  8
ボルト／ビス
  6
CONTINUOUS
 10
39.23451
 20
-74.93474
 40
0.301025
  0
LINE
  8
ボルト／ビス
  6
CONTINUOUS
 62
    64
 10
38.989795
 20
-74.986783
 11
39.067082
 21
-74.748833
  0
LINE
  8
ボルト／ビス
  6
CONTINUOUS
 62
    64
 10
39.311795
 20
-74.69679
 11
39.067082
 21
-74.748833
  0
LINE
  8
ボルト／ビス
  6
CONTINUOUS
 62
    64
 10
39.157222
 20
-75.172688
 11
39.401935
 21
-75.120643
  0
LINE
  8
ボルト／ビス
  6
CONTINUOUS
 62
    64
 10
39.479222
 20
-74.882695
 11
39.401935
 21
-75.120643
  0
LINE
  8
ボルト／ビス
  6
CONTINUOUS
 62
    64
 10
38.989795
 20
-74.986783
 11
39.157222
 21
-75.172688
  0
LINE
  8
ボルト／ビス
  6
CONTINUOUS
 62
    64
 10
39.311795
 20
-74.69679
 11
39.479222
 21
-74.882695
  0
CIRCLE
  8
ボルト／ビス
  6
CONTINUOUS
 62
    64
 10
39.23451
 20
-74.93474
 40
0.216668
  0
CIRCLE
  8
ボルト／ビス
  6
CONTINUOUS
 10
49.94961
 20
-65.284713
 40
0.250185
  0
CIRCLE
  8
ボルト／ビス
  6
CONTINUOUS
 10
49.94961
 20
-65.284713
 40
0.301025
  0
LINE
  8
ボルト／ビス
  6
CONTINUOUS
 62
    64
 10
50.026898
 20
-65.046763
 11
49.782185
 21
-65.098808
  0
LINE
  8
ボルト／ビス
  6
CONTINUOUS
 62
    64
 10
49.7049
 20
-65.336758
 11
49.782185
 21
-65.098808
  0
LINE
  8
ボルト／ビス
  6
CONTINUOUS
 62
    64
 10
50.194325
 20
-65.232668
 11
50.117037
 21
-65.470618
  0
LINE
  8
ボルト／ビス
  6
CONTINUOUS
 62
    64
 10
49.872325
 20
-65.522663
 11
50.117037
 21
-65.470618
  0
LINE
  8
ボルト／ビス
  6
CONTINUOUS
 62
    64
 10
50.026898
 20
-65.046763
 11
50.194325
 21
-65.232668
  0
LINE
  8
ボルト／ビス
  6
CONTINUOUS
 62
    64
 10
49.7049
 20
-65.336758
 11
49.872325
 21
-65.522663
  0
CIRCLE
  8
ボルト／ビス
  6
CONTINUOUS
 62
    64
 10
49.94961
 20
-65.284713
 40
0.216668
  0
ENDBLK
  0
BLOCK
  2
*GRP_0021
 70
    65
 10
0.0
 20
0.0
  0
LINE
  8
補助線
  6
BYBLOCK
 62
    64
 10
-19.397207
 20
-84.528995
 11
-19.273362
 21
-84.64053
  0
LINE
  8
補助線
  6
BYBLOCK
 62
    64
 10
-19.279515
 20
-84.522837
 11
-19.391053
 21
-84.646685
  0
LINE
  8
補助線
  6
BYBLOCK
 62
    64
 10
-30.11231
 20
-74.87897
 11
-29.988465
 21
-74.990505
  0
LINE
  8
補助線
  6
BYBLOCK
 62
    64
 10
-29.99462
 20
-74.872812
 11
-30.106155
 21
-74.99666
  0
LINE
  8
補助線
  6
BYBLOCK
 62
    64
 10
-40.703568
 20
-65.34048
 11
-40.82741
 21
-65.228945
  0
LINE
  8
補助線
  6
BYBLOCK
 62
    64
 10
-40.70972
 20
-65.222787
 11
-40.821257
 21
-65.346635
  0
LINE
  8
型材断面
  6
CONTINUOUS
 10
-18.529918
 20
-84.188608
 11
-18.49299
 21
-84.894747
  0
LINE
  8
型材断面
  6
CONTINUOUS
 10
-18.49299
 20
-84.894747
 11
-18.93913
 21
-85.39013
  0
LINE
  8
型材断面
  6
CONTINUOUS
 10
-18.93913
 20
-85.39013
 11
-19.645273
 21
-85.42706
  0
LINE
  8
型材断面
  6
CONTINUOUS
 10
-40.455505
 20
-64.442418
 11
-41.161645
 21
-64.479348
  0
LINE
  8
型材断面
  6
CONTINUOUS
 10
-41.161645
 20
-64.479348
 11
-41.607787
 21
-64.974727
  0
LINE
  8
型材断面
  6
CONTINUOUS
 10
-41.607787
 20
-64.974727
 11
-41.570857
 21
-65.680872
  0
LINE
  8
型材断面
  6
CONTINUOUS
 10
-19.645273
 20
-85.42706
 11
-41.570857
 21
-65.680872
  0
LINE
  8
型材断面
  6
CONTINUOUS
 10
-18.529918
 20
-84.188608
 11
-40.455505
 21
-64.442418
  0
CIRCLE
  8
ボルト／ビス
  6
CONTINUOUS
 10
-19.335285
 20
-84.584763
 40
0.250185
  0
CIRCLE
  8
ボルト／ビス
  6
CONTINUOUS
 10
-19.335285
 20
-84.584763
 40
0.301025
  0
LINE
  8
ボルト／ビス
  6
CONTINUOUS
 62
    64
 10
-19.090572
 20
-84.636808
 11
-19.167857
 21
-84.398858
  0
LINE
  8
ボルト／ビス
  6
CONTINUOUS
 62
    64
 10
-19.41257
 20
-84.346813
 11
-19.167857
 21
-84.398858
  0
LINE
  8
ボルト／ビス
  6
CONTINUOUS
 62
    64
 10
-19.258
 20
-84.822713
 11
-19.502712
 21
-84.770668
  0
LINE
  8
ボルト／ビス
  6
CONTINUOUS
 62
    64
 10
-19.579997
 20
-84.532718
 11
-19.502712
 21
-84.770668
  0
LINE
  8
ボルト／ビス
  6
CONTINUOUS
 62
    64
 10
-19.090572
 20
-84.636808
 11
-19.258
 21
-84.822713
  0
LINE
  8
ボルト／ビス
  6
CONTINUOUS
 62
    64
 10
-19.41257
 20
-84.346813
 11
-19.579997
 21
-84.532718
  0
CIRCLE
  8
ボルト／ビス
  6
CONTINUOUS
 62
    64
 10
-19.335285
 20
-84.584763
 40
0.216668
  0
CIRCLE
  8
ボルト／ビス
  6
CONTINUOUS
 10
-30.050388
 20
-74.93474
 40
0.250185
  0
CIRCLE
  8
ボルト／ビス
  6
CONTINUOUS
 10
-30.050388
 20
-74.93474
 40
0.301025
  0
LINE
  8
ボルト／ビス
  6
CONTINUOUS
 62
    64
 10
-29.805673
 20
-74.986783
 11
-29.88296
 21
-74.748833
  0
LINE
  8
ボルト／ビス
  6
CONTINUOUS
 62
    64
 10
-30.127672
 20
-74.69679
 11
-29.88296
 21
-74.748833
  0
LINE
  8
ボルト／ビス
  6
CONTINUOUS
 62
    64
 10
-29.9731
 20
-75.172688
 11
-30.217813
 21
-75.120643
  0
LINE
  8
ボルト／ビス
  6
CONTINUOUS
 62
    64
 10
-30.2951
 20
-74.882695
 11
-30.217813
 21
-75.120643
  0
LINE
  8
ボルト／ビス
  6
CONTINUOUS
 62
    64
 10
-29.805673
 20
-74.986783
 11
-29.9731
 21
-75.172688
  0
LINE
  8
ボルト／ビス
  6
CONTINUOUS
 62
    64
 10
-30.127672
 20
-74.69679
 11
-30.2951
 21
-74.882695
  0
CIRCLE
  8
ボルト／ビス
  6
CONTINUOUS
 62
    64
 10
-30.050388
 20
-74.93474
 40
0.216668
  0
CIRCLE
  8
ボルト／ビス
  6
CONTINUOUS
 10
-40.765488
 20
-65.284713
 40
0.250185
  0
CIRCLE
  8
ボルト／ビス
  6
CONTINUOUS
 10
-40.765488
 20
-65.284713
 40
0.301025
  0
LINE
  8
ボルト／ビス
  6
CONTINUOUS
 62
    64
 10
-40.842775
 20
-65.046763
 11
-40.598063
 21
-65.098808
  0
LINE
  8
ボルト／ビス
  6
CONTINUOUS
 62
    64
 10
-40.520777
 20
-65.336758
 11
-40.598063
 21
-65.098808
  0
LINE
  8
ボルト／ビス
  6
CONTINUOUS
 62
    64
 10
-41.010203
 20
-65.232668
 11
-40.932915
 21
-65.470618
  0
LINE
  8
ボルト／ビス
  6
CONTINUOUS
 62
    64
 10
-40.688202
 20
-65.522663
 11
-40.932915
 21
-65.470618
  0
LINE
  8
ボルト／ビス
  6
CONTINUOUS
 62
    64
 10
-40.842775
 20
-65.046763
 11
-41.010203
 21
-65.232668
  0
LINE
  8
ボルト／ビス
  6
CONTINUOUS
 62
    64
 10
-40.520777
 20
-65.336758
 11
-40.688202
 21
-65.522663
  0
CIRCLE
  8
ボルト／ビス
  6
CONTINUOUS
 62
    64
 10
-40.765488
 20
-65.284713
 40
0.216668
  0
ENDBLK
  0
BLOCK
  2
*GRP_0022
 70
    65
 10
0.0
 20
0.0
  0
LINE
  8
補助線
  6
BYBLOCK
 62
    64
 10
-40.703568
 20
-84.528995
 11
-40.827412
 21
-84.64053
  0
LINE
  8
補助線
  6
BYBLOCK
 62
    64
 10
-40.82126
 20
-84.522837
 11
-40.709723
 21
-84.646685
  0
LINE
  8
補助線
  6
BYBLOCK
 62
    64
 10
-29.988465
 20
-74.87897
 11
-30.11231
 21
-74.990505
  0
LINE
  8
補助線
  6
BYBLOCK
 62
    64
 10
-30.106155
 20
-74.872812
 11
-29.99462
 21
-74.99666
  0
LINE
  8
補助線
  6
BYBLOCK
 62
    64
 10
-19.397207
 20
-65.34048
 11
-19.273365
 21
-65.228945
  0
LINE
  8
補助線
  6
BYBLOCK
 62
    64
 10
-19.391055
 20
-65.222787
 11
-19.279518
 21
-65.346635
  0
LINE
  8
型材断面
  6
CONTINUOUS
 10
-41.570857
 20
-84.188608
 11
-41.607785
 21
-84.894747
  0
LINE
  8
型材断面
  6
CONTINUOUS
 10
-41.607785
 20
-84.894747
 11
-41.161645
 21
-85.39013
  0
LINE
  8
型材断面
  6
CONTINUOUS
 10
-41.161645
 20
-85.39013
 11
-40.455502
 21
-85.42706
  0
LINE
  8
型材断面
  6
CONTINUOUS
 10
-19.64527
 20
-64.442418
 11
-18.93913
 21
-64.479348
  0
LINE
  8
型材断面
  6
CONTINUOUS
 10
-18.93913
 20
-64.479348
 11
-18.492987
 21
-64.974727
  0
LINE
  8
型材断面
  6
CONTINUOUS
 10
-18.492987
 20
-64.974727
 11
-18.529918
 21
-65.680872
  0
LINE
  8
型材断面
  6
CONTINUOUS
 10
-40.455502
 20
-85.42706
 11
-18.529918
 21
-65.680872
  0
LINE
  8
型材断面
  6
CONTINUOUS
 10
-41.570857
 20
-84.188608
 11
-19.64527
 21
-64.442418
  0
CIRCLE
  8
ボルト／ビス
  6
CONTINUOUS
 10
-40.76549
 20
-84.584763
 40
0.250185
  0
CIRCLE
  8
ボルト／ビス
  6
CONTINUOUS
 10
-40.76549
 20
-84.584763
 40
0.301025
  0
LINE
  8
ボルト／ビス
  6
CONTINUOUS
 62
    64
 10
-41.010203
 20
-84.636808
 11
-40.932917
 21
-84.398858
  0
LINE
  8
ボルト／ビス
  6
CONTINUOUS
 62
    64
 10
-40.688205
 20
-84.346813
 11
-40.932917
 21
-84.398858
  0
LINE
  8
ボルト／ビス
  6
CONTINUOUS
 62
    64
 10
-40.842775
 20
-84.822713
 11
-40.598063
 21
-84.770668
  0
LINE
  8
ボルト／ビス
  6
CONTINUOUS
 62
    64
 10
-40.520777
 20
-84.532718
 11
-40.598063
 21
-84.770668
  0
LINE
  8
ボルト／ビス
  6
CONTINUOUS
 62
    64
 10
-41.010203
 20
-84.636808
 11
-40.842775
 21
-84.822713
  0
LINE
  8
ボルト／ビス
  6
CONTINUOUS
 62
    64
 10
-40.688205
 20
-84.346813
 11
-40.520777
 21
-84.532718
  0
CIRCLE
  8
ボルト／ビス
  6
CONTINUOUS
 62
    64
 10
-40.76549
 20
-84.584763
 40
0.216668
  0
CIRCLE
  8
ボルト／ビス
  6
CONTINUOUS
 10
-30.050388
 20
-74.93474
 40
0.250185
  0
CIRCLE
  8
ボルト／ビス
  6
CONTINUOUS
 10
-30.050388
 20
-74.93474
 40
0.301025
  0
LINE
  8
ボルト／ビス
  6
CONTINUOUS
 62
    64
 10
-30.295103
 20
-74.986783
 11
-30.217815
 21
-74.748833
  0
LINE
  8
ボルト／ビス
  6
CONTINUOUS
 62
    64
 10
-29.973103
 20
-74.69679
 11
-30.217815
 21
-74.748833
  0
LINE
  8
ボルト／ビス
  6
CONTINUOUS
 62
    64
 10
-30.127675
 20
-75.172688
 11
-29.882963
 21
-75.120643
  0
LINE
  8
ボルト／ビス
  6
CONTINUOUS
 62
    64
 10
-29.805675
 20
-74.882695
 11
-29.882963
 21
-75.120643
  0
LINE
  8
ボルト／ビス
  6
CONTINUOUS
 62
    64
 10
-30.295103
 20
-74.986783
 11
-30.127675
 21
-75.172688
  0
LINE
  8
ボルト／ビス
  6
CONTINUOUS
 62
    64
 10
-29.973103
 20
-74.69679
 11
-29.805675
 21
-74.882695
  0
CIRCLE
  8
ボルト／ビス
  6
CONTINUOUS
 62
    64
 10
-30.050388
 20
-74.93474
 40
0.216668
  0
CIRCLE
  8
ボルト／ビス
  6
CONTINUOUS
 10
-19.335287
 20
-65.284713
 40
0.250185
  0
CIRCLE
  8
ボルト／ビス
  6
CONTINUOUS
 10
-19.335287
 20
-65.284713
 40
0.301025
  0
LINE
  8
ボルト／ビス
  6
CONTINUOUS
 62
    64
 10
-19.258
 20
-65.046763
 11
-19.502712
 21
-65.098808
  0
LINE
  8
ボルト／ビス
  6
CONTINUOUS
 62
    64
 10
-19.579997
 20
-65.336758
 11
-19.502712
 21
-65.098808
  0
LINE
  8
ボルト／ビス
  6
CONTINUOUS
 62
    64
 10
-19.090572
 20
-65.232668
 11
-19.16786
 21
-65.470618
  0
LINE
  8
ボルト／ビス
  6
CONTINUOUS
 62
    64
 10
-19.412572
 20
-65.522663
 11
-19.16786
 21
-65.470618
  0
LINE
  8
ボルト／ビス
  6
CONTINUOUS
 62
    64
 10
-19.258
 20
-65.046763
 11
-19.090572
 21
-65.232668
  0
LINE
  8
ボルト／ビス
  6
CONTINUOUS
 62
    64
 10
-19.579997
 20
-65.336758
 11
-19.412572
 21
-65.522663
  0
CIRCLE
  8
ボルト／ビス
  6
CONTINUOUS
 62
    64
 10
-19.335287
 20
-65.284713
 40
0.216668
  0
ENDBLK
  0
BLOCK
  2
*DIM_0023
 70
    65
 10
0.0
 20
0.0
  0
LINE
  8
寸法
  6
BYBLOCK
 62
     0
 10
-116.383723
 20
23.399048
 11
-145.328888
 21
23.399048
  0
LINE
  8
寸法
  6
BYBLOCK
 62
     0
 10
-116.383723
 20
46.732382
 11
-145.328888
 21
46.732382
  0
LINE
  8
寸法
  6
BYBLOCK
 62
     0
 10
-145.328888
 20
23.399048
 11
-145.328888
 21
46.732382
  0
POINT
  8
寸法
 62
     0
 10
-145.328888
 20
23.399048
  0
POINT
  8
寸法
 62
     0
 10
-145.328888
 20
46.732382
  0
TEXT
  7
TextStyle03
  8
寸法
  6
CONTINUOUS
 62
     0
 10
-145.65
 20
32.6125
  1
700
 40
3.0
 50
90.0
 72
     5
 11
-145.65
 21
37.4875
  0
ENDBLK
  0
BLOCK
  2
*DIM_0024
 70
    65
 10
0.0
 20
0.0
  0
LINE
  8
寸法
  6
BYBLOCK
 62
     0
 10
-105.050388
 20
59.73238
 11
-105.050388
 21
88.840452
  0
LINE
  8
寸法
  6
BYBLOCK
 62
     0
 10
-80.050388
 20
59.73238
 11
-80.050388
 21
88.840452
  0
LINE
  8
寸法
  6
BYBLOCK
 62
     0
 10
-105.050388
 20
88.840452
 11
-80.050388
 21
88.840452
  0
POINT
  8
寸法
 62
     0
 10
-105.050388
 20
88.840452
  0
POINT
  8
寸法
 62
     0
 10
-80.050388
 20
88.840452
  0
TEXT
  7
TextStyle03
  8
寸法
  6
CONTINUOUS
 62
     0
 10
-95.0125
 20
89.2
  1
750
 40
3.0
 72
     5
 11
-90.1375
 21
89.2
  0
ENDBLK
  0
BLOCK
  2
*DIM_0025
 70
    65
 10
0.0
 20
0.0
  0
LINE
  8
寸法
  6
BYBLOCK
 62
     0
 10
-55.050388
 20
59.73238
 11
-55.050388
 21
88.840452
  0
LINE
  8
寸法
  6
BYBLOCK
 62
     0
 10
-80.050388
 20
88.840452
 11
-55.050388
 21
88.840452
  0
POINT
  8
寸法
 62
     0
 10
-55.050388
 20
88.840452
  0
TEXT
  7
TextStyle03
  8
寸法
  6
CONTINUOUS
 62
     0
 10
-70.0125
 20
89.2
  1
750
 40
3.0
 72
     5
 11
-65.1375
 21
89.2
  0
ENDBLK
  0
BLOCK
  2
*DIM_0026
 70
    65
 10
0.0
 20
0.0
  0
LINE
  8
寸法
  6
BYBLOCK
 62
     0
 10
-30.050388
 20
59.73238
 11
-30.050388
 21
88.840452
  0
LINE
  8
寸法
  6
BYBLOCK
 62
     0
 10
-55.050388
 20
88.840452
 11
-30.050388
 21
88.840452
  0
POINT
  8
寸法
 62
     0
 10
-30.050388
 20
88.840452
  0
TEXT
  7
TextStyle03
  8
寸法
  6
CONTINUOUS
 62
     0
 10
-45.0125
 20
89.2
  1
750
 40
3.0
 72
     5
 11
-40.1375
 21
89.2
  0
ENDBLK
  0
BLOCK
  2
*DIM_0027
 70
    65
 10
0.0
 20
0.0
  0
LINE
  8
寸法
  6
BYBLOCK
 62
     0
 10
-5.050388
 20
59.73238
 11
-5.050388
 21
88.840452
  0
LINE
  8
寸法
  6
BYBLOCK
 62
     0
 10
-30.050388
 20
88.840452
 11
-5.050388
 21
88.840452
  0
POINT
  8
寸法
 62
     0
 10
-5.050388
 20
88.840452
  0
TEXT
  7
TextStyle03
  8
寸法
  6
CONTINUOUS
 62
     0
 10
-20.0125
 20
89.2
  1
750
 40
3.0
 72
     5
 11
-15.1375
 21
89.2
  0
ENDBLK
  0
BLOCK
  2
*DIM_0028
 70
    65
 10
0.0
 20
0.0
  0
LINE
  8
寸法
  6
BYBLOCK
 62
     0
 10
19.949612
 20
59.73238
 11
19.949612
 21
88.840452
  0
LINE
  8
寸法
  6
BYBLOCK
 62
     0
 10
-5.050388
 20
88.840452
 11
19.949612
 21
88.840452
  0
POINT
  8
寸法
 62
     0
 10
19.949612
 20
88.840452
  0
TEXT
  7
TextStyle03
  8
寸法
  6
CONTINUOUS
 62
     0
 10
4.9875
 20
89.2
  1
750
 40
3.0
 72
     5
 11
9.8625
 21
89.2
  0
ENDBLK
  0
BLOCK
  2
*DIM_0029
 70
    65
 10
0.0
 20
0.0
  0
LINE
  8
寸法
  6
BYBLOCK
 62
     0
 10
44.949612
 20
59.73238
 11
44.949612
 21
88.840452
  0
LINE
  8
寸法
  6
BYBLOCK
 62
     0
 10
19.949612
 20
88.840452
 11
44.949612
 21
88.840452
  0
POINT
  8
寸法
 62
     0
 10
44.949612
 20
88.840452
  0
TEXT
  7
TextStyle03
  8
寸法
  6
CONTINUOUS
 62
     0
 10
29.9875
 20
89.2
  1
750
 40
3.0
 72
     5
 11
34.8625
 21
89.2
  0
ENDBLK
  0
BLOCK
  2
*DIM_0030
 70
    65
 10
0.0
 20
0.0
  0
LINE
  8
寸法
  6
CONTINUOUS
 10
116.022833
 20
-38.26648
 11
148.156165
 21
-38.26648
  0
POINT
  8
寸法
 10
116.022833
 20
-38.26648
  0
POINT
  8
寸法
 10
148.156165
 20
-38.26648
  0
TEXT
  7
TextStyle03
  8
寸法
  6
CONTINUOUS
 10
129.6375
 20
-37.9
  1
964
 40
3.0
 72
     5
 11
134.5125
 21
-37.9
  0
ENDBLK
  0
BLOCK
  2
*DIM_0031
 70
    65
 10
0.0
 20
0.0
  0
LINE
  8
寸法
  6
CONTINUOUS
 10
165.901415
 20
-49.867045
 11
165.901415
 21
-92.533713
  0
POINT
  8
寸法
 10
165.901415
 20
-49.867045
  0
POINT
  8
寸法
 10
165.901415
 20
-92.533713
  0
TEXT
  7
TextStyle03
  8
寸法
  6
CONTINUOUS
 10
165.5
 20
-74.50625
  1
1280
 40
3.0
 50
90.0
 72
     5
 11
165.5
 21
-67.94375
  0
ENDBLK
  0
BLOCK
  2
*DIM_0032
 70
    65
 10
0.0
 20
0.0
  0
LINE
  8
寸法
  6
BYBLOCK
 62
     0
 10
34.616278
 20
-51.291262
 11
69.252595
 21
-51.291262
  0
LINE
  8
寸法
  6
BYBLOCK
 62
     0
 10
69.252595
 20
-67.95793
 11
69.252595
 21
-51.291262
  0
POINT
  8
寸法
 62
     0
 10
69.252595
 20
-67.95793
  0
POINT
  8
寸法
 62
     0
 10
69.252595
 20
-51.291262
  0
TEXT
  7
TextStyle03
  8
寸法
  6
CONTINUOUS
 62
     0
 10
74.4
 20
-68.71875
  1
上昇452以上
 40
3.0
 50
90.0
 72
     5
 11
74.4
 21
-50.53125
  0
ENDBLK
  0
BLOCK
  2
*GRP_0033
 70
    65
 10
0.0
 20
0.0
  0
LINE
  8
ボルト／ビス
  6
CONTINUOUS
 10
142.81621
 20
57.39905
 11
142.349545
 21
57.39905
  0
LINE
  8
ボルト／ビス
  6
CONTINUOUS
 10
142.81621
 20
57.032385
 11
142.749545
 21
57.032385
  0
LINE
  8
ボルト／ビス
  6
CONTINUOUS
 10
142.749545
 20
57.032385
 11
142.749545
 21
57.765718
  0
LINE
  8
ボルト／ビス
  6
CONTINUOUS
 10
142.749545
 20
57.765718
 11
142.81621
 21
57.765718
  0
LINE
  8
ボルト／ビス
  6
CONTINUOUS
 10
142.81621
 20
57.032385
 11
142.81621
 21
57.765718
  0
LINE
  8
ボルト／ビス
  6
CONTINUOUS
 10
142.71621
 20
57.09905
 11
142.749545
 21
57.09905
  0
LINE
  8
ボルト／ビス
  6
CONTINUOUS
 10
142.71621
 20
57.09905
 11
142.71621
 21
57.69905
  0
LINE
  8
ボルト／ビス
  6
CONTINUOUS
 10
142.71621
 20
57.69905
 11
142.749545
 21
57.69905
  0
LINE
  8
ボルト／ビス
  6
CONTINUOUS
 62
    64
 10
142.51621
 20
57.238675
 11
142.527885
 21
57.2066
  0
ARC
  8
ボルト／ビス
  6
CONTINUOUS
 62
    64
 10
142.621187
 20
57.254715
 40
0.104978
 50
152.721967
 51
180.0
  0
ARC
  8
ボルト／ビス
  6
CONTINUOUS
 62
    64
 10
142.918611
 20
57.399052
 40
0.402402
 50
166.165002
 51
193.834985
  0
LINE
  8
ボルト／ビス
  6
CONTINUOUS
 62
    64
 10
142.51621
 20
57.559425
 11
142.527885
 21
57.5915
  0
ARC
  8
ボルト／ビス
  6
CONTINUOUS
 62
    64
 10
142.621187
 20
57.54339
 40
0.104978
 50
180.0
 51
207.278033
  0
LINE
  8
ボルト／ビス
  6
CONTINUOUS
 62
    64
 10
142.51621
 20
57.238675
 11
142.51621
 21
57.559425
  0
LINE
  8
ボルト／ビス
  6
CONTINUOUS
 62
    64
 10
142.527885
 20
57.5915
 11
142.649545
 21
57.5915
  0
LINE
  8
ボルト／ビス
  6
CONTINUOUS
 62
    64
 10
142.527885
 20
57.495275
 11
142.649545
 21
57.495275
  0
LINE
  8
ボルト／ビス
  6
CONTINUOUS
 62
    64
 10
142.527885
 20
57.2066
 11
142.649545
 21
57.2066
  0
LINE
  8
ボルト／ビス
  6
CONTINUOUS
 62
    64
 10
142.527885
 20
57.302825
 11
142.649545
 21
57.302825
  0
LINE
  8
ボルト／ビス
  6
CONTINUOUS
 10
142.649545
 20
57.2066
 11
142.649545
 21
57.5915
  0
LINE
  8
ボルト／ビス
  6
CONTINUOUS
 10
142.649545
 20
57.19905
 11
142.71621
 21
57.19905
  0
LINE
  8
ボルト／ビス
  6
CONTINUOUS
 10
142.649545
 20
57.19905
 11
142.649545
 21
57.59905
  0
LINE
  8
ボルト／ビス
  6
CONTINUOUS
 10
142.649545
 20
57.59905
 11
142.71621
 21
57.59905
  0
ENDBLK
  0
BLOCK
  2
*GRP_0034
 70
    65
 10
0.0
 20
0.0
  0
LINE
  8
ボルト／ビス
  6
CONTINUOUS
 10
142.81621
 20
12.73238
 11
142.349545
 21
12.73238
  0
LINE
  8
ボルト／ビス
  6
CONTINUOUS
 10
142.81621
 20
12.365715
 11
142.749545
 21
12.365715
  0
LINE
  8
ボルト／ビス
  6
CONTINUOUS
 10
142.749545
 20
12.365715
 11
142.749545
 21
13.099048
  0
LINE
  8
ボルト／ビス
  6
CONTINUOUS
 10
142.749545
 20
13.099048
 11
142.81621
 21
13.099048
  0
LINE
  8
ボルト／ビス
  6
CONTINUOUS
 10
142.81621
 20
12.365715
 11
142.81621
 21
13.099048
  0
LINE
  8
ボルト／ビス
  6
CONTINUOUS
 10
142.71621
 20
12.43238
 11
142.749545
 21
12.43238
  0
LINE
  8
ボルト／ビス
  6
CONTINUOUS
 10
142.71621
 20
12.43238
 11
142.71621
 21
13.03238
  0
LINE
  8
ボルト／ビス
  6
CONTINUOUS
 10
142.71621
 20
13.03238
 11
142.749545
 21
13.03238
  0
LINE
  8
ボルト／ビス
  6
CONTINUOUS
 62
    64
 10
142.51621
 20
12.572005
 11
142.527885
 21
12.53993
  0
ARC
  8
ボルト／ビス
  6
CONTINUOUS
 62
    64
 10
142.621187
 20
12.588045
 40
0.104978
 50
152.721967
 51
180.0
  0
ARC
  8
ボルト／ビス
  6
CONTINUOUS
 62
    64
 10
142.918611
 20
12.732382
 40
0.402402
 50
166.165002
 51
193.834985
  0
LINE
  8
ボルト／ビス
  6
CONTINUOUS
 62
    64
 10
142.51621
 20
12.892755
 11
142.527885
 21
12.92483
  0
ARC
  8
ボルト／ビス
  6
CONTINUOUS
 62
    64
 10
142.621187
 20
12.87672
 40
0.104978
 50
180.0
 51
207.278033
  0
LINE
  8
ボルト／ビス
  6
CONTINUOUS
 62
    64
 10
142.51621
 20
12.572005
 11
142.51621
 21
12.892755
  0
LINE
  8
ボルト／ビス
  6
CONTINUOUS
 62
    64
 10
142.527885
 20
12.92483
 11
142.649545
 21
12.92483
  0
LINE
  8
ボルト／ビス
  6
CONTINUOUS
 62
    64
 10
142.527885
 20
12.828605
 11
142.649545
 21
12.828605
  0
LINE
  8
ボルト／ビス
  6
CONTINUOUS
 62
    64
 10
142.527885
 20
12.53993
 11
142.649545
 21
12.53993
  0
LINE
  8
ボルト／ビス
  6
CONTINUOUS
 62
    64
 10
142.527885
 20
12.636155
 11
142.649545
 21
12.636155
  0
LINE
  8
ボルト／ビス
  6
CONTINUOUS
 10
142.649545
 20
12.53993
 11
142.649545
 21
12.92483
  0
LINE
  8
ボルト／ビス
  6
CONTINUOUS
 10
142.649545
 20
12.53238
 11
142.71621
 21
12.53238
  0
LINE
  8
ボルト／ビス
  6
CONTINUOUS
 10
142.649545
 20
12.53238
 11
142.649545
 21
12.93238
  0
LINE
  8
ボルト／ビス
  6
CONTINUOUS
 10
142.649545
 20
12.93238
 11
142.71621
 21
12.93238
  0
ENDBLK
  0
BLOCK
  2
*GRP_0035
 70
    65
 10
0.0
 20
0.0
  0
LINE
  8
ボルト／ビス
  6
CONTINUOUS
 10
53.949612
 20
-79.624597
 11
53.949612
 21
-79.157932
  0
LINE
  8
ボルト／ビス
  6
CONTINUOUS
 10
53.582948
 20
-79.624597
 11
53.582948
 21
-79.557932
  0
LINE
  8
ボルト／ビス
  6
CONTINUOUS
 10
53.582948
 20
-79.557932
 11
54.31628
 21
-79.557932
  0
LINE
  8
ボルト／ビス
  6
CONTINUOUS
 10
54.31628
 20
-79.557932
 11
54.31628
 21
-79.624597
  0
LINE
  8
ボルト／ビス
  6
CONTINUOUS
 10
53.582948
 20
-79.624597
 11
54.31628
 21
-79.624597
  0
LINE
  8
ボルト／ビス
  6
CONTINUOUS
 10
53.649612
 20
-79.524597
 11
53.649612
 21
-79.557932
  0
LINE
  8
ボルト／ビス
  6
CONTINUOUS
 10
53.649612
 20
-79.524597
 11
54.249612
 21
-79.524597
  0
LINE
  8
ボルト／ビス
  6
CONTINUOUS
 10
54.249612
 20
-79.524597
 11
54.249612
 21
-79.557932
  0
LINE
  8
ボルト／ビス
  6
CONTINUOUS
 62
    64
 10
53.789237
 20
-79.324597
 11
53.757163
 21
-79.336272
  0
ARC
  8
ボルト／ビス
  6
CONTINUOUS
 62
    64
 10
53.805277
 20
-79.429573
 40
0.104978
 50
62.721967
 51
90.0
  0
ARC
  8
ボルト／ビス
  6
CONTINUOUS
 62
    64
 10
53.949615
 20
-79.726997
 40
0.402402
 50
76.165002
 51
103.834985
  0
LINE
  8
ボルト／ビス
  6
CONTINUOUS
 62
    64
 10
54.109987
 20
-79.324597
 11
54.142063
 21
-79.336272
  0
ARC
  8
ボルト／ビス
  6
CONTINUOUS
 62
    64
 10
54.093952
 20
-79.429573
 40
0.104978
 50
90.0
 51
117.278033
  0
LINE
  8
ボルト／ビス
  6
CONTINUOUS
 62
    64
 10
53.789237
 20
-79.324597
 11
54.109987
 21
-79.324597
  0
LINE
  8
ボルト／ビス
  6
CONTINUOUS
 62
    64
 10
54.142063
 20
-79.336272
 11
54.142063
 21
-79.457932
  0
LINE
  8
ボルト／ビス
  6
CONTINUOUS
 62
    64
 10
54.045838
 20
-79.336272
 11
54.045838
 21
-79.457932
  0
LINE
  8
ボルト／ビス
  6
CONTINUOUS
 62
    64
 10
53.757163
 20
-79.336272
 11
53.757163
 21
-79.457932
  0
LINE
  8
ボルト／ビス
  6
CONTINUOUS
 62
    64
 10
53.853387
 20
-79.336272
 11
53.853387
 21
-79.457932
  0
LINE
  8
ボルト／ビス
  6
CONTINUOUS
 10
53.757163
 20
-79.457932
 11
54.142063
 21
-79.457932
  0
LINE
  8
ボルト／ビス
  6
CONTINUOUS
 10
53.749612
 20
-79.457932
 11
53.749612
 21
-79.524597
  0
LINE
  8
ボルト／ビス
  6
CONTINUOUS
 10
53.749612
 20
-79.457932
 11
54.149612
 21
-79.457932
  0
LINE
  8
ボルト／ビス
  6
CONTINUOUS
 10
54.149612
 20
-79.457932
 11
54.149612
 21
-79.524597
  0
ENDBLK
  0
BLOCK
  2
*GRP_0036
 70
    65
 10
0.0
 20
0.0
  0
LINE
  8
ボルト／ビス
  6
DOT
 10
53.949612
 20
-62.95793
 11
53.949612
 21
-62.491265
  0
LINE
  8
ボルト／ビス
  6
DOT
 10
53.582948
 20
-62.95793
 11
53.582948
 21
-62.891265
  0
LINE
  8
ボルト／ビス
  6
DOT
 10
53.582948
 20
-62.891265
 11
54.31628
 21
-62.891265
  0
LINE
  8
ボルト／ビス
  6
DOT
 10
54.31628
 20
-62.891265
 11
54.31628
 21
-62.95793
  0
LINE
  8
ボルト／ビス
  6
DOT
 10
53.582948
 20
-62.95793
 11
54.31628
 21
-62.95793
  0
LINE
  8
ボルト／ビス
  6
DOT
 10
53.649612
 20
-62.85793
 11
53.649612
 21
-62.891265
  0
LINE
  8
ボルト／ビス
  6
DOT
 10
53.649612
 20
-62.85793
 11
54.249612
 21
-62.85793
  0
LINE
  8
ボルト／ビス
  6
DOT
 10
54.249612
 20
-62.85793
 11
54.249612
 21
-62.891265
  0
LINE
  8
ボルト／ビス
  6
DOT
 62
    64
 10
53.789237
 20
-62.65793
 11
53.757163
 21
-62.669605
  0
ARC
  8
ボルト／ビス
  6
DOT
 62
    64
 10
53.805275
 20
-62.762907
 40
0.104978
 50
62.721967
 51
90.0
  0
ARC
  8
ボルト／ビス
  6
DOT
 62
    64
 10
53.949613
 20
-63.060331
 40
0.402402
 50
76.165002
 51
103.834985
  0
LINE
  8
ボルト／ビス
  6
DOT
 62
    64
 10
54.109987
 20
-62.65793
 11
54.142063
 21
-62.669605
  0
ARC
  8
ボルト／ビス
  6
DOT
 62
    64
 10
54.09395
 20
-62.762907
 40
0.104978
 50
90.0
 51
117.278033
  0
LINE
  8
ボルト／ビス
  6
DOT
 62
    64
 10
53.789237
 20
-62.65793
 11
54.109987
 21
-62.65793
  0
LINE
  8
ボルト／ビス
  6
DOT
 62
    64
 10
54.142063
 20
-62.669605
 11
54.142063
 21
-62.791265
  0
LINE
  8
ボルト／ビス
  6
DOT
 62
    64
 10
54.045838
 20
-62.669605
 11
54.045838
 21
-62.791265
  0
LINE
  8
ボルト／ビス
  6
DOT
 62
    64
 10
53.757163
 20
-62.669605
 11
53.757163
 21
-62.791265
  0
LINE
  8
ボルト／ビス
  6
DOT
 62
    64
 10
53.853387
 20
-62.669605
 11
53.853387
 21
-62.791265
  0
LINE
  8
ボルト／ビス
  6
DOT
 10
53.757163
 20
-62.791265
 11
54.142063
 21
-62.791265
  0
LINE
  8
ボルト／ビス
  6
DOT
 10
53.749612
 20
-62.791265
 11
53.749612
 21
-62.85793
  0
LINE
  8
ボルト／ビス
  6
DOT
 10
53.749612
 20
-62.791265
 11
54.149612
 21
-62.791265
  0
LINE
  8
ボルト／ビス
  6
DOT
 10
54.149612
 20
-62.791265
 11
54.149612
 21
-62.85793
  0
ENDBLK
  0
BLOCK
  2
*GRP_0037
 70
    65
 10
0.0
 20
0.0
  0
LINE
  8
ボルト／ビス
  6
CONTINUOUS
 10
-114.050388
 20
-79.624597
 11
-114.050388
 21
-79.157932
  0
LINE
  8
ボルト／ビス
  6
CONTINUOUS
 10
-114.417053
 20
-79.624597
 11
-114.417053
 21
-79.557932
  0
LINE
  8
ボルト／ビス
  6
CONTINUOUS
 10
-114.417053
 20
-79.557932
 11
-113.68372
 21
-79.557932
  0
LINE
  8
ボルト／ビス
  6
CONTINUOUS
 10
-113.68372
 20
-79.557932
 11
-113.68372
 21
-79.624597
  0
LINE
  8
ボルト／ビス
  6
CONTINUOUS
 10
-114.417053
 20
-79.624597
 11
-113.68372
 21
-79.624597
  0
LINE
  8
ボルト／ビス
  6
CONTINUOUS
 10
-114.350388
 20
-79.524597
 11
-114.350388
 21
-79.557932
  0
LINE
  8
ボルト／ビス
  6
CONTINUOUS
 10
-114.350388
 20
-79.524597
 11
-113.750388
 21
-79.524597
  0
LINE
  8
ボルト／ビス
  6
CONTINUOUS
 10
-113.750388
 20
-79.524597
 11
-113.750388
 21
-79.557932
  0
LINE
  8
ボルト／ビス
  6
CONTINUOUS
 62
    64
 10
-114.210762
 20
-79.324597
 11
-114.242838
 21
-79.336272
  0
ARC
  8
ボルト／ビス
  6
CONTINUOUS
 62
    64
 10
-114.194723
 20
-79.429573
 40
0.104978
 50
62.721967
 51
90.0
  0
ARC
  8
ボルト／ビス
  6
CONTINUOUS
 62
    64
 10
-114.050385
 20
-79.726997
 40
0.402402
 50
76.165002
 51
103.834985
  0
LINE
  8
ボルト／ビス
  6
CONTINUOUS
 62
    64
 10
-113.890013
 20
-79.324597
 11
-113.857938
 21
-79.336272
  0
ARC
  8
ボルト／ビス
  6
CONTINUOUS
 62
    64
 10
-113.906048
 20
-79.429573
 40
0.104978
 50
90.0
 51
117.278033
  0
LINE
  8
ボルト／ビス
  6
CONTINUOUS
 62
    64
 10
-114.210762
 20
-79.324597
 11
-113.890013
 21
-79.324597
  0
LINE
  8
ボルト／ビス
  6
CONTINUOUS
 62
    64
 10
-113.857938
 20
-79.336272
 11
-113.857938
 21
-79.457932
  0
LINE
  8
ボルト／ビス
  6
CONTINUOUS
 62
    64
 10
-113.954162
 20
-79.336272
 11
-113.954162
 21
-79.457932
  0
LINE
  8
ボルト／ビス
  6
CONTINUOUS
 62
    64
 10
-114.242838
 20
-79.336272
 11
-114.242838
 21
-79.457932
  0
LINE
  8
ボルト／ビス
  6
CONTINUOUS
 62
    64
 10
-114.146612
 20
-79.336272
 11
-114.146612
 21
-79.457932
  0
LINE
  8
ボルト／ビス
  6
CONTINUOUS
 10
-114.242838
 20
-79.457932
 11
-113.857938
 21
-79.457932
  0
LINE
  8
ボルト／ビス
  6
CONTINUOUS
 10
-114.250388
 20
-79.457932
 11
-114.250388
 21
-79.524597
  0
LINE
  8
ボルト／ビス
  6
CONTINUOUS
 10
-114.250388
 20
-79.457932
 11
-113.850388
 21
-79.457932
  0
LINE
  8
ボルト／ビス
  6
CONTINUOUS
 10
-113.850388
 20
-79.457932
 11
-113.850388
 21
-79.524597
  0
ENDBLK
  0
BLOCK
  2
*GRP_0038
 70
    65
 10
0.0
 20
0.0
  0
LINE
  8
ボルト／ビス
  6
DOT
 10
-114.050388
 20
-62.95793
 11
-114.050388
 21
-62.491265
  0
LINE
  8
ボルト／ビス
  6
DOT
 10
-114.417053
 20
-62.95793
 11
-114.417053
 21
-62.891265
  0
LINE
  8
ボルト／ビス
  6
DOT
 10
-114.417053
 20
-62.891265
 11
-113.68372
 21
-62.891265
  0
LINE
  8
ボルト／ビス
  6
DOT
 10
-113.68372
 20
-62.891265
 11
-113.68372
 21
-62.95793
  0
LINE
  8
ボルト／ビス
  6
DOT
 10
-114.417053
 20
-62.95793
 11
-113.68372
 21
-62.95793
  0
LINE
  8
ボルト／ビス
  6
DOT
 10
-114.350388
 20
-62.85793
 11
-114.350388
 21
-62.891265
  0
LINE
  8
ボルト／ビス
  6
DOT
 10
-114.350388
 20
-62.85793
 11
-113.750388
 21
-62.85793
  0
LINE
  8
ボルト／ビス
  6
DOT
 10
-113.750388
 20
-62.85793
 11
-113.750388
 21
-62.891265
  0
LINE
  8
ボルト／ビス
  6
DOT
 62
    64
 10
-114.210762
 20
-62.65793
 11
-114.242838
 21
-62.669605
  0
ARC
  8
ボルト／ビス
  6
DOT
 62
    64
 10
-114.194725
 20
-62.762907
 40
0.104978
 50
62.721967
 51
90.0
  0
ARC
  8
ボルト／ビス
  6
DOT
 62
    64
 10
-114.050387
 20
-63.060331
 40
0.402402
 50
76.165002
 51
103.834985
  0
LINE
  8
ボルト／ビス
  6
DOT
 62
    64
 10
-113.890013
 20
-62.65793
 11
-113.857938
 21
-62.669605
  0
ARC
  8
ボルト／ビス
  6
DOT
 62
    64
 10
-113.90605
 20
-62.762907
 40
0.104978
 50
90.0
 51
117.278033
  0
LINE
  8
ボルト／ビス
  6
DOT
 62
    64
 10
-114.210762
 20
-62.65793
 11
-113.890013
 21
-62.65793
  0
LINE
  8
ボルト／ビス
  6
DOT
 62
    64
 10
-113.857938
 20
-62.669605
 11
-113.857938
 21
-62.791265
  0
LINE
  8
ボルト／ビス
  6
DOT
 62
    64
 10
-113.954162
 20
-62.669605
 11
-113.954162
 21
-62.791265
  0
LINE
  8
ボルト／ビス
  6
DOT
 62
    64
 10
-114.242838
 20
-62.669605
 11
-114.242838
 21
-62.791265
  0
LINE
  8
ボルト／ビス
  6
DOT
 62
    64
 10
-114.146612
 20
-62.669605
 11
-114.146612
 21
-62.791265
  0
LINE
  8
ボルト／ビス
  6
DOT
 10
-114.242838
 20
-62.791265
 11
-113.857938
 21
-62.791265
  0
LINE
  8
ボルト／ビス
  6
DOT
 10
-114.250388
 20
-62.791265
 11
-114.250388
 21
-62.85793
  0
LINE
  8
ボルト／ビス
  6
DOT
 10
-114.250388
 20
-62.791265
 11
-113.850388
 21
-62.791265
  0
LINE
  8
ボルト／ビス
  6
DOT
 10
-113.850388
 20
-62.791265
 11
-113.850388
 21
-62.85793
  0
ENDBLK
  0
ENDSEC
  0
SECTION
  2
ENTITIES
  0
POLYLINE
  8
通り芯
  6
CONTINUOUS
 66
     1
 70
     1
  0
VERTEX
  8
通り芯
 10
-210.0
 20
-148.5
  0
VERTEX
  8
通り芯
 10
210.0
 20
-148.5
  0
VERTEX
  8
通り芯
 10
210.0
 20
148.5
  0
VERTEX
  8
通り芯
 10
-210.0
 20
148.5
  0
SEQEND
  0
INSERT
  2
*GRP_0001
  8
型材断面
  6
CONTINUOUS
 10
0.0
 20
0.0
  0
LINE
  8
型材断面
  6
DASHDOT
 10
53.282945
 20
-87.251428
 11
53.282945
 21
56.73238
  0
LINE
  8
型材断面
  6
DASHDOT
 10
-30.050388
 20
-87.251428
 11
-30.050388
 21
56.73238
  0
LINE
  8
型材断面
  6
DASHDOT
 10
-113.383723
 20
-87.251428
 11
-113.383723
 21
56.73238
  0
LINE
  8
型材断面
  6
DASHDOT
 10
150.959707
 20
56.73238
 11
-113.383723
 21
56.73238
  0
LINE
  8
型材断面
  6
DASHDOT
 10
150.959707
 20
35.065715
 11
-113.383723
 21
35.065715
  0
LINE
  8
型材断面
  6
DASHDOT
 10
150.959707
 20
13.399048
 11
-113.383723
 21
13.399048
  0
POLYLINE
  8
型材断面
  6
CONTINUOUS
 66
     1
 70
     1
  0
VERTEX
  8
型材断面
 10
-20.921443
 20
66.508305
  0
VERTEX
  8
型材断面
 10
-39.693372
 20
66.508305
  0
VERTEX
  8
型材断面
 10
-39.693372
 20
71.245147
  0
VERTEX
  8
型材断面
 10
-20.921443
 20
71.245147
  0
SEQEND
  0
POLYLINE
  8
型材断面
  6
CONTINUOUS
 66
     1
 70
     1
  0
VERTEX
  8
型材断面
 10
-20.921443
 20
3.623125
  0
VERTEX
  8
型材断面
 10
-39.693372
 20
3.623125
  0
VERTEX
  8
型材断面
 10
-39.693372
 20
-1.113717
  0
VERTEX
  8
型材断面
 10
-20.921443
 20
-1.113717
  0
SEQEND
  0
LINE
  8
型材断面
  6
CONTINUOUS
 10
-116.013853
 20
35.065715
 11
-118.60436
 21
36.561345
  0
LINE
  8
型材断面
  6
CONTINUOUS
 10
-116.013853
 20
35.065715
 11
-118.60436
 21
33.570085
  0
LINE
  8
型材断面
  6
CONTINUOUS
 10
-118.60436
 20
33.570085
 11
-118.60436
 21
36.561345
  0
LINE
  8
型材断面
  6
CONTINUOUS
 10
-96.717055
 20
59.36251
 11
-98.212685
 21
61.953017
  0
LINE
  8
型材断面
  6
CONTINUOUS
 10
-96.717055
 20
59.36251
 11
-95.221425
 21
61.953017
  0
LINE
  8
型材断面
  6
CONTINUOUS
 10
-95.221425
 20
61.953017
 11
-98.212685
 21
61.953017
  0
LINE
  8
型材断面
  6
CONTINUOUS
 10
-154.23593
 20
94.709852
 11
-153.639875
 21
92.119345
  0
LINE
  8
型材断面
  6
CONTINUOUS
 10
-154.23593
 20
94.709852
 11
-154.831988
 21
92.119345
  0
LINE
  8
型材断面
  6
CONTINUOUS
 10
-154.831988
 20
92.119345
 11
-153.639875
 21
92.119345
  0
LINE
  8
型材断面
  6
CONTINUOUS
 10
-160.258518
 20
88.840452
 11
-114.01674
 21
88.840452
  0
LINE
  8
型材断面
  6
CONTINUOUS
 10
-154.23593
 20
101.239727
 11
-155.73156
 21
98.64922
  0
LINE
  8
型材断面
  6
CONTINUOUS
 10
-154.23593
 20
101.239727
 11
-152.7403
 21
98.64922
  0
LINE
  8
型材断面
  6
CONTINUOUS
 10
-152.7403
 20
98.64922
 11
-155.73156
 21
98.64922
  0
LINE
  8
型材断面
  6
CONTINUOUS
 10
-160.258518
 20
97.710625
 11
-114.01674
 21
97.710625
  0
LINE
  8
型材断面
  6
CONTINUOUS
 10
-160.258518
 20
83.05242
 11
-114.01674
 21
83.05242
  0
LINE
  8
型材断面
  6
CONTINUOUS
 10
-96.717055
 20
10.76892
 11
-98.212685
 21
8.178413
  0
LINE
  8
型材断面
  6
CONTINUOUS
 10
-96.717055
 20
10.76892
 11
-95.221425
 21
8.178413
  0
LINE
  8
型材断面
  6
CONTINUOUS
 10
-95.221425
 20
8.178413
 11
-98.212685
 21
8.178413
  0
LINE
  8
型材断面
  6
CONTINUOUS
 10
55.913077
 20
35.065715
 11
58.503585
 21
36.561345
  0
LINE
  8
型材断面
  6
CONTINUOUS
 10
55.913077
 20
35.065715
 11
58.503585
 21
33.570085
  0
LINE
  8
型材断面
  6
CONTINUOUS
 10
58.503585
 20
33.570085
 11
58.503585
 21
36.561345
  0
LINE
  8
型材断面
  6
CONTINUOUS
 10
36.61628
 20
59.36251
 11
38.11191
 21
61.953017
  0
LINE
  8
型材断面
  6
CONTINUOUS
 10
36.61628
 20
59.36251
 11
35.12065
 21
61.953017
  0
LINE
  8
型材断面
  6
CONTINUOUS
 10
35.12065
 20
61.953017
 11
38.11191
 21
61.953017
  0
LINE
  8
型材断面
  6
CONTINUOUS
 10
36.61628
 20
10.76892
 11
38.11191
 21
8.178413
  0
LINE
  8
型材断面
  6
CONTINUOUS
 10
36.61628
 20
10.76892
 11
35.12065
 21
8.178413
  0
LINE
  8
型材断面
  6
CONTINUOUS
 10
35.12065
 20
8.178413
 11
38.11191
 21
8.178413
  0
LINE
  8
型材断面
  6
CONTINUOUS
 10
-30.050388
 20
59.36251
 11
-31.546018
 21
61.953017
  0
LINE
  8
型材断面
  6
CONTINUOUS
 10
-30.050388
 20
59.36251
 11
-28.554757
 21
61.953017
  0
LINE
  8
型材断面
  6
CONTINUOUS
 10
-28.554757
 20
61.953017
 11
-31.546018
 21
61.953017
  0
LINE
  8
型材断面
  6
CONTINUOUS
 10
-30.050388
 20
10.76892
 11
-31.546018
 21
8.178413
  0
LINE
  8
型材断面
  6
CONTINUOUS
 10
-30.050388
 20
10.76892
 11
-28.554757
 21
8.178413
  0
LINE
  8
型材断面
  6
CONTINUOUS
 10
-28.554757
 20
8.178413
 11
-31.546018
 21
8.178413
  0
LINE
  8
型材断面
  6
DASHDOT
 10
143.849495
 20
13.399045
 11
149.86956
 21
13.399045
  0
LINE
  8
型材断面
  6
CONTINUOUS
 62
    47
 10
146.132827
 20
12.00238
 11
146.132827
 21
12.78238
  0
LINE
  8
型材断面
  6
CONTINUOUS
 10
144.299495
 20
11.90238
 11
143.849495
 21
11.90238
  0
LINE
  8
型材断面
  6
CONTINUOUS
 62
    47
 10
146.972187
 20
11.119045
 11
146.638853
 21
11.119045
  0
LINE
  8
型材断面
  6
CONTINUOUS
 62
    47
 10
146.638853
 20
11.119045
 11
146.538853
 21
11.90238
  0
LINE
  8
型材断面
  6
CONTINUOUS
 62
    47
 10
146.132827
 20
11.90238
 11
146.538853
 21
11.90238
  0
LINE
  8
型材断面
  6
CONTINUOUS
 62
    47
 10
146.132827
 20
11.43238
 11
144.299495
 21
11.43238
  0
LINE
  8
型材断面
  6
CONTINUOUS
 62
    47
 10
150.099495
 20
11.999045
 11
149.599495
 21
11.999045
  0
LINE
  8
型材断面
  6
CONTINUOUS
 62
    47
 10
149.599495
 20
11.43238
 11
146.972187
 21
11.43238
  0
LINE
  8
型材断面
  6
CONTINUOUS
 10
144.299495
 20
11.43238
 11
144.299495
 21
35.065715
  0
LINE
  8
型材断面
  6
CONTINUOUS
 62
    47
 10
146.132827
 20
11.43238
 11
146.132827
 21
35.065715
  0
LINE
  8
型材断面
  6
CONTINUOUS
 10
146.538853
 20
11.90238
 11
146.538853
 21
35.065715
  0
LINE
  8
型材断面
  6
CONTINUOUS
 10
146.638853
 20
11.119045
 11
146.638853
 21
35.065715
  0
LINE
  8
型材断面
  6
CONTINUOUS
 62
    47
 10
146.972187
 20
11.119045
 11
146.972187
 21
35.065715
  0
LINE
  8
型材断面
  6
CONTINUOUS
 62
    47
 10
149.599495
 20
11.43238
 11
149.599495
 21
35.065715
  0
LINE
  8
型材断面
  6
CONTINUOUS
 62
    47
 10
150.099495
 20
11.999045
 11
150.099495
 21
35.065715
  0
LINE
  8
型材断面
  6
CONTINUOUS
 10
144.299495
 20
58.22905
 11
143.849495
 21
58.22905
  0
LINE
  8
型材断面
  6
CONTINUOUS
 62
    47
 10
146.972187
 20
59.012385
 11
146.638853
 21
59.012385
  0
LINE
  8
型材断面
  6
CONTINUOUS
 62
    47
 10
146.638853
 20
59.012385
 11
146.538853
 21
58.22905
  0
LINE
  8
型材断面
  6
CONTINUOUS
 62
    47
 10
146.132827
 20
58.22905
 11
146.538853
 21
58.22905
  0
LINE
  8
型材断面
  6
CONTINUOUS
 62
    47
 10
146.132827
 20
58.69905
 11
144.299495
 21
58.69905
  0
LINE
  8
型材断面
  6
CONTINUOUS
 62
    47
 10
150.099495
 20
58.132385
 11
149.599495
 21
58.132385
  0
LINE
  8
型材断面
  6
CONTINUOUS
 62
    47
 10
149.599495
 20
58.69905
 11
146.972187
 21
58.69905
  0
LINE
  8
型材断面
  6
CONTINUOUS
 10
144.299495
 20
58.69905
 11
144.299495
 21
35.065715
  0
LINE
  8
型材断面
  6
CONTINUOUS
 62
    47
 10
146.132827
 20
58.69905
 11
146.132827
 21
35.065715
  0
LINE
  8
型材断面
  6
CONTINUOUS
 10
146.538853
 20
58.22905
 11
146.538853
 21
35.065715
  0
LINE
  8
型材断面
  6
CONTINUOUS
 10
146.638853
 20
59.012385
 11
146.638853
 21
35.065715
  0
LINE
  8
型材断面
  6
CONTINUOUS
 62
    47
 10
146.972187
 20
59.012385
 11
146.972187
 21
35.065715
  0
LINE
  8
型材断面
  6
CONTINUOUS
 62
    47
 10
149.599495
 20
58.69905
 11
149.599495
 21
35.065715
  0
LINE
  8
型材断面
  6
CONTINUOUS
 62
    47
 10
150.099495
 20
58.132385
 11
150.099495
 21
35.065715
  0
LINE
  8
型材断面
  6
CONTINUOUS
 62
    47
 10
54.679613
 20
-82.941215
 11
53.899612
 21
-82.941215
  0
LINE
  8
型材断面
  6
CONTINUOUS
 10
54.779613
 20
-81.107882
 11
54.779613
 21
-80.657882
  0
LINE
  8
型材断面
  6
CONTINUOUS
 62
    47
 10
55.562947
 20
-83.780575
 11
55.562947
 21
-83.44724
  0
LINE
  8
型材断面
  6
CONTINUOUS
 62
    47
 10
55.562947
 20
-83.44724
 11
54.779613
 21
-83.34724
  0
LINE
  8
型材断面
  6
CONTINUOUS
 62
    47
 10
54.779613
 20
-82.941215
 11
54.779613
 21
-83.34724
  0
LINE
  8
型材断面
  6
CONTINUOUS
 62
    47
 10
55.249612
 20
-82.941215
 11
55.249612
 21
-81.107882
  0
LINE
  8
型材断面
  6
CONTINUOUS
 62
    47
 10
54.682948
 20
-86.907882
 11
54.682948
 21
-86.407882
  0
LINE
  8
型材断面
  6
CONTINUOUS
 62
    47
 10
55.249612
 20
-86.407882
 11
55.249612
 21
-83.780575
  0
LINE
  8
型材断面
  6
CONTINUOUS
 10
55.349612
 20
11.33238
 11
55.562947
 21
11.119045
  0
LINE
  8
型材断面
  6
CONTINUOUS
 10
55.562947
 20
11.119045
 11
55.562947
 21
35.065715
  0
LINE
  8
型材断面
  6
CONTINUOUS
 10
55.249612
 20
-81.107882
 11
-30.050388
 21
-81.107882
  0
LINE
  8
型材断面
  6
CONTINUOUS
 62
    47
 10
55.562947
 20
-83.780575
 11
-30.050388
 21
-83.780575
  0
LINE
  8
型材断面
  6
CONTINUOUS
 10
55.562947
 20
-83.44724
 11
-30.050388
 21
-83.44724
  0
LINE
  8
型材断面
  6
CONTINUOUS
 62
    47
 10
55.249612
 20
-82.941215
 11
-30.050388
 21
-82.941215
  0
LINE
  8
型材断面
  6
CONTINUOUS
 10
54.779613
 20
-83.34724
 11
-30.050388
 21
-83.34724
  0
LINE
  8
型材断面
  6
CONTINUOUS
 62
    47
 10
55.249612
 20
-86.407882
 11
-30.050388
 21
-86.407882
  0
LINE
  8
型材断面
  6
CONTINUOUS
 62
    47
 10
54.682948
 20
-86.907882
 11
-30.050388
 21
-86.907882
  0
LINE
  8
型材断面
  6
CONTINUOUS
 62
    47
 10
-114.780387
 20
-82.941215
 11
-114.000388
 21
-82.941215
  0
LINE
  8
型材断面
  6
CONTINUOUS
 10
-114.880387
 20
-81.107882
 11
-114.880387
 21
-80.657882
  0
LINE
  8
型材断面
  6
CONTINUOUS
 62
    47
 10
-115.663723
 20
-83.780575
 11
-115.663723
 21
-83.44724
  0
LINE
  8
型材断面
  6
CONTINUOUS
 62
    47
 10
-115.663723
 20
-83.44724
 11
-114.880387
 21
-83.34724
  0
LINE
  8
型材断面
  6
CONTINUOUS
 62
    47
 10
-114.880387
 20
-82.941215
 11
-114.880387
 21
-83.34724
  0
LINE
  8
型材断面
  6
CONTINUOUS
 62
    47
 10
-115.350388
 20
-82.941215
 11
-115.350388
 21
-81.107882
  0
LINE
  8
型材断面
  6
CONTINUOUS
 62
    47
 10
-114.783723
 20
-86.907882
 11
-114.783723
 21
-86.407882
  0
LINE
  8
型材断面
  6
CONTINUOUS
 62
    47
 10
-115.350388
 20
-86.407882
 11
-115.350388
 21
-83.780575
  0
LINE
  8
型材断面
  6
CONTINUOUS
 10
-115.350388
 20
-81.107882
 11
-30.050388
 21
-81.107882
  0
LINE
  8
型材断面
  6
CONTINUOUS
 62
    47
 10
-115.663723
 20
-83.780575
 11
-30.050388
 21
-83.780575
  0
LINE
  8
型材断面
  6
CONTINUOUS
 10
-115.663723
 20
-83.44724
 11
-30.050388
 21
-83.44724
  0
LINE
  8
型材断面
  6
CONTINUOUS
 62
    47
 10
-115.350388
 20
-82.941215
 11
-30.050388
 21
-82.941215
  0
LINE
  8
型材断面
  6
CONTINUOUS
 10
-114.880387
 20
-83.34724
 11
-30.050388
 21
-83.34724
  0
LINE
  8
型材断面
  6
CONTINUOUS
 62
    47
 10
-115.350388
 20
-86.407882
 11
-30.050388
 21
-86.407882
  0
LINE
  8
型材断面
  6
CONTINUOUS
 62
    47
 10
-114.783723
 20
-86.907882
 11
-30.050388
 21
-86.907882
  0
LINE
  8
型材断面
  6
DOT
 62
    47
 10
54.679613
 20
-66.274547
 11
53.899612
 21
-66.274547
  0
LINE
  8
型材断面
  6
DOT
 10
54.779613
 20
-64.441215
 11
54.779613
 21
-63.991215
  0
LINE
  8
型材断面
  6
DOT
 62
    47
 10
55.562947
 20
-67.113908
 11
55.562947
 21
-66.780573
  0
LINE
  8
型材断面
  6
DOT
 62
    47
 10
55.562947
 20
-66.780573
 11
54.779613
 21
-66.680573
  0
LINE
  8
型材断面
  6
DOT
 62
    47
 10
54.779613
 20
-66.274547
 11
54.779613
 21
-66.680573
  0
LINE
  8
型材断面
  6
DOT
 62
    47
 10
55.249612
 20
-66.274547
 11
55.249612
 21
-64.441215
  0
LINE
  8
型材断面
  6
DOT
 10
55.249612
 20
-64.441215
 11
-30.050388
 21
-64.441215
  0
LINE
  8
型材断面
  6
DOT
 62
    47
 10
55.562947
 20
-67.113908
 11
-30.050388
 21
-67.113908
  0
LINE
  8
型材断面
  6
DOT
 10
55.562947
 20
-66.780573
 11
-30.050388
 21
-66.780573
  0
LINE
  8
型材断面
  6
DOT
 62
    47
 10
55.249612
 20
-66.274547
 11
-30.050388
 21
-66.274547
  0
LINE
  8
型材断面
  6
DOT
 10
54.779613
 20
-66.680573
 11
-30.050388
 21
-66.680573
  0
LINE
  8
型材断面
  6
DOT
 62
    47
 10
-114.780387
 20
-66.274547
 11
-114.000388
 21
-66.274547
  0
LINE
  8
型材断面
  6
DOT
 10
-114.880387
 20
-64.441215
 11
-114.880387
 21
-63.991215
  0
LINE
  8
型材断面
  6
DOT
 62
    47
 10
-115.663723
 20
-67.113908
 11
-115.663723
 21
-66.780573
  0
LINE
  8
型材断面
  6
DOT
 62
    47
 10
-115.663723
 20
-66.780573
 11
-114.880387
 21
-66.680573
  0
LINE
  8
型材断面
  6
DOT
 62
    47
 10
-114.880387
 20
-66.274547
 11
-114.880387
 21
-66.680573
  0
LINE
  8
型材断面
  6
DOT
 62
    47
 10
-115.350388
 20
-66.274547
 11
-115.350388
 21
-64.441215
  0
LINE
  8
型材断面
  6
DOT
 10
-115.350388
 20
-64.441215
 11
-30.050388
 21
-64.441215
  0
LINE
  8
型材断面
  6
DOT
 62
    47
 10
-115.663723
 20
-67.113908
 11
-30.050388
 21
-67.113908
  0
LINE
  8
型材断面
  6
DOT
 10
-115.663723
 20
-66.780573
 11
-30.050388
 21
-66.780573
  0
LINE
  8
型材断面
  6
DOT
 62
    47
 10
-115.350388
 20
-66.274547
 11
-30.050388
 21
-66.274547
  0
LINE
  8
型材断面
  6
DOT
 10
-114.880387
 20
-66.680573
 11
-30.050388
 21
-66.680573
  0
LINE
  8
型材断面
  6
CONTINUOUS
 10
55.562947
 20
11.119045
 11
-30.050388
 21
11.119045
  0
LINE
  8
型材断面
  6
CONTINUOUS
 10
55.349612
 20
58.79905
 11
55.562947
 21
59.012385
  0
LINE
  8
型材断面
  6
CONTINUOUS
 10
55.562947
 20
59.012385
 11
55.562947
 21
35.065715
  0
LINE
  8
型材断面
  6
CONTINUOUS
 10
55.562947
 20
59.012385
 11
-30.050388
 21
59.012385
  0
LINE
  8
型材断面
  6
CONTINUOUS
 10
-115.450388
 20
58.79905
 11
-115.663723
 21
59.012385
  0
LINE
  8
型材断面
  6
CONTINUOUS
 10
-115.663723
 20
59.012385
 11
-115.663723
 21
35.065715
  0
LINE
  8
型材断面
  6
CONTINUOUS
 10
-115.663723
 20
59.012385
 11
-30.050388
 21
59.012385
  0
LINE
  8
型材断面
  6
CONTINUOUS
 10
-115.450388
 20
11.33238
 11
-115.663723
 21
11.119045
  0
LINE
  8
型材断面
  6
CONTINUOUS
 10
-115.663723
 20
11.119045
 11
-115.663723
 21
35.065715
  0
LINE
  8
型材断面
  6
CONTINUOUS
 10
-115.663723
 20
11.119045
 11
-30.050388
 21
11.119045
  0
LINE
  8
型材断面
  6
CONTINUOUS
 10
55.913073
 20
52.83238
 11
58.50358
 21
52.236322
  0
LINE
  8
型材断面
  6
CONTINUOUS
 10
55.913073
 20
52.83238
 11
58.50358
 21
53.428437
  0
LINE
  8
型材断面
  6
CONTINUOUS
 10
58.50358
 20
53.428437
 11
58.50358
 21
52.236322
  0
LINE
  8
型材断面
  6
CONTINUOUS
 10
55.913073
 20
17.29905
 11
58.50358
 21
17.895108
  0
LINE
  8
型材断面
  6
CONTINUOUS
 10
55.913073
 20
17.29905
 11
58.50358
 21
16.702993
  0
LINE
  8
型材断面
  6
CONTINUOUS
 10
58.50358
 20
16.702993
 11
58.50358
 21
17.895108
  0
LINE
  8
型材断面
  6
CONTINUOUS
 10
-116.013847
 20
52.83238
 11
-118.604355
 21
52.236322
  0
LINE
  8
型材断面
  6
CONTINUOUS
 10
-116.013847
 20
52.83238
 11
-118.604355
 21
53.428437
  0
LINE
  8
型材断面
  6
CONTINUOUS
 10
-118.604355
 20
53.428437
 11
-118.604355
 21
52.236322
  0
LINE
  8
型材断面
  6
CONTINUOUS
 10
-116.013847
 20
17.29905
 11
-118.604355
 21
17.895108
  0
LINE
  8
型材断面
  6
CONTINUOUS
 10
-116.013847
 20
17.29905
 11
-118.604355
 21
16.702993
  0
LINE
  8
型材断面
  6
CONTINUOUS
 10
-118.604355
 20
16.702993
 11
-118.604355
 21
17.895108
  0
INSERT
  2
*GRP_0017
  8
型材断面
  6
CONTINUOUS
 10
0.0
 20
0.0
  0
INSERT
  2
*GRP_0018
  8
型材断面
  6
CONTINUOUS
 10
0.0
 20
0.0
  0
INSERT
  2
*GRP_0019
  8
型材断面
  6
CONTINUOUS
 10
0.0
 20
0.0
  0
INSERT
  2
*GRP_0020
  8
型材断面
  6
CONTINUOUS
 10
0.0
 20
0.0
  0
INSERT
  2
*GRP_0021
  8
型材断面
  6
CONTINUOUS
 10
0.0
 20
0.0
  0
INSERT
  2
*GRP_0022
  8
型材断面
  6
CONTINUOUS
 10
0.0
 20
0.0
  0
LINE
  8
型材断面
  6
CONTINUOUS
 10
-160.258518
 20
77.264387
 11
-114.01674
 21
77.264387
  0
LINE
  8
型材断面
  6
DASHDOT
 10
-80.25439
 20
13.399048
 11
-80.25439
 21
56.73238
  0
LINE
  8
型材断面
  6
DOT
 10
-79.00439
 20
13.399048
 11
-79.00439
 21
56.73238
  0
LINE
  8
型材断面
  6
DOT
 10
-81.50439
 20
13.399048
 11
-81.50439
 21
56.73238
  0
LINE
  8
型材断面
  6
DASHDOT
 10
-46.785058
 20
13.399048
 11
-46.785058
 21
56.73238
  0
LINE
  8
型材断面
  6
DOT
 10
-45.535058
 20
13.399048
 11
-45.535058
 21
56.73238
  0
LINE
  8
型材断面
  6
DOT
 10
-48.035058
 20
13.399048
 11
-48.035058
 21
56.73238
  0
LINE
  8
型材断面
  6
DASHDOT
 10
20.153615
 20
13.399048
 11
20.153615
 21
56.73238
  0
LINE
  8
型材断面
  6
DOT
 10
18.903615
 20
13.399048
 11
18.903615
 21
56.73238
  0
LINE
  8
型材断面
  6
DOT
 10
21.403615
 20
13.399048
 11
21.403615
 21
56.73238
  0
LINE
  8
型材断面
  6
DASHDOT
 10
-13.315718
 20
13.399048
 11
-13.315718
 21
56.73238
  0
LINE
  8
型材断面
  6
DOT
 10
-14.565718
 20
13.399048
 11
-14.565718
 21
56.73238
  0
LINE
  8
型材断面
  6
DOT
 10
-12.065718
 20
13.399048
 11
-12.065718
 21
56.73238
  0
TEXT
  7
TextStyle03
  8
文字
  6
CONTINUOUS
 10
129.825
 20
-86.1
  1
網入り6.8t
 40
3.0
 72
     5
 11
146.5125
 21
-86.1
  0
TEXT
  7
TextStyle03
  8
文字
  6
CONTINUOUS
 10
136.5
 20
-90.775
  1
×５枚
 40
3.0
 72
     5
 11
146.25
 21
-90.775
  0
TEXT
  7
TextStyle03
  8
文字
  6
CONTINUOUS
 10
-38.6
 20
67.2
  1
可動装置側
 40
3.0
 72
     5
 11
-22.1
 21
67.2
  0
TEXT
  7
TextStyle03
  8
文字
  6
CONTINUOUS
 10
-38.6
 20
-0.075
  1
可動装置側
 40
3.0
 72
     5
 11
-22.1
 21
-0.075
  0
TEXT
  7
TextStyle03
  8
文字
  6
CONTINUOUS
 10
-150.85
 20
23.975
  1
アンカーピッチ
 40
3.0
 50
90.0
 72
     5
 11
-150.85
 21
47.225
  0
TEXT
  7
TextStyle03
  8
文字
  6
CONTINUOUS
 10
-151.425
 20
93.325
  1
はケーシング位置を示す
 40
3.0
 72
     5
 11
-114.675
 21
93.325
  0
TEXT
  7
TextStyle03
  8
文字
  6
CONTINUOUS
 10
-151.425
 20
89.95
  1
４ヶ所中1ヶ所に設定
 40
3.0
 72
     5
 11
-119.7375
 21
89.95
  0
TEXT
  7
TextStyle03
  8
文字
  6
CONTINUOUS
 10
-151.425
 20
98.85
  1
は排水穴位置を示す
 40
3.0
 72
     5
 11
-121.425
 21
98.85
  0
TEXT
  7
TextStyle03
  8
文字
  6
CONTINUOUS
 10
-102.65
 20
94.175
  1
アンカーピッチ
 40
3.0
 72
     5
 11
-79.4
 21
94.175
  0
TEXT
  7
TextStyle03
  8
文字
  6
CONTINUOUS
 10
-155.15
 20
83.975
  1
アンカー数量　１８ヶ所
 40
3.0
 72
     5
 11
-118.4
 21
83.975
  0
TEXT
  7
TextStyle03
  8
文字
  6
CONTINUOUS
 10
-160.15
 20
78.2
  1
アームユニット数　※４～６ヶ所
 40
3.0
 72
     5
 11
-109.9
 21
78.2
  0
TEXT
  7
TextStyle03
  8
文字
  6
CONTINUOUS
 10
-160.15
 20
73.25
  1
※重量に依るのでご相談ください
 40
3.0
 72
     5
 11
-109.9
 21
73.25
  0
LINE
  8
文字
  6
CONTINUOUS
 10
116.022833
 20
-38.26648
 11
116.022833
 21
-47.10591
  0
LINE
  8
文字
  6
CONTINUOUS
 10
148.156165
 20
-38.26648
 11
148.156165
 21
-47.10591
  0
LINE
  8
文字
  6
CONTINUOUS
 10
165.901415
 20
-49.867045
 11
150.84531
 21
-49.867045
  0
LINE
  8
文字
  6
CONTINUOUS
 10
165.901415
 20
-92.533713
 11
150.84531
 21
-92.533713
  0
TEXT
  7
TextStyle03
  8
文字
  6
CONTINUOUS
 10
78.1
 20
125.25
  1
シリーズ：ＳＴＤＬ
 40
5.0
 72
     5
 11
128.1
 21
125.25
  0
TEXT
  7
TextStyle03
  8
文字
  6
CONTINUOUS
 10
78.1
 20
119.625
  1
　　　　　（上下可動）1300×5000タイプ
 40
5.0
 72
     5
 11
184.35
 21
119.625
  0
TEXT
  7
TextStyle03
  8
文字
  6
CONTINUOUS
 10
78.1
 20
114.0
  1
図面名　：外観姿図
 40
5.0
 72
     5
 11
128.1
 21
114.0
  0
TEXT
  7
TextStyle03
  8
文字
  6
CONTINUOUS
 10
78.1
 20
108.375
  1
　　　　　　
 40
5.0
 72
     5
 11
111.225
 21
108.375
  0
TEXT
  7
TextStyle03
  8
文字
  6
CONTINUOUS
 10
77.425
 20
103.975
  1
ＮＳコード：ＮＳＤＳＬ
 40
5.0
 72
     5
 11
138.675
 21
103.975
  0
INSERT
  2
*DIM_0002
  8
寸法
  6
CONTINUOUS
 10
0.0
 20
0.0
  0
INSERT
  2
*DIM_0003
  8
寸法
  6
CONTINUOUS
 10
0.0
 20
0.0
  0
INSERT
  2
*DIM_0004
  8
寸法
  6
CONTINUOUS
 10
0.0
 20
0.0
  0
INSERT
  2
*DIM_0005
  8
寸法
  6
CONTINUOUS
 10
0.0
 20
0.0
  0
INSERT
  2
*DIM_0006
  8
寸法
  6
CONTINUOUS
 10
0.0
 20
0.0
  0
INSERT
  2
*DIM_0007
  8
寸法
  6
CONTINUOUS
 10
0.0
 20
0.0
  0
INSERT
  2
*DIM_0008
  8
寸法
  6
CONTINUOUS
 10
0.0
 20
0.0
  0
INSERT
  2
*DIM_0009
  8
寸法
  6
CONTINUOUS
 10
0.0
 20
0.0
  0
INSERT
  2
*DIM_0010
  8
寸法
  6
CONTINUOUS
 10
0.0
 20
0.0
  0
INSERT
  2
*DIM_0011
  8
寸法
  6
CONTINUOUS
 10
0.0
 20
0.0
  0
INSERT
  2
*DIM_0012
  8
寸法
  6
CONTINUOUS
 10
0.0
 20
0.0
  0
INSERT
  2
*DIM_0013
  8
寸法
  6
CONTINUOUS
 10
0.0
 20
0.0
  0
INSERT
  2
*DIM_0014
  8
寸法
  6
CONTINUOUS
 10
0.0
 20
0.0
  0
INSERT
  2
*DIM_0015
  8
寸法
  6
CONTINUOUS
 10
0.0
 20
0.0
  0
INSERT
  2
*DIM_0023
  8
寸法
  6
CONTINUOUS
 10
0.0
 20
0.0
  0
INSERT
  2
*DIM_0024
  8
寸法
  6
CONTINUOUS
 10
0.0
 20
0.0
  0
INSERT
  2
*DIM_0025
  8
寸法
  6
CONTINUOUS
 10
0.0
 20
0.0
  0
INSERT
  2
*DIM_0026
  8
寸法
  6
CONTINUOUS
 10
0.0
 20
0.0
  0
INSERT
  2
*DIM_0027
  8
寸法
  6
CONTINUOUS
 10
0.0
 20
0.0
  0
INSERT
  2
*DIM_0028
  8
寸法
  6
CONTINUOUS
 10
0.0
 20
0.0
  0
INSERT
  2
*DIM_0029
  8
寸法
  6
CONTINUOUS
 10
0.0
 20
0.0
  0
INSERT
  2
*DIM_0030
  8
寸法
  6
CONTINUOUS
 10
0.0
 20
0.0
  0
INSERT
  2
*DIM_0031
  8
寸法
  6
CONTINUOUS
 10
0.0
 20
0.0
  0
INSERT
  2
*DIM_0032
  8
寸法
  6
CONTINUOUS
 10
0.0
 20
0.0
  0
LINE
  8
別途部材
  6
CONTINUOUS
 10
55.349612
 20
11.33238
 11
54.949612
 21
11.73238
  0
LINE
  8
別途部材
  6
CONTINUOUS
 10
53.282945
 20
13.399048
 11
45.22369
 21
21.458305
  0
LINE
  8
別途部材
  6
CONTINUOUS
 10
54.949612
 20
11.73238
 11
54.949612
 21
35.065715
  0
LINE
  8
別途部材
  6
CONTINUOUS
 10
55.349612
 20
11.33238
 11
55.349612
 21
35.065715
  0
LINE
  8
別途部材
  6
CONTINUOUS
 10
55.349612
 20
58.79905
 11
54.949612
 21
58.39905
  0
LINE
  8
別途部材
  6
CONTINUOUS
 10
53.282945
 20
56.732382
 11
45.22369
 21
48.673125
  0
LINE
  8
別途部材
  6
CONTINUOUS
 10
54.949612
 20
58.39905
 11
54.949612
 21
35.065715
  0
LINE
  8
別途部材
  6
CONTINUOUS
 10
55.349612
 20
58.79905
 11
55.349612
 21
35.065715
  0
LINE
  8
別途部材
  6
CONTINUOUS
 10
55.349612
 20
58.79905
 11
-30.050388
 21
58.79905
  0
LINE
  8
別途部材
  6
CONTINUOUS
 10
54.949612
 20
58.39905
 11
-30.050388
 21
58.39905
  0
LINE
  8
別途部材
  6
CONTINUOUS
 10
54.949612
 20
11.73238
 11
-30.050388
 21
11.73238
  0
LINE
  8
別途部材
  6
CONTINUOUS
 10
55.349612
 20
11.33238
 11
-30.050388
 21
11.33238
  0
LINE
  8
別途部材
  6
CONTINUOUS
 10
-115.450388
 20
11.33238
 11
-115.050388
 21
11.73238
  0
LINE
  8
別途部材
  6
CONTINUOUS
 10
-113.38372
 20
13.399048
 11
-105.324465
 21
21.458305
  0
LINE
  8
別途部材
  6
CONTINUOUS
 10
-115.050388
 20
11.73238
 11
-115.050388
 21
35.065715
  0
LINE
  8
別途部材
  6
CONTINUOUS
 10
-115.450388
 20
11.33238
 11
-115.450388
 21
35.065715
  0
LINE
  8
別途部材
  6
CONTINUOUS
 10
-115.450388
 20
58.79905
 11
-115.050388
 21
58.39905
  0
LINE
  8
別途部材
  6
CONTINUOUS
 10
-113.38372
 20
56.732382
 11
-105.324465
 21
48.673125
  0
LINE
  8
別途部材
  6
CONTINUOUS
 10
-115.050388
 20
58.39905
 11
-115.050388
 21
35.065715
  0
LINE
  8
別途部材
  6
CONTINUOUS
 10
-115.450388
 20
58.79905
 11
-115.450388
 21
35.065715
  0
LINE
  8
別途部材
  6
CONTINUOUS
 10
-115.450388
 20
58.79905
 11
-30.050388
 21
58.79905
  0
LINE
  8
別途部材
  6
CONTINUOUS
 10
-115.050388
 20
58.39905
 11
-30.050388
 21
58.39905
  0
LINE
  8
別途部材
  6
CONTINUOUS
 10
-115.050388
 20
11.73238
 11
-30.050388
 21
11.73238
  0
LINE
  8
別途部材
  6
CONTINUOUS
 10
-115.450388
 20
11.33238
 11
-30.050388
 21
11.33238
  0
LINE
  8
別途部材
  6
CONTINUOUS
 62
    96
 10
142.81621
 20
11.73238
 11
143.81621
 21
11.33238
  0
LINE
  8
別途部材
  6
CONTINUOUS
 10
143.81621
 20
11.33238
 11
143.81621
 21
35.065715
  0
LINE
  8
別途部材
  6
CONTINUOUS
 62
    96
 10
142.81621
 20
11.73238
 11
142.81621
 21
35.065715
  0
LINE
  8
別途部材
  6
CONTINUOUS
 62
    96
 10
142.81621
 20
58.39905
 11
143.81621
 21
58.79905
  0
LINE
  8
別途部材
  6
CONTINUOUS
 10
143.81621
 20
58.79905
 11
143.81621
 21
35.065715
  0
LINE
  8
別途部材
  6
CONTINUOUS
 62
    96
 10
142.81621
 20
58.39905
 11
142.81621
 21
35.065715
  0
ARC
  8
別途部材
  6
CONTINUOUS
 10
157.101922
 20
35.065713
 40
25.95238
 50
123.398485
 51
236.601515
  0
LINE
  8
別途部材
  6
DOT
 62
    96
 10
54.949612
 20
-62.95793
 11
55.349612
 21
-63.95793
  0
ARC
  8
別途部材
  6
DOT
 10
31.616277
 20
-77.243645
 40
25.952382
 50
33.398488
 51
90.0
  0
LINE
  8
別途部材
  6
DOT
 10
31.616278
 20
-51.291262
 11
-30.050388
 21
-51.291262
  0
LINE
  8
別途部材
  6
DOT
 62
    96
 10
54.949612
 20
-62.95793
 11
-30.050388
 21
-62.95793
  0
LINE
  8
別途部材
  6
DOT
 10
55.349612
 20
-63.95793
 11
-30.050388
 21
-63.95793
  0
LINE
  8
別途部材
  6
DOT
 62
    96
 10
-115.050388
 20
-62.95793
 11
-115.450388
 21
-63.95793
  0
ARC
  8
別途部材
  6
DOT
 10
-91.717053
 20
-77.243645
 40
25.952382
 50
90.0
 51
146.601512
  0
LINE
  8
別途部材
  6
DOT
 10
-91.717053
 20
-51.291262
 11
-30.050388
 21
-51.291262
  0
LINE
  8
別途部材
  6
DOT
 62
    96
 10
-115.050388
 20
-62.95793
 11
-30.050388
 21
-62.95793
  0
LINE
  8
別途部材
  6
DOT
 10
-115.450388
 20
-63.95793
 11
-30.050388
 21
-63.95793
  0
INSERT
  2
*GRP_0016
  8
別途部材
  6
CONTINUOUS
 10
0.0
 20
0.0
  0
INSERT
  2
*GRP_0033
  8
別途部材
  6
DOT
 10
0.0
 20
0.0
  0
INSERT
  2
*GRP_0034
  8
別途部材
  6
DOT
 10
0.0
 20
0.0
  0
INSERT
  2
*GRP_0035
  8
別途部材
  6
DOT
 10
0.0
 20
0.0
  0
INSERT
  2
*GRP_0036
  8
別途部材
  6
DOT
 10
0.0
 20
0.0
  0
INSERT
  2
*GRP_0037
  8
別途部材
  6
DOT
 10
0.0
 20
0.0
  0
INSERT
  2
*GRP_0038
  8
別途部材
  6
DOT
 10
0.0
 20
0.0
  0
LINE
  8
曲げ物
  6
CONTINUOUS
 10
148.156165
 20
-49.867045
 11
148.156165
 21
-92.533713
  0
LINE
  8
曲げ物
  6
CONTINUOUS
 10
148.156165
 20
-92.533713
 11
116.022833
 21
-92.533713
  0
LINE
  8
曲げ物
  6
CONTINUOUS
 10
116.022833
 20
-92.533713
 11
116.022833
 21
-49.867045
  0
LINE
  8
曲げ物
  6
CONTINUOUS
 10
148.156165
 20
-49.867045
 11
116.022833
 21
-49.867045
  0
ENDSEC
  0
EOF
