  0
SECTION
  2
HEADER
  9
$EXTMIN
 10
-210.0
 20
-148.5
  9
$EXTMAX
 10
210.0
 20
148.5
  9
$PDMODE
 70
    32
  9
$PDSIZE
 40
1.5
  9
$LTSCALE
 40
10.0
  0
ENDSEC
  0
SECTION
  2
TABLES
  0
TABLE
  2
LTYPE
 70
    15
  0
LTYPE
  2
CONTINUOUS
 70
    64
  3
実線
 72
    65
 73
     0
 40
0.0
  0
LTYPE
  2
DASHED
 70
    64
  3
破線A
 72
    65
 73
     2
 40
0.6
 49
0.4
 49
-0.2
  0
LTYPE
  2
DASHEDX2
 70
    64
  3
破線B
 72
    65
 73
     2
 40
1.3
 49
0.9
 49
-0.4
  0
LTYPE
  2
DASHDOT
 70
    64
  3
１点鎖線A
 72
    65
 73
     4
 40
0.5375
 49
0.375
 49
-0.05
 49
0.0625
 49
-0.05
  0
LTYPE
  2
DASHDOTX2
 70
    64
  3
１点鎖線B
 72
    65
 73
     4
 40
1.075
 49
0.75
 49
-0.1
 49
0.125
 49
-0.1
  0
LTYPE
  2
DIVIDE2
 70
    64
  3
２点鎖線A
 72
    65
 73
     6
 40
0.5125
 49
0.3
 49
-0.0375
 49
0.05
 49
-0.0375
 49
0.05
 49
-0.0375
  0
LTYPE
  2
DIVIDE
 70
    64
  3
２点鎖線B
 72
    65
 73
     6
 40
1.05
 49
0.55
 49
-0.1
 49
0.1
 49
-0.1
 49
0.1
 49
-0.1
  0
LTYPE
  2
DOT
 70
    64
  3
点線A
 72
    65
 73
     2
 40
0.1125
 49
0.0625
 49
-0.05
  0
LTYPE
  2
DOTX2
 70
    64
  3
点線B
 72
    65
 73
     2
 40
0.275
 49
0.15
 49
-0.125
  0
LTYPE
  2
CONTINUOUS
 70
    64
  3
実線
 72
    65
 73
     0
 40
0.0
  0
LTYPE
  2
CONTINUOUS
 70
    64
  3
実線
 72
    65
 73
     0
 40
0.0
  0
LTYPE
  2
CONTINUOUS
 70
    64
  3
実線
 72
    65
 73
     0
 40
0.0
  0
LTYPE
  2
CONTINUOUS
 70
    64
  3
実線
 72
    65
 73
     0
 40
0.0
  0
LTYPE
  2
CONTINUOUS
 70
    64
  3
実線
 72
    65
 73
     0
 40
0.0
  0
LTYPE
  2
CONTINUOUS
 70
    64
  3
実線
 72
    65
 73
     0
 40
0.0
  0
ENDTAB
  0
TABLE
  2
LAYER
 70
    34
  0
LAYER
  2
通り芯
 70
     0
 62
    15
  6
CONTINUOUS
  0
LAYER
  2
補助線
 70
     0
 62
    16
  6
DOT
  0
LAYER
  2
躯体
 70
     0
 62
    31
  6
CONTINUOUS
  0
LAYER
  2
型材
 70
     0
 62
    32
  6
CONTINUOUS
  0
LAYER
  2
型材断面
 70
     0
 62
    47
  6
CONTINUOUS
  0
LAYER
  2
ガラス
 70
     0
 62
    48
  6
CONTINUOUS
  0
LAYER
  2
ゴム等
 70
     0
 62
    63
  6
CONTINUOUS
  0
LAYER
  2
ボルト／ビス
 70
     0
 62
    64
  6
CONTINUOUS
  0
LAYER
  2
文字
 70
     0
 62
    79
  6
CONTINUOUS
  0
LAYER
  2
寸法
 70
     0
 62
    80
  6
CONTINUOUS
  0
LAYER
  2
ﾊｯﾁﾝｸﾞ
 70
     0
 62
    95
  6
CONTINUOUS
  0
LAYER
  2
別途部材
 70
     0
 62
    96
  6
CONTINUOUS
  0
LAYER
  2
曲げ物
 70
     0
 62
   111
  6
CONTINUOUS
  0
LAYER
  2
鉄骨等
 70
     0
 62
   112
  6
CONTINUOUS
  0
LAYER
  2
St
 70
     0
 62
   127
  6
CONTINUOUS
  0
LAYER
  2
その他部品等
 70
     0
 62
   128
  6
CONTINUOUS
  0
LAYER
  2
ｶﾞｽｹｯﾄ
 70
     0
 62
   143
  6
CONTINUOUS
  0
LAYER
  2
ｽｹｯﾁ
 70
     0
 62
    14
  6
CONTINUOUS
  0
LAYER
  2
0
 70
     0
 62
    17
  6
CONTINUOUS
  0
LAYER
  2
1
 70
     0
 62
    30
  6
CONTINUOUS
  0
LAYER
  2
4
 70
     0
 62
    33
  6
CONTINUOUS
  0
LAYER
  2
ﾚｲﾔ3
 70
     0
 62
    46
  6
CONTINUOUS
  0
LAYER
  2
外形線
 70
     0
 62
    49
  6
CONTINUOUS
  0
LAYER
  2
部品
 70
     0
 62
    14
  6
CONTINUOUS
  0
LAYER
  2
サッシ芯
 70
     0
 62
    17
  6
DASHDOTX2
  0
LAYER
  2
寸法線
 70
     0
 62
    62
  6
CONTINUOUS
  0
LAYER
  2
姿図外形線
 70
     0
 62
    65
  6
CONTINUOUS
  0
LAYER
  2
姿補助線
 70
     0
 62
    30
  6
CONTINUOUS
  0
LAYER
  2
透視線
 70
     0
 62
    78
  6
DOT
  0
LAYER
  2
用紙
 70
     0
 62
    81
  6
CONTINUOUS
  0
LAYER
  2
実線図枠
 70
     0
 62
    94
  6
CONTINUOUS
  0
LAYER
  2
補助図枠
 70
     0
 62
    97
  6
CONTINUOUS
  0
LAYER
  2
建具記号
 70
     0
 62
   110
  6
CONTINUOUS
  0
LAYER
  2
補助文字
 70
     0
 62
   113
  6
CONTINUOUS
  0
ENDTAB
  0
TABLE
  2
STYLE
 70
    10
  0
STYLE
  2
STANDARD
 70
     0
 40
1.0
 41
1.0
 42
1.0
 50
0.0
 71
     0
  3
TXT
  4
BIGFONT
  0
STYLE
  2
TATE
 70
     4
 40
1.0
 41
1.0
 42
1.0
 50
0.0
 71
     0
  3
TXT
  4
BIGFONT
  0
STYLE
  2
TextStyle03
 70
     0
 40
1.0
 41
1.0
 42
1.0
 50
0.0
 71
     0
  3
MONOTXT
  4
BIGFONT
  0
STYLE
  2
TextStyle04
 70
     0
 40
1.0
 41
1.0
 42
1.0
 50
0.0
 71
     0
  3
MONOTXT
  4
BIGFONT
  0
STYLE
  2
TextStyle05
 70
     0
 40
1.0
 41
1.0
 42
1.0
 50
0.0
 71
     0
  3
MONOTXT
  4
BIGFONT
  0
STYLE
  2
TextStyle06
 70
     0
 40
1.0
 41
1.0
 42
1.0
 50
0.0
 71
     0
  3
MONOTXT
  4
BIGFONT
  0
STYLE
  2
TextStyle07
 70
     0
 40
1.0
 41
1.0
 42
1.0
 50
0.0
 71
     0
  3
MONOTXT
  4
BIGFONT
  0
STYLE
  2
TextStyle08
 70
     0
 40
1.0
 41
1.0
 42
1.0
 50
0.0
 71
     0
  3
MONOTXT
  4
BIGFONT
  0
STYLE
  2
TextStyle09
 70
     0
 40
1.0
 41
1.0
 42
1.0
 50
0.0
 71
     0
  3
MONOTXT
  4
BIGFONT
  0
STYLE
  2
TextStyle10
 70
     0
 40
1.0
 41
1.0
 42
1.0
 50
0.0
 71
     0
  3
MONOTXT
  4
BIGFONT
  0
ENDTAB
  0
ENDSEC
  0
SECTION
  2
BLOCKS
  0
BLOCK
  2
*HAT_0001
 70
    65
 10
0.0
 20
0.0
  0
LINE
  8
ゴム等
 10
38.3
 20
-46.75
 11
38.3
 21
-46.75
  0
LINE
  8
ゴム等
 10
38.3
 20
-48.25
 11
37.05
 21
-46.75
  0
LINE
  8
ゴム等
 10
38.3
 20
-49.5
 11
35.55
 21
-46.75
  0
LINE
  8
ゴム等
 10
38.3
 20
-51.0
 11
34.05
 21
-46.75
  0
LINE
  8
ゴム等
 10
38.3
 20
-52.5
 11
32.8
 21
-46.75
  0
LINE
  8
ゴム等
 10
38.3
 20
-53.75
 11
32.3
 21
-47.75
  0
LINE
  8
ゴム等
 10
38.3
 20
-55.25
 11
32.3
 21
-49.25
  0
LINE
  8
ゴム等
 10
38.3
 20
-56.75
 11
33.3
 21
-51.75
  0
LINE
  8
ゴム等
 10
32.55
 20
-50.75
 11
32.3
 21
-50.75
  0
LINE
  8
ゴム等
 10
38.3
 20
-58.0
 11
33.3
 21
-53.0
  0
LINE
  8
ゴム等
 10
38.3
 20
-59.5
 11
33.3
 21
-54.5
  0
LINE
  8
ゴム等
 10
37.3
 20
-59.75
 11
32.55
 21
-55.0
  0
LINE
  8
ゴム等
 10
35.8
 20
-59.75
 11
32.55
 21
-56.5
  0
LINE
  8
ゴム等
 10
34.55
 20
-59.75
 11
32.8
 21
-58.0
  0
LINE
  8
ゴム等
 10
34.05
 20
-60.75
 11
33.05
 21
-60.0
  0
LINE
  8
ゴム等
 10
34.05
 20
-62.25
 11
33.3
 21
-61.25
  0
LINE
  8
ゴム等
 10
33.55
 20
-63.25
 11
33.3
 21
-62.75
  0
ENDBLK
  0
BLOCK
  2
*HAT_0002
 70
    65
 10
0.0
 20
0.0
  0
LINE
  8
St
 10
-73.175
 20
-19.625
 11
-75.0
 21
-17.775
  0
LINE
  8
St
 10
-73.175
 20
-21.025
 11
-75.875
 21
-18.35
  0
LINE
  8
St
 10
-73.175
 20
-22.45
 11
-76.175
 21
-19.45
  0
LINE
  8
St
 10
-73.175
 20
-23.85
 11
-76.175
 21
-20.85
  0
LINE
  8
St
 10
-73.175
 20
-25.275
 11
-76.175
 21
-22.275
  0
LINE
  8
St
 10
-73.175
 20
-26.675
 11
-76.175
 21
-23.675
  0
LINE
  8
St
 10
-73.175
 20
-28.1
 11
-76.175
 21
-25.1
  0
LINE
  8
St
 10
-73.175
 20
-29.5
 11
-76.175
 21
-26.5
  0
LINE
  8
St
 10
-73.175
 20
-30.925
 11
-76.175
 21
-27.925
  0
LINE
  8
St
 10
-73.175
 20
-32.325
 11
-76.175
 21
-29.325
  0
LINE
  8
St
 10
-73.175
 20
-33.75
 11
-76.175
 21
-30.75
  0
LINE
  8
St
 10
-73.175
 20
-35.15
 11
-76.175
 21
-32.15
  0
LINE
  8
St
 10
-73.175
 20
-36.575
 11
-76.175
 21
-33.575
  0
LINE
  8
St
 10
-73.175
 20
-37.975
 11
-76.175
 21
-34.975
  0
LINE
  8
St
 10
-73.175
 20
-39.4
 11
-76.175
 21
-36.4
  0
LINE
  8
St
 10
-73.175
 20
-40.8
 11
-76.175
 21
-37.8
  0
LINE
  8
St
 10
-73.175
 20
-42.225
 11
-76.175
 21
-39.225
  0
LINE
  8
St
 10
-73.175
 20
-43.625
 11
-76.175
 21
-40.625
  0
LINE
  8
St
 10
-73.175
 20
-45.05
 11
-76.175
 21
-42.05
  0
LINE
  8
St
 10
-73.175
 20
-46.45
 11
-76.175
 21
-43.45
  0
LINE
  8
St
 10
-73.675
 20
-47.375
 11
-76.175
 21
-44.875
  0
LINE
  8
St
 10
-74.7
 20
-47.75
 11
-76.175
 21
-46.275
  0
ENDBLK
  0
BLOCK
  2
*GRP_0001
 70
    65
 10
0.0
 20
0.0
  0
LINE
  8
型材断面
  6
CONTINUOUS
 10
195.0
 20
133.5
 11
195.0
 21
-133.5
  0
LINE
  8
型材断面
  6
CONTINUOUS
 10
195.0
 20
-133.5
 11
-185.0
 21
-133.5
  0
LINE
  8
型材断面
  6
CONTINUOUS
 10
-185.0
 20
-133.5
 11
-185.0
 21
133.5
  0
LINE
  8
型材断面
  6
CONTINUOUS
 10
195.0
 20
133.5
 11
-185.0
 21
133.5
  0
LINE
  8
型材断面
  6
CONTINUOUS
 10
145.0
 20
-133.5
 11
145.0
 21
-118.5
  0
LINE
  8
型材断面
  6
CONTINUOUS
 10
195.0
 20
-118.5
 11
145.0
 21
-118.5
  0
ENDBLK
  0
BLOCK
  2
*GRP_0002
 70
    65
 10
0.0
 20
0.0
  0
LINE
  8
型材断面
  6
CONTINUOUS
 62
    47
 10
124.365753
 20
-44.773308
 11
125.865753
 21
-44.773308
  0
LINE
  8
型材断面
  6
CONTINUOUS
 62
    47
 10
125.865753
 20
-53.273308
 11
125.865753
 21
-44.773308
  0
LINE
  8
型材断面
  6
CONTINUOUS
 62
    47
 10
139.365753
 20
-54.773308
 11
139.365753
 21
-53.273308
  0
LINE
  8
型材断面
  6
CONTINUOUS
 62
    47
 10
125.865753
 20
-53.273308
 11
139.365753
 21
-53.273308
  0
ARC
  8
型材断面
  6
CONTINUOUS
 62
    47
 10
125.865764
 20
-53.273286
 40
1.5
 50
180.0
 51
270.0
  0
LINE
  8
型材断面
  6
CONTINUOUS
 62
    47
 10
124.365753
 20
-44.773308
 11
124.365753
 21
-54.773308
  0
LINE
  8
型材断面
  6
CONTINUOUS
 62
    47
 10
139.365753
 20
-54.773308
 11
124.365753
 21
-54.773308
  0
ENDBLK
  0
BLOCK
  2
*GRP_0003
 70
    65
 10
0.0
 20
0.0
  0
LINE
  8
型材断面
  6
CONTINUOUS
 10
122.865753
 20
-70.273308
 11
122.865753
 21
-71.773308
  0
LINE
  8
型材断面
  6
CONTINUOUS
 10
116.865753
 20
-70.273308
 11
116.865753
 21
-71.773308
  0
LINE
  8
型材断面
  6
CONTINUOUS
 10
116.865753
 20
-71.398308
 11
122.865753
 21
-71.398308
  0
LINE
  8
型材断面
  6
CONTINUOUS
 10
116.865753
 20
-71.023308
 11
122.865753
 21
-71.023308
  0
LINE
  8
型材断面
  6
CONTINUOUS
 10
116.865753
 20
-70.648308
 11
122.865753
 21
-70.648308
  0
ARC
  8
型材断面
  6
CONTINUOUS
 62
    47
 10
122.865758
 20
-70.273299
 40
1.5
 50
270.0
 51
360.0
  0
ARC
  8
型材断面
  6
CONTINUOUS
 62
    47
 10
122.865758
 20
43.226671
 40
1.5
 50
0.0
 51
90.0
  0
LINE
  8
型材断面
  6
CONTINUOUS
 62
    47
 10
122.865753
 20
-70.273308
 11
122.865753
 21
43.226663
  0
LINE
  8
型材断面
  6
CONTINUOUS
 62
    47
 10
124.365753
 20
-71.773308
 11
124.365753
 21
44.726663
  0
ARC
  8
型材断面
  6
CONTINUOUS
 62
    47
 10
38.365773
 20
-46.773294
 40
1.5
 50
0.0
 51
90.0
  0
ARC
  8
型材断面
  6
CONTINUOUS
 62
    47
 10
39.865773
 20
-70.273299
 40
1.5
 50
180.0
 51
270.0
  0
LINE
  8
型材断面
  6
CONTINUOUS
 62
    47
 10
39.865768
 20
-45.273303
 11
39.865768
 21
-70.273308
  0
LINE
  8
型材断面
  6
CONTINUOUS
 62
    47
 10
122.865753
 20
-70.273308
 11
39.865768
 21
-70.273308
  0
LINE
  8
型材断面
  6
CONTINUOUS
 62
    47
 10
38.365768
 20
-46.773303
 11
38.365768
 21
-71.773308
  0
LINE
  8
型材断面
  6
CONTINUOUS
 62
    47
 10
124.365753
 20
-71.773308
 11
38.365768
 21
-71.773308
  0
ARC
  8
型材断面
  6
CONTINUOUS
 62
    47
 10
26.365758
 20
-45.273294
 40
1.5
 50
180.0
 51
270.0
  0
LINE
  8
型材断面
  6
CONTINUOUS
 62
    47
 10
39.865768
 20
-45.273303
 11
26.365753
 21
-45.273303
  0
LINE
  8
型材断面
  6
CONTINUOUS
 62
    47
 10
38.365768
 20
-46.773303
 11
24.865753
 21
-46.773303
  0
LINE
  8
型材断面
  6
CONTINUOUS
 62
    47
 10
26.365753
 20
-45.273303
 11
26.365753
 21
-32.773352
  0
LINE
  8
型材断面
  6
CONTINUOUS
 10
34.865753
 20
-32.773352
 11
26.365753
 21
-32.773352
  0
ARC
  8
型材断面
  6
CONTINUOUS
 10
26.365753
 20
-32.773346
 40
1.5
 50
90.0
 51
180.0
  0
LINE
  8
型材断面
  6
CONTINUOUS
 62
    47
 10
24.865753
 20
-46.773303
 11
24.865753
 21
-31.273352
  0
LINE
  8
型材断面
  6
CONTINUOUS
 62
    47
 10
24.865753
 20
-31.273352
 11
34.865753
 21
-31.273352
  0
LINE
  8
型材断面
  6
CONTINUOUS
 10
34.865753
 20
-32.773352
 11
34.865753
 21
-31.273352
  0
LINE
  8
型材断面
  6
CONTINUOUS
 62
    47
 10
124.365753
 20
44.726663
 11
104.365753
 21
44.726663
  0
LINE
  8
型材断面
  6
CONTINUOUS
 10
104.365753
 20
44.726663
 11
104.365753
 21
43.226663
  0
LINE
  8
型材断面
  6
CONTINUOUS
 62
    47
 10
122.865753
 20
43.226663
 11
104.365753
 21
43.226663
  0
LINE
  8
St
  6
DOT
 62
    47
 10
27.865753
 20
-31.273352
 11
28.699083
 21
-32.773352
  0
LINE
  8
St
  6
DOT
 62
    47
 10
33.865753
 20
-31.273352
 11
33.032417
 21
-32.773352
  0
LINE
  8
St
  6
DOT
 62
    47
 10
28.074083
 20
-31.648352
 11
33.657417
 21
-31.648352
  0
LINE
  8
St
  6
DOT
 62
    47
 10
28.282417
 20
-32.023352
 11
33.449083
 21
-32.023352
  0
LINE
  8
St
  6
DOT
 62
    47
 10
28.490753
 20
-32.398352
 11
33.240753
 21
-32.398352
  0
ENDBLK
  0
BLOCK
  2
*GRP_0004
 70
    65
 10
0.0
 20
0.0
  0
LINE
  8
型材断面
  6
CONTINUOUS
 10
-71.62923
 20
-52.77333
 11
-71.62923
 21
-14.27333
  0
LINE
  8
型材断面
  6
CONTINUOUS
 10
-73.12923
 20
-52.77333
 11
-71.62923
 21
-52.77333
  0
ARC
  8
型材断面
  6
CONTINUOUS
 10
-71.629229
 20
-14.273328
 40
1.5
 50
90.0
 51
180.0
  0
LINE
  8
型材断面
  6
CONTINUOUS
 10
-73.12923
 20
-52.77333
 11
-73.12923
 21
-12.77333
  0
ARC
  8
型材断面
  6
CONTINUOUS
 10
-46.634253
 20
-56.173306
 40
1.5
 50
180.0
 51
270.0
  0
ARC
  8
型材断面
  6
CONTINUOUS
 10
-33.134238
 20
-70.273306
 40
1.5
 50
180.0
 51
270.0
  0
LINE
  8
型材断面
  6
CONTINUOUS
 10
-34.634238
 20
-56.173308
 11
-46.634253
 21
-56.173308
  0
LINE
  8
型材断面
  6
CONTINUOUS
 10
-33.134238
 20
-57.673308
 11
-33.134238
 21
-70.273308
  0
ARC
  8
型材断面
  6
CONTINUOUS
 10
-34.634238
 20
-57.673306
 40
1.5
 50
0.0
 51
90.0
  0
LINE
  8
型材断面
  6
CONTINUOUS
 10
-71.62923
 20
-14.27333
 11
-48.134253
 21
-14.27333
  0
ARC
  8
型材断面
  6
CONTINUOUS
 10
-48.134253
 20
-14.273328
 40
1.5
 50
0.0
 51
90.0
  0
LINE
  8
型材断面
  6
CONTINUOUS
 10
-46.634253
 20
-56.173308
 11
-46.634253
 21
-12.77333
  0
LINE
  8
型材断面
  6
CONTINUOUS
 10
-73.12923
 20
-12.77333
 11
-46.634253
 21
-12.77333
  0
LINE
  8
型材断面
  6
CONTINUOUS
 10
-48.134253
 20
-14.27333
 11
-48.134253
 21
-57.673308
  0
LINE
  8
型材断面
  6
CONTINUOUS
 10
-34.634238
 20
-57.673308
 11
-48.134253
 21
-57.673308
  0
LINE
  8
型材断面
  6
CONTINUOUS
 10
-34.634238
 20
-57.673308
 11
-34.634238
 21
-71.773308
  0
ARC
  8
型材断面
  6
CONTINUOUS
 62
    47
 10
18.865754
 20
-70.273301
 40
1.5
 50
270.0
 51
360.0
  0
ARC
  8
型材断面
  6
CONTINUOUS
 62
    47
 10
20.365754
 20
-57.673331
 40
1.5
 50
90.0
 51
180.0
  0
LINE
  8
型材断面
  6
CONTINUOUS
 62
    47
 10
36.867193
 20
-79.673333
 11
45.546508
 21
-79.673333
  0
LINE
  8
型材断面
  6
CONTINUOUS
 62
    47
 10
45.546508
 20
-79.673333
 11
45.546508
 21
-81.173333
  0
ARC
  8
型材断面
  6
CONTINUOUS
 62
    47
 10
36.867188
 20
-79.673328
 40
1.5
 50
187.275006
 51
270.0
  0
LINE
  8
型材断面
  6
CONTINUOUS
 62
    47
 10
45.546508
 20
-81.173333
 11
35.546502
 21
-81.173333
  0
LINE
  8
型材断面
  6
CONTINUOUS
 62
    47
 10
35.546502
 20
-81.173333
 11
32.546502
 21
-57.673337
  0
LINE
  8
型材断面
  6
CONTINUOUS
 62
    47
 10
20.365753
 20
-57.673337
 11
32.546502
 21
-57.673337
  0
ARC
  8
型材断面
  6
CONTINUOUS
 62
    47
 10
32.546504
 20
-57.673333
 40
1.5
 50
7.275006
 51
90.0
  0
LINE
  8
型材断面
  6
CONTINUOUS
 62
    47
 10
36.867193
 20
-79.673333
 11
33.867193
 21
-56.173337
  0
LINE
  8
型材断面
  6
CONTINUOUS
 62
    47
 10
18.865753
 20
-56.173337
 11
33.867193
 21
-56.173337
  0
LINE
  8
型材断面
  6
CONTINUOUS
 62
    47
 10
20.365753
 20
-57.673337
 11
20.365753
 21
-71.773308
  0
LINE
  8
型材断面
  6
CONTINUOUS
 62
    47
 10
18.865753
 20
-70.273308
 11
18.865753
 21
-56.173337
  0
LINE
  8
型材断面
  6
CONTINUOUS
 62
    47
 10
20.365753
 20
-71.773308
 11
-34.634238
 21
-71.773308
  0
LINE
  8
型材断面
  6
CONTINUOUS
 62
    47
 10
18.865753
 20
-70.273308
 11
-33.134238
 21
-70.273308
  0
ENDBLK
  0
BLOCK
  2
*GRP_0005
 70
    65
 10
0.0
 20
0.0
  0
LINE
  8
型材断面
  6
CONTINUOUS
 10
-72.434238
 20
13.02667
 11
-70.934238
 21
13.02667
  0
LINE
  8
型材断面
  6
CONTINUOUS
 10
-72.434238
 20
13.02667
 11
-72.434238
 21
-12.77333
  0
LINE
  8
型材断面
  6
CONTINUOUS
 10
-70.934238
 20
13.02667
 11
-70.934238
 21
-12.77333
  0
LINE
  8
型材断面
  6
CONTINUOUS
 10
-70.934238
 20
-12.77333
 11
-72.434238
 21
-12.77333
  0
ENDBLK
  0
BLOCK
  2
*GRP_0006
 70
    65
 10
0.0
 20
0.0
  0
LINE
  8
型材断面
  6
CONTINUOUS
 10
-54.634253
 20
13.026663
 11
-54.634253
 21
11.526665
  0
LINE
  8
型材断面
  6
CONTINUOUS
 10
-48.134253
 20
11.526668
 11
-48.134253
 21
-11.273333
  0
ARC
  8
型材断面
  6
CONTINUOUS
 10
-48.134254
 20
-11.27333
 40
1.5
 50
270.0
 51
360.0
  0
LINE
  8
型材断面
  6
CONTINUOUS
 10
-54.634253
 20
11.526665
 11
-48.134253
 21
11.526668
  0
ARC
  8
型材断面
  6
CONTINUOUS
 10
-48.134254
 20
11.526666
 40
1.5
 50
0.0
 51
90.000015
  0
LINE
  8
型材断面
  6
CONTINUOUS
 10
-54.634253
 20
13.026665
 11
-46.634253
 21
13.026668
  0
LINE
  8
型材断面
  6
CONTINUOUS
 62
    47
 10
-46.634253
 20
13.026668
 11
-46.634253
 21
-12.773333
  0
LINE
  8
型材断面
  6
CONTINUOUS
 10
-69.434252
 20
-11.273333
 11
-69.434252
 21
-2.773333
  0
LINE
  8
型材断面
  6
CONTINUOUS
 10
-70.934252
 20
-2.773333
 11
-69.434252
 21
-2.773333
  0
ARC
  8
型材断面
  6
CONTINUOUS
 10
-69.434252
 20
-11.27333
 40
1.5
 50
180.0
 51
270.0
  0
LINE
  8
型材断面
  6
CONTINUOUS
 10
-70.934252
 20
-12.773333
 11
-70.934252
 21
-2.773333
  0
LINE
  8
型材断面
  6
CONTINUOUS
 10
-46.634253
 20
-12.773333
 11
-70.934252
 21
-12.773333
  0
LINE
  8
型材断面
  6
CONTINUOUS
 10
-48.134253
 20
-11.273333
 11
-69.434252
 21
-11.273333
  0
ENDBLK
  0
BLOCK
  2
*GRP_0007
 70
    65
 10
0.0
 20
0.0
  0
LINE
  8
ゴム等
  6
CONTINUOUS
 10
33.365772
 20
-54.773308
 11
33.365772
 21
-50.773308
  0
LINE
  8
ゴム等
  6
CONTINUOUS
 10
33.365772
 20
-50.773308
 11
32.365772
 21
-50.773308
  0
LINE
  8
ゴム等
  6
CONTINUOUS
 10
33.365772
 20
-54.773308
 11
32.365772
 21
-54.773308
  0
LINE
  8
ゴム等
  6
CONTINUOUS
 10
32.365772
 20
-50.773308
 11
32.365772
 21
-46.773308
  0
LINE
  8
ゴム等
  6
CONTINUOUS
 10
32.365772
 20
-46.773308
 11
38.365772
 21
-46.773308
  0
LINE
  8
ゴム等
  6
CONTINUOUS
 10
38.365772
 20
-46.773308
 11
38.365772
 21
-59.773308
  0
LINE
  8
ゴム等
  6
CONTINUOUS
 10
38.365772
 20
-59.773308
 11
34.706322
 21
-59.773308
  0
LINE
  8
ゴム等
  6
CONTINUOUS
 10
32.365772
 20
-54.773308
 11
32.745047
 21
-58.755282
  0
LINE
  8
ゴム等
  6
CONTINUOUS
 10
32.745047
 20
-58.755282
 11
33.019997
 21
-58.729083
  0
ARC
  8
ゴム等
  6
CONTINUOUS
 10
33.615637
 20
-62.856909
 40
0.4
 50
181.441077
 51
364.310481
  0
LINE
  8
ゴム等
  6
CONTINUOUS
 10
33.215747
 20
-62.866982
 11
33.096573
 21
-59.533007
  0
LINE
  8
ゴム等
  6
CONTINUOUS
 10
33.019997
 20
-58.729083
 11
33.096573
 21
-59.533007
  0
ARC
  8
ゴム等
  6
CONTINUOUS
 10
34.706327
 20
-61.773284
 40
2.0
 50
90.0
 51
107.753828
  0
LINE
  8
ゴム等
  6
CONTINUOUS
 10
34.014497
 20
-62.826858
 11
34.096472
 21
-59.868558
  0
INSERT
  2
*HAT_0001
  8
ゴム等
 10
0.0
 20
0.0
  0
ENDBLK
  0
BLOCK
  2
*GRP_0008
 70
    65
 10
0.0
 20
0.0
  0
LINE
  8
ボルト／ビス
  6
CONTINUOUS
 10
118.865753
 20
-55.773308
 11
118.365753
 21
-56.273308
  0
LINE
  8
ボルト／ビス
  6
CONTINUOUS
 10
118.865753
 20
-59.773308
 11
118.365753
 21
-59.273308
  0
LINE
  8
ボルト／ビス
  6
CONTINUOUS
 10
118.365753
 20
-56.273308
 11
118.365753
 21
-59.273308
  0
LINE
  8
ボルト／ビス
  6
CONTINUOUS
 10
118.865753
 20
-55.773308
 11
118.865753
 21
-59.773308
  0
LINE
  8
ボルト／ビス
  6
CONTINUOUS
 10
118.865753
 20
-55.773308
 11
122.565753
 21
-55.773308
  0
LINE
  8
ボルト／ビス
  6
CONTINUOUS
 10
118.365753
 20
-56.273308
 11
122.565753
 21
-56.273308
  0
LINE
  8
ボルト／ビス
  6
CONTINUOUS
 10
118.365753
 20
-59.273308
 11
122.565753
 21
-59.273308
  0
LINE
  8
ボルト／ビス
  6
CONTINUOUS
 10
118.865753
 20
-59.773308
 11
122.565753
 21
-59.773308
  0
LINE
  8
ボルト／ビス
  6
CONTINUOUS
 10
122.565753
 20
-55.773308
 11
122.565753
 21
-59.773308
  0
LINE
  8
ボルト／ビス
  6
CONTINUOUS
 10
124.365753
 20
-54.773308
 11
122.565753
 21
-55.773308
  0
LINE
  8
ボルト／ビス
  6
CONTINUOUS
 10
124.365753
 20
-54.773308
 11
124.365753
 21
-60.773308
  0
LINE
  8
ボルト／ビス
  6
CONTINUOUS
 10
124.365753
 20
-60.773308
 11
122.565753
 21
-59.773308
  0
LINE
  8
ボルト／ビス
  6
CONTINUOUS
 10
116.785277
 20
-57.773308
 11
125.849282
 21
-57.773308
  0
ENDBLK
  0
BLOCK
  2
*GRP_0009
 70
    65
 10
0.0
 20
0.0
  0
LINE
  8
ボルト／ビス
  6
CONTINUOUS
 10
28.865753
 20
-36.773352
 11
29.365753
 21
-37.273352
  0
LINE
  8
ボルト／ビス
  6
CONTINUOUS
 10
32.865753
 20
-36.773352
 11
32.365753
 21
-37.273352
  0
LINE
  8
ボルト／ビス
  6
CONTINUOUS
 10
29.365753
 20
-37.273352
 11
32.365753
 21
-37.273352
  0
LINE
  8
ボルト／ビス
  6
CONTINUOUS
 10
28.865753
 20
-36.773352
 11
32.865753
 21
-36.773352
  0
LINE
  8
ボルト／ビス
  6
CONTINUOUS
 10
28.865753
 20
-36.773352
 11
28.865753
 21
-33.073352
  0
LINE
  8
ボルト／ビス
  6
CONTINUOUS
 10
29.365753
 20
-37.273352
 11
29.365753
 21
-33.073352
  0
LINE
  8
ボルト／ビス
  6
CONTINUOUS
 10
32.365753
 20
-37.273352
 11
32.365753
 21
-33.073352
  0
LINE
  8
ボルト／ビス
  6
CONTINUOUS
 10
32.865753
 20
-36.773352
 11
32.865753
 21
-33.073352
  0
LINE
  8
ボルト／ビス
  6
CONTINUOUS
 10
28.865753
 20
-33.073352
 11
32.865753
 21
-33.073352
  0
LINE
  8
ボルト／ビス
  6
CONTINUOUS
 10
27.865753
 20
-31.273352
 11
28.865753
 21
-33.073352
  0
LINE
  8
ボルト／ビス
  6
CONTINUOUS
 10
27.865753
 20
-31.273352
 11
33.865753
 21
-31.273352
  0
LINE
  8
ボルト／ビス
  6
CONTINUOUS
 10
33.865753
 20
-31.273352
 11
32.865753
 21
-33.073352
  0
LINE
  8
ボルト／ビス
  6
CONTINUOUS
 10
30.865753
 20
-38.853827
 11
30.865753
 21
-29.789822
  0
ENDBLK
  0
BLOCK
  2
*GRP_0010
 70
    65
 10
0.0
 20
0.0
  0
LINE
  8
ボルト／ビス
  6
CONTINUOUS
 10
24.365753
 20
-52.173337
 11
24.865753
 21
-51.673337
  0
LINE
  8
ボルト／ビス
  6
CONTINUOUS
 10
28.365753
 20
-52.173337
 11
27.865753
 21
-51.673337
  0
LINE
  8
ボルト／ビス
  6
CONTINUOUS
 10
24.865753
 20
-51.673337
 11
27.865753
 21
-51.673337
  0
LINE
  8
ボルト／ビス
  6
CONTINUOUS
 10
24.365753
 20
-52.173337
 11
28.365753
 21
-52.173337
  0
LINE
  8
ボルト／ビス
  6
CONTINUOUS
 10
24.365753
 20
-52.173337
 11
24.365753
 21
-55.873337
  0
LINE
  8
ボルト／ビス
  6
CONTINUOUS
 10
24.865753
 20
-51.673337
 11
24.865753
 21
-55.873337
  0
LINE
  8
ボルト／ビス
  6
CONTINUOUS
 10
27.865753
 20
-51.673337
 11
27.865753
 21
-55.873337
  0
LINE
  8
ボルト／ビス
  6
CONTINUOUS
 10
28.365753
 20
-52.173337
 11
28.365753
 21
-55.873337
  0
LINE
  8
ボルト／ビス
  6
CONTINUOUS
 10
24.365753
 20
-55.873337
 11
28.365753
 21
-55.873337
  0
LINE
  8
ボルト／ビス
  6
CONTINUOUS
 10
23.365753
 20
-57.673337
 11
24.365753
 21
-55.873337
  0
LINE
  8
ボルト／ビス
  6
CONTINUOUS
 10
23.365753
 20
-57.673337
 11
29.365753
 21
-57.673337
  0
LINE
  8
ボルト／ビス
  6
CONTINUOUS
 10
29.365753
 20
-57.673337
 11
28.365753
 21
-55.873337
  0
LINE
  8
ボルト／ビス
  6
CONTINUOUS
 10
26.365753
 20
-50.092862
 11
26.365753
 21
-59.156868
  0
ENDBLK
  0
BLOCK
  2
*GRP_0011
 70
    65
 10
0.0
 20
0.0
  0
LINE
  8
ボルト／ビス
  6
CONTINUOUS
 10
-70.634242
 20
-5.77333
 11
-70.634242
 21
-9.773333
  0
LINE
  8
ボルト／ビス
  6
CONTINUOUS
 10
-72.434242
 20
-4.77333
 11
-70.634242
 21
-5.77333
  0
LINE
  8
ボルト／ビス
  6
CONTINUOUS
 10
-72.434242
 20
-4.77333
 11
-72.434242
 21
-10.77333
  0
LINE
  8
ボルト／ビス
  6
CONTINUOUS
 10
-72.434242
 20
-10.77333
 11
-70.634242
 21
-9.773333
  0
LINE
  8
ボルト／ビス
  6
CONTINUOUS
 10
-73.91777
 20
-7.77333
 11
-61.315498
 21
-7.77333
  0
LINE
  8
ボルト／ビス
  6
CONTINUOUS
 10
-62.934238
 20
-5.77333
 11
-62.434242
 21
-6.27333
  0
LINE
  8
ボルト／ビス
  6
CONTINUOUS
 10
-62.934238
 20
-9.773333
 11
-62.434242
 21
-9.27333
  0
LINE
  8
ボルト／ビス
  6
CONTINUOUS
 10
-62.434242
 20
-6.27333
 11
-62.434242
 21
-9.27333
  0
LINE
  8
ボルト／ビス
  6
CONTINUOUS
 10
-62.934238
 20
-5.77333
 11
-62.934238
 21
-9.773333
  0
LINE
  8
ボルト／ビス
  6
CONTINUOUS
 10
-70.634242
 20
-9.27333
 11
-62.434242
 21
-9.27333
  0
LINE
  8
ボルト／ビス
  6
CONTINUOUS
 10
-70.634242
 20
-6.27333
 11
-62.434242
 21
-6.27333
  0
LINE
  8
ボルト／ビス
  6
CONTINUOUS
 10
-70.634242
 20
-5.77333
 11
-62.934238
 21
-5.77333
  0
LINE
  8
ボルト／ビス
  6
CONTINUOUS
 10
-70.634242
 20
-9.773333
 11
-62.934238
 21
-9.773333
  0
ENDBLK
  0
BLOCK
  2
*GRP_0012
 70
    65
 10
0.0
 20
0.0
  0
LINE
  8
ボルト／ビス
  6
CONTINUOUS
 10
-60.134238
 20
-12.47333
 11
-56.134235
 21
-12.47333
  0
LINE
  8
ボルト／ビス
  6
CONTINUOUS
 10
-61.134238
 20
-14.27333
 11
-60.134238
 21
-12.47333
  0
LINE
  8
ボルト／ビス
  6
CONTINUOUS
 10
-61.134238
 20
-14.27333
 11
-55.134238
 21
-14.27333
  0
LINE
  8
ボルト／ビス
  6
CONTINUOUS
 10
-55.134238
 20
-14.27333
 11
-56.134235
 21
-12.47333
  0
LINE
  8
ボルト／ビス
  6
CONTINUOUS
 10
-58.134238
 20
-15.756858
 11
-58.134238
 21
-3.154583
  0
LINE
  8
ボルト／ビス
  6
CONTINUOUS
 10
-60.134238
 20
-4.773322
 11
-59.634238
 21
-4.27333
  0
LINE
  8
ボルト／ビス
  6
CONTINUOUS
 10
-56.134235
 20
-4.773322
 11
-56.634238
 21
-4.27333
  0
LINE
  8
ボルト／ビス
  6
CONTINUOUS
 10
-59.634238
 20
-4.27333
 11
-56.634238
 21
-4.27333
  0
LINE
  8
ボルト／ビス
  6
CONTINUOUS
 10
-60.134238
 20
-4.773322
 11
-56.134235
 21
-4.773322
  0
LINE
  8
ボルト／ビス
  6
CONTINUOUS
 10
-56.634238
 20
-12.47333
 11
-56.634238
 21
-4.27333
  0
LINE
  8
ボルト／ビス
  6
CONTINUOUS
 10
-59.634238
 20
-12.47333
 11
-59.634238
 21
-4.27333
  0
LINE
  8
ボルト／ビス
  6
CONTINUOUS
 10
-60.134238
 20
-12.47333
 11
-60.134238
 21
-4.773322
  0
LINE
  8
ボルト／ビス
  6
CONTINUOUS
 10
-56.134235
 20
-12.47333
 11
-56.134235
 21
-4.773322
  0
ENDBLK
  0
BLOCK
  2
*GRP_0013
 70
    65
 10
0.0
 20
0.0
  0
LINE
  8
別途部材
  6
CONTINUOUS
 62
    15
 10
-49.132815
 20
-74.773308
 11
-49.132815
 21
-71.538357
  0
ARC
  8
別途部材
  6
CONTINUOUS
 62
    15
 10
-71.123282
 20
-57.350576
 40
5.005952
 50
180.001373
 51
248.200992
  0
LINE
  8
別途部材
  6
CONTINUOUS
 62
    15
 10
-79.132815
 20
-62.77333
 11
-79.132815
 21
-12.77333
  0
LINE
  8
別途部材
  6
CONTINUOUS
 62
    15
 10
-76.12923
 20
-57.350572
 11
-76.12923
 21
-11.01036
  0
LINE
  8
別途部材
  6
CONTINUOUS
 62
    15
 10
-79.132815
 20
-62.77333
 11
-49.132815
 21
-74.773308
  0
LINE
  8
別途部材
  6
CONTINUOUS
 62
    15
 10
-72.982432
 20
-61.998517
 11
-49.132815
 21
-71.538357
  0
ARC
  8
別途部材
  6
CONTINUOUS
 62
    15
 10
17.504931
 20
159.391623
 40
197.43258
 50
193.646823
 51
240.69411
  0
ARC
  8
別途部材
  6
CONTINUOUS
 62
    15
 10
17.504931
 20
159.391623
 40
194.433
 50
193.861529
 51
241.211654
  0
ENDBLK
  0
BLOCK
  2
*GRP_0014
 70
    65
 10
0.0
 20
0.0
  0
ARC
  8
ボルト／ビス
  6
CONTINUOUS
 10
-64.129226
 20
-36.273335
 40
1.0
 50
270.0
 51
360.0
  0
LINE
  8
ボルト／ビス
  6
CONTINUOUS
 10
-63.12923
 20
-29.273335
 11
-63.12923
 21
-36.273335
  0
ARC
  8
ボルト／ビス
  6
CONTINUOUS
 10
-64.129226
 20
-29.273335
 40
1.0
 50
0.0
 51
90.0
  0
LINE
  8
ボルト／ビス
  6
CONTINUOUS
 10
-73.62923
 20
-27.773335
 11
-73.12923
 21
-27.773335
  0
LINE
  8
ボルト／ビス
  6
CONTINUOUS
 10
-73.62923
 20
-37.773335
 11
-73.12923
 21
-37.773335
  0
LINE
  8
ボルト／ビス
  6
CONTINUOUS
 10
-73.62923
 20
-27.773335
 11
-73.62923
 21
-37.773335
  0
LINE
  8
ボルト／ビス
  6
CONTINUOUS
 10
-73.12923
 20
-27.773335
 11
-73.12923
 21
-37.773335
  0
LINE
  8
ボルト／ビス
  6
CONTINUOUS
 10
-64.12923
 20
-28.273335
 11
-70.12923
 21
-28.273335
  0
LINE
  8
ボルト／ビス
  6
CONTINUOUS
 10
-71.62923
 20
-28.273335
 11
-73.12923
 21
-28.273335
  0
LINE
  8
ボルト／ビス
  6
CONTINUOUS
 10
-73.12923
 20
-37.273335
 11
-71.62923
 21
-37.273335
  0
LINE
  8
ボルト／ビス
  6
CONTINUOUS
 10
-70.12923
 20
-37.273335
 11
-64.12923
 21
-37.273335
  0
LINE
  8
ボルト／ビス
  6
CONTINUOUS
 10
-71.62923
 20
-27.023335
 11
-71.62923
 21
-32.773335
  0
ARC
  8
ボルト／ビス
  6
CONTINUOUS
 10
-70.879226
 20
-27.023335
 40
0.75
 50
90.0
 51
180.0
  0
LINE
  8
ボルト／ビス
  6
CONTINUOUS
 10
-70.87923
 20
-26.273335
 11
-70.87923
 21
-26.273335
  0
LINE
  8
ボルト／ビス
  6
CONTINUOUS
 10
-70.12923
 20
-27.023335
 11
-70.12923
 21
-32.773335
  0
ARC
  8
ボルト／ビス
  6
CONTINUOUS
 10
-70.879226
 20
-27.023335
 40
0.75
 50
0.0
 51
90.0
  0
LINE
  8
ボルト／ビス
  6
CONTINUOUS
 10
-71.62923
 20
-38.523335
 11
-71.62923
 21
-32.773335
  0
ARC
  8
ボルト／ビス
  6
CONTINUOUS
 10
-70.879226
 20
-38.523335
 40
0.75
 50
180.0
 51
270.0
  0
LINE
  8
ボルト／ビス
  6
CONTINUOUS
 10
-70.87923
 20
-39.273335
 11
-70.87923
 21
-39.273335
  0
LINE
  8
ボルト／ビス
  6
CONTINUOUS
 10
-70.12923
 20
-38.523335
 11
-70.12923
 21
-32.773335
  0
ARC
  8
ボルト／ビス
  6
CONTINUOUS
 10
-70.879226
 20
-38.523335
 40
0.75
 50
270.0
 51
360.0
  0
ENDBLK
  0
BLOCK
  2
*DIM_0015
 70
    65
 10
0.0
 20
0.0
  0
LINE
  8
寸法
  6
BYBLOCK
 62
     0
 10
-79.13425
 20
-114.893965
 11
-79.13425
 21
-115.08423
  0
LINE
  8
寸法
  6
BYBLOCK
 62
     0
 10
-49.13425
 20
-76.773315
 11
-49.13425
 21
-115.08423
  0
LINE
  8
寸法
  6
BYBLOCK
 62
     0
 10
-79.13425
 20
-115.08423
 11
-49.13425
 21
-115.08423
  0
POINT
  8
寸法
 62
     0
 10
-79.13425
 20
-115.08423
 50
-90.0
  0
POINT
  8
寸法
 62
     0
 10
-49.13425
 20
-115.08423
 50
-90.0
  0
TEXT
  7
TextStyle03
  8
寸法
  6
CONTINUOUS
 62
     0
 10
-62.2375
 20
-115.45
  1
30
 40
3.5
 50
180.0
 72
     5
 11
-65.9625
 21
-115.45
  0
ENDBLK
  0
BLOCK
  2
*DIM_0016
 70
    65
 10
0.0
 20
0.0
  0
LINE
  8
寸法
  6
BYBLOCK
 62
     0
 10
32.545082
 20
-59.673337
 11
32.545082
 21
-115.08423
  0
LINE
  8
寸法
  6
BYBLOCK
 62
     0
 10
20.364332
 20
-73.773308
 11
20.364332
 21
-115.08423
  0
LINE
  8
寸法
  6
BYBLOCK
 62
     0
 10
32.545082
 20
-115.08423
 11
20.364332
 21
-115.08423
  0
POINT
  8
寸法
 62
     0
 10
32.545082
 20
-115.08423
 50
-90.0
  0
POINT
  8
寸法
 62
     0
 10
20.364332
 20
-115.08423
 50
-90.0
  0
TEXT
  7
TextStyle03
  8
寸法
  6
CONTINUOUS
 62
     0
 10
30.2875
 20
-115.45
  1
12.2
 40
3.5
 50
180.0
 72
     5
 11
22.6125
 21
-115.45
  0
ENDBLK
  0
BLOCK
  2
*DIM_0017
 70
    65
 10
0.0
 20
0.0
  0
LINE
  8
寸法
  6
BYBLOCK
 62
     0
 10
-34.635672
 20
-73.773308
 11
-34.635672
 21
-115.08423
  0
LINE
  8
寸法
  6
BYBLOCK
 62
     0
 10
20.364332
 20
-115.08423
 11
-34.635672
 21
-115.08423
  0
POINT
  8
寸法
 62
     0
 10
-34.635672
 20
-115.08423
 50
-90.0
  0
TEXT
  7
TextStyle03
  8
寸法
  6
CONTINUOUS
 62
     0
 10
-5.2875
 20
-115.45
  1
55
 40
3.5
 50
180.0
 72
     5
 11
-9.0125
 21
-115.45
  0
ENDBLK
  0
BLOCK
  2
*DIM_0018
 70
    65
 10
0.0
 20
0.0
  0
LINE
  8
寸法
  6
BYBLOCK
 62
     0
 10
-49.13425
 20
-76.773312
 11
-49.13425
 21
-115.08423
  0
LINE
  8
寸法
  6
BYBLOCK
 62
     0
 10
-34.635672
 20
-115.08423
 11
-49.13425
 21
-115.08423
  0
POINT
  8
寸法
 62
     0
 10
-49.13425
 20
-115.08423
 50
-90.0
  0
TEXT
  7
TextStyle03
  8
寸法
  6
CONTINUOUS
 62
     0
 10
-38.0625
 20
-115.45
  1
14.5
 40
3.5
 50
180.0
 72
     5
 11
-45.7375
 21
-115.45
  0
ENDBLK
  0
BLOCK
  2
*DIM_0019
 70
    65
 10
0.0
 20
0.0
  0
LINE
  8
寸法
  6
BYBLOCK
 62
     0
 10
35.54652
 20
-83.173333
 11
35.54652
 21
-115.08423
  0
LINE
  8
寸法
  6
BYBLOCK
 62
     0
 10
32.545082
 20
-115.08423
 11
35.54652
 21
-115.08423
  0
POINT
  8
寸法
 62
     0
 10
32.545082
 20
-115.08423
 50
-90.0
  0
POINT
  8
寸法
 62
     0
 10
35.54652
 20
-115.08423
 50
-90.0
  0
TEXT
  7
TextStyle03
  8
寸法
  6
CONTINUOUS
 62
     0
 10
34.925
 20
-115.45
  1
3
 40
3.5
 50
180.0
 72
     5
 11
33.175
 21
-115.45
  0
ENDBLK
  0
BLOCK
  2
*DIM_0020
 70
    65
 10
0.0
 20
0.0
  0
LINE
  8
寸法
  6
BYBLOCK
 62
     0
 10
45.546522
 20
-83.173333
 11
45.546522
 21
-115.08423
  0
LINE
  8
寸法
  6
BYBLOCK
 62
     0
 10
35.54652
 20
-115.08423
 11
45.546522
 21
-115.08423
  0
POINT
  8
寸法
 62
     0
 10
45.546522
 20
-115.08423
 50
-90.0
  0
TEXT
  7
TextStyle03
  8
寸法
  6
CONTINUOUS
 62
     0
 10
42.4125
 20
-115.45
  1
10
 40
3.5
 50
180.0
 72
     5
 11
38.6875
 21
-115.45
  0
ENDBLK
  0
BLOCK
  2
*DIM_0021
 70
    65
 10
0.0
 20
0.0
  0
LINE
  8
寸法
  6
BYBLOCK
 62
     0
 10
-79.1328
 20
-64.77333
 11
-79.1328
 21
-124.984405
  0
LINE
  8
寸法
  6
BYBLOCK
 62
     0
 10
124.365753
 20
-73.773308
 11
124.365753
 21
-124.984405
  0
LINE
  8
寸法
  6
BYBLOCK
 62
     0
 10
-79.1328
 20
-124.984405
 11
124.365753
 21
-124.984405
  0
POINT
  8
寸法
 62
     0
 10
-79.1328
 20
-124.984405
 50
-90.0
  0
POINT
  8
寸法
 62
     0
 10
124.365753
 20
-124.984405
 50
-90.0
  0
TEXT
  7
TextStyle03
  8
寸法
  6
CONTINUOUS
 62
     0
 10
27.45
 20
-125.35
  1
203.5
 40
3.5
 50
180.0
 72
     5
 11
17.8
 21
-125.35
  0
ENDBLK
  0
BLOCK
  2
*DIM_0022
 70
    65
 10
0.0
 20
0.0
  0
LINE
  8
寸法
  6
BYBLOCK
 62
     0
 10
124.365753
 20
-75.773308
 11
124.365753
 21
-115.08423
  0
LINE
  8
寸法
  6
BYBLOCK
 62
     0
 10
45.546522
 20
-115.08423
 11
124.365753
 21
-115.08423
  0
POINT
  8
寸法
 62
     0
 10
45.546522
 20
-115.08423
 50
-90.0
  0
POINT
  8
寸法
 62
     0
 10
124.365753
 20
-115.08423
 50
-90.0
  0
TEXT
  7
TextStyle03
  8
寸法
  6
CONTINUOUS
 62
     0
 10
88.7875
 20
-115.45
  1
78.8
 40
3.5
 50
180.0
 72
     5
 11
81.1125
 21
-115.45
  0
ENDBLK
  0
BLOCK
  2
*DIM_0023
 70
    65
 10
0.0
 20
0.0
  0
LINE
  8
寸法
  6
BYBLOCK
 62
     0
 10
124.365753
 20
45.726663
 11
124.365753
 21
99.933163
  0
LINE
  8
寸法
  6
BYBLOCK
 62
     0
 10
-72.434238
 20
14.02667
 11
-72.434238
 21
99.933163
  0
LINE
  8
寸法
  6
BYBLOCK
 62
     0
 10
124.365753
 20
99.933163
 11
-72.434238
 21
99.933163
  0
POINT
  8
寸法
 62
     0
 10
124.365753
 20
99.933163
 50
-90.0
  0
POINT
  8
寸法
 62
     0
 10
-72.434238
 20
99.933163
 50
-90.0
  0
TEXT
  7
TextStyle03
  8
寸法
  6
CONTINUOUS
 62
     0
 10
30.8
 20
99.575
  1
196.8
 40
3.5
 50
180.0
 72
     5
 11
21.15
 21
99.575
  0
ENDBLK
  0
BLOCK
  2
*DIM_0024
 70
    65
 10
0.0
 20
0.0
  0
LINE
  8
寸法
  6
BYBLOCK
 62
     0
 10
-72.434238
 20
90.671853
 11
-72.434238
 21
90.955712
  0
LINE
  8
寸法
  6
BYBLOCK
 62
     0
 10
-46.634253
 20
14.026668
 11
-46.634253
 21
90.955712
  0
LINE
  8
寸法
  6
BYBLOCK
 62
     0
 10
-72.434238
 20
90.955712
 11
-46.634253
 21
90.955712
  0
POINT
  8
寸法
 62
     0
 10
-72.434238
 20
90.955712
 50
-90.0
  0
POINT
  8
寸法
 62
     0
 10
-46.634253
 20
90.955712
 50
-90.0
  0
TEXT
  7
TextStyle03
  8
寸法
  6
CONTINUOUS
 62
     0
 10
-55.6875
 20
90.6
  1
25.8
 40
3.5
 50
180.0
 72
     5
 11
-63.3625
 21
90.6
  0
ENDBLK
  0
BLOCK
  2
*DIM_0025
 70
    65
 10
0.0
 20
0.0
  0
LINE
  8
寸法
  6
BYBLOCK
 62
     0
 10
20.365753
 20
-30.273348
 11
20.365753
 21
90.955712
  0
LINE
  8
寸法
  6
BYBLOCK
 62
     0
 10
-46.634253
 20
90.955712
 11
20.365753
 21
90.955712
  0
POINT
  8
寸法
 62
     0
 10
20.365753
 20
90.955712
 50
-90.0
  0
TEXT
  7
TextStyle03
  8
寸法
  6
CONTINUOUS
 62
     0
 10
-11.2625
 20
90.6
  1
67
 40
3.5
 50
180.0
 72
     5
 11
-14.9875
 21
90.6
  0
ENDBLK
  0
BLOCK
  2
*DIM_0026
 70
    65
 10
0.0
 20
0.0
  0
LINE
  8
寸法
  6
BYBLOCK
 62
     0
 10
24.865753
 20
-30.273352
 11
24.865753
 21
90.955712
  0
LINE
  8
寸法
  6
BYBLOCK
 62
     0
 10
20.365753
 20
90.955712
 11
24.865753
 21
90.955712
  0
POINT
  8
寸法
 62
     0
 10
24.865753
 20
90.955712
 50
-90.0
  0
TEXT
  7
TextStyle03
  8
寸法
  6
CONTINUOUS
 62
     0
 10
25.475
 20
94.55
  1
4.5
 40
3.5
 50
180.0
 72
     5
 11
19.775
 21
94.55
  0
ENDBLK
  0
BLOCK
  2
*DIM_0027
 70
    65
 10
0.0
 20
0.0
  0
LINE
  8
寸法
  6
BYBLOCK
 62
     0
 10
104.365753
 20
45.726663
 11
104.365753
 21
90.955712
  0
LINE
  8
寸法
  6
BYBLOCK
 62
     0
 10
24.865753
 20
90.955712
 11
104.365753
 21
90.955712
  0
POINT
  8
寸法
 62
     0
 10
104.365753
 20
90.955712
 50
-90.0
  0
TEXT
  7
TextStyle03
  8
寸法
  6
CONTINUOUS
 62
     0
 10
68.4625
 20
90.6
  1
79.5
 40
3.5
 50
180.0
 72
     5
 11
60.7875
 21
90.6
  0
ENDBLK
  0
BLOCK
  2
*DIM_0028
 70
    65
 10
0.0
 20
0.0
  0
LINE
  8
寸法
  6
BYBLOCK
 62
     0
 10
124.365753
 20
46.726663
 11
124.365753
 21
90.955712
  0
LINE
  8
寸法
  6
BYBLOCK
 62
     0
 10
104.365753
 20
90.955712
 11
124.365753
 21
90.955712
  0
POINT
  8
寸法
 62
     0
 10
124.365753
 20
90.955712
 50
-90.0
  0
TEXT
  7
TextStyle03
  8
寸法
  6
CONTINUOUS
 62
     0
 10
116.2375
 20
90.6
  1
20
 40
3.5
 50
180.0
 72
     5
 11
112.5125
 21
90.6
  0
ENDBLK
  0
BLOCK
  2
*DIM_0029
 70
    65
 10
0.0
 20
0.0
  0
LINE
  8
寸法
  6
BYBLOCK
 62
     0
 10
-46.634253
 20
75.687485
 11
-46.634253
 21
81.534748
  0
LINE
  8
寸法
  6
BYBLOCK
 62
     0
 10
-24.634253
 20
-21.888142
 11
-24.634253
 21
81.534748
  0
LINE
  8
寸法
  6
BYBLOCK
 62
     0
 10
-46.634253
 20
81.534748
 11
-24.634253
 21
81.534748
  0
POINT
  8
寸法
 62
     0
 10
-46.634253
 20
81.534748
 50
-90.0
  0
POINT
  8
寸法
 62
     0
 10
-24.634253
 20
81.534748
 50
-90.0
  0
TEXT
  7
TextStyle03
  8
寸法
  6
CONTINUOUS
 62
     0
 10
-33.7625
 20
81.175
  1
22
 40
3.5
 50
180.0
 72
     5
 11
-37.4875
 21
81.175
  0
ENDBLK
  0
BLOCK
  2
*DIM_0030
 70
    65
 10
0.0
 20
0.0
  0
LINE
  8
寸法
  6
BYBLOCK
 62
     0
 10
-4.634253
 20
-21.888142
 11
-4.634253
 21
81.534748
  0
LINE
  8
寸法
  6
BYBLOCK
 62
     0
 10
-24.634253
 20
81.534748
 11
-4.634253
 21
81.534748
  0
POINT
  8
寸法
 62
     0
 10
-4.634253
 20
81.534748
 50
-90.0
  0
TEXT
  7
TextStyle03
  8
寸法
  6
CONTINUOUS
 62
     0
 10
-12.7625
 20
81.175
  1
20
 40
3.5
 50
180.0
 72
     5
 11
-16.4875
 21
81.175
  0
ENDBLK
  0
BLOCK
  2
*DIM_0031
 70
    65
 10
0.0
 20
0.0
  0
LINE
  8
寸法
  6
BYBLOCK
 62
     0
 10
3.365747
 20
-10.273348
 11
3.365747
 21
81.534748
  0
LINE
  8
寸法
  6
BYBLOCK
 62
     0
 10
-4.634253
 20
81.534748
 11
3.365747
 21
81.534748
  0
POINT
  8
寸法
 62
     0
 10
3.365747
 20
81.534748
 50
-90.0
  0
TEXT
  7
TextStyle03
  8
寸法
  6
CONTINUOUS
 62
     0
 10
0.25
 20
81.175
  1
8
 40
3.5
 50
180.0
 72
     5
 11
-1.5
 21
81.175
  0
ENDBLK
  0
BLOCK
  2
*DIM_0032
 70
    65
 10
0.0
 20
0.0
  0
LINE
  8
寸法
  6
BYBLOCK
 62
     0
 10
72.865753
 20
-10.273352
 11
72.865753
 21
81.534748
  0
LINE
  8
寸法
  6
BYBLOCK
 62
     0
 10
3.365747
 20
81.534748
 11
72.865753
 21
81.534748
  0
POINT
  8
寸法
 62
     0
 10
72.865753
 20
81.534748
 50
-90.0
  0
TEXT
  7
TextStyle03
  8
寸法
  6
CONTINUOUS
 62
     0
 10
41.9625
 20
81.175
  1
69.5
 40
3.5
 50
180.0
 72
     5
 11
34.2875
 21
81.175
  0
ENDBLK
  0
BLOCK
  2
*DIM_0033
 70
    65
 10
0.0
 20
0.0
  0
LINE
  8
寸法
  6
BYBLOCK
 62
     0
 10
80.865753
 20
-21.888148
 11
80.865753
 21
81.534748
  0
LINE
  8
寸法
  6
BYBLOCK
 62
     0
 10
72.865753
 20
81.534748
 11
80.865753
 21
81.534748
  0
POINT
  8
寸法
 62
     0
 10
80.865753
 20
81.534748
 50
-90.0
  0
TEXT
  7
TextStyle03
  8
寸法
  6
CONTINUOUS
 62
     0
 10
77.75
 20
81.175
  1
8
 40
3.5
 50
180.0
 72
     5
 11
76.0
 21
81.175
  0
ENDBLK
  0
BLOCK
  2
*DIM_0034
 70
    65
 10
0.0
 20
0.0
  0
LINE
  8
寸法
  6
BYBLOCK
 62
     0
 10
100.865753
 20
-21.888148
 11
100.865753
 21
81.534748
  0
LINE
  8
寸法
  6
BYBLOCK
 62
     0
 10
80.865753
 20
81.534748
 11
100.865753
 21
81.534748
  0
POINT
  8
寸法
 62
     0
 10
100.865753
 20
81.534748
 50
-90.0
  0
TEXT
  7
TextStyle03
  8
寸法
  6
CONTINUOUS
 62
     0
 10
92.7375
 20
81.175
  1
20
 40
3.5
 50
180.0
 72
     5
 11
89.0125
 21
81.175
  0
ENDBLK
  0
BLOCK
  2
*DIM_0035
 70
    65
 10
0.0
 20
0.0
  0
LINE
  8
寸法
  6
BYBLOCK
 62
     0
 10
109.865753
 20
-21.701967
 11
109.865753
 21
81.534748
  0
LINE
  8
寸法
  6
BYBLOCK
 62
     0
 10
100.865753
 20
81.534748
 11
109.865753
 21
81.534748
  0
POINT
  8
寸法
 62
     0
 10
109.865753
 20
81.534748
 50
-90.0
  0
TEXT
  7
TextStyle03
  8
寸法
  6
CONTINUOUS
 62
     0
 10
106.25
 20
81.175
  1
9
 40
3.5
 50
180.0
 72
     5
 11
104.5
 21
81.175
  0
ENDBLK
  0
BLOCK
  2
*DIM_0036
 70
    65
 10
0.0
 20
0.0
  0
LINE
  8
寸法
  6
BYBLOCK
 62
     0
 10
124.365753
 20
46.726663
 11
124.365753
 21
81.534748
  0
LINE
  8
寸法
  6
BYBLOCK
 62
     0
 10
109.865753
 20
81.534748
 11
124.365753
 21
81.534748
  0
POINT
  8
寸法
 62
     0
 10
124.365753
 20
81.534748
 50
-90.0
  0
TEXT
  7
TextStyle03
  8
寸法
  6
CONTINUOUS
 62
     0
 10
120.9625
 20
81.175
  1
14.5
 40
3.5
 50
180.0
 72
     5
 11
113.2875
 21
81.175
  0
ENDBLK
  0
BLOCK
  2
*DIM_0037
 70
    65
 10
0.0
 20
0.0
  0
LINE
  8
寸法
  6
BYBLOCK
 62
     0
 10
-80.448425
 20
-12.773335
 11
-142.75407
 21
-12.773335
  0
LINE
  8
寸法
  6
BYBLOCK
 62
     0
 10
-142.75407
 20
112.783755
 11
-142.75407
 21
-12.773335
  0
POINT
  8
寸法
 62
     0
 10
-142.75407
 20
112.783755
 50
-90.0
  0
POINT
  8
寸法
 62
     0
 10
-142.75407
 20
-12.773335
 50
-90.0
  0
TEXT
  7
TextStyle03
  8
寸法
  6
CONTINUOUS
 62
     0
 10
-144.3
 20
66.475
  1
　
 40
3.5
 50
90.0
 72
     5
 11
-144.3
 21
69.975
  0
ENDBLK
  0
BLOCK
  2
*DIM_0038
 70
    65
 10
0.0
 20
0.0
  0
LINE
  8
寸法
  6
BYBLOCK
 62
     0
 10
-81.134265
 20
-62.773335
 11
-142.75407
 21
-62.773335
  0
LINE
  8
寸法
  6
BYBLOCK
 62
     0
 10
-142.75407
 20
-12.773335
 11
-142.75407
 21
-62.773335
  0
POINT
  8
寸法
 62
     0
 10
-142.75407
 20
-12.773335
 50
-90.0
  0
POINT
  8
寸法
 62
     0
 10
-142.75407
 20
-62.773335
 50
-90.0
  0
TEXT
  7
TextStyle03
  8
寸法
  6
CONTINUOUS
 62
     0
 10
-143.1
 20
-39.6125
  1
50
 40
3.5
 50
90.0
 72
     5
 11
-143.1
 21
-35.8875
  0
ENDBLK
  0
BLOCK
  2
*DIM_0039
 70
    65
 10
0.0
 20
0.0
  0
LINE
  8
寸法
  6
BYBLOCK
 62
     0
 10
32.630185
 20
-81.773308
 11
-142.75407
 21
-81.773308
  0
LINE
  8
寸法
  6
BYBLOCK
 62
     0
 10
-142.75407
 20
-62.773335
 11
-142.75407
 21
-81.773308
  0
POINT
  8
寸法
 62
     0
 10
-142.75407
 20
-62.773335
 50
-90.0
  0
POINT
  8
寸法
 62
     0
 10
-142.75407
 20
-81.773308
 50
-90.0
  0
TEXT
  7
TextStyle03
  8
寸法
  6
CONTINUOUS
 62
     0
 10
-143.1
 20
-74.1125
  1
19
 40
3.5
 50
90.0
 72
     5
 11
-143.1
 21
-70.3875
  0
ENDBLK
  0
BLOCK
  2
*DIM_0040
 70
    65
 10
0.0
 20
0.0
  0
LINE
  8
寸法
  6
BYBLOCK
 62
     0
 10
-135.136128
 20
-81.773308
 11
-134.012233
 21
-81.773308
  0
LINE
  8
寸法
  6
BYBLOCK
 62
     0
 10
107.365738
 20
44.726665
 11
-134.012233
 21
44.726665
  0
LINE
  8
寸法
  6
BYBLOCK
 62
     0
 10
-134.012233
 20
-81.773308
 11
-134.012233
 21
44.726665
  0
POINT
  8
寸法
 62
     0
 10
-134.012233
 20
-81.773308
 50
-90.0
  0
POINT
  8
寸法
 62
     0
 10
-134.012233
 20
44.726665
 50
-90.0
  0
TEXT
  7
TextStyle03
  8
寸法
  6
CONTINUOUS
 62
     0
 10
-134.375
 20
-23.325
  1
126.5
 40
3.5
 50
90.0
 72
     5
 11
-134.375
 21
-13.675
  0
ENDBLK
  0
BLOCK
  2
*GRP_0041
 70
    65
 10
0.0
 20
0.0
  0
POLYLINE
  8
寸法
  6
BYBLOCK
 62
     0
 66
     1
  0
VERTEX
  8
寸法
 10
35.346348
 20
-60.596857
  0
VERTEX
  8
寸法
 10
36.846348
 20
-57.99878
  0
VERTEX
  8
寸法
 10
34.248272
 20
-59.49878
  0
SEQEND
  0
POLYLINE
  8
寸法
  6
BYBLOCK
 62
     0
 66
     1
  0
VERTEX
  8
寸法
 10
36.846348
 20
-57.99878
  0
VERTEX
  8
寸法
 10
27.34701
 20
-67.49812
  0
VERTEX
  8
寸法
 10
27.34701
 20
-87.705205
  0
SEQEND
  0
ENDBLK
  0
BLOCK
  2
*GRP_0042
 70
    65
 10
0.0
 20
0.0
  0
POLYLINE
  8
寸法
  6
BYBLOCK
 62
     0
 66
     1
  0
VERTEX
  8
寸法
 10
-77.675
 20
-43.240982
  0
VERTEX
  8
寸法
 10
-76.175
 20
-40.642908
  0
VERTEX
  8
寸法
 10
-78.773075
 20
-42.142908
  0
SEQEND
  0
POLYLINE
  8
寸法
  6
BYBLOCK
 62
     0
 66
     1
  0
VERTEX
  8
寸法
 10
-76.175
 20
-40.642908
  0
VERTEX
  8
寸法
 10
-91.928315
 20
-56.396223
  0
VERTEX
  8
寸法
 10
-91.928315
 20
-65.51272
  0
SEQEND
  0
ENDBLK
  0
BLOCK
  2
*GRP_0043
 70
    65
 10
0.0
 20
0.0
  0
POLYLINE
  8
寸法
  6
BYBLOCK
 62
     0
 66
     1
  0
VERTEX
  8
寸法
 10
-153.205145
 20
55.070522
  0
VERTEX
  8
寸法
 10
-151.705145
 20
57.668598
  0
VERTEX
  8
寸法
 10
-154.30322
 20
56.168598
  0
SEQEND
  0
POLYLINE
  8
寸法
  6
BYBLOCK
 62
     0
 66
     1
  0
VERTEX
  8
寸法
 10
-151.705145
 20
57.668598
  0
VERTEX
  8
寸法
 10
-159.22138
 20
50.152362
  0
VERTEX
  8
寸法
 10
-159.22138
 20
42.565685
  0
SEQEND
  0
ENDBLK
  0
BLOCK
  2
*GRP_0044
 70
    65
 10
0.0
 20
0.0
  0
POLYLINE
  8
寸法
  6
BYBLOCK
 62
     0
 66
     1
  0
VERTEX
  8
寸法
 10
-14.376695
 20
-48.216693
  0
VERTEX
  8
寸法
 10
-0.18289
 20
-62.410498
  0
VERTEX
  8
寸法
 10
-0.18289
 20
-85.020943
  0
SEQEND
  0
ENDBLK
  0
BLOCK
  2
*GRP_0045
 70
    65
 10
0.0
 20
0.0
  0
POLYLINE
  8
寸法
  6
BYBLOCK
 62
     0
 66
     1
  0
VERTEX
  8
寸法
 10
55.780437
 20
-35.773352
  0
VERTEX
  8
寸法
 10
65.807692
 20
-45.800608
  0
VERTEX
  8
寸法
 10
65.807692
 20
-83.693495
  0
SEQEND
  0
ENDBLK
  0
BLOCK
  2
*GRP_0046
 70
    65
 10
0.0
 20
0.0
  0
POLYLINE
  8
寸法
  6
BYBLOCK
 62
     0
 66
     1
  0
VERTEX
  8
寸法
 10
-18.634253
 20
-11.273348
  0
VERTEX
  8
寸法
 10
-10.888565
 20
-3.52766
  0
VERTEX
  8
寸法
 10
-10.888565
 20
0.34995
  0
SEQEND
  0
ENDBLK
  0
BLOCK
  2
*GRP_0047
 70
    65
 10
0.0
 20
0.0
  0
POLYLINE
  8
寸法
  6
BYBLOCK
 62
     0
 66
     1
  0
VERTEX
  8
寸法
 10
77.243767
 20
-11.273352
  0
VERTEX
  8
寸法
 10
66.79667
 20
-0.826255
  0
VERTEX
  8
寸法
 10
66.79667
 20
1.63237
  0
SEQEND
  0
ENDBLK
  0
BLOCK
  2
*GRP_0048
 70
    65
 10
0.0
 20
0.0
  0
POLYLINE
  8
寸法
  6
BYBLOCK
 62
     0
 66
     1
  0
VERTEX
  8
寸法
 10
103.365753
 20
-5.785498
  0
VERTEX
  8
寸法
 10
96.296115
 20
1.284143
  0
VERTEX
  8
寸法
 10
96.296115
 20
4.342745
  0
SEQEND
  0
ENDBLK
  0
BLOCK
  2
*DIM_0049
 70
    65
 10
0.0
 20
0.0
  0
LINE
  8
寸法
  6
BYBLOCK
 62
     0
 10
139.365753
 20
-55.773308
 11
139.365753
 21
-124.984405
  0
LINE
  8
寸法
  6
BYBLOCK
 62
     0
 10
124.365753
 20
-124.984405
 11
139.365753
 21
-124.984405
  0
POINT
  8
寸法
 62
     0
 10
124.365753
 20
-124.984405
  0
POINT
  8
寸法
 62
     0
 10
139.365753
 20
-124.984405
  0
TEXT
  7
TextStyle03
  8
寸法
  6
CONTINUOUS
 62
     0
 10
130.25625
 20
-124.6
  1
15
 40
3.0
 72
     5
 11
133.44375
 21
-124.6
  0
ENDBLK
  0
BLOCK
  2
*DIM_0050
 70
    65
 10
0.0
 20
0.0
  0
LINE
  8
寸法
  6
BYBLOCK
 62
     0
 10
125.365753
 20
-71.773308
 11
167.566447
 21
-71.773308
  0
LINE
  8
寸法
  6
BYBLOCK
 62
     0
 10
140.365753
 20
-54.773308
 11
167.566447
 21
-54.773308
  0
LINE
  8
寸法
  6
BYBLOCK
 62
     0
 10
167.566447
 20
-71.773308
 11
167.566447
 21
-54.773308
  0
POINT
  8
寸法
 62
     0
 10
167.566447
 20
-71.773308
  0
POINT
  8
寸法
 62
     0
 10
167.566447
 20
-54.773308
  0
TEXT
  7
TextStyle03
  8
寸法
  6
CONTINUOUS
 62
     0
 10
167.175
 20
-64.86875
  1
17
 40
3.0
 50
90.0
 72
     5
 11
167.175
 21
-61.68125
  0
ENDBLK
  0
BLOCK
  2
*DIM_0051
 70
    65
 10
0.0
 20
0.0
  0
LINE
  8
寸法
  6
BYBLOCK
 62
     0
 10
125.365753
 20
44.726663
 11
167.566447
 21
44.726663
  0
LINE
  8
寸法
  6
BYBLOCK
 62
     0
 10
167.566447
 20
-54.773308
 11
167.566447
 21
44.726663
  0
POINT
  8
寸法
 62
     0
 10
167.566447
 20
44.726663
  0
TEXT
  7
TextStyle03
  8
寸法
  6
CONTINUOUS
 62
     0
 10
167.175
 20
-8.30625
  1
99.5
 40
3.0
 50
90.0
 72
     5
 11
167.175
 21
-1.74375
  0
ENDBLK
  0
BLOCK
  2
*DIM_0052
 70
    65
 10
0.0
 20
0.0
  0
LINE
  8
寸法
  6
BYBLOCK
 62
     0
 10
-125.597368
 20
-12.773335
 11
-125.574342
 21
-12.773335
  0
LINE
  8
寸法
  6
BYBLOCK
 62
     0
 10
-92.832815
 20
-32.773335
 11
-125.574342
 21
-32.773335
  0
LINE
  8
寸法
  6
BYBLOCK
 62
     0
 10
-125.574342
 20
-12.773335
 11
-125.574342
 21
-32.773335
  0
POINT
  8
寸法
 62
     0
 10
-125.574342
 20
-12.773335
  0
POINT
  8
寸法
 62
     0
 10
-125.574342
 20
-32.773335
  0
TEXT
  7
TextStyle03
  8
寸法
  6
CONTINUOUS
 62
     0
 10
-125.95
 20
-24.36875
  1
20
 40
3.0
 50
90.0
 72
     5
 11
-125.95
 21
-21.18125
  0
ENDBLK
  0
BLOCK
  2
*DIM_0053
 70
    65
 10
0.0
 20
0.0
  0
LINE
  8
寸法
  6
BYBLOCK
 62
     0
 10
-82.134265
 20
-62.773335
 11
-125.574342
 21
-62.773335
  0
LINE
  8
寸法
  6
BYBLOCK
 62
     0
 10
-125.574342
 20
-32.773335
 11
-125.574342
 21
-62.773335
  0
POINT
  8
寸法
 62
     0
 10
-125.574342
 20
-62.773335
  0
TEXT
  7
TextStyle03
  8
寸法
  6
CONTINUOUS
 62
     0
 10
-125.95
 20
-49.36875
  1
30
 40
3.0
 50
90.0
 72
     5
 11
-125.95
 21
-46.18125
  0
ENDBLK
  0
BLOCK
  2
*GRP_0054
 70
    65
 10
0.0
 20
0.0
  0
ARC
  8
ゴム等
  6
CONTINUOUS
 62
   127
 10
-74.629233
 20
-19.273328
 40
1.5
 50
90.0
 51
180.0
  0
LINE
  8
ゴム等
  6
CONTINUOUS
 62
   127
 10
-74.62923
 20
-17.773325
 11
-74.62923
 21
-17.773325
  0
ARC
  8
ゴム等
  6
CONTINUOUS
 62
   127
 10
-74.629233
 20
-19.273328
 40
1.5
 50
0.0
 51
90.0
  0
LINE
  8
ゴム等
  6
CONTINUOUS
 62
   127
 10
-76.12923
 20
-46.273325
 11
-76.12923
 21
-19.273325
  0
ARC
  8
ゴム等
  6
CONTINUOUS
 62
   127
 10
-74.629233
 20
-46.273328
 40
1.5
 50
180.0
 51
270.0
  0
LINE
  8
ゴム等
  6
CONTINUOUS
 62
   127
 10
-74.62923
 20
-47.773325
 11
-74.62923
 21
-47.773325
  0
LINE
  8
ゴム等
  6
CONTINUOUS
 62
   127
 10
-73.12923
 20
-46.273325
 11
-73.12923
 21
-19.273325
  0
ARC
  8
ゴム等
  6
CONTINUOUS
 62
   127
 10
-74.629233
 20
-46.273328
 40
1.5
 50
270.0
 51
360.0
  0
ENDBLK
  0
BLOCK
  2
*GRP_0055
 70
    65
 10
0.0
 20
0.0
  0
LINE
  8
ボルト／ビス
  6
CONTINUOUS
 10
-79.132852
 20
-43.773335
 11
-81.132855
 21
-43.773335
  0
LINE
  8
ボルト／ビス
  6
CONTINUOUS
 10
-81.132855
 20
-43.773335
 11
-81.132855
 21
-21.77333
  0
LINE
  8
ボルト／ビス
  6
CONTINUOUS
 10
-81.132855
 20
-21.77333
 11
-79.132852
 21
-21.77333
  0
LINE
  8
ボルト／ビス
  6
CONTINUOUS
 10
-79.132852
 20
-43.773335
 11
-79.132852
 21
-21.77333
  0
LINE
  8
ボルト／ビス
  6
CONTINUOUS
 10
-82.132852
 20
-41.773333
 11
-81.132855
 21
-41.773333
  0
LINE
  8
ボルト／ビス
  6
CONTINUOUS
 10
-82.132852
 20
-41.773333
 11
-82.132852
 21
-23.773333
  0
LINE
  8
ボルト／ビス
  6
CONTINUOUS
 10
-82.132852
 20
-23.773333
 11
-81.132855
 21
-23.773333
  0
LINE
  8
ボルト／ビス
  6
CONTINUOUS
 62
    64
 10
-88.132852
 20
-37.584583
 11
-87.782625
 21
-38.546832
  0
ARC
  8
ボルト／ビス
  6
CONTINUOUS
 62
    64
 10
-84.983502
 20
-37.103457
 40
3.149352
 50
152.721967
 51
180.0
  0
ARC
  8
ボルト／ビス
  6
CONTINUOUS
 62
    64
 10
-76.060787
 20
-32.77333
 40
12.072067
 50
166.165002
 51
193.834985
  0
LINE
  8
ボルト／ビス
  6
CONTINUOUS
 62
    64
 10
-88.132852
 20
-27.962082
 11
-87.782625
 21
-26.999832
  0
ARC
  8
ボルト／ビス
  6
CONTINUOUS
 62
    64
 10
-84.983502
 20
-28.443203
 40
3.149352
 50
180.0
 51
207.278033
  0
LINE
  8
ボルト／ビス
  6
CONTINUOUS
 62
    64
 10
-88.132852
 20
-37.584583
 11
-88.132852
 21
-27.962082
  0
LINE
  8
ボルト／ビス
  6
CONTINUOUS
 62
    64
 10
-87.782625
 20
-26.999832
 11
-84.132855
 21
-26.999832
  0
LINE
  8
ボルト／ビス
  6
CONTINUOUS
 62
    64
 10
-87.782625
 20
-29.886582
 11
-84.132855
 21
-29.886582
  0
LINE
  8
ボルト／ビス
  6
CONTINUOUS
 62
    64
 10
-87.782625
 20
-38.546832
 11
-84.132855
 21
-38.546832
  0
LINE
  8
ボルト／ビス
  6
CONTINUOUS
 62
    64
 10
-87.782625
 20
-35.660083
 11
-84.132855
 21
-35.660083
  0
LINE
  8
ボルト／ビス
  6
CONTINUOUS
 10
-84.132855
 20
-38.546832
 11
-84.132855
 21
-26.999832
  0
LINE
  8
ボルト／ビス
  6
CONTINUOUS
 10
-84.132855
 20
-38.773333
 11
-82.132852
 21
-38.773333
  0
LINE
  8
ボルト／ビス
  6
CONTINUOUS
 10
-84.132855
 20
-38.773333
 11
-84.132855
 21
-26.773333
  0
LINE
  8
ボルト／ビス
  6
CONTINUOUS
 10
-84.132855
 20
-26.773333
 11
-82.132852
 21
-26.773333
  0
LINE
  8
ボルト／ビス
  6
CONTINUOUS
 62
    64
 10
-79.132852
 20
-30.47333
 11
-59.132857
 21
-30.47333
  0
LINE
  8
ボルト／ビス
  6
CONTINUOUS
 62
    64
 10
-79.132852
 20
-35.073335
 11
-59.132857
 21
-35.073335
  0
LINE
  8
ボルト／ビス
  6
CONTINUOUS
 62
    64
 10
-59.132857
 20
-35.073335
 11
-59.132857
 21
-30.47333
  0
LINE
  8
ボルト／ビス
  6
CONTINUOUS
 62
    64
 10
-60.132855
 20
-29.773333
 11
-59.132857
 21
-30.47333
  0
LINE
  8
ボルト／ビス
  6
CONTINUOUS
 62
    64
 10
-60.132855
 20
-35.773333
 11
-59.132857
 21
-35.073335
  0
LINE
  8
ボルト／ビス
  6
CONTINUOUS
 62
    64
 10
-60.132855
 20
-35.773333
 11
-60.132855
 21
-29.773333
  0
LINE
  8
ボルト／ビス
  6
CONTINUOUS
 62
    64
 10
-59.132857
 20
-35.073335
 11
-59.132857
 21
-30.47333
  0
LINE
  8
ボルト／ビス
  6
CONTINUOUS
 62
    64
 10
-79.132852
 20
-35.773333
 11
-60.132855
 21
-35.773333
  0
LINE
  8
ボルト／ビス
  6
CONTINUOUS
 62
    64
 10
-79.132852
 20
-29.773333
 11
-60.132855
 21
-29.773333
  0
ENDBLK
  0
BLOCK
  2
*GRP_0056
 70
    65
 10
0.0
 20
0.0
  0
LINE
  8
別途部材
  6
CONTINUOUS
 10
116.365762
 20
-20.773352
 11
72.36576
 21
-20.773352
  0
ARC
  8
別途部材
  6
CONTINUOUS
 10
116.365763
 20
-14.773345
 40
6.0
 50
270.0
 51
360.0
  0
LINE
  8
別途部材
  6
CONTINUOUS
 10
116.365762
 20
-8.773352
 11
72.36576
 21
-8.773352
  0
ARC
  8
別途部材
  6
CONTINUOUS
 10
116.365763
 20
-14.773345
 40
6.0
 50
0.0
 51
90.0
  0
CIRCLE
  8
別途部材
  6
CONTINUOUS
 10
116.365762
 20
-14.773352
 40
3.0
  0
LINE
  8
別途部材
  6
CONTINUOUS
 10
116.365762
 20
-17.773352
 11
116.365762
 21
-11.773352
  0
LINE
  8
別途部材
  6
CONTINUOUS
 10
119.365762
 20
-14.773352
 11
113.365762
 21
-14.773352
  0
LINE
  8
別途部材
  6
CONTINUOUS
 10
72.36576
 20
-20.773352
 11
72.36576
 21
-18.773343
  0
LINE
  8
別途部材
  6
CONTINUOUS
 10
72.36576
 20
-10.773348
 11
72.36576
 21
-8.773352
  0
LINE
  8
別途部材
  6
CONTINUOUS
 10
72.36576
 20
-18.773343
 11
110.365762
 21
-18.773343
  0
LINE
  8
別途部材
  6
CONTINUOUS
 10
110.365762
 20
-18.773343
 11
110.365762
 21
-10.773348
  0
LINE
  8
別途部材
  6
CONTINUOUS
 10
72.36576
 20
-10.773348
 11
110.365762
 21
-10.773348
  0
ARC
  8
別途部材
  6
CONTINUOUS
 10
72.824095
 20
-14.773345
 40
2.541667
 50
280.38896
 51
439.61104
  0
LINE
  8
別途部材
  6
CONTINUOUS
 10
72.36576
 20
-11.273343
 11
72.36576
 21
-12.273348
  0
LINE
  8
別途部材
  6
CONTINUOUS
 10
72.36576
 20
-18.273348
 11
72.36576
 21
-17.273343
  0
CIRCLE
  8
別途部材
  6
CONTINUOUS
 10
106.365765
 20
-14.773352
 40
0.999997
  0
LINE
  8
別途部材
  6
CONTINUOUS
 10
106.365765
 20
-13.773348
 11
106.365765
 21
-15.773343
  0
LINE
  8
別途部材
  6
CONTINUOUS
 10
107.365762
 20
-14.773352
 11
105.36576
 21
-14.773352
  0
ARC
  8
別途部材
  6
CONTINUOUS
 10
107.907435
 20
-14.773345
 40
2.541667
 50
100.38896
 51
259.61104
  0
LINE
  8
別途部材
  6
CONTINUOUS
 10
108.36576
 20
-11.273343
 11
108.36576
 21
-12.273348
  0
LINE
  8
別途部材
  6
CONTINUOUS
 10
108.36576
 20
-17.273343
 11
108.36576
 21
-18.273348
  0
LINE
  8
別途部材
  6
CONTINUOUS
 10
72.36576
 20
-12.273348
 11
108.36576
 21
-12.273348
  0
LINE
  8
別途部材
  6
CONTINUOUS
 10
72.36576
 20
-11.273343
 11
108.36576
 21
-11.273343
  0
LINE
  8
別途部材
  6
CONTINUOUS
 10
72.36576
 20
-17.273343
 11
108.36576
 21
-17.273343
  0
LINE
  8
別途部材
  6
CONTINUOUS
 10
72.36576
 20
-18.273348
 11
108.36576
 21
-18.273348
  0
ENDBLK
  0
BLOCK
  2
*GRP_0057
 70
    65
 10
0.0
 20
0.0
  0
LINE
  8
別途部材
  6
CONTINUOUS
 10
122.365762
 20
-14.773352
 11
122.365762
 21
-14.773352
  0
LINE
  8
別途部材
  6
CONTINUOUS
 10
109.365757
 20
-20.773352
 11
109.365757
 21
-23.27335
  0
LINE
  8
別途部材
  6
CONTINUOUS
 10
122.865757
 20
-14.773352
 11
122.365755
 21
-14.773345
  0
LINE
  8
別途部材
  6
CONTINUOUS
 10
110.365762
 20
-31.273352
 11
110.365762
 21
-23.27335
  0
ARC
  8
別途部材
  6
CONTINUOUS
 10
73.365764
 20
-30.273351
 40
1.0
 50
180.0
 51
270.0
  0
LINE
  8
別途部材
  6
CONTINUOUS
 10
72.36576
 20
-24.273348
 11
72.36576
 21
-30.273348
  0
ARC
  8
別途部材
  6
CONTINUOUS
 10
73.365764
 20
-24.273351
 40
1.0
 50
90.0
 51
180.0
  0
LINE
  8
別途部材
  6
CONTINUOUS
 10
73.365757
 20
-31.273352
 11
121.86576
 21
-31.273352
  0
ARC
  8
別途部材
  6
CONTINUOUS
 10
121.865764
 20
-30.273351
 40
1.0
 50
270.0
 51
360.0
  0
LINE
  8
別途部材
  6
CONTINUOUS
 10
73.365757
 20
-23.27335
 11
121.86576
 21
-23.27335
  0
ARC
  8
別途部材
  6
CONTINUOUS
 10
121.865764
 20
-24.273351
 40
1.0
 50
0.0
 51
90.0
  0
LINE
  8
別途部材
  6
CONTINUOUS
 10
122.865757
 20
-30.273348
 11
122.865757
 21
-14.773352
  0
LINE
  8
別途部材
  6
CONTINUOUS
 10
103.365757
 20
-25.573352
 11
98.365762
 21
-25.573352
  0
LINE
  8
別途部材
  6
CONTINUOUS
 10
83.365762
 20
-25.573352
 11
78.365753
 21
-25.573352
  0
POLYLINE
  8
別途部材
  6
CONTINUOUS
 66
     1
  0
VERTEX
  8
別途部材
 10
104.865757
 20
-23.27335
  0
VERTEX
  8
別途部材
 10
103.365757
 20
-25.573352
  0
VERTEX
  8
別途部材
 10
103.365757
 20
-31.273352
  0
SEQEND
  0
LINE
  8
別途部材
  6
CONTINUOUS
 10
100.865753
 20
-23.27335
 11
100.865753
 21
-31.273352
  0
POLYLINE
  8
別途部材
  6
CONTINUOUS
 66
     1
  0
VERTEX
  8
別途部材
 10
96.865762
 20
-23.27335
  0
VERTEX
  8
別途部材
 10
98.365762
 20
-25.573352
  0
VERTEX
  8
別途部材
 10
98.365762
 20
-31.273352
  0
SEQEND
  0
POLYLINE
  8
別途部材
  6
CONTINUOUS
 66
     1
  0
VERTEX
  8
別途部材
 10
84.865762
 20
-23.27335
  0
VERTEX
  8
別途部材
 10
83.365762
 20
-25.573352
  0
VERTEX
  8
別途部材
 10
83.365762
 20
-31.273352
  0
SEQEND
  0
LINE
  8
別途部材
  6
CONTINUOUS
 10
80.865757
 20
-23.27335
 11
80.865757
 21
-31.273352
  0
POLYLINE
  8
別途部材
  6
CONTINUOUS
 66
     1
  0
VERTEX
  8
別途部材
 10
76.865753
 20
-23.27335
  0
VERTEX
  8
別途部材
 10
78.365753
 20
-25.573352
  0
VERTEX
  8
別途部材
 10
78.365753
 20
-31.273352
  0
SEQEND
  0
ENDBLK
  0
BLOCK
  2
*GRP_0058
 70
    65
 10
0.0
 20
0.0
  0
LINE
  8
別途部材
  6
CONTINUOUS
 10
100.365765
 20
-24.773343
 11
100.365765
 21
19.226652
  0
ARC
  8
別途部材
  6
CONTINUOUS
 10
106.365769
 20
-24.773345
 40
6.0
 50
180.0
 51
270.0
  0
LINE
  8
別途部材
  6
CONTINUOUS
 10
112.365765
 20
-24.773343
 11
112.365765
 21
19.226652
  0
ARC
  8
別途部材
  6
CONTINUOUS
 10
106.365769
 20
-24.773345
 40
6.0
 50
-90.0
 51
0.0
  0
CIRCLE
  8
別途部材
  6
CONTINUOUS
 10
106.365765
 20
-24.773343
 40
3.0
  0
LINE
  8
別途部材
  6
CONTINUOUS
 10
103.365765
 20
-24.773343
 11
109.365765
 21
-24.773343
  0
LINE
  8
別途部材
  6
CONTINUOUS
 10
106.365765
 20
-27.773343
 11
106.365765
 21
-21.773343
  0
LINE
  8
別途部材
  6
CONTINUOUS
 10
100.365765
 20
19.226652
 11
102.365768
 21
19.226652
  0
LINE
  8
別途部材
  6
CONTINUOUS
 10
110.36577
 20
19.226652
 11
112.365765
 21
19.226652
  0
LINE
  8
別途部材
  6
CONTINUOUS
 10
102.365768
 20
19.226652
 11
102.365768
 21
-18.773343
  0
LINE
  8
別途部材
  6
CONTINUOUS
 10
102.365768
 20
-18.773343
 11
110.36577
 21
-18.773343
  0
LINE
  8
別途部材
  6
CONTINUOUS
 10
110.36577
 20
19.226652
 11
110.36577
 21
-18.773343
  0
ARC
  8
別途部材
  6
CONTINUOUS
 10
106.365769
 20
-17.315012
 40
2.541667
 50
270.0
 51
270.0
  0
ARC
  8
別途部材
  6
CONTINUOUS
 10
106.365769
 20
18.768323
 40
2.541667
 50
190.38896
 51
349.61104
  0
LINE
  8
別途部材
  6
CONTINUOUS
 10
109.865768
 20
19.226652
 11
108.86577
 21
19.226652
  0
LINE
  8
別途部材
  6
CONTINUOUS
 10
102.86577
 20
19.226652
 11
103.865768
 21
19.226652
  0
CIRCLE
  8
別途部材
  6
CONTINUOUS
 10
106.365765
 20
-14.773352
 40
0.999997
  0
LINE
  8
別途部材
  6
CONTINUOUS
 10
107.36577
 20
-14.773352
 11
105.365768
 21
-14.773352
  0
LINE
  8
別途部材
  6
CONTINUOUS
 10
106.365765
 20
-15.77335
 11
106.365765
 21
-13.773348
  0
ARC
  8
別途部材
  6
CONTINUOUS
 10
106.365769
 20
-16.315017
 40
2.541667
 50
10.38896
 51
169.61104
  0
LINE
  8
別途部材
  6
CONTINUOUS
 10
109.865768
 20
-16.773348
 11
108.86577
 21
-16.773348
  0
LINE
  8
別途部材
  6
CONTINUOUS
 10
103.865768
 20
-16.773348
 11
102.86577
 21
-16.773348
  0
LINE
  8
別途部材
  6
CONTINUOUS
 10
108.86577
 20
19.226652
 11
108.86577
 21
-16.773348
  0
LINE
  8
別途部材
  6
CONTINUOUS
 10
109.865768
 20
19.226652
 11
109.865768
 21
-16.773348
  0
LINE
  8
別途部材
  6
CONTINUOUS
 10
103.865768
 20
19.226652
 11
103.865768
 21
-16.773348
  0
LINE
  8
別途部材
  6
CONTINUOUS
 10
102.86577
 20
19.226652
 11
102.86577
 21
-16.773348
  0
ENDBLK
  0
BLOCK
  2
*GRP_0059
 70
    65
 10
0.0
 20
0.0
  0
LINE
  8
別途部材
  6
CONTINUOUS
 10
106.365765
 20
-30.773343
 11
106.365765
 21
-30.773343
  0
LINE
  8
別途部材
  6
CONTINUOUS
 10
87.865755
 20
-25.573345
 11
92.865757
 21
-25.573345
  0
LINE
  8
別途部材
  6
CONTINUOUS
 10
90.36576
 20
-23.273343
 11
90.36576
 21
-31.273345
  0
POLYLINE
  8
別途部材
  6
CONTINUOUS
 66
     1
  0
VERTEX
  8
別途部材
 10
94.365757
 20
-23.273343
  0
VERTEX
  8
別途部材
 10
92.865757
 20
-25.573345
  0
VERTEX
  8
別途部材
 10
92.865757
 20
-31.273345
  0
SEQEND
  0
POLYLINE
  8
別途部材
  6
CONTINUOUS
 66
     1
  0
VERTEX
  8
別途部材
 10
86.365755
 20
-23.273343
  0
VERTEX
  8
別途部材
 10
87.865755
 20
-25.573345
  0
VERTEX
  8
別途部材
 10
87.865755
 20
-31.273345
  0
SEQEND
  0
LINE
  8
別途部材
  6
CONTINUOUS
 10
106.365765
 20
-31.273345
 11
106.365765
 21
-30.773343
  0
ARC
  8
別途部材
  6
CONTINUOUS
 10
81.36576
 20
-24.273346
 40
1.0
 50
90.0
 51
180.0
  0
LINE
  8
別途部材
  6
CONTINUOUS
 10
80.365762
 20
-24.273348
 11
80.365762
 21
-30.273348
  0
ARC
  8
別途部材
  6
CONTINUOUS
 10
81.36576
 20
-30.273346
 40
1.0
 50
180.0
 51
270.0
  0
ARC
  8
別途部材
  6
CONTINUOUS
 10
97.36576
 20
-24.273346
 40
1.0
 50
0.0
 51
90.0
  0
LINE
  8
別途部材
  6
CONTINUOUS
 10
98.365762
 20
-30.273348
 11
98.365762
 21
-24.273348
  0
ARC
  8
別途部材
  6
CONTINUOUS
 10
97.36576
 20
-30.273346
 40
1.0
 50
270.0
 51
360.0
  0
LINE
  8
別途部材
  6
CONTINUOUS
 10
81.36576
 20
-31.273345
 11
106.365765
 21
-31.273345
  0
LINE
  8
別途部材
  6
CONTINUOUS
 10
81.36576
 20
-23.273343
 11
100.365765
 21
-23.273343
  0
ENDBLK
  0
BLOCK
  2
*GRP_0060
 70
    65
 10
0.0
 20
0.0
  0
LINE
  8
ボルト／ビス
  6
CONTINUOUS
 10
96.865757
 20
-23.27335
 11
98.365757
 21
-25.57335
  0
LINE
  8
ボルト／ビス
  6
CONTINUOUS
 10
104.865757
 20
-23.27335
 11
103.365757
 21
-25.57335
  0
LINE
  8
ボルト／ビス
  6
CONTINUOUS
 10
96.865757
 20
-23.27335
 11
104.865757
 21
-23.27335
  0
LINE
  8
ボルト／ビス
  6
CONTINUOUS
 10
98.365757
 20
-25.57335
 11
103.365757
 21
-25.57335
  0
LINE
  8
ボルト／ビス
  6
CONTINUOUS
 10
100.865757
 20
-20.888145
 11
100.865757
 21
-38.27335
  0
LINE
  8
ボルト／ビス
  6
CONTINUOUS
 10
98.365757
 20
-37.77335
 11
98.865757
 21
-38.27335
  0
LINE
  8
ボルト／ビス
  6
CONTINUOUS
 10
103.365757
 20
-37.77335
 11
102.865757
 21
-38.27335
  0
LINE
  8
ボルト／ビス
  6
CONTINUOUS
 10
102.865757
 20
-38.27335
 11
98.865757
 21
-38.27335
  0
LINE
  8
ボルト／ビス
  6
CONTINUOUS
 10
103.365757
 20
-37.77335
 11
98.365757
 21
-37.77335
  0
LINE
  8
ボルト／ビス
  6
CONTINUOUS
 10
98.865757
 20
-25.57335
 11
98.865757
 21
-38.27335
  0
LINE
  8
ボルト／ビス
  6
CONTINUOUS
 10
102.865757
 20
-25.57335
 11
102.865757
 21
-38.27335
  0
LINE
  8
ボルト／ビス
  6
CONTINUOUS
 10
103.365757
 20
-25.57335
 11
103.365757
 21
-37.77335
  0
LINE
  8
ボルト／ビス
  6
CONTINUOUS
 10
98.365757
 20
-25.57335
 11
98.365757
 21
-37.77335
  0
ENDBLK
  0
BLOCK
  2
*GRP_0061
 70
    65
 10
0.0
 20
0.0
  0
LINE
  8
ボルト／ビス
  6
CONTINUOUS
 10
76.865757
 20
-23.27335
 11
78.365757
 21
-25.57335
  0
LINE
  8
ボルト／ビス
  6
CONTINUOUS
 10
84.865757
 20
-23.27335
 11
83.365757
 21
-25.57335
  0
LINE
  8
ボルト／ビス
  6
CONTINUOUS
 10
76.865757
 20
-23.27335
 11
84.865757
 21
-23.27335
  0
LINE
  8
ボルト／ビス
  6
CONTINUOUS
 10
78.365757
 20
-25.57335
 11
83.365757
 21
-25.57335
  0
LINE
  8
ボルト／ビス
  6
CONTINUOUS
 10
80.865757
 20
-20.888145
 11
80.865757
 21
-38.27335
  0
LINE
  8
ボルト／ビス
  6
CONTINUOUS
 10
78.365757
 20
-37.77335
 11
78.865757
 21
-38.27335
  0
LINE
  8
ボルト／ビス
  6
CONTINUOUS
 10
83.365757
 20
-37.77335
 11
82.865757
 21
-38.27335
  0
LINE
  8
ボルト／ビス
  6
CONTINUOUS
 10
82.865757
 20
-38.27335
 11
78.865757
 21
-38.27335
  0
LINE
  8
ボルト／ビス
  6
CONTINUOUS
 10
83.365757
 20
-37.77335
 11
78.365757
 21
-37.77335
  0
LINE
  8
ボルト／ビス
  6
CONTINUOUS
 10
78.865757
 20
-25.57335
 11
78.865757
 21
-38.27335
  0
LINE
  8
ボルト／ビス
  6
CONTINUOUS
 10
82.865757
 20
-25.57335
 11
82.865757
 21
-38.27335
  0
LINE
  8
ボルト／ビス
  6
CONTINUOUS
 10
83.365757
 20
-25.57335
 11
83.365757
 21
-37.77335
  0
LINE
  8
ボルト／ビス
  6
CONTINUOUS
 10
78.365757
 20
-25.57335
 11
78.365757
 21
-37.77335
  0
ENDBLK
  0
BLOCK
  2
*GRP_0062
 70
    65
 10
0.0
 20
0.0
  0
LINE
  8
ボルト／ビス
  6
CONTINUOUS
 10
86.36576
 20
-23.273343
 11
87.86576
 21
-25.573343
  0
LINE
  8
ボルト／ビス
  6
CONTINUOUS
 10
94.36576
 20
-23.273343
 11
92.86576
 21
-25.573343
  0
LINE
  8
ボルト／ビス
  6
CONTINUOUS
 10
86.36576
 20
-23.273343
 11
94.36576
 21
-23.273343
  0
LINE
  8
ボルト／ビス
  6
CONTINUOUS
 10
87.86576
 20
-25.573343
 11
92.86576
 21
-25.573343
  0
LINE
  8
ボルト／ビス
  6
CONTINUOUS
 10
90.36576
 20
-20.888137
 11
90.36576
 21
-38.273343
  0
LINE
  8
ボルト／ビス
  6
CONTINUOUS
 10
87.86576
 20
-37.773343
 11
88.36576
 21
-38.273343
  0
LINE
  8
ボルト／ビス
  6
CONTINUOUS
 10
92.86576
 20
-37.773343
 11
92.36576
 21
-38.273343
  0
LINE
  8
ボルト／ビス
  6
CONTINUOUS
 10
92.36576
 20
-38.273343
 11
88.36576
 21
-38.273343
  0
LINE
  8
ボルト／ビス
  6
CONTINUOUS
 10
92.86576
 20
-37.773343
 11
87.86576
 21
-37.773343
  0
LINE
  8
ボルト／ビス
  6
CONTINUOUS
 10
88.36576
 20
-25.573343
 11
88.36576
 21
-38.273343
  0
LINE
  8
ボルト／ビス
  6
CONTINUOUS
 10
92.36576
 20
-25.573343
 11
92.36576
 21
-38.273343
  0
LINE
  8
ボルト／ビス
  6
CONTINUOUS
 10
92.86576
 20
-25.573343
 11
92.86576
 21
-37.773343
  0
LINE
  8
ボルト／ビス
  6
CONTINUOUS
 10
87.86576
 20
-25.573343
 11
87.86576
 21
-37.773343
  0
ENDBLK
  0
BLOCK
  2
*GRP_0063
 70
    65
 10
0.0
 20
0.0
  0
LINE
  8
別途部材
  6
CONTINUOUS
 10
-40.134263
 20
-20.773348
 11
3.86574
 21
-20.773348
  0
ARC
  8
別途部材
  6
CONTINUOUS
 10
-40.13426
 20
-14.77334
 40
6.0
 50
180.0
 51
270.0
  0
LINE
  8
別途部材
  6
CONTINUOUS
 10
-40.134263
 20
-8.773347
 11
3.86574
 21
-8.773347
  0
ARC
  8
別途部材
  6
CONTINUOUS
 10
-40.13426
 20
-14.77334
 40
6.0
 50
90.0
 51
180.0
  0
CIRCLE
  8
別途部材
  6
CONTINUOUS
 10
-40.134263
 20
-14.773348
 40
3.0
  0
LINE
  8
別途部材
  6
CONTINUOUS
 10
-40.134263
 20
-17.773348
 11
-40.134263
 21
-11.773348
  0
LINE
  8
別途部材
  6
CONTINUOUS
 10
-43.134263
 20
-14.773348
 11
-37.134263
 21
-14.773348
  0
LINE
  8
別途部材
  6
CONTINUOUS
 10
3.86574
 20
-20.773348
 11
3.86574
 21
-18.773337
  0
LINE
  8
別途部材
  6
CONTINUOUS
 10
3.86574
 20
-10.773343
 11
3.86574
 21
-8.773347
  0
LINE
  8
別途部材
  6
CONTINUOUS
 10
3.86574
 20
-18.773337
 11
-34.134263
 21
-18.773337
  0
LINE
  8
別途部材
  6
CONTINUOUS
 10
-34.134263
 20
-18.773337
 11
-34.134263
 21
-10.773343
  0
LINE
  8
別途部材
  6
CONTINUOUS
 10
3.86574
 20
-10.773343
 11
-34.134263
 21
-10.773343
  0
ARC
  8
別途部材
  6
CONTINUOUS
 10
3.407408
 20
-14.77334
 40
2.541667
 50
100.38896
 51
259.61104
  0
LINE
  8
別途部材
  6
CONTINUOUS
 10
3.86574
 20
-11.273337
 11
3.86574
 21
-12.273343
  0
LINE
  8
別途部材
  6
CONTINUOUS
 10
3.86574
 20
-18.273343
 11
3.86574
 21
-17.273337
  0
CIRCLE
  8
別途部材
  6
CONTINUOUS
 10
-30.134265
 20
-14.773348
 40
0.999997
  0
LINE
  8
別途部材
  6
CONTINUOUS
 10
-30.134265
 20
-13.773343
 11
-30.134265
 21
-15.773337
  0
LINE
  8
別途部材
  6
CONTINUOUS
 10
-31.134263
 20
-14.773348
 11
-29.13426
 21
-14.773348
  0
ARC
  8
別途部材
  6
CONTINUOUS
 10
-31.675932
 20
-14.77334
 40
2.541667
 50
280.38896
 51
439.61104
  0
LINE
  8
別途部材
  6
CONTINUOUS
 10
-32.13426
 20
-11.273337
 11
-32.13426
 21
-12.273343
  0
LINE
  8
別途部材
  6
CONTINUOUS
 10
-32.13426
 20
-17.273337
 11
-32.13426
 21
-18.273343
  0
LINE
  8
別途部材
  6
CONTINUOUS
 10
3.86574
 20
-12.273343
 11
-32.13426
 21
-12.273343
  0
LINE
  8
別途部材
  6
CONTINUOUS
 10
3.86574
 20
-11.273337
 11
-32.13426
 21
-11.273337
  0
LINE
  8
別途部材
  6
CONTINUOUS
 10
3.86574
 20
-17.273337
 11
-32.13426
 21
-17.273337
  0
LINE
  8
別途部材
  6
CONTINUOUS
 10
3.86574
 20
-18.273343
 11
-32.13426
 21
-18.273343
  0
ENDBLK
  0
BLOCK
  2
*GRP_0064
 70
    65
 10
0.0
 20
0.0
  0
LINE
  8
別途部材
  6
CONTINUOUS
 10
-46.134263
 20
-14.773348
 11
-46.134263
 21
-14.773348
  0
LINE
  8
別途部材
  6
CONTINUOUS
 10
-33.134257
 20
-20.773348
 11
-33.134257
 21
-23.273345
  0
LINE
  8
別途部材
  6
CONTINUOUS
 10
-46.634257
 20
-14.773348
 11
-46.134255
 21
-14.77334
  0
LINE
  8
別途部材
  6
CONTINUOUS
 10
-34.134263
 20
-31.273348
 11
-34.134263
 21
-23.273345
  0
ARC
  8
別途部材
  6
CONTINUOUS
 10
2.865738
 20
-30.273346
 40
1.0
 50
270.0
 51
360.0
  0
LINE
  8
別途部材
  6
CONTINUOUS
 10
3.86574
 20
-24.273343
 11
3.86574
 21
-30.273343
  0
ARC
  8
別途部材
  6
CONTINUOUS
 10
2.865738
 20
-24.273346
 40
1.0
 50
0.0
 51
90.0
  0
LINE
  8
別途部材
  6
CONTINUOUS
 10
2.865742
 20
-31.273348
 11
-45.63426
 21
-31.273348
  0
ARC
  8
別途部材
  6
CONTINUOUS
 10
-45.634262
 20
-30.273346
 40
1.0
 50
180.0
 51
270.0
  0
LINE
  8
別途部材
  6
CONTINUOUS
 10
2.865742
 20
-23.273345
 11
-45.63426
 21
-23.273345
  0
ARC
  8
別途部材
  6
CONTINUOUS
 10
-45.634262
 20
-24.273346
 40
1.0
 50
90.0
 51
180.0
  0
LINE
  8
別途部材
  6
CONTINUOUS
 10
-46.634257
 20
-30.273343
 11
-46.634257
 21
-14.773348
  0
LINE
  8
別途部材
  6
CONTINUOUS
 10
-27.134257
 20
-25.573348
 11
-22.134263
 21
-25.573348
  0
LINE
  8
別途部材
  6
CONTINUOUS
 10
-7.134263
 20
-25.573348
 11
-2.134253
 21
-25.573348
  0
POLYLINE
  8
別途部材
  6
CONTINUOUS
 66
     1
  0
VERTEX
  8
別途部材
 10
-28.634257
 20
-23.273345
  0
VERTEX
  8
別途部材
 10
-27.134257
 20
-25.573348
  0
VERTEX
  8
別途部材
 10
-27.134257
 20
-31.273348
  0
SEQEND
  0
LINE
  8
別途部材
  6
CONTINUOUS
 10
-24.634253
 20
-23.273345
 11
-24.634253
 21
-31.273348
  0
POLYLINE
  8
別途部材
  6
CONTINUOUS
 66
     1
  0
VERTEX
  8
別途部材
 10
-20.634263
 20
-23.273345
  0
VERTEX
  8
別途部材
 10
-22.134263
 20
-25.573348
  0
VERTEX
  8
別途部材
 10
-22.134263
 20
-31.273348
  0
SEQEND
  0
POLYLINE
  8
別途部材
  6
CONTINUOUS
 66
     1
  0
VERTEX
  8
別途部材
 10
-8.634263
 20
-23.273345
  0
VERTEX
  8
別途部材
 10
-7.134263
 20
-25.573348
  0
VERTEX
  8
別途部材
 10
-7.134263
 20
-31.273348
  0
SEQEND
  0
LINE
  8
別途部材
  6
CONTINUOUS
 10
-4.634257
 20
-23.273345
 11
-4.634257
 21
-31.273348
  0
POLYLINE
  8
別途部材
  6
CONTINUOUS
 66
     1
  0
VERTEX
  8
別途部材
 10
-0.634253
 20
-23.273345
  0
VERTEX
  8
別途部材
 10
-2.134253
 20
-25.573348
  0
VERTEX
  8
別途部材
 10
-2.134253
 20
-31.273348
  0
SEQEND
  0
ENDBLK
  0
BLOCK
  2
*GRP_0065
 70
    65
 10
0.0
 20
0.0
  0
LINE
  8
ボルト／ビス
  6
CONTINUOUS
 10
-8.634257
 20
-23.273345
 11
-7.134257
 21
-25.573345
  0
LINE
  8
ボルト／ビス
  6
CONTINUOUS
 10
-0.634257
 20
-23.273345
 11
-2.134257
 21
-25.573345
  0
LINE
  8
ボルト／ビス
  6
CONTINUOUS
 10
-8.634257
 20
-23.273345
 11
-0.634257
 21
-23.273345
  0
LINE
  8
ボルト／ビス
  6
CONTINUOUS
 10
-7.134257
 20
-25.573345
 11
-2.134257
 21
-25.573345
  0
LINE
  8
ボルト／ビス
  6
CONTINUOUS
 10
-4.634257
 20
-20.88814
 11
-4.634257
 21
-38.273345
  0
LINE
  8
ボルト／ビス
  6
CONTINUOUS
 10
-7.134257
 20
-37.773345
 11
-6.634257
 21
-38.273345
  0
LINE
  8
ボルト／ビス
  6
CONTINUOUS
 10
-2.134257
 20
-37.773345
 11
-2.634257
 21
-38.273345
  0
LINE
  8
ボルト／ビス
  6
CONTINUOUS
 10
-2.634257
 20
-38.273345
 11
-6.634257
 21
-38.273345
  0
LINE
  8
ボルト／ビス
  6
CONTINUOUS
 10
-2.134257
 20
-37.773345
 11
-7.134257
 21
-37.773345
  0
LINE
  8
ボルト／ビス
  6
CONTINUOUS
 10
-6.634257
 20
-25.573345
 11
-6.634257
 21
-38.273345
  0
LINE
  8
ボルト／ビス
  6
CONTINUOUS
 10
-2.634257
 20
-25.573345
 11
-2.634257
 21
-38.273345
  0
LINE
  8
ボルト／ビス
  6
CONTINUOUS
 10
-2.134257
 20
-25.573345
 11
-2.134257
 21
-37.773345
  0
LINE
  8
ボルト／ビス
  6
CONTINUOUS
 10
-7.134257
 20
-25.573345
 11
-7.134257
 21
-37.773345
  0
ENDBLK
  0
BLOCK
  2
*GRP_0066
 70
    65
 10
0.0
 20
0.0
  0
LINE
  8
ボルト／ビス
  6
CONTINUOUS
 10
-28.634257
 20
-23.273345
 11
-27.134257
 21
-25.573345
  0
LINE
  8
ボルト／ビス
  6
CONTINUOUS
 10
-20.634257
 20
-23.273345
 11
-22.134257
 21
-25.573345
  0
LINE
  8
ボルト／ビス
  6
CONTINUOUS
 10
-28.634257
 20
-23.273345
 11
-20.634257
 21
-23.273345
  0
LINE
  8
ボルト／ビス
  6
CONTINUOUS
 10
-27.134257
 20
-25.573345
 11
-22.134257
 21
-25.573345
  0
LINE
  8
ボルト／ビス
  6
CONTINUOUS
 10
-24.634257
 20
-20.88814
 11
-24.634257
 21
-38.273345
  0
LINE
  8
ボルト／ビス
  6
CONTINUOUS
 10
-27.134257
 20
-37.773345
 11
-26.634257
 21
-38.273345
  0
LINE
  8
ボルト／ビス
  6
CONTINUOUS
 10
-22.134257
 20
-37.773345
 11
-22.634257
 21
-38.273345
  0
LINE
  8
ボルト／ビス
  6
CONTINUOUS
 10
-22.634257
 20
-38.273345
 11
-26.634257
 21
-38.273345
  0
LINE
  8
ボルト／ビス
  6
CONTINUOUS
 10
-22.134257
 20
-37.773345
 11
-27.134257
 21
-37.773345
  0
LINE
  8
ボルト／ビス
  6
CONTINUOUS
 10
-26.634257
 20
-25.573345
 11
-26.634257
 21
-38.273345
  0
LINE
  8
ボルト／ビス
  6
CONTINUOUS
 10
-22.634257
 20
-25.573345
 11
-22.634257
 21
-38.273345
  0
LINE
  8
ボルト／ビス
  6
CONTINUOUS
 10
-22.134257
 20
-25.573345
 11
-22.134257
 21
-37.773345
  0
LINE
  8
ボルト／ビス
  6
CONTINUOUS
 10
-27.134257
 20
-25.573345
 11
-27.134257
 21
-37.773345
  0
ENDBLK
  0
BLOCK
  2
*GRP_0067
 70
    65
 10
0.0
 20
0.0
  0
POLYLINE
  8
ガラス
  6
CONTINUOUS
 66
     1
 70
     4
  0
VERTEX
  8
ガラス
 10
124.95
 20
-76.425
 70
     8
  0
VERTEX
  8
ガラス
 10
124.85
 20
-76.4
 70
     8
  0
VERTEX
  8
ガラス
 10
124.775
 20
-76.35
 70
     8
  0
VERTEX
  8
ガラス
 10
124.675
 20
-76.325
 70
     8
  0
VERTEX
  8
ガラス
 10
124.6
 20
-76.3
 70
     8
  0
VERTEX
  8
ガラス
 10
124.5
 20
-76.25
 70
     8
  0
VERTEX
  8
ガラス
 10
124.425
 20
-76.225
 70
     8
  0
VERTEX
  8
ガラス
 10
124.35
 20
-76.175
 70
     8
  0
VERTEX
  8
ガラス
 10
124.25
 20
-76.15
 70
     8
  0
VERTEX
  8
ガラス
 10
124.175
 20
-76.1
 70
     8
  0
VERTEX
  8
ガラス
 10
124.1
 20
-76.05
 70
     8
  0
VERTEX
  8
ガラス
 10
124.025
 20
-76.025
 70
     8
  0
VERTEX
  8
ガラス
 10
123.95
 20
-75.975
 70
     8
  0
VERTEX
  8
ガラス
 10
123.875
 20
-75.925
 70
     8
  0
VERTEX
  8
ガラス
 10
123.8
 20
-75.875
 70
     8
  0
VERTEX
  8
ガラス
 10
123.725
 20
-75.825
 70
     8
  0
VERTEX
  8
ガラス
 10
123.65
 20
-75.775
 70
     8
  0
VERTEX
  8
ガラス
 10
123.6
 20
-75.725
 70
     8
  0
VERTEX
  8
ガラス
 10
123.525
 20
-75.675
 70
     8
  0
VERTEX
  8
ガラス
 10
123.475
 20
-75.625
 70
     8
  0
VERTEX
  8
ガラス
 10
123.425
 20
-75.55
 70
     8
  0
VERTEX
  8
ガラス
 10
123.375
 20
-75.5
 70
     8
  0
VERTEX
  8
ガラス
 10
123.325
 20
-75.425
 70
     8
  0
VERTEX
  8
ガラス
 10
123.275
 20
-75.35
 70
     8
  0
VERTEX
  8
ガラス
 10
123.225
 20
-75.3
 70
     8
  0
VERTEX
  8
ガラス
 10
123.175
 20
-75.225
 70
     8
  0
VERTEX
  8
ガラス
 10
123.15
 20
-75.15
 70
     8
  0
VERTEX
  8
ガラス
 10
123.1
 20
-75.05
 70
     8
  0
VERTEX
  8
ガラス
 10
123.075
 20
-74.975
 70
     8
  0
VERTEX
  8
ガラス
 10
123.05
 20
-74.9
 70
     8
  0
VERTEX
  8
ガラス
 10
123.0
 20
-74.825
 70
     8
  0
VERTEX
  8
ガラス
 10
122.975
 20
-74.725
 70
     8
  0
VERTEX
  8
ガラス
 10
122.95
 20
-74.65
 70
     8
  0
VERTEX
  8
ガラス
 10
122.925
 20
-74.575
 70
     8
  0
VERTEX
  8
ガラス
 10
122.9
 20
-74.475
 70
     8
  0
VERTEX
  8
ガラス
 10
122.875
 20
-74.375
 70
     8
  0
VERTEX
  8
ガラス
 10
122.85
 20
-74.3
 70
     8
  0
VERTEX
  8
ガラス
 10
122.85
 20
-74.2
 70
     8
  0
VERTEX
  8
ガラス
 10
122.825
 20
-74.125
 70
     8
  0
VERTEX
  8
ガラス
 10
122.8
 20
-74.025
 70
     8
  0
VERTEX
  8
ガラス
 10
122.775
 20
-73.925
 70
     8
  0
SEQEND
  0
POLYLINE
  8
ガラス
  6
CONTINUOUS
 66
     1
 70
     4
  0
VERTEX
  8
ガラス
 10
122.775
 20
-73.925
 70
     8
  0
VERTEX
  8
ガラス
 10
122.825
 20
-73.95
 70
     8
  0
VERTEX
  8
ガラス
 10
122.9
 20
-73.975
 70
     8
  0
VERTEX
  8
ガラス
 10
122.95
 20
-74.0
 70
     8
  0
VERTEX
  8
ガラス
 10
123.0
 20
-74.025
 70
     8
  0
VERTEX
  8
ガラス
 10
123.05
 20
-74.05
 70
     8
  0
VERTEX
  8
ガラス
 10
123.125
 20
-74.075
 70
     8
  0
VERTEX
  8
ガラス
 10
123.175
 20
-74.1
 70
     8
  0
VERTEX
  8
ガラス
 10
123.225
 20
-74.125
 70
     8
  0
VERTEX
  8
ガラス
 10
123.3
 20
-74.15
 70
     8
  0
VERTEX
  8
ガラス
 10
123.35
 20
-74.15
 70
     8
  0
VERTEX
  8
ガラス
 10
123.4
 20
-74.175
 70
     8
  0
VERTEX
  8
ガラス
 10
123.475
 20
-74.2
 70
     8
  0
VERTEX
  8
ガラス
 10
123.525
 20
-74.225
 70
     8
  0
VERTEX
  8
ガラス
 10
123.575
 20
-74.25
 70
     8
  0
VERTEX
  8
ガラス
 10
123.65
 20
-74.25
 70
     8
  0
VERTEX
  8
ガラス
 10
123.7
 20
-74.275
 70
     8
  0
VERTEX
  8
ガラス
 10
123.75
 20
-74.3
 70
     8
  0
VERTEX
  8
ガラス
 10
123.825
 20
-74.325
 70
     8
  0
VERTEX
  8
ガラス
 10
123.875
 20
-74.325
 70
     8
  0
VERTEX
  8
ガラス
 10
123.925
 20
-74.35
 70
     8
  0
VERTEX
  8
ガラス
 10
124.0
 20
-74.35
 70
     8
  0
VERTEX
  8
ガラス
 10
124.05
 20
-74.375
 70
     8
  0
VERTEX
  8
ガラス
 10
124.1
 20
-74.4
 70
     8
  0
VERTEX
  8
ガラス
 10
124.175
 20
-74.4
 70
     8
  0
VERTEX
  8
ガラス
 10
124.225
 20
-74.4
 70
     8
  0
VERTEX
  8
ガラス
 10
124.3
 20
-74.425
 70
     8
  0
VERTEX
  8
ガラス
 10
124.35
 20
-74.425
 70
     8
  0
VERTEX
  8
ガラス
 10
124.4
 20
-74.45
 70
     8
  0
VERTEX
  8
ガラス
 10
124.475
 20
-74.45
 70
     8
  0
VERTEX
  8
ガラス
 10
124.525
 20
-74.45
 70
     8
  0
VERTEX
  8
ガラス
 10
124.6
 20
-74.475
 70
     8
  0
VERTEX
  8
ガラス
 10
124.65
 20
-74.475
 70
     8
  0
VERTEX
  8
ガラス
 10
124.725
 20
-74.475
 70
     8
  0
VERTEX
  8
ガラス
 10
124.775
 20
-74.5
 70
     8
  0
VERTEX
  8
ガラス
 10
124.825
 20
-74.5
 70
     8
  0
VERTEX
  8
ガラス
 10
124.9
 20
-74.5
 70
     8
  0
VERTEX
  8
ガラス
 10
124.95
 20
-74.5
 70
     8
  0
VERTEX
  8
ガラス
 10
125.025
 20
-74.525
 70
     8
  0
VERTEX
  8
ガラス
 10
125.075
 20
-74.525
 70
     8
  0
VERTEX
  8
ガラス
 10
125.15
 20
-74.525
 70
     8
  0
SEQEND
  0
ARC
  8
ガラス
  6
CONTINUOUS
 10
125.055756
 20
-75.466436
 40
0.955135
 50
263.993979
 51
443.993979
  0
ENDBLK
  0
BLOCK
  2
*GRP_0068
 70
    65
 10
0.0
 20
0.0
  0
POLYLINE
  8
ガラス
  6
CONTINUOUS
 66
     1
 70
     4
  0
VERTEX
  8
ガラス
 10
136.375
 20
-79.325
 70
     8
  0
VERTEX
  8
ガラス
 10
136.275
 20
-79.3
 70
     8
  0
VERTEX
  8
ガラス
 10
136.2
 20
-79.25
 70
     8
  0
VERTEX
  8
ガラス
 10
136.1
 20
-79.225
 70
     8
  0
VERTEX
  8
ガラス
 10
136.025
 20
-79.175
 70
     8
  0
VERTEX
  8
ガラス
 10
135.925
 20
-79.15
 70
     8
  0
VERTEX
  8
ガラス
 10
135.85
 20
-79.125
 70
     8
  0
VERTEX
  8
ガラス
 10
135.775
 20
-79.075
 70
     8
  0
VERTEX
  8
ガラス
 10
135.675
 20
-79.05
 70
     8
  0
VERTEX
  8
ガラス
 10
135.6
 20
-79.0
 70
     8
  0
VERTEX
  8
ガラス
 10
135.525
 20
-78.95
 70
     8
  0
VERTEX
  8
ガラス
 10
135.45
 20
-78.925
 70
     8
  0
VERTEX
  8
ガラス
 10
135.375
 20
-78.875
 70
     8
  0
VERTEX
  8
ガラス
 10
135.3
 20
-78.825
 70
     8
  0
VERTEX
  8
ガラス
 10
135.225
 20
-78.775
 70
     8
  0
VERTEX
  8
ガラス
 10
135.15
 20
-78.725
 70
     8
  0
VERTEX
  8
ガラス
 10
135.075
 20
-78.675
 70
     8
  0
VERTEX
  8
ガラス
 10
135.025
 20
-78.625
 70
     8
  0
VERTEX
  8
ガラス
 10
134.95
 20
-78.575
 70
     8
  0
VERTEX
  8
ガラス
 10
134.9
 20
-78.525
 70
     8
  0
VERTEX
  8
ガラス
 10
134.85
 20
-78.45
 70
     8
  0
VERTEX
  8
ガラス
 10
134.775
 20
-78.4
 70
     8
  0
VERTEX
  8
ガラス
 10
134.725
 20
-78.325
 70
     8
  0
VERTEX
  8
ガラス
 10
134.7
 20
-78.25
 70
     8
  0
VERTEX
  8
ガラス
 10
134.65
 20
-78.175
 70
     8
  0
VERTEX
  8
ガラス
 10
134.6
 20
-78.1
 70
     8
  0
VERTEX
  8
ガラス
 10
134.575
 20
-78.025
 70
     8
  0
VERTEX
  8
ガラス
 10
134.525
 20
-77.95
 70
     8
  0
VERTEX
  8
ガラス
 10
134.5
 20
-77.875
 70
     8
  0
VERTEX
  8
ガラス
 10
134.475
 20
-77.8
 70
     8
  0
VERTEX
  8
ガラス
 10
134.425
 20
-77.725
 70
     8
  0
VERTEX
  8
ガラス
 10
134.4
 20
-77.625
 70
     8
  0
VERTEX
  8
ガラス
 10
134.375
 20
-77.55
 70
     8
  0
VERTEX
  8
ガラス
 10
134.35
 20
-77.45
 70
     8
  0
VERTEX
  8
ガラス
 10
134.325
 20
-77.375
 70
     8
  0
VERTEX
  8
ガラス
 10
134.3
 20
-77.275
 70
     8
  0
VERTEX
  8
ガラス
 10
134.275
 20
-77.2
 70
     8
  0
VERTEX
  8
ガラス
 10
134.25
 20
-77.1
 70
     8
  0
VERTEX
  8
ガラス
 10
134.25
 20
-77.025
 70
     8
  0
VERTEX
  8
ガラス
 10
134.225
 20
-76.925
 70
     8
  0
VERTEX
  8
ガラス
 10
134.2
 20
-76.825
 70
     8
  0
SEQEND
  0
POLYLINE
  8
ガラス
  6
CONTINUOUS
 66
     1
 70
     4
  0
VERTEX
  8
ガラス
 10
134.2
 20
-76.825
 70
     8
  0
VERTEX
  8
ガラス
 10
134.25
 20
-76.85
 70
     8
  0
VERTEX
  8
ガラス
 10
134.325
 20
-76.875
 70
     8
  0
VERTEX
  8
ガラス
 10
134.375
 20
-76.9
 70
     8
  0
VERTEX
  8
ガラス
 10
134.425
 20
-76.925
 70
     8
  0
VERTEX
  8
ガラス
 10
134.475
 20
-76.95
 70
     8
  0
VERTEX
  8
ガラス
 10
134.55
 20
-76.975
 70
     8
  0
VERTEX
  8
ガラス
 10
134.6
 20
-77.0
 70
     8
  0
VERTEX
  8
ガラス
 10
134.65
 20
-77.025
 70
     8
  0
VERTEX
  8
ガラス
 10
134.725
 20
-77.025
 70
     8
  0
VERTEX
  8
ガラス
 10
134.775
 20
-77.05
 70
     8
  0
VERTEX
  8
ガラス
 10
134.825
 20
-77.075
 70
     8
  0
VERTEX
  8
ガラス
 10
134.875
 20
-77.1
 70
     8
  0
VERTEX
  8
ガラス
 10
134.95
 20
-77.125
 70
     8
  0
VERTEX
  8
ガラス
 10
135.0
 20
-77.15
 70
     8
  0
VERTEX
  8
ガラス
 10
135.05
 20
-77.15
 70
     8
  0
VERTEX
  8
ガラス
 10
135.125
 20
-77.175
 70
     8
  0
VERTEX
  8
ガラス
 10
135.175
 20
-77.2
 70
     8
  0
VERTEX
  8
ガラス
 10
135.225
 20
-77.2
 70
     8
  0
VERTEX
  8
ガラス
 10
135.3
 20
-77.225
 70
     8
  0
VERTEX
  8
ガラス
 10
135.35
 20
-77.25
 70
     8
  0
VERTEX
  8
ガラス
 10
135.425
 20
-77.25
 70
     8
  0
VERTEX
  8
ガラス
 10
135.475
 20
-77.275
 70
     8
  0
VERTEX
  8
ガラス
 10
135.525
 20
-77.275
 70
     8
  0
VERTEX
  8
ガラス
 10
135.6
 20
-77.3
 70
     8
  0
VERTEX
  8
ガラス
 10
135.65
 20
-77.3
 70
     8
  0
VERTEX
  8
ガラス
 10
135.725
 20
-77.325
 70
     8
  0
VERTEX
  8
ガラス
 10
135.775
 20
-77.325
 70
     8
  0
VERTEX
  8
ガラス
 10
135.825
 20
-77.35
 70
     8
  0
VERTEX
  8
ガラス
 10
135.9
 20
-77.35
 70
     8
  0
VERTEX
  8
ガラス
 10
135.95
 20
-77.35
 70
     8
  0
VERTEX
  8
ガラス
 10
136.025
 20
-77.375
 70
     8
  0
VERTEX
  8
ガラス
 10
136.075
 20
-77.375
 70
     8
  0
VERTEX
  8
ガラス
 10
136.125
 20
-77.375
 70
     8
  0
VERTEX
  8
ガラス
 10
136.2
 20
-77.4
 70
     8
  0
VERTEX
  8
ガラス
 10
136.25
 20
-77.4
 70
     8
  0
VERTEX
  8
ガラス
 10
136.325
 20
-77.4
 70
     8
  0
VERTEX
  8
ガラス
 10
136.375
 20
-77.4
 70
     8
  0
VERTEX
  8
ガラス
 10
136.45
 20
-77.425
 70
     8
  0
VERTEX
  8
ガラス
 10
136.5
 20
-77.425
 70
     8
  0
VERTEX
  8
ガラス
 10
136.575
 20
-77.425
 70
     8
  0
SEQEND
  0
ARC
  8
ガラス
  6
CONTINUOUS
 10
136.478633
 20
-78.363947
 40
0.955135
 50
263.993979
 51
443.993979
  0
ENDBLK
  0
BLOCK
  2
*GRP_0069
 70
    65
 10
0.0
 20
0.0
  0
POLYLINE
  8
ガラス
  6
CONTINUOUS
 66
     1
 70
     4
  0
VERTEX
  8
ガラス
 10
120.675
 20
-66.4
 70
     8
  0
VERTEX
  8
ガラス
 10
120.675
 20
-66.3
 70
     8
  0
VERTEX
  8
ガラス
 10
120.65
 20
-66.225
 70
     8
  0
VERTEX
  8
ガラス
 10
120.625
 20
-66.125
 70
     8
  0
VERTEX
  8
ガラス
 10
120.625
 20
-66.025
 70
     8
  0
VERTEX
  8
ガラス
 10
120.6
 20
-65.95
 70
     8
  0
VERTEX
  8
ガラス
 10
120.6
 20
-65.85
 70
     8
  0
VERTEX
  8
ガラス
 10
120.6
 20
-65.75
 70
     8
  0
VERTEX
  8
ガラス
 10
120.575
 20
-65.675
 70
     8
  0
VERTEX
  8
ガラス
 10
120.575
 20
-65.575
 70
     8
  0
VERTEX
  8
ガラス
 10
120.575
 20
-65.5
 70
     8
  0
VERTEX
  8
ガラス
 10
120.55
 20
-65.4
 70
     8
  0
VERTEX
  8
ガラス
 10
120.55
 20
-65.325
 70
     8
  0
VERTEX
  8
ガラス
 10
120.55
 20
-65.225
 70
     8
  0
VERTEX
  8
ガラス
 10
120.575
 20
-65.15
 70
     8
  0
VERTEX
  8
ガラス
 10
120.575
 20
-65.05
 70
     8
  0
VERTEX
  8
ガラス
 10
120.575
 20
-64.975
 70
     8
  0
VERTEX
  8
ガラス
 10
120.6
 20
-64.875
 70
     8
  0
VERTEX
  8
ガラス
 10
120.6
 20
-64.8
 70
     8
  0
VERTEX
  8
ガラス
 10
120.625
 20
-64.725
 70
     8
  0
VERTEX
  8
ガラス
 10
120.65
 20
-64.65
 70
     8
  0
VERTEX
  8
ガラス
 10
120.675
 20
-64.575
 70
     8
  0
VERTEX
  8
ガラス
 10
120.7
 20
-64.5
 70
     8
  0
VERTEX
  8
ガラス
 10
120.75
 20
-64.425
 70
     8
  0
VERTEX
  8
ガラス
 10
120.775
 20
-64.35
 70
     8
  0
VERTEX
  8
ガラス
 10
120.825
 20
-64.275
 70
     8
  0
VERTEX
  8
ガラス
 10
120.875
 20
-64.2
 70
     8
  0
VERTEX
  8
ガラス
 10
120.9
 20
-64.125
 70
     8
  0
VERTEX
  8
ガラス
 10
120.95
 20
-64.05
 70
     8
  0
VERTEX
  8
ガラス
 10
121.025
 20
-63.975
 70
     8
  0
VERTEX
  8
ガラス
 10
121.075
 20
-63.925
 70
     8
  0
VERTEX
  8
ガラス
 10
121.125
 20
-63.85
 70
     8
  0
VERTEX
  8
ガラス
 10
121.175
 20
-63.775
 70
     8
  0
VERTEX
  8
ガラス
 10
121.25
 20
-63.725
 70
     8
  0
VERTEX
  8
ガラス
 10
121.3
 20
-63.65
 70
     8
  0
VERTEX
  8
ガラス
 10
121.375
 20
-63.575
 70
     8
  0
VERTEX
  8
ガラス
 10
121.45
 20
-63.525
 70
     8
  0
VERTEX
  8
ガラス
 10
121.5
 20
-63.45
 70
     8
  0
VERTEX
  8
ガラス
 10
121.575
 20
-63.4
 70
     8
  0
VERTEX
  8
ガラス
 10
121.65
 20
-63.325
 70
     8
  0
VERTEX
  8
ガラス
 10
121.7
 20
-63.25
 70
     8
  0
SEQEND
  0
POLYLINE
  8
ガラス
  6
CONTINUOUS
 66
     1
 70
     4
  0
VERTEX
  8
ガラス
 10
121.7
 20
-63.25
 70
     8
  0
VERTEX
  8
ガラス
 10
121.725
 20
-63.325
 70
     8
  0
VERTEX
  8
ガラス
 10
121.725
 20
-63.375
 70
     8
  0
VERTEX
  8
ガラス
 10
121.725
 20
-63.45
 70
     8
  0
VERTEX
  8
ガラス
 10
121.75
 20
-63.5
 70
     8
  0
VERTEX
  8
ガラス
 10
121.75
 20
-63.575
 70
     8
  0
VERTEX
  8
ガラス
 10
121.775
 20
-63.625
 70
     8
  0
VERTEX
  8
ガラス
 10
121.775
 20
-63.7
 70
     8
  0
VERTEX
  8
ガラス
 10
121.775
 20
-63.75
 70
     8
  0
VERTEX
  8
ガラス
 10
121.8
 20
-63.8
 70
     8
  0
VERTEX
  8
ガラス
 10
121.8
 20
-63.875
 70
     8
  0
VERTEX
  8
ガラス
 10
121.825
 20
-63.925
 70
     8
  0
VERTEX
  8
ガラス
 10
121.825
 20
-64.0
 70
     8
  0
VERTEX
  8
ガラス
 10
121.85
 20
-64.05
 70
     8
  0
VERTEX
  8
ガラス
 10
121.85
 20
-64.1
 70
     8
  0
VERTEX
  8
ガラス
 10
121.875
 20
-64.175
 70
     8
  0
VERTEX
  8
ガラス
 10
121.875
 20
-64.225
 70
     8
  0
VERTEX
  8
ガラス
 10
121.9
 20
-64.3
 70
     8
  0
VERTEX
  8
ガラス
 10
121.925
 20
-64.35
 70
     8
  0
VERTEX
  8
ガラス
 10
121.925
 20
-64.4
 70
     8
  0
VERTEX
  8
ガラス
 10
121.95
 20
-64.475
 70
     8
  0
VERTEX
  8
ガラス
 10
121.975
 20
-64.525
 70
     8
  0
VERTEX
  8
ガラス
 10
121.975
 20
-64.575
 70
     8
  0
VERTEX
  8
ガラス
 10
122.0
 20
-64.65
 70
     8
  0
VERTEX
  8
ガラス
 10
122.025
 20
-64.7
 70
     8
  0
VERTEX
  8
ガラス
 10
122.05
 20
-64.75
 70
     8
  0
VERTEX
  8
ガラス
 10
122.075
 20
-64.8
 70
     8
  0
VERTEX
  8
ガラス
 10
122.1
 20
-64.875
 70
     8
  0
VERTEX
  8
ガラス
 10
122.1
 20
-64.925
 70
     8
  0
VERTEX
  8
ガラス
 10
122.125
 20
-64.975
 70
     8
  0
VERTEX
  8
ガラス
 10
122.15
 20
-65.05
 70
     8
  0
VERTEX
  8
ガラス
 10
122.175
 20
-65.1
 70
     8
  0
VERTEX
  8
ガラス
 10
122.2
 20
-65.15
 70
     8
  0
VERTEX
  8
ガラス
 10
122.225
 20
-65.2
 70
     8
  0
VERTEX
  8
ガラス
 10
122.25
 20
-65.275
 70
     8
  0
VERTEX
  8
ガラス
 10
122.275
 20
-65.325
 70
     8
  0
VERTEX
  8
ガラス
 10
122.3
 20
-65.375
 70
     8
  0
VERTEX
  8
ガラス
 10
122.325
 20
-65.425
 70
     8
  0
VERTEX
  8
ガラス
 10
122.35
 20
-65.475
 70
     8
  0
VERTEX
  8
ガラス
 10
122.4
 20
-65.55
 70
     8
  0
VERTEX
  8
ガラス
 10
122.425
 20
-65.6
 70
     8
  0
SEQEND
  0
ARC
  8
ガラス
  6
CONTINUOUS
 10
121.560191
 20
-65.987502
 40
0.955135
 50
204.896752
 51
384.896752
  0
ENDBLK
  0
BLOCK
  2
*GRP_0070
 70
    65
 10
0.0
 20
0.0
  0
POLYLINE
  8
ガラス
  6
CONTINUOUS
 66
     1
 70
     4
  0
VERTEX
  8
ガラス
 10
120.675
 20
-45.5
 70
     8
  0
VERTEX
  8
ガラス
 10
120.675
 20
-45.425
 70
     8
  0
VERTEX
  8
ガラス
 10
120.65
 20
-45.325
 70
     8
  0
VERTEX
  8
ガラス
 10
120.625
 20
-45.225
 70
     8
  0
VERTEX
  8
ガラス
 10
120.625
 20
-45.15
 70
     8
  0
VERTEX
  8
ガラス
 10
120.6
 20
-45.05
 70
     8
  0
VERTEX
  8
ガラス
 10
120.6
 20
-44.95
 70
     8
  0
VERTEX
  8
ガラス
 10
120.6
 20
-44.875
 70
     8
  0
VERTEX
  8
ガラス
 10
120.575
 20
-44.775
 70
     8
  0
VERTEX
  8
ガラス
 10
120.575
 20
-44.675
 70
     8
  0
VERTEX
  8
ガラス
 10
120.575
 20
-44.6
 70
     8
  0
VERTEX
  8
ガラス
 10
120.55
 20
-44.5
 70
     8
  0
VERTEX
  8
ガラス
 10
120.55
 20
-44.425
 70
     8
  0
VERTEX
  8
ガラス
 10
120.55
 20
-44.325
 70
     8
  0
VERTEX
  8
ガラス
 10
120.575
 20
-44.25
 70
     8
  0
VERTEX
  8
ガラス
 10
120.575
 20
-44.15
 70
     8
  0
VERTEX
  8
ガラス
 10
120.575
 20
-44.075
 70
     8
  0
VERTEX
  8
ガラス
 10
120.6
 20
-44.0
 70
     8
  0
VERTEX
  8
ガラス
 10
120.6
 20
-43.9
 70
     8
  0
VERTEX
  8
ガラス
 10
120.625
 20
-43.825
 70
     8
  0
VERTEX
  8
ガラス
 10
120.65
 20
-43.75
 70
     8
  0
VERTEX
  8
ガラス
 10
120.675
 20
-43.675
 70
     8
  0
VERTEX
  8
ガラス
 10
120.7
 20
-43.6
 70
     8
  0
VERTEX
  8
ガラス
 10
120.75
 20
-43.525
 70
     8
  0
VERTEX
  8
ガラス
 10
120.775
 20
-43.45
 70
     8
  0
VERTEX
  8
ガラス
 10
120.825
 20
-43.375
 70
     8
  0
VERTEX
  8
ガラス
 10
120.875
 20
-43.3
 70
     8
  0
VERTEX
  8
ガラス
 10
120.9
 20
-43.225
 70
     8
  0
VERTEX
  8
ガラス
 10
120.95
 20
-43.15
 70
     8
  0
VERTEX
  8
ガラス
 10
121.025
 20
-43.1
 70
     8
  0
VERTEX
  8
ガラス
 10
121.075
 20
-43.025
 70
     8
  0
VERTEX
  8
ガラス
 10
121.125
 20
-42.95
 70
     8
  0
VERTEX
  8
ガラス
 10
121.175
 20
-42.875
 70
     8
  0
VERTEX
  8
ガラス
 10
121.25
 20
-42.825
 70
     8
  0
VERTEX
  8
ガラス
 10
121.3
 20
-42.75
 70
     8
  0
VERTEX
  8
ガラス
 10
121.375
 20
-42.7
 70
     8
  0
VERTEX
  8
ガラス
 10
121.45
 20
-42.625
 70
     8
  0
VERTEX
  8
ガラス
 10
121.5
 20
-42.55
 70
     8
  0
VERTEX
  8
ガラス
 10
121.575
 20
-42.5
 70
     8
  0
VERTEX
  8
ガラス
 10
121.65
 20
-42.425
 70
     8
  0
VERTEX
  8
ガラス
 10
121.7
 20
-42.375
 70
     8
  0
SEQEND
  0
POLYLINE
  8
ガラス
  6
CONTINUOUS
 66
     1
 70
     4
  0
VERTEX
  8
ガラス
 10
121.7
 20
-42.375
 70
     8
  0
VERTEX
  8
ガラス
 10
121.725
 20
-42.425
 70
     8
  0
VERTEX
  8
ガラス
 10
121.725
 20
-42.5
 70
     8
  0
VERTEX
  8
ガラス
 10
121.725
 20
-42.55
 70
     8
  0
VERTEX
  8
ガラス
 10
121.75
 20
-42.6
 70
     8
  0
VERTEX
  8
ガラス
 10
121.75
 20
-42.675
 70
     8
  0
VERTEX
  8
ガラス
 10
121.775
 20
-42.725
 70
     8
  0
VERTEX
  8
ガラス
 10
121.775
 20
-42.8
 70
     8
  0
VERTEX
  8
ガラス
 10
121.775
 20
-42.85
 70
     8
  0
VERTEX
  8
ガラス
 10
121.8
 20
-42.925
 70
     8
  0
VERTEX
  8
ガラス
 10
121.8
 20
-42.975
 70
     8
  0
VERTEX
  8
ガラス
 10
121.825
 20
-43.025
 70
     8
  0
VERTEX
  8
ガラス
 10
121.825
 20
-43.1
 70
     8
  0
VERTEX
  8
ガラス
 10
121.85
 20
-43.15
 70
     8
  0
VERTEX
  8
ガラス
 10
121.85
 20
-43.225
 70
     8
  0
VERTEX
  8
ガラス
 10
121.875
 20
-43.275
 70
     8
  0
VERTEX
  8
ガラス
 10
121.875
 20
-43.325
 70
     8
  0
VERTEX
  8
ガラス
 10
121.9
 20
-43.4
 70
     8
  0
VERTEX
  8
ガラス
 10
121.925
 20
-43.45
 70
     8
  0
VERTEX
  8
ガラス
 10
121.925
 20
-43.5
 70
     8
  0
VERTEX
  8
ガラス
 10
121.95
 20
-43.575
 70
     8
  0
VERTEX
  8
ガラス
 10
121.975
 20
-43.625
 70
     8
  0
VERTEX
  8
ガラス
 10
121.975
 20
-43.675
 70
     8
  0
VERTEX
  8
ガラス
 10
122.0
 20
-43.75
 70
     8
  0
VERTEX
  8
ガラス
 10
122.025
 20
-43.8
 70
     8
  0
VERTEX
  8
ガラス
 10
122.05
 20
-43.85
 70
     8
  0
VERTEX
  8
ガラス
 10
122.075
 20
-43.925
 70
     8
  0
VERTEX
  8
ガラス
 10
122.1
 20
-43.975
 70
     8
  0
VERTEX
  8
ガラス
 10
122.1
 20
-44.025
 70
     8
  0
VERTEX
  8
ガラス
 10
122.125
 20
-44.075
 70
     8
  0
VERTEX
  8
ガラス
 10
122.15
 20
-44.15
 70
     8
  0
VERTEX
  8
ガラス
 10
122.175
 20
-44.2
 70
     8
  0
VERTEX
  8
ガラス
 10
122.2
 20
-44.25
 70
     8
  0
VERTEX
  8
ガラス
 10
122.225
 20
-44.3
 70
     8
  0
VERTEX
  8
ガラス
 10
122.25
 20
-44.375
 70
     8
  0
VERTEX
  8
ガラス
 10
122.275
 20
-44.425
 70
     8
  0
VERTEX
  8
ガラス
 10
122.3
 20
-44.475
 70
     8
  0
VERTEX
  8
ガラス
 10
122.325
 20
-44.525
 70
     8
  0
VERTEX
  8
ガラス
 10
122.35
 20
-44.6
 70
     8
  0
VERTEX
  8
ガラス
 10
122.4
 20
-44.65
 70
     8
  0
VERTEX
  8
ガラス
 10
122.425
 20
-44.7
 70
     8
  0
SEQEND
  0
ARC
  8
ガラス
  6
CONTINUOUS
 10
121.560191
 20
-45.091994
 40
0.955135
 50
204.896752
 51
384.896752
  0
ENDBLK
  0
BLOCK
  2
*GRP_0071
 70
    65
 10
0.0
 20
0.0
  0
POLYLINE
  8
ガラス
  6
CONTINUOUS
 66
     1
 70
     4
  0
VERTEX
  8
ガラス
 10
120.675
 20
-25.45
 70
     8
  0
VERTEX
  8
ガラス
 10
120.675
 20
-25.35
 70
     8
  0
VERTEX
  8
ガラス
 10
120.65
 20
-25.25
 70
     8
  0
VERTEX
  8
ガラス
 10
120.625
 20
-25.175
 70
     8
  0
VERTEX
  8
ガラス
 10
120.625
 20
-25.075
 70
     8
  0
VERTEX
  8
ガラス
 10
120.6
 20
-24.975
 70
     8
  0
VERTEX
  8
ガラス
 10
120.6
 20
-24.9
 70
     8
  0
VERTEX
  8
ガラス
 10
120.6
 20
-24.8
 70
     8
  0
VERTEX
  8
ガラス
 10
120.575
 20
-24.725
 70
     8
  0
VERTEX
  8
ガラス
 10
120.575
 20
-24.625
 70
     8
  0
VERTEX
  8
ガラス
 10
120.575
 20
-24.525
 70
     8
  0
VERTEX
  8
ガラス
 10
120.55
 20
-24.45
 70
     8
  0
VERTEX
  8
ガラス
 10
120.55
 20
-24.35
 70
     8
  0
VERTEX
  8
ガラス
 10
120.55
 20
-24.275
 70
     8
  0
VERTEX
  8
ガラス
 10
120.575
 20
-24.175
 70
     8
  0
VERTEX
  8
ガラス
 10
120.575
 20
-24.1
 70
     8
  0
VERTEX
  8
ガラス
 10
120.575
 20
-24.025
 70
     8
  0
VERTEX
  8
ガラス
 10
120.6
 20
-23.925
 70
     8
  0
VERTEX
  8
ガラス
 10
120.6
 20
-23.85
 70
     8
  0
VERTEX
  8
ガラス
 10
120.625
 20
-23.775
 70
     8
  0
VERTEX
  8
ガラス
 10
120.65
 20
-23.7
 70
     8
  0
VERTEX
  8
ガラス
 10
120.675
 20
-23.6
 70
     8
  0
VERTEX
  8
ガラス
 10
120.7
 20
-23.525
 70
     8
  0
VERTEX
  8
ガラス
 10
120.75
 20
-23.45
 70
     8
  0
VERTEX
  8
ガラス
 10
120.775
 20
-23.375
 70
     8
  0
VERTEX
  8
ガラス
 10
120.825
 20
-23.3
 70
     8
  0
VERTEX
  8
ガラス
 10
120.875
 20
-23.25
 70
     8
  0
VERTEX
  8
ガラス
 10
120.9
 20
-23.175
 70
     8
  0
VERTEX
  8
ガラス
 10
120.95
 20
-23.1
 70
     8
  0
VERTEX
  8
ガラス
 10
121.025
 20
-23.025
 70
     8
  0
VERTEX
  8
ガラス
 10
121.075
 20
-22.95
 70
     8
  0
VERTEX
  8
ガラス
 10
121.125
 20
-22.9
 70
     8
  0
VERTEX
  8
ガラス
 10
121.175
 20
-22.825
 70
     8
  0
VERTEX
  8
ガラス
 10
121.25
 20
-22.75
 70
     8
  0
VERTEX
  8
ガラス
 10
121.3
 20
-22.7
 70
     8
  0
VERTEX
  8
ガラス
 10
121.375
 20
-22.625
 70
     8
  0
VERTEX
  8
ガラス
 10
121.45
 20
-22.575
 70
     8
  0
VERTEX
  8
ガラス
 10
121.5
 20
-22.5
 70
     8
  0
VERTEX
  8
ガラス
 10
121.575
 20
-22.425
 70
     8
  0
VERTEX
  8
ガラス
 10
121.65
 20
-22.375
 70
     8
  0
VERTEX
  8
ガラス
 10
121.7
 20
-22.3
 70
     8
  0
SEQEND
  0
POLYLINE
  8
ガラス
  6
CONTINUOUS
 66
     1
 70
     4
  0
VERTEX
  8
ガラス
 10
121.7
 20
-22.3
 70
     8
  0
VERTEX
  8
ガラス
 10
121.725
 20
-22.375
 70
     8
  0
VERTEX
  8
ガラス
 10
121.725
 20
-22.425
 70
     8
  0
VERTEX
  8
ガラス
 10
121.725
 20
-22.5
 70
     8
  0
VERTEX
  8
ガラス
 10
121.75
 20
-22.55
 70
     8
  0
VERTEX
  8
ガラス
 10
121.75
 20
-22.6
 70
     8
  0
VERTEX
  8
ガラス
 10
121.775
 20
-22.675
 70
     8
  0
VERTEX
  8
ガラス
 10
121.775
 20
-22.725
 70
     8
  0
VERTEX
  8
ガラス
 10
121.775
 20
-22.8
 70
     8
  0
VERTEX
  8
ガラス
 10
121.8
 20
-22.85
 70
     8
  0
VERTEX
  8
ガラス
 10
121.8
 20
-22.925
 70
     8
  0
VERTEX
  8
ガラス
 10
121.825
 20
-22.975
 70
     8
  0
VERTEX
  8
ガラス
 10
121.825
 20
-23.025
 70
     8
  0
VERTEX
  8
ガラス
 10
121.85
 20
-23.1
 70
     8
  0
VERTEX
  8
ガラス
 10
121.85
 20
-23.15
 70
     8
  0
VERTEX
  8
ガラス
 10
121.875
 20
-23.225
 70
     8
  0
VERTEX
  8
ガラス
 10
121.875
 20
-23.275
 70
     8
  0
VERTEX
  8
ガラス
 10
121.9
 20
-23.325
 70
     8
  0
VERTEX
  8
ガラス
 10
121.925
 20
-23.4
 70
     8
  0
VERTEX
  8
ガラス
 10
121.925
 20
-23.45
 70
     8
  0
VERTEX
  8
ガラス
 10
121.95
 20
-23.5
 70
     8
  0
VERTEX
  8
ガラス
 10
121.975
 20
-23.575
 70
     8
  0
VERTEX
  8
ガラス
 10
121.975
 20
-23.625
 70
     8
  0
VERTEX
  8
ガラス
 10
122.0
 20
-23.675
 70
     8
  0
VERTEX
  8
ガラス
 10
122.025
 20
-23.75
 70
     8
  0
VERTEX
  8
ガラス
 10
122.05
 20
-23.8
 70
     8
  0
VERTEX
  8
ガラス
 10
122.075
 20
-23.85
 70
     8
  0
VERTEX
  8
ガラス
 10
122.1
 20
-23.925
 70
     8
  0
VERTEX
  8
ガラス
 10
122.1
 20
-23.975
 70
     8
  0
VERTEX
  8
ガラス
 10
122.125
 20
-24.025
 70
     8
  0
VERTEX
  8
ガラス
 10
122.15
 20
-24.075
 70
     8
  0
VERTEX
  8
ガラス
 10
122.175
 20
-24.15
 70
     8
  0
VERTEX
  8
ガラス
 10
122.2
 20
-24.2
 70
     8
  0
VERTEX
  8
ガラス
 10
122.225
 20
-24.25
 70
     8
  0
VERTEX
  8
ガラス
 10
122.25
 20
-24.3
 70
     8
  0
VERTEX
  8
ガラス
 10
122.275
 20
-24.375
 70
     8
  0
VERTEX
  8
ガラス
 10
122.3
 20
-24.425
 70
     8
  0
VERTEX
  8
ガラス
 10
122.325
 20
-24.475
 70
     8
  0
VERTEX
  8
ガラス
 10
122.35
 20
-24.525
 70
     8
  0
VERTEX
  8
ガラス
 10
122.4
 20
-24.575
 70
     8
  0
VERTEX
  8
ガラス
 10
122.425
 20
-24.65
 70
     8
  0
SEQEND
  0
ARC
  8
ガラス
  6
CONTINUOUS
 10
121.560191
 20
-25.032307
 40
0.955135
 50
204.896752
 51
384.896752
  0
ENDBLK
  0
BLOCK
  2
*GRP_0072
 70
    65
 10
0.0
 20
0.0
  0
POLYLINE
  8
ガラス
  6
CONTINUOUS
 66
     1
 70
     4
  0
VERTEX
  8
ガラス
 10
120.675
 20
-3.05
 70
     8
  0
VERTEX
  8
ガラス
 10
120.675
 20
-2.95
 70
     8
  0
VERTEX
  8
ガラス
 10
120.65
 20
-2.85
 70
     8
  0
VERTEX
  8
ガラス
 10
120.625
 20
-2.775
 70
     8
  0
VERTEX
  8
ガラス
 10
120.625
 20
-2.675
 70
     8
  0
VERTEX
  8
ガラス
 10
120.6
 20
-2.575
 70
     8
  0
VERTEX
  8
ガラス
 10
120.6
 20
-2.5
 70
     8
  0
VERTEX
  8
ガラス
 10
120.6
 20
-2.4
 70
     8
  0
VERTEX
  8
ガラス
 10
120.575
 20
-2.325
 70
     8
  0
VERTEX
  8
ガラス
 10
120.575
 20
-2.225
 70
     8
  0
VERTEX
  8
ガラス
 10
120.575
 20
-2.125
 70
     8
  0
VERTEX
  8
ガラス
 10
120.55
 20
-2.05
 70
     8
  0
VERTEX
  8
ガラス
 10
120.55
 20
-1.95
 70
     8
  0
VERTEX
  8
ガラス
 10
120.55
 20
-1.875
 70
     8
  0
VERTEX
  8
ガラス
 10
120.575
 20
-1.775
 70
     8
  0
VERTEX
  8
ガラス
 10
120.575
 20
-1.7
 70
     8
  0
VERTEX
  8
ガラス
 10
120.575
 20
-1.625
 70
     8
  0
VERTEX
  8
ガラス
 10
120.6
 20
-1.525
 70
     8
  0
VERTEX
  8
ガラス
 10
120.6
 20
-1.45
 70
     8
  0
VERTEX
  8
ガラス
 10
120.625
 20
-1.375
 70
     8
  0
VERTEX
  8
ガラス
 10
120.65
 20
-1.3
 70
     8
  0
VERTEX
  8
ガラス
 10
120.675
 20
-1.2
 70
     8
  0
VERTEX
  8
ガラス
 10
120.7
 20
-1.125
 70
     8
  0
VERTEX
  8
ガラス
 10
120.75
 20
-1.05
 70
     8
  0
VERTEX
  8
ガラス
 10
120.775
 20
-0.975
 70
     8
  0
VERTEX
  8
ガラス
 10
120.825
 20
-0.9
 70
     8
  0
VERTEX
  8
ガラス
 10
120.875
 20
-0.85
 70
     8
  0
VERTEX
  8
ガラス
 10
120.9
 20
-0.775
 70
     8
  0
VERTEX
  8
ガラス
 10
120.95
 20
-0.7
 70
     8
  0
VERTEX
  8
ガラス
 10
121.025
 20
-0.625
 70
     8
  0
VERTEX
  8
ガラス
 10
121.075
 20
-0.55
 70
     8
  0
VERTEX
  8
ガラス
 10
121.125
 20
-0.5
 70
     8
  0
VERTEX
  8
ガラス
 10
121.175
 20
-0.425
 70
     8
  0
VERTEX
  8
ガラス
 10
121.25
 20
-0.35
 70
     8
  0
VERTEX
  8
ガラス
 10
121.3
 20
-0.3
 70
     8
  0
VERTEX
  8
ガラス
 10
121.375
 20
-0.225
 70
     8
  0
VERTEX
  8
ガラス
 10
121.45
 20
-0.175
 70
     8
  0
VERTEX
  8
ガラス
 10
121.5
 20
-0.1
 70
     8
  0
VERTEX
  8
ガラス
 10
121.575
 20
-0.025
 70
     8
  0
VERTEX
  8
ガラス
 10
121.65
 20
0.025
 70
     8
  0
VERTEX
  8
ガラス
 10
121.7
 20
0.1
 70
     8
  0
SEQEND
  0
POLYLINE
  8
ガラス
  6
CONTINUOUS
 66
     1
 70
     4
  0
VERTEX
  8
ガラス
 10
121.7
 20
0.1
 70
     8
  0
VERTEX
  8
ガラス
 10
121.725
 20
0.025
 70
     8
  0
VERTEX
  8
ガラス
 10
121.725
 20
-0.025
 70
     8
  0
VERTEX
  8
ガラス
 10
121.725
 20
-0.1
 70
     8
  0
VERTEX
  8
ガラス
 10
121.75
 20
-0.15
 70
     8
  0
VERTEX
  8
ガラス
 10
121.75
 20
-0.2
 70
     8
  0
VERTEX
  8
ガラス
 10
121.775
 20
-0.275
 70
     8
  0
VERTEX
  8
ガラス
 10
121.775
 20
-0.325
 70
     8
  0
VERTEX
  8
ガラス
 10
121.775
 20
-0.4
 70
     8
  0
VERTEX
  8
ガラス
 10
121.8
 20
-0.45
 70
     8
  0
VERTEX
  8
ガラス
 10
121.8
 20
-0.525
 70
     8
  0
VERTEX
  8
ガラス
 10
121.825
 20
-0.575
 70
     8
  0
VERTEX
  8
ガラス
 10
121.825
 20
-0.625
 70
     8
  0
VERTEX
  8
ガラス
 10
121.85
 20
-0.7
 70
     8
  0
VERTEX
  8
ガラス
 10
121.85
 20
-0.75
 70
     8
  0
VERTEX
  8
ガラス
 10
121.875
 20
-0.825
 70
     8
  0
VERTEX
  8
ガラス
 10
121.875
 20
-0.875
 70
     8
  0
VERTEX
  8
ガラス
 10
121.9
 20
-0.925
 70
     8
  0
VERTEX
  8
ガラス
 10
121.925
 20
-1.0
 70
     8
  0
VERTEX
  8
ガラス
 10
121.925
 20
-1.05
 70
     8
  0
VERTEX
  8
ガラス
 10
121.95
 20
-1.1
 70
     8
  0
VERTEX
  8
ガラス
 10
121.975
 20
-1.175
 70
     8
  0
VERTEX
  8
ガラス
 10
121.975
 20
-1.225
 70
     8
  0
VERTEX
  8
ガラス
 10
122.0
 20
-1.275
 70
     8
  0
VERTEX
  8
ガラス
 10
122.025
 20
-1.35
 70
     8
  0
VERTEX
  8
ガラス
 10
122.05
 20
-1.4
 70
     8
  0
VERTEX
  8
ガラス
 10
122.075
 20
-1.45
 70
     8
  0
VERTEX
  8
ガラス
 10
122.1
 20
-1.525
 70
     8
  0
VERTEX
  8
ガラス
 10
122.1
 20
-1.575
 70
     8
  0
VERTEX
  8
ガラス
 10
122.125
 20
-1.625
 70
     8
  0
VERTEX
  8
ガラス
 10
122.15
 20
-1.675
 70
     8
  0
VERTEX
  8
ガラス
 10
122.175
 20
-1.75
 70
     8
  0
VERTEX
  8
ガラス
 10
122.2
 20
-1.8
 70
     8
  0
VERTEX
  8
ガラス
 10
122.225
 20
-1.85
 70
     8
  0
VERTEX
  8
ガラス
 10
122.25
 20
-1.9
 70
     8
  0
VERTEX
  8
ガラス
 10
122.275
 20
-1.975
 70
     8
  0
VERTEX
  8
ガラス
 10
122.3
 20
-2.025
 70
     8
  0
VERTEX
  8
ガラス
 10
122.325
 20
-2.075
 70
     8
  0
VERTEX
  8
ガラス
 10
122.35
 20
-2.125
 70
     8
  0
VERTEX
  8
ガラス
 10
122.4
 20
-2.175
 70
     8
  0
VERTEX
  8
ガラス
 10
122.425
 20
-2.25
 70
     8
  0
SEQEND
  0
ARC
  8
ガラス
  6
CONTINUOUS
 10
121.560191
 20
-2.632322
 40
0.955135
 50
204.896752
 51
384.896752
  0
ENDBLK
  0
BLOCK
  2
*GRP_0073
 70
    65
 10
0.0
 20
0.0
  0
POLYLINE
  8
ガラス
  6
CONTINUOUS
 66
     1
 70
     4
  0
VERTEX
  8
ガラス
 10
120.675
 20
15.675
 70
     8
  0
VERTEX
  8
ガラス
 10
120.675
 20
15.775
 70
     8
  0
VERTEX
  8
ガラス
 10
120.65
 20
15.85
 70
     8
  0
VERTEX
  8
ガラス
 10
120.625
 20
15.95
 70
     8
  0
VERTEX
  8
ガラス
 10
120.625
 20
16.05
 70
     8
  0
VERTEX
  8
ガラス
 10
120.6
 20
16.125
 70
     8
  0
VERTEX
  8
ガラス
 10
120.6
 20
16.225
 70
     8
  0
VERTEX
  8
ガラス
 10
120.6
 20
16.325
 70
     8
  0
VERTEX
  8
ガラス
 10
120.575
 20
16.4
 70
     8
  0
VERTEX
  8
ガラス
 10
120.575
 20
16.5
 70
     8
  0
VERTEX
  8
ガラス
 10
120.575
 20
16.6
 70
     8
  0
VERTEX
  8
ガラス
 10
120.55
 20
16.675
 70
     8
  0
VERTEX
  8
ガラス
 10
120.55
 20
16.775
 70
     8
  0
VERTEX
  8
ガラス
 10
120.55
 20
16.85
 70
     8
  0
VERTEX
  8
ガラス
 10
120.575
 20
16.95
 70
     8
  0
VERTEX
  8
ガラス
 10
120.575
 20
17.025
 70
     8
  0
VERTEX
  8
ガラス
 10
120.575
 20
17.1
 70
     8
  0
VERTEX
  8
ガラス
 10
120.6
 20
17.2
 70
     8
  0
VERTEX
  8
ガラス
 10
120.6
 20
17.275
 70
     8
  0
VERTEX
  8
ガラス
 10
120.625
 20
17.35
 70
     8
  0
VERTEX
  8
ガラス
 10
120.65
 20
17.425
 70
     8
  0
VERTEX
  8
ガラス
 10
120.675
 20
17.5
 70
     8
  0
VERTEX
  8
ガラス
 10
120.7
 20
17.6
 70
     8
  0
VERTEX
  8
ガラス
 10
120.75
 20
17.675
 70
     8
  0
VERTEX
  8
ガラス
 10
120.775
 20
17.75
 70
     8
  0
VERTEX
  8
ガラス
 10
120.825
 20
17.8
 70
     8
  0
VERTEX
  8
ガラス
 10
120.875
 20
17.875
 70
     8
  0
VERTEX
  8
ガラス
 10
120.9
 20
17.95
 70
     8
  0
VERTEX
  8
ガラス
 10
120.95
 20
18.025
 70
     8
  0
VERTEX
  8
ガラス
 10
121.025
 20
18.1
 70
     8
  0
VERTEX
  8
ガラス
 10
121.075
 20
18.15
 70
     8
  0
VERTEX
  8
ガラス
 10
121.125
 20
18.225
 70
     8
  0
VERTEX
  8
ガラス
 10
121.175
 20
18.3
 70
     8
  0
VERTEX
  8
ガラス
 10
121.25
 20
18.35
 70
     8
  0
VERTEX
  8
ガラス
 10
121.3
 20
18.425
 70
     8
  0
VERTEX
  8
ガラス
 10
121.375
 20
18.5
 70
     8
  0
VERTEX
  8
ガラス
 10
121.45
 20
18.55
 70
     8
  0
VERTEX
  8
ガラス
 10
121.5
 20
18.625
 70
     8
  0
VERTEX
  8
ガラス
 10
121.575
 20
18.675
 70
     8
  0
VERTEX
  8
ガラス
 10
121.65
 20
18.75
 70
     8
  0
VERTEX
  8
ガラス
 10
121.7
 20
18.825
 70
     8
  0
SEQEND
  0
POLYLINE
  8
ガラス
  6
CONTINUOUS
 66
     1
 70
     4
  0
VERTEX
  8
ガラス
 10
121.7
 20
18.825
 70
     8
  0
VERTEX
  8
ガラス
 10
121.725
 20
18.75
 70
     8
  0
VERTEX
  8
ガラス
 10
121.725
 20
18.7
 70
     8
  0
VERTEX
  8
ガラス
 10
121.725
 20
18.625
 70
     8
  0
VERTEX
  8
ガラス
 10
121.75
 20
18.575
 70
     8
  0
VERTEX
  8
ガラス
 10
121.75
 20
18.5
 70
     8
  0
VERTEX
  8
ガラス
 10
121.775
 20
18.45
 70
     8
  0
VERTEX
  8
ガラス
 10
121.775
 20
18.4
 70
     8
  0
VERTEX
  8
ガラス
 10
121.775
 20
18.325
 70
     8
  0
VERTEX
  8
ガラス
 10
121.8
 20
18.275
 70
     8
  0
VERTEX
  8
ガラス
 10
121.8
 20
18.2
 70
     8
  0
VERTEX
  8
ガラス
 10
121.825
 20
18.15
 70
     8
  0
VERTEX
  8
ガラス
 10
121.825
 20
18.1
 70
     8
  0
VERTEX
  8
ガラス
 10
121.85
 20
18.025
 70
     8
  0
VERTEX
  8
ガラス
 10
121.85
 20
17.975
 70
     8
  0
VERTEX
  8
ガラス
 10
121.875
 20
17.9
 70
     8
  0
VERTEX
  8
ガラス
 10
121.875
 20
17.85
 70
     8
  0
VERTEX
  8
ガラス
 10
121.9
 20
17.8
 70
     8
  0
VERTEX
  8
ガラス
 10
121.925
 20
17.725
 70
     8
  0
VERTEX
  8
ガラス
 10
121.925
 20
17.675
 70
     8
  0
VERTEX
  8
ガラス
 10
121.95
 20
17.625
 70
     8
  0
VERTEX
  8
ガラス
 10
121.975
 20
17.55
 70
     8
  0
VERTEX
  8
ガラス
 10
121.975
 20
17.5
 70
     8
  0
VERTEX
  8
ガラス
 10
122.0
 20
17.45
 70
     8
  0
VERTEX
  8
ガラス
 10
122.025
 20
17.375
 70
     8
  0
VERTEX
  8
ガラス
 10
122.05
 20
17.325
 70
     8
  0
VERTEX
  8
ガラス
 10
122.075
 20
17.275
 70
     8
  0
VERTEX
  8
ガラス
 10
122.1
 20
17.2
 70
     8
  0
VERTEX
  8
ガラス
 10
122.1
 20
17.15
 70
     8
  0
VERTEX
  8
ガラス
 10
122.125
 20
17.1
 70
     8
  0
VERTEX
  8
ガラス
 10
122.15
 20
17.05
 70
     8
  0
VERTEX
  8
ガラス
 10
122.175
 20
16.975
 70
     8
  0
VERTEX
  8
ガラス
 10
122.2
 20
16.925
 70
     8
  0
VERTEX
  8
ガラス
 10
122.225
 20
16.875
 70
     8
  0
VERTEX
  8
ガラス
 10
122.25
 20
16.825
 70
     8
  0
VERTEX
  8
ガラス
 10
122.275
 20
16.75
 70
     8
  0
VERTEX
  8
ガラス
 10
122.3
 20
16.7
 70
     8
  0
VERTEX
  8
ガラス
 10
122.325
 20
16.65
 70
     8
  0
VERTEX
  8
ガラス
 10
122.35
 20
16.6
 70
     8
  0
VERTEX
  8
ガラス
 10
122.4
 20
16.525
 70
     8
  0
VERTEX
  8
ガラス
 10
122.425
 20
16.475
 70
     8
  0
SEQEND
  0
ARC
  8
ガラス
  6
CONTINUOUS
 10
121.560191
 20
16.090053
 40
0.955135
 50
204.896752
 51
384.896752
  0
ENDBLK
  0
ENDSEC
  0
SECTION
  2
ENTITIES
  0
POLYLINE
  8
通り芯
  6
CONTINUOUS
 66
     1
 70
     1
  0
VERTEX
  8
通り芯
 10
-210.0
 20
-148.5
  0
VERTEX
  8
通り芯
 10
210.0
 20
-148.5
  0
VERTEX
  8
通り芯
 10
210.0
 20
148.5
  0
VERTEX
  8
通り芯
 10
-210.0
 20
148.5
  0
SEQEND
  0
ARC
  8
通り芯
  6
CONTINUOUS
 62
    15
 10
119.865752
 20
-67.273304
 40
3.0
 50
270.0
 51
360.0
  0
LINE
  8
通り芯
  6
CONTINUOUS
 62
    15
 10
122.865753
 20
-70.273308
 11
101.865753
 21
-70.273308
  0
LINE
  8
通り芯
  6
CONTINUOUS
 62
    15
 10
101.865753
 20
-70.273308
 11
101.865753
 21
-67.273308
  0
LINE
  8
通り芯
  6
CONTINUOUS
 62
    15
 10
119.865753
 20
-67.273308
 11
101.865753
 21
-67.273308
  0
LINE
  8
通り芯
  6
CONTINUOUS
 62
    15
 10
119.865753
 20
-59.773308
 11
122.865753
 21
-59.773308
  0
LINE
  8
通り芯
  6
CONTINUOUS
 62
    15
 10
119.865753
 20
-55.773308
 11
122.865753
 21
-55.773308
  0
LINE
  8
通り芯
  6
CONTINUOUS
 62
    15
 10
120.615753
 20
-55.773308
 11
120.615753
 21
-59.773308
  0
LINE
  8
通り芯
  6
CONTINUOUS
 62
    15
 10
121.365753
 20
-55.773308
 11
121.365753
 21
-59.773308
  0
LINE
  8
通り芯
  6
CONTINUOUS
 62
    15
 10
122.115753
 20
-55.773308
 11
122.115753
 21
-59.773308
  0
ARC
  8
通り芯
  6
CONTINUOUS
 62
    15
 10
119.865752
 20
-35.773349
 40
3.0
 50
0.0
 51
90.0
  0
LINE
  8
通り芯
  6
CONTINUOUS
 62
    15
 10
83.365753
 20
-35.773352
 11
83.365753
 21
-32.773352
  0
LINE
  8
通り芯
  6
CONTINUOUS
 62
    15
 10
78.365753
 20
-35.773352
 11
78.365753
 21
-32.773352
  0
LINE
  8
通り芯
  6
CONTINUOUS
 62
    15
 10
78.365753
 20
-35.023352
 11
83.365753
 21
-35.023352
  0
LINE
  8
通り芯
  6
CONTINUOUS
 62
    15
 10
78.365753
 20
-34.273352
 11
83.365753
 21
-34.273352
  0
LINE
  8
通り芯
  6
CONTINUOUS
 62
    15
 10
78.365753
 20
-33.523352
 11
83.365753
 21
-33.523352
  0
LINE
  8
通り芯
  6
CONTINUOUS
 62
    15
 10
103.365753
 20
-35.773352
 11
103.365753
 21
-32.773352
  0
LINE
  8
通り芯
  6
CONTINUOUS
 62
    15
 10
98.365753
 20
-35.773352
 11
98.365753
 21
-32.773352
  0
LINE
  8
通り芯
  6
CONTINUOUS
 62
    15
 10
98.365753
 20
-35.023352
 11
103.365753
 21
-35.023352
  0
LINE
  8
通り芯
  6
CONTINUOUS
 62
    15
 10
98.365753
 20
-34.273352
 11
103.365753
 21
-34.273352
  0
LINE
  8
通り芯
  6
CONTINUOUS
 62
    15
 10
98.365753
 20
-33.523352
 11
103.365753
 21
-33.523352
  0
LINE
  8
通り芯
  6
CONTINUOUS
 62
    15
 10
119.865753
 20
-67.273308
 11
119.865753
 21
-35.773352
  0
LINE
  8
通り芯
  6
CONTINUOUS
 62
    15
 10
122.865753
 20
-70.273308
 11
122.865753
 21
-32.773352
  0
LINE
  8
通り芯
  6
CONTINUOUS
 62
    15
 10
119.865753
 20
-59.773308
 11
122.865753
 21
-59.773308
  0
LINE
  8
通り芯
  6
CONTINUOUS
 62
    15
 10
119.865753
 20
-55.773308
 11
122.865753
 21
-55.773308
  0
LINE
  8
通り芯
  6
CONTINUOUS
 62
    15
 10
120.615753
 20
-55.773308
 11
120.615753
 21
-59.773308
  0
LINE
  8
通り芯
  6
CONTINUOUS
 62
    15
 10
121.365753
 20
-55.773308
 11
121.365753
 21
-59.773308
  0
LINE
  8
通り芯
  6
CONTINUOUS
 62
    15
 10
122.115753
 20
-55.773308
 11
122.115753
 21
-59.773308
  0
LINE
  8
通り芯
  6
CONTINUOUS
 62
    15
 10
119.865753
 20
-35.773352
 11
27.365753
 21
-35.773352
  0
LINE
  8
通り芯
  6
CONTINUOUS
 62
    15
 10
27.365753
 20
-35.773352
 11
27.365753
 21
-32.773352
  0
LINE
  8
通り芯
  6
CONTINUOUS
 62
    15
 10
122.865753
 20
-32.773352
 11
27.365753
 21
-32.773352
  0
LINE
  8
通り芯
  6
CONTINUOUS
 62
    15
 10
32.615753
 20
-35.773352
 11
32.615753
 21
-32.773352
  0
LINE
  8
通り芯
  6
CONTINUOUS
 62
    15
 10
29.115753
 20
-35.773352
 11
29.115753
 21
-32.773352
  0
LINE
  8
通り芯
  6
CONTINUOUS
 62
    15
 10
29.115753
 20
-35.023352
 11
32.615753
 21
-35.023352
  0
LINE
  8
通り芯
  6
CONTINUOUS
 62
    15
 10
29.115753
 20
-34.273352
 11
32.615753
 21
-34.273352
  0
LINE
  8
通り芯
  6
CONTINUOUS
 62
    15
 10
29.115753
 20
-33.523352
 11
32.615753
 21
-33.523352
  0
LINE
  8
通り芯
  6
CONTINUOUS
 62
    15
 10
107.865753
 20
-35.773352
 11
107.865753
 21
-32.773352
  0
LINE
  8
通り芯
  6
CONTINUOUS
 62
    15
 10
111.865753
 20
-35.773352
 11
111.865753
 21
-32.773352
  0
LINE
  8
通り芯
  6
CONTINUOUS
 62
    15
 10
107.865753
 20
-35.023352
 11
111.865753
 21
-35.023352
  0
LINE
  8
通り芯
  6
CONTINUOUS
 62
    15
 10
107.865753
 20
-34.273352
 11
111.865753
 21
-34.273352
  0
LINE
  8
通り芯
  6
CONTINUOUS
 62
    15
 10
107.865753
 20
-33.523352
 11
111.865753
 21
-33.523352
  0
ARC
  8
通り芯
  6
CONTINUOUS
 62
    15
 10
-43.634251
 20
-53.173331
 40
3.0
 50
180.0
 51
270.0
  0
LINE
  8
通り芯
  6
CONTINUOUS
 62
    15
 10
-25.634253
 20
-56.173337
 11
-25.634253
 21
-53.173337
  0
LINE
  8
通り芯
  6
CONTINUOUS
 62
    15
 10
-46.634253
 20
-56.173337
 11
-25.634253
 21
-56.173337
  0
LINE
  8
通り芯
  6
CONTINUOUS
 62
    15
 10
-43.634253
 20
-35.773352
 11
3.365747
 21
-35.773352
  0
ARC
  8
通り芯
  6
CONTINUOUS
 62
    15
 10
-43.634251
 20
-35.773346
 40
3.0
 50
90.0
 51
180.0
  0
LINE
  8
通り芯
  6
CONTINUOUS
 62
    15
 10
-22.134253
 20
-35.773352
 11
-22.134253
 21
-32.773352
  0
LINE
  8
通り芯
  6
CONTINUOUS
 62
    15
 10
-27.134253
 20
-35.773352
 11
-27.134253
 21
-32.773352
  0
LINE
  8
通り芯
  6
CONTINUOUS
 62
    15
 10
-27.134253
 20
-35.023352
 11
-22.134253
 21
-35.023352
  0
LINE
  8
通り芯
  6
CONTINUOUS
 62
    15
 10
-27.134253
 20
-34.273352
 11
-22.134253
 21
-34.273352
  0
LINE
  8
通り芯
  6
CONTINUOUS
 62
    15
 10
-27.134253
 20
-33.523352
 11
-22.134253
 21
-33.523352
  0
LINE
  8
通り芯
  6
CONTINUOUS
 62
    15
 10
-2.134253
 20
-35.773352
 11
-2.134253
 21
-32.773352
  0
LINE
  8
通り芯
  6
CONTINUOUS
 62
    15
 10
-7.134253
 20
-35.773352
 11
-7.134253
 21
-32.773352
  0
LINE
  8
通り芯
  6
CONTINUOUS
 62
    15
 10
-7.134253
 20
-35.023352
 11
-2.134253
 21
-35.023352
  0
LINE
  8
通り芯
  6
CONTINUOUS
 62
    15
 10
-7.134253
 20
-34.273352
 11
-2.134253
 21
-34.273352
  0
LINE
  8
通り芯
  6
CONTINUOUS
 62
    15
 10
-7.134253
 20
-33.523352
 11
-2.134253
 21
-33.523352
  0
LINE
  8
通り芯
  6
CONTINUOUS
 62
    15
 10
-43.634253
 20
-53.173337
 11
-43.634253
 21
-35.773352
  0
LINE
  8
通り芯
  6
CONTINUOUS
 62
    15
 10
-46.634253
 20
-56.173337
 11
-46.634253
 21
-32.773348
  0
LINE
  8
通り芯
  6
CONTINUOUS
 62
    15
 10
-43.634253
 20
-53.173337
 11
3.365747
 21
-53.173337
  0
LINE
  8
通り芯
  6
CONTINUOUS
 62
    15
 10
3.365747
 20
-32.773352
 11
3.365747
 21
-53.173337
  0
LINE
  8
通り芯
  6
CONTINUOUS
 10
-46.634253
 20
-32.773348
 11
3.365747
 21
-32.773352
  0
INSERT
  2
*GRP_0001
  8
型材断面
  6
CONTINUOUS
 10
0.0
 20
0.0
  0
INSERT
  2
*GRP_0002
  8
型材断面
  6
CONTINUOUS
 62
    47
 10
0.0
 20
0.0
  0
LINE
  8
型材断面
  6
CONTINUOUS
 62
    47
 10
124.365753
 20
-60.773308
 11
122.865753
 21
-59.939977
  0
LINE
  8
型材断面
  6
CONTINUOUS
 62
    47
 10
122.865753
 20
-55.606643
 11
124.365753
 21
-54.773308
  0
LINE
  8
型材断面
  6
CONTINUOUS
 62
    47
 10
123.240753
 20
-55.398308
 11
123.240753
 21
-60.148308
  0
LINE
  8
型材断面
  6
CONTINUOUS
 62
    47
 10
123.615753
 20
-55.189973
 11
123.615753
 21
-60.356643
  0
LINE
  8
型材断面
  6
CONTINUOUS
 62
    47
 10
123.990753
 20
-54.981643
 11
123.990753
 21
-60.564973
  0
LINE
  8
型材断面
  6
DASHDOT
 62
    47
 10
30.865753
 20
-29.773352
 11
30.865753
 21
-36.415482
  0
LINE
  8
型材断面
  6
CONTINUOUS
 62
    47
 10
34.865753
 20
-31.273352
 11
34.865753
 21
-32.773352
  0
LINE
  8
型材断面
  6
CONTINUOUS
 62
    47
 10
34.865753
 20
-31.273352
 11
34.865753
 21
-32.773352
  0
LINE
  8
型材断面
  6
CONTINUOUS
 62
    47
 10
83.865753
 20
-31.273352
 11
83.865753
 21
-32.773352
  0
LINE
  8
型材断面
  6
CONTINUOUS
 62
    47
 10
77.865753
 20
-31.273352
 11
77.865753
 21
-32.773352
  0
LINE
  8
型材断面
  6
CONTINUOUS
 62
    47
 10
77.865753
 20
-32.398352
 11
83.865753
 21
-32.398352
  0
LINE
  8
型材断面
  6
CONTINUOUS
 62
    47
 10
77.865753
 20
-32.023352
 11
83.865753
 21
-32.023352
  0
LINE
  8
型材断面
  6
CONTINUOUS
 62
    47
 10
77.865753
 20
-31.648352
 11
83.865753
 21
-31.648352
  0
LINE
  8
型材断面
  6
CONTINUOUS
 62
    47
 10
103.865753
 20
-31.273352
 11
103.865753
 21
-32.773352
  0
LINE
  8
型材断面
  6
CONTINUOUS
 62
    47
 10
97.865753
 20
-31.273352
 11
97.865753
 21
-32.773352
  0
LINE
  8
型材断面
  6
CONTINUOUS
 62
    47
 10
97.865753
 20
-32.398352
 11
103.865753
 21
-32.398352
  0
LINE
  8
型材断面
  6
CONTINUOUS
 62
    47
 10
97.865753
 20
-32.023352
 11
103.865753
 21
-32.023352
  0
LINE
  8
型材断面
  6
CONTINUOUS
 62
    47
 10
97.865753
 20
-31.648352
 11
103.865753
 21
-31.648352
  0
LINE
  8
型材断面
  6
CONTINUOUS
 62
    47
 10
34.865753
 20
-32.773352
 11
34.865753
 21
-31.273352
  0
LINE
  8
型材断面
  6
CONTINUOUS
 62
    47
 10
122.865753
 20
-31.273352
 11
34.865753
 21
-31.273352
  0
LINE
  8
型材断面
  6
CONTINUOUS
 62
    47
 10
107.365753
 20
-31.273352
 11
107.365753
 21
-32.773352
  0
LINE
  8
型材断面
  6
CONTINUOUS
 62
    47
 10
112.365753
 20
-31.273352
 11
112.365753
 21
-32.773352
  0
LINE
  8
型材断面
  6
CONTINUOUS
 62
    47
 10
107.365753
 20
-32.398352
 11
112.365753
 21
-32.398352
  0
LINE
  8
型材断面
  6
CONTINUOUS
 62
    47
 10
107.365753
 20
-32.023352
 11
112.365753
 21
-32.023352
  0
LINE
  8
型材断面
  6
CONTINUOUS
 62
    47
 10
107.365753
 20
-31.648352
 11
112.365753
 21
-31.648352
  0
INSERT
  2
*GRP_0003
  8
型材断面
  6
CONTINUOUS
 10
0.0
 20
0.0
  0
LINE
  8
型材断面
  6
DASHDOT
 10
-48.134248
 20
-12.773337
 11
132.467733
 21
-12.773337
  0
LINE
  8
型材断面
  6
CONTINUOUS
 62
    47
 10
23.365753
 20
-57.673337
 11
24.199083
 21
-56.173337
  0
LINE
  8
型材断面
  6
CONTINUOUS
 62
    47
 10
29.365753
 20
-57.673337
 11
28.532417
 21
-56.173337
  0
LINE
  8
型材断面
  6
CONTINUOUS
 62
    47
 10
23.574083
 20
-57.298337
 11
29.157417
 21
-57.298337
  0
LINE
  8
型材断面
  6
CONTINUOUS
 62
    47
 10
23.782417
 20
-56.923337
 11
28.949083
 21
-56.923337
  0
LINE
  8
型材断面
  6
CONTINUOUS
 62
    47
 10
23.990753
 20
-56.548337
 11
28.740753
 21
-56.548337
  0
ARC
  8
型材断面
  6
CONTINUOUS
 62
    47
 10
20.36576
 20
-54.673326
 40
1.5
 50
180.0
 51
270.0
  0
LINE
  8
型材断面
  6
CONTINUOUS
 62
    47
 10
20.365753
 20
-54.673337
 11
33.365753
 21
-54.673337
  0
LINE
  8
型材断面
  6
CONTINUOUS
 62
    47
 10
33.365753
 20
-56.173337
 11
33.365753
 21
-54.673337
  0
LINE
  8
型材断面
  6
CONTINUOUS
 62
    47
 10
28.115753
 20
-56.173337
 11
28.115753
 21
-54.673337
  0
LINE
  8
型材断面
  6
CONTINUOUS
 62
    47
 10
24.615753
 20
-56.173337
 11
24.615753
 21
-54.673337
  0
LINE
  8
型材断面
  6
CONTINUOUS
 62
    47
 10
24.615753
 20
-55.798337
 11
28.115753
 21
-55.798337
  0
LINE
  8
型材断面
  6
CONTINUOUS
 62
    47
 10
24.615753
 20
-55.423337
 11
28.115753
 21
-55.423337
  0
LINE
  8
型材断面
  6
CONTINUOUS
 62
    47
 10
24.615753
 20
-55.048337
 11
28.115753
 21
-55.048337
  0
LINE
  8
型材断面
  6
CONTINUOUS
 62
    47
 10
26.365753
 20
-52.054922
 11
26.365753
 21
-59.823722
  0
LINE
  8
型材断面
  6
CONTINUOUS
 62
    47
 10
18.865753
 20
-32.773348
 11
-46.634253
 21
-32.773348
  0
ARC
  8
型材断面
  6
CONTINUOUS
 62
    47
 10
18.86576
 20
-32.773338
 40
1.5
 50
0.0
 51
90.0
  0
LINE
  8
型材断面
  6
CONTINUOUS
 62
    47
 10
20.365753
 20
-31.273348
 11
-46.634253
 21
-31.273348
  0
LINE
  8
型材断面
  6
CONTINUOUS
 62
    47
 10
-27.634253
 20
-32.773348
 11
-27.634253
 21
-31.273348
  0
LINE
  8
型材断面
  6
CONTINUOUS
 62
    47
 10
-21.634253
 20
-32.773348
 11
-21.634253
 21
-31.273348
  0
LINE
  8
型材断面
  6
CONTINUOUS
 62
    47
 10
-27.634253
 20
-32.398348
 11
-21.634253
 21
-32.398348
  0
LINE
  8
型材断面
  6
CONTINUOUS
 62
    47
 10
-27.634253
 20
-32.023348
 11
-21.634253
 21
-32.023348
  0
LINE
  8
型材断面
  6
CONTINUOUS
 62
    47
 10
-27.634253
 20
-31.648348
 11
-21.634253
 21
-31.648348
  0
LINE
  8
型材断面
  6
CONTINUOUS
 62
    47
 10
-7.634253
 20
-32.773348
 11
-7.634253
 21
-31.273348
  0
LINE
  8
型材断面
  6
CONTINUOUS
 62
    47
 10
-1.634253
 20
-32.773348
 11
-1.634253
 21
-31.273348
  0
LINE
  8
型材断面
  6
CONTINUOUS
 62
    47
 10
-7.634253
 20
-32.398348
 11
-1.634253
 21
-32.398348
  0
LINE
  8
型材断面
  6
CONTINUOUS
 62
    47
 10
-7.634253
 20
-32.023348
 11
-1.634253
 21
-32.023348
  0
LINE
  8
型材断面
  6
CONTINUOUS
 62
    47
 10
-7.634253
 20
-31.648348
 11
-1.634253
 21
-31.648348
  0
LINE
  8
型材断面
  6
CONTINUOUS
 62
    47
 10
18.865753
 20
-56.173337
 11
18.865753
 21
-32.773348
  0
LINE
  8
型材断面
  6
CONTINUOUS
 62
    47
 10
20.365753
 20
-54.673337
 11
20.365753
 21
-31.273348
  0
LINE
  8
型材断面
  6
CONTINUOUS
 62
    47
 10
-46.634253
 20
-32.773348
 11
-46.634253
 21
-31.273348
  0
INSERT
  2
*GRP_0004
  8
型材断面
  6
CONTINUOUS
 10
0.0
 20
0.0
  0
INSERT
  2
*GRP_0005
  8
型材断面
  6
CONTINUOUS
 10
0.0
 20
0.0
  0
LINE
  8
型材断面
  6
CONTINUOUS
 10
-134.012233
 20
112.783755
 11
-134.012233
 21
44.726665
  0
POLYLINE
  8
型材断面
  6
CONTINUOUS
 66
     1
  0
VERTEX
  8
型材断面
 10
-134.012233
 20
112.783755
  0
VERTEX
  8
型材断面
 10
-135.863912
 20
106.758792
  0
VERTEX
  8
型材断面
 10
-134.012233
 20
106.532978
  0
SEQEND
  0
POLYLINE
  8
型材断面
  6
CONTINUOUS
 66
     1
  0
VERTEX
  8
型材断面
 10
-134.012233
 20
109.870615
  0
VERTEX
  8
型材断面
 10
-135.863912
 20
103.845652
  0
VERTEX
  8
型材断面
 10
-134.012233
 20
103.619837
  0
SEQEND
  0
POLYLINE
  8
型材断面
  6
CONTINUOUS
 66
     1
  0
VERTEX
  8
型材断面
 10
-142.75407
 20
112.783755
  0
VERTEX
  8
型材断面
 10
-144.60575
 20
106.758792
  0
VERTEX
  8
型材断面
 10
-142.75407
 20
106.532978
  0
SEQEND
  0
POLYLINE
  8
型材断面
  6
CONTINUOUS
 66
     1
  0
VERTEX
  8
型材断面
 10
-142.75407
 20
109.870615
  0
VERTEX
  8
型材断面
 10
-144.60575
 20
103.845652
  0
VERTEX
  8
型材断面
 10
-142.75407
 20
103.619837
  0
SEQEND
  0
INSERT
  2
*GRP_0006
  8
ガラス
  6
CONTINUOUS
 10
0.0
 20
0.0
  0
INSERT
  2
*GRP_0067
  8
ガラス
  6
CONTINUOUS
 10
0.0
 20
0.0
  0
INSERT
  2
*GRP_0068
  8
ガラス
  6
CONTINUOUS
 10
0.0
 20
0.0
  0
INSERT
  2
*GRP_0069
  8
ガラス
  6
CONTINUOUS
 10
0.0
 20
0.0
  0
INSERT
  2
*GRP_0070
  8
ガラス
  6
CONTINUOUS
 10
0.0
 20
0.0
  0
INSERT
  2
*GRP_0071
  8
ガラス
  6
CONTINUOUS
 10
0.0
 20
0.0
  0
INSERT
  2
*GRP_0072
  8
ガラス
  6
CONTINUOUS
 10
0.0
 20
0.0
  0
INSERT
  2
*GRP_0073
  8
ガラス
  6
CONTINUOUS
 10
0.0
 20
0.0
  0
INSERT
  2
*GRP_0007
  8
ゴム等
  6
CONTINUOUS
 10
0.0
 20
0.0
  0
LINE
  8
ゴム等
  6
CONTINUOUS
 10
80.865753
 20
-36.768073
 11
80.865753
 21
-27.406883
  0
LINE
  8
ゴム等
  6
CONTINUOUS
 10
100.865753
 20
-36.768073
 11
100.865753
 21
-27.406883
  0
LINE
  8
ゴム等
  6
CONTINUOUS
 10
123.615753
 20
-57.773308
 11
118.393173
 21
-57.773308
  0
LINE
  8
ゴム等
  6
CONTINUOUS
 10
109.865753
 20
-31.273352
 11
109.865753
 21
-36.955452
  0
INSERT
  2
*GRP_0008
  8
ボルト／ビス
  6
CONTINUOUS
 10
0.0
 20
0.0
  0
INSERT
  2
*GRP_0009
  8
ボルト／ビス
  6
CONTINUOUS
 10
0.0
 20
0.0
  0
INSERT
  2
*GRP_0010
  8
ボルト／ビス
  6
CONTINUOUS
 10
0.0
 20
0.0
  0
INSERT
  2
*GRP_0011
  8
ボルト／ビス
  6
CONTINUOUS
 10
0.0
 20
0.0
  0
INSERT
  2
*GRP_0012
  8
ボルト／ビス
  6
CONTINUOUS
 10
0.0
 20
0.0
  0
INSERT
  2
*GRP_0013
  8
ボルト／ビス
  6
CONTINUOUS
 10
0.0
 20
0.0
  0
INSERT
  2
*GRP_0014
  8
ボルト／ビス
  6
CONTINUOUS
 10
0.0
 20
0.0
  0
INSERT
  2
*GRP_0055
  8
ボルト／ビス
  6
CONTINUOUS
 10
0.0
 20
0.0
  0
INSERT
  2
*GRP_0060
  8
ボルト／ビス
  6
CONTINUOUS
 10
0.0
 20
0.0
  0
INSERT
  2
*GRP_0061
  8
ボルト／ビス
  6
CONTINUOUS
 10
0.0
 20
0.0
  0
INSERT
  2
*GRP_0062
  8
ボルト／ビス
  6
CONTINUOUS
 10
0.0
 20
0.0
  0
INSERT
  2
*GRP_0065
  8
ボルト／ビス
  6
CONTINUOUS
 10
0.0
 20
0.0
  0
INSERT
  2
*GRP_0066
  8
ボルト／ビス
  6
CONTINUOUS
 10
0.0
 20
0.0
  0
TEXT
  7
TextStyle03
  8
文字
  6
CONTINUOUS
 10
-143.9
 20
12.7
  1
ドーム呼称寸法
 40
4.0
 50
90.0
 72
     5
 11
-143.9
 21
43.7
  0
TEXT
  7
TextStyle03
  8
文字
  6
CONTINUOUS
 10
-135.175
 20
69.05
  1
有効開口
 40
4.0
 50
90.0
 72
     5
 11
-135.175
 21
86.55
  0
TEXT
  7
TextStyle03
  8
文字
  6
CONTINUOUS
 10
28.325
 20
-105.425
  1
TKR-1108
 40
4.0
 50
90.0
 72
     5
 11
28.325
 21
-87.675
  0
TEXT
  7
TextStyle03
  8
文字
  6
CONTINUOUS
 10
-91.4
 20
-82.9
  1
TKR-1701
 40
4.0
 50
90.0
 72
     5
 11
-91.4
 21
-65.15
  0
TEXT
  7
TextStyle03
  8
文字
  6
CONTINUOUS
 10
-163.05
 20
-3.8
  1
アクリル乳白色
 40
4.0
 50
90.0
 72
     5
 11
-163.05
 21
27.2
  0
TEXT
  7
TextStyle03
  8
文字
  6
CONTINUOUS
 10
-158.55
 20
-3.8
  1
ポリカ　ｸﾘｱ片面マット　
 40
4.0
 50
90.0
 72
     5
 11
-158.55
 21
47.45
  0
TEXT
  7
TextStyle03
  8
文字
  6
CONTINUOUS
 10
-154.05
 20
-3.8
  1
を標準とする
 40
4.0
 50
90.0
 72
     5
 11
-154.05
 21
22.7
  0
TEXT
  7
TextStyle03
  8
文字
  6
CONTINUOUS
 10
0.825
 20
-111.975
  1
SUS-3.0t　2B
 40
4.0
 50
90.0
 72
     5
 11
0.825
 21
-85.225
  0
TEXT
  7
TextStyle03
  8
文字
  6
CONTINUOUS
 10
5.325
 20
-111.975
  1
（ﾘﾌﾞ付き）
 40
4.0
 50
90.0
 72
     5
 11
5.325
 21
-87.725
  0
TEXT
  7
TextStyle03
  8
文字
  6
CONTINUOUS
 10
9.825
 20
-111.975
  1
ピース
 40
4.0
 50
90.0
 72
     5
 11
9.825
 21
-98.975
  0
TEXT
  7
TextStyle03
  8
文字
  6
CONTINUOUS
 10
67.05
 20
-111.025
  1
SUS-3.0t　2B
 40
4.0
 50
90.0
 72
     5
 11
67.05
 21
-84.275
  0
TEXT
  7
TextStyle03
  8
文字
  6
CONTINUOUS
 10
71.55
 20
-111.025
  1
（ﾘﾌﾞ付き）
 40
4.0
 50
90.0
 72
     5
 11
71.55
 21
-86.775
  0
TEXT
  7
TextStyle03
  8
文字
  6
CONTINUOUS
 10
76.05
 20
-111.025
  1
ピース
 40
4.0
 50
90.0
 72
     5
 11
76.05
 21
-98.025
  0
TEXT
  7
TextStyle03
  8
文字
  6
CONTINUOUS
 10
-10.05
 20
1.975
  1
滑車
 40
4.0
 50
90.0
 72
     5
 11
-10.05
 21
10.475
  0
TEXT
  7
TextStyle03
  8
文字
  6
CONTINUOUS
 10
67.225
 20
2.825
  1
滑車
 40
4.0
 50
90.0
 72
     5
 11
67.225
 21
11.325
  0
TEXT
  7
TextStyle03
  8
文字
  6
CONTINUOUS
 10
96.75
 20
5.725
  1
転向滑車
 40
4.0
 50
90.0
 72
     5
 11
96.75
 21
23.225
  0
TEXT
  7
TextStyle03
  8
文字
  6
CONTINUOUS
 10
25.6
 20
105.6
  1
ＮＳコード：ＮＳＤＳ
 40
5.0
 72
     5
 11
81.225
 21
105.6
  0
TEXT
  7
TextStyle03
  8
文字
  6
CONTINUOUS
 10
25.95
 20
125.1
  1
シリーズ：ＳＴＤ
 40
5.0
 72
     5
 11
70.325
 21
125.1
  0
TEXT
  7
TextStyle03
  8
文字
  6
CONTINUOUS
 10
25.95
 20
119.475
  1
　　　　　（上下可動）　
 40
5.0
 72
     5
 11
92.825
 21
119.475
  0
TEXT
  7
TextStyle03
  8
文字
  6
CONTINUOUS
 10
25.95
 20
113.85
  1
図面名　：下枠断面詳細図（非可動装置側滑車部）
 40
5.0
 72
     5
 11
154.7
 21
113.85
  0
INSERT
  2
*DIM_0015
  8
寸法
  6
CONTINUOUS
 10
0.0
 20
0.0
  0
INSERT
  2
*DIM_0016
  8
寸法
  6
CONTINUOUS
 10
0.0
 20
0.0
  0
INSERT
  2
*DIM_0017
  8
寸法
  6
CONTINUOUS
 10
0.0
 20
0.0
  0
INSERT
  2
*DIM_0018
  8
寸法
  6
CONTINUOUS
 10
0.0
 20
0.0
  0
INSERT
  2
*DIM_0019
  8
寸法
  6
CONTINUOUS
 10
0.0
 20
0.0
  0
INSERT
  2
*DIM_0020
  8
寸法
  6
CONTINUOUS
 10
0.0
 20
0.0
  0
INSERT
  2
*DIM_0021
  8
寸法
  6
CONTINUOUS
 10
0.0
 20
0.0
  0
INSERT
  2
*DIM_0022
  8
寸法
  6
CONTINUOUS
 10
0.0
 20
0.0
  0
INSERT
  2
*DIM_0023
  8
寸法
  6
CONTINUOUS
 10
0.0
 20
0.0
  0
INSERT
  2
*DIM_0024
  8
寸法
  6
CONTINUOUS
 10
0.0
 20
0.0
  0
INSERT
  2
*DIM_0025
  8
寸法
  6
CONTINUOUS
 10
0.0
 20
0.0
  0
INSERT
  2
*DIM_0026
  8
寸法
  6
CONTINUOUS
 10
0.0
 20
0.0
  0
INSERT
  2
*DIM_0027
  8
寸法
  6
CONTINUOUS
 10
0.0
 20
0.0
  0
INSERT
  2
*DIM_0028
  8
寸法
  6
CONTINUOUS
 10
0.0
 20
0.0
  0
INSERT
  2
*DIM_0029
  8
寸法
  6
CONTINUOUS
 10
0.0
 20
0.0
  0
INSERT
  2
*DIM_0030
  8
寸法
  6
CONTINUOUS
 10
0.0
 20
0.0
  0
INSERT
  2
*DIM_0031
  8
寸法
  6
CONTINUOUS
 10
0.0
 20
0.0
  0
INSERT
  2
*DIM_0032
  8
寸法
  6
CONTINUOUS
 10
0.0
 20
0.0
  0
INSERT
  2
*DIM_0033
  8
寸法
  6
CONTINUOUS
 10
0.0
 20
0.0
  0
INSERT
  2
*DIM_0034
  8
寸法
  6
CONTINUOUS
 10
0.0
 20
0.0
  0
INSERT
  2
*DIM_0035
  8
寸法
  6
CONTINUOUS
 10
0.0
 20
0.0
  0
INSERT
  2
*DIM_0036
  8
寸法
  6
CONTINUOUS
 10
0.0
 20
0.0
  0
INSERT
  2
*DIM_0037
  8
寸法
  6
CONTINUOUS
 10
0.0
 20
0.0
  0
INSERT
  2
*DIM_0038
  8
寸法
  6
CONTINUOUS
 10
0.0
 20
0.0
  0
INSERT
  2
*DIM_0039
  8
寸法
  6
CONTINUOUS
 10
0.0
 20
0.0
  0
INSERT
  2
*DIM_0040
  8
寸法
  6
CONTINUOUS
 10
0.0
 20
0.0
  0
INSERT
  2
*GRP_0041
  8
寸法
  6
CONTINUOUS
 10
0.0
 20
0.0
  0
INSERT
  2
*GRP_0042
  8
寸法
  6
CONTINUOUS
 10
0.0
 20
0.0
  0
INSERT
  2
*GRP_0043
  8
寸法
  6
CONTINUOUS
 10
0.0
 20
0.0
  0
INSERT
  2
*GRP_0044
  8
寸法
  6
CONTINUOUS
 10
0.0
 20
0.0
  0
INSERT
  2
*GRP_0045
  8
寸法
  6
CONTINUOUS
 10
0.0
 20
0.0
  0
INSERT
  2
*GRP_0046
  8
寸法
  6
CONTINUOUS
 10
0.0
 20
0.0
  0
INSERT
  2
*GRP_0047
  8
寸法
  6
CONTINUOUS
 10
0.0
 20
0.0
  0
INSERT
  2
*GRP_0048
  8
寸法
  6
CONTINUOUS
 10
0.0
 20
0.0
  0
INSERT
  2
*DIM_0049
  8
寸法
  6
CONTINUOUS
 10
0.0
 20
0.0
  0
INSERT
  2
*DIM_0050
  8
寸法
  6
CONTINUOUS
 10
0.0
 20
0.0
  0
INSERT
  2
*DIM_0051
  8
寸法
  6
CONTINUOUS
 10
0.0
 20
0.0
  0
INSERT
  2
*DIM_0052
  8
寸法
  6
CONTINUOUS
 10
0.0
 20
0.0
  0
INSERT
  2
*DIM_0053
  8
寸法
  6
CONTINUOUS
 10
0.0
 20
0.0
  0
INSERT
  2
*GRP_0056
  8
別途部材
  6
CONTINUOUS
 10
0.0
 20
0.0
  0
INSERT
  2
*GRP_0057
  8
別途部材
  6
CONTINUOUS
 10
0.0
 20
0.0
  0
INSERT
  2
*GRP_0058
  8
別途部材
  6
CONTINUOUS
 10
0.0
 20
0.0
  0
INSERT
  2
*GRP_0059
  8
別途部材
  6
CONTINUOUS
 10
0.0
 20
0.0
  0
INSERT
  2
*GRP_0063
  8
別途部材
  6
CONTINUOUS
 10
0.0
 20
0.0
  0
INSERT
  2
*GRP_0064
  8
別途部材
  6
CONTINUOUS
 10
0.0
 20
0.0
  0
ARC
  8
St
  6
CONTINUOUS
 10
122.865752
 20
-49.090602
 40
1.094103
 50
90.0
 51
270.0
  0
ARC
  8
St
  6
CONTINUOUS
 10
122.865752
 20
-50.184704
 40
1.094103
 50
150.0
 51
270.0
  0
ARC
  8
St
  6
CONTINUOUS
 10
122.865752
 20
-61.99834
 40
1.094103
 50
90.0
 51
270.0
  0
ARC
  8
St
  6
CONTINUOUS
 10
122.865752
 20
-63.092442
 40
1.094103
 50
150.0
 51
270.0
  0
ARC
  8
St
  6
CONTINUOUS
 10
122.865752
 20
-37.035728
 40
1.094103
 50
90.0
 51
270.0
  0
ARC
  8
St
  6
CONTINUOUS
 10
122.865752
 20
-38.12983
 40
1.094103
 50
150.0
 51
270.0
  0
ARC
  8
St
  6
CONTINUOUS
 10
-43.634251
 20
-56.173331
 40
1.094103
 50
0.0
 51
180.0
  0
ARC
  8
St
  6
CONTINUOUS
 10
-42.540148
 20
-56.173331
 40
1.094103
 50
0.0
 51
120.0
  0
ARC
  8
St
  6
CONTINUOUS
 10
-37.847822
 20
-56.173331
 40
1.094103
 50
0.0
 51
180.0
  0
ARC
  8
St
  6
CONTINUOUS
 10
-36.753719
 20
-56.173331
 40
1.094103
 50
0.0
 51
120.0
  0
ARC
  8
St
  6
CONTINUOUS
 10
-46.634251
 20
-49.0906
 40
1.094103
 50
270.0
 51
450.0
  0
ARC
  8
St
  6
CONTINUOUS
 10
-46.634251
 20
-50.184702
 40
1.094103
 50
270.0
 51
390.0
  0
ARC
  8
St
  6
CONTINUOUS
 10
-46.634251
 20
-36.566507
 40
1.094103
 50
270.0
 51
450.0
  0
ARC
  8
St
  6
CONTINUOUS
 10
-46.634251
 20
-37.660609
 40
1.094103
 50
270.0
 51
390.0
  0
INSERT
  2
*GRP_0054
  8
St
  6
CONTINUOUS
 62
   127
 10
0.0
 20
0.0
  0
INSERT
  2
*HAT_0002
  8
St
 10
0.0
 20
0.0
  0
ENDSEC
  0
EOF
