  0
SECTION
  2
HEADER
  9
$EXTMIN
 10
-210.0
 20
-148.5
  9
$EXTMAX
 10
210.0
 20
148.5
  9
$PDMODE
 70
    32
  9
$PDSIZE
 40
1.5
  9
$LTSCALE
 40
10.0
  0
ENDSEC
  0
SECTION
  2
TABLES
  0
TABLE
  2
LTYPE
 70
    15
  0
LTYPE
  2
CONTINUOUS
 70
    64
  3
実線
 72
    65
 73
     0
 40
0.0
  0
LTYPE
  2
DASHED
 70
    64
  3
破線A
 72
    65
 73
     2
 40
0.6
 49
0.4
 49
-0.2
  0
LTYPE
  2
DASHEDX2
 70
    64
  3
破線B
 72
    65
 73
     2
 40
1.3
 49
0.9
 49
-0.4
  0
LTYPE
  2
DASHDOT
 70
    64
  3
１点鎖線A
 72
    65
 73
     4
 40
0.5375
 49
0.375
 49
-0.05
 49
0.0625
 49
-0.05
  0
LTYPE
  2
DASHDOTX2
 70
    64
  3
１点鎖線B
 72
    65
 73
     4
 40
1.075
 49
0.75
 49
-0.1
 49
0.125
 49
-0.1
  0
LTYPE
  2
DIVIDE2
 70
    64
  3
２点鎖線A
 72
    65
 73
     6
 40
0.5125
 49
0.3
 49
-0.0375
 49
0.05
 49
-0.0375
 49
0.05
 49
-0.0375
  0
LTYPE
  2
DIVIDE
 70
    64
  3
２点鎖線B
 72
    65
 73
     6
 40
1.05
 49
0.55
 49
-0.1
 49
0.1
 49
-0.1
 49
0.1
 49
-0.1
  0
LTYPE
  2
DOT
 70
    64
  3
点線A
 72
    65
 73
     2
 40
0.1125
 49
0.0625
 49
-0.05
  0
LTYPE
  2
DOTX2
 70
    64
  3
点線B
 72
    65
 73
     2
 40
0.275
 49
0.15
 49
-0.125
  0
LTYPE
  2
CONTINUOUS
 70
    64
  3
実線
 72
    65
 73
     0
 40
0.0
  0
LTYPE
  2
CONTINUOUS
 70
    64
  3
実線
 72
    65
 73
     0
 40
0.0
  0
LTYPE
  2
CONTINUOUS
 70
    64
  3
実線
 72
    65
 73
     0
 40
0.0
  0
LTYPE
  2
CONTINUOUS
 70
    64
  3
実線
 72
    65
 73
     0
 40
0.0
  0
LTYPE
  2
CONTINUOUS
 70
    64
  3
実線
 72
    65
 73
     0
 40
0.0
  0
LTYPE
  2
CONTINUOUS
 70
    64
  3
実線
 72
    65
 73
     0
 40
0.0
  0
ENDTAB
  0
TABLE
  2
LAYER
 70
    34
  0
LAYER
  2
通り芯
 70
     0
 62
    15
  6
CONTINUOUS
  0
LAYER
  2
補助線
 70
     0
 62
    16
  6
DOT
  0
LAYER
  2
躯体
 70
     0
 62
    31
  6
CONTINUOUS
  0
LAYER
  2
型材
 70
     0
 62
    32
  6
CONTINUOUS
  0
LAYER
  2
型材断面
 70
     0
 62
    47
  6
CONTINUOUS
  0
LAYER
  2
ガラス
 70
     0
 62
    48
  6
CONTINUOUS
  0
LAYER
  2
ゴム等
 70
     0
 62
    63
  6
CONTINUOUS
  0
LAYER
  2
ボルト／ビス
 70
     0
 62
    64
  6
CONTINUOUS
  0
LAYER
  2
文字
 70
     0
 62
    79
  6
CONTINUOUS
  0
LAYER
  2
寸法
 70
     0
 62
    80
  6
CONTINUOUS
  0
LAYER
  2
ﾊｯﾁﾝｸﾞ
 70
     0
 62
    95
  6
CONTINUOUS
  0
LAYER
  2
別途部材
 70
     0
 62
    96
  6
CONTINUOUS
  0
LAYER
  2
曲げ物
 70
     0
 62
   111
  6
CONTINUOUS
  0
LAYER
  2
鉄骨等
 70
     0
 62
   112
  6
CONTINUOUS
  0
LAYER
  2
St
 70
     0
 62
   127
  6
CONTINUOUS
  0
LAYER
  2
その他部品等
 70
     0
 62
   128
  6
CONTINUOUS
  0
LAYER
  2
ｶﾞｽｹｯﾄ
 70
     0
 62
   143
  6
CONTINUOUS
  0
LAYER
  2
ｽｹｯﾁ
 70
     0
 62
    14
  6
CONTINUOUS
  0
LAYER
  2
0
 70
     0
 62
    17
  6
CONTINUOUS
  0
LAYER
  2
1
 70
     0
 62
    30
  6
CONTINUOUS
  0
LAYER
  2
4
 70
     0
 62
    33
  6
CONTINUOUS
  0
LAYER
  2
ﾚｲﾔ3
 70
     0
 62
    46
  6
CONTINUOUS
  0
LAYER
  2
外形線
 70
     0
 62
    49
  6
CONTINUOUS
  0
LAYER
  2
部品
 70
     0
 62
    14
  6
CONTINUOUS
  0
LAYER
  2
サッシ芯
 70
     0
 62
    17
  6
DASHDOTX2
  0
LAYER
  2
寸法線
 70
     0
 62
    62
  6
CONTINUOUS
  0
LAYER
  2
姿図外形線
 70
     0
 62
    65
  6
CONTINUOUS
  0
LAYER
  2
姿補助線
 70
     0
 62
    30
  6
CONTINUOUS
  0
LAYER
  2
透視線
 70
     0
 62
    78
  6
DOT
  0
LAYER
  2
用紙
 70
     0
 62
    81
  6
CONTINUOUS
  0
LAYER
  2
実線図枠
 70
     0
 62
    94
  6
CONTINUOUS
  0
LAYER
  2
補助図枠
 70
     0
 62
    97
  6
CONTINUOUS
  0
LAYER
  2
建具記号
 70
     0
 62
   110
  6
CONTINUOUS
  0
LAYER
  2
補助文字
 70
     0
 62
   113
  6
CONTINUOUS
  0
ENDTAB
  0
TABLE
  2
STYLE
 70
    10
  0
STYLE
  2
STANDARD
 70
     0
 40
1.0
 41
1.0
 42
1.0
 50
0.0
 71
     0
  3
TXT
  4
BIGFONT
  0
STYLE
  2
TATE
 70
     4
 40
1.0
 41
1.0
 42
1.0
 50
0.0
 71
     0
  3
TXT
  4
BIGFONT
  0
STYLE
  2
TextStyle03
 70
     0
 40
1.0
 41
1.0
 42
1.0
 50
0.0
 71
     0
  3
MONOTXT
  4
BIGFONT
  0
STYLE
  2
TextStyle04
 70
     0
 40
1.0
 41
1.0
 42
1.0
 50
0.0
 71
     0
  3
MONOTXT
  4
BIGFONT
  0
STYLE
  2
TextStyle05
 70
     0
 40
1.0
 41
1.0
 42
1.0
 50
0.0
 71
     0
  3
MONOTXT
  4
BIGFONT
  0
STYLE
  2
TextStyle06
 70
     0
 40
1.0
 41
1.0
 42
1.0
 50
0.0
 71
     0
  3
MONOTXT
  4
BIGFONT
  0
STYLE
  2
TextStyle07
 70
     0
 40
1.0
 41
1.0
 42
1.0
 50
0.0
 71
     0
  3
MONOTXT
  4
BIGFONT
  0
STYLE
  2
TextStyle08
 70
     0
 40
1.0
 41
1.0
 42
1.0
 50
0.0
 71
     0
  3
MONOTXT
  4
BIGFONT
  0
STYLE
  2
TextStyle09
 70
     0
 40
1.0
 41
1.0
 42
1.0
 50
0.0
 71
     0
  3
MONOTXT
  4
BIGFONT
  0
STYLE
  2
TextStyle10
 70
     0
 40
1.0
 41
1.0
 42
1.0
 50
0.0
 71
     0
  3
MONOTXT
  4
BIGFONT
  0
ENDTAB
  0
ENDSEC
  0
SECTION
  2
BLOCKS
  0
BLOCK
  2
*HAT_0001
 70
    65
 10
0.0
 20
0.0
  0
LINE
  8
ゴム等
 10
120.675
 20
-32.1
 11
120.65
 21
-32.1
  0
LINE
  8
ゴム等
 10
121.15
 20
-32.1
 11
120.65
 21
-31.625
  0
LINE
  8
ゴム等
 10
121.625
 20
-32.1
 11
120.65
 21
-31.15
  0
LINE
  8
ゴム等
 10
122.075
 20
-32.1
 11
120.65
 21
-30.675
  0
LINE
  8
ゴム等
 10
122.575
 20
-32.1
 11
120.65
 21
-30.2
  0
LINE
  8
ゴム等
 10
123.025
 20
-32.1
 11
121.025
 21
-30.1
  0
LINE
  8
ゴム等
 10
123.5
 20
-32.1
 11
121.5
 21
-30.1
  0
LINE
  8
ゴム等
 10
123.975
 20
-32.1
 11
122.3
 21
-30.45
  0
LINE
  8
ゴム等
 10
121.975
 20
-30.125
 11
121.975
 21
-30.1
  0
LINE
  8
ゴム等
 10
124.45
 20
-32.1
 11
122.775
 21
-30.45
  0
LINE
  8
ゴム等
 10
124.925
 20
-32.1
 11
123.25
 21
-30.45
  0
LINE
  8
ゴム等
 10
124.975
 20
-31.725
 11
123.4
 21
-30.125
  0
LINE
  8
ゴム等
 10
124.975
 20
-31.25
 11
123.925
 21
-30.175
  0
LINE
  8
ゴム等
 10
125.0
 20
-30.8
 11
124.425
 21
-30.225
  0
LINE
  8
ゴム等
 10
125.375
 20
-30.675
 11
125.05
 21
-30.35
  0
LINE
  8
ゴム等
 10
125.825
 20
-30.675
 11
125.525
 21
-30.375
  0
LINE
  8
ゴム等
 10
126.15
 20
-30.525
 11
126.025
 21
-30.4
  0
ENDBLK
  0
BLOCK
  2
*HAT_0002
 70
    65
 10
0.0
 20
0.0
  0
LINE
  8
ゴム等
 10
-120.625
 20
-32.1
 11
-120.625
 21
-32.1
  0
LINE
  8
ゴム等
 10
-121.125
 20
-32.1
 11
-120.625
 21
-31.675
  0
LINE
  8
ゴム等
 10
-121.55
 20
-32.1
 11
-120.625
 21
-31.175
  0
LINE
  8
ゴム等
 10
-122.05
 20
-32.1
 11
-120.625
 21
-30.675
  0
LINE
  8
ゴム等
 10
-122.55
 20
-32.1
 11
-120.625
 21
-30.275
  0
LINE
  8
ゴム等
 10
-122.95
 20
-32.1
 11
-120.95
 21
-30.1
  0
LINE
  8
ゴム等
 10
-123.45
 20
-32.1
 11
-121.45
 21
-30.1
  0
LINE
  8
ゴム等
 10
-123.95
 20
-32.1
 11
-122.3
 21
-30.425
  0
LINE
  8
ゴム等
 10
-121.95
 20
-30.175
 11
-121.95
 21
-30.1
  0
LINE
  8
ゴム等
 10
-124.375
 20
-32.1
 11
-122.7
 21
-30.425
  0
LINE
  8
ゴム等
 10
-124.875
 20
-32.1
 11
-123.2
 21
-30.425
  0
LINE
  8
ゴム等
 10
-124.95
 20
-31.775
 11
-123.375
 21
-30.175
  0
LINE
  8
ゴム等
 10
-124.95
 20
-31.275
 11
-123.875
 21
-30.175
  0
LINE
  8
ゴム等
 10
-124.95
 20
-30.85
 11
-124.375
 21
-30.275
  0
LINE
  8
ゴム等
 10
-125.3
 20
-30.675
 11
-125.05
 21
-30.35
  0
LINE
  8
ゴム等
 10
-125.8
 20
-30.675
 11
-125.45
 21
-30.425
  0
LINE
  8
ゴム等
 10
-126.125
 20
-30.525
 11
-125.95
 21
-30.425
  0
ENDBLK
  0
BLOCK
  2
*HAT_0003
 70
    65
 10
0.0
 20
0.0
  0
LINE
  8
ゴム等
 10
-31.675
 20
-39.6
 11
-31.95
 21
-39.85
  0
LINE
  8
ゴム等
 10
-31.2
 20
-39.575
 11
-31.925
 21
-40.325
  0
LINE
  8
ゴム等
 10
-30.75
 20
-39.6
 11
-31.95
 21
-40.8
  0
LINE
  8
ゴム等
 10
-30.275
 20
-39.575
 11
-31.95
 21
-41.275
  0
LINE
  8
ゴム等
 10
-29.8
 20
-39.6
 11
-31.95
 21
-41.725
  0
LINE
  8
ゴム等
 10
-32.425
 20
-41.775
 11
-32.45
 21
-41.775
  0
LINE
  8
ゴム等
 10
-31.95
 20
-41.75
 11
-32.45
 21
-42.225
  0
LINE
  8
ゴム等
 10
-29.325
 20
-39.575
 11
-32.45
 21
-42.7
  0
LINE
  8
ゴム等
 10
-29.1
 20
-39.85
 11
-32.025
 21
-42.75
  0
LINE
  8
ゴム等
 10
-29.1
 20
-40.325
 11
-31.55
 21
-42.75
  0
LINE
  8
ゴム等
 10
-29.1
 20
-40.775
 11
-31.075
 21
-42.75
  0
LINE
  8
ゴム等
 10
-29.125
 20
-41.25
 11
-30.6
 21
-42.75
  0
LINE
  8
ゴム等
 10
-29.1
 20
-41.725
 11
-30.125
 21
-42.75
  0
LINE
  8
ゴム等
 10
-29.1
 20
-42.2
 11
-29.675
 21
-42.75
  0
LINE
  8
ゴム等
 10
-29.1
 20
-42.675
 11
-29.2
 21
-42.775
  0
ENDBLK
  0
BLOCK
  2
*HAT_0004
 70
    65
 10
0.0
 20
0.0
  0
LINE
  8
ゴム等
 10
-29.5
 20
-37.35
 11
-29.125
 21
-36.975
  0
LINE
  8
ゴム等
 10
-29.975
 20
-37.35
 11
-29.125
 21
-36.5
  0
LINE
  8
ゴム等
 10
-30.425
 20
-37.35
 11
-29.125
 21
-36.025
  0
LINE
  8
ゴム等
 10
-30.9
 20
-37.35
 11
-29.125
 21
-35.575
  0
LINE
  8
ゴム等
 10
-31.375
 20
-37.35
 11
-29.2
 21
-35.175
  0
LINE
  8
ゴム等
 10
-31.8
 20
-37.3
 11
-29.675
 21
-35.175
  0
LINE
  8
ゴム等
 10
-31.8
 20
-36.825
 11
-30.15
 21
-35.175
  0
LINE
  8
ゴム等
 10
-31.8
 20
-36.35
 11
-30.625
 21
-35.175
  0
LINE
  8
ゴム等
 10
-31.8
 20
-35.875
 11
-31.1
 21
-35.175
  0
LINE
  8
ゴム等
 10
-31.8
 20
-35.4
 11
-31.55
 21
-35.175
  0
ENDBLK
  0
BLOCK
  2
*HAT_0005
 70
    65
 10
0.0
 20
0.0
  0
LINE
  8
ゴム等
 10
-45.7
 20
-39.6
 11
-45.425
 21
-39.85
  0
LINE
  8
ゴム等
 10
-46.175
 20
-39.575
 11
-45.45
 21
-40.325
  0
LINE
  8
ゴム等
 10
-46.625
 20
-39.6
 11
-45.425
 21
-40.8
  0
LINE
  8
ゴム等
 10
-47.1
 20
-39.575
 11
-45.425
 21
-41.275
  0
LINE
  8
ゴム等
 10
-47.575
 20
-39.6
 11
-45.425
 21
-41.725
  0
LINE
  8
ゴム等
 10
-44.95
 20
-41.775
 11
-44.925
 21
-41.775
  0
LINE
  8
ゴム等
 10
-45.425
 20
-41.75
 11
-44.925
 21
-42.225
  0
LINE
  8
ゴム等
 10
-48.05
 20
-39.575
 11
-44.925
 21
-42.7
  0
LINE
  8
ゴム等
 10
-48.275
 20
-39.85
 11
-45.35
 21
-42.75
  0
LINE
  8
ゴム等
 10
-48.275
 20
-40.325
 11
-45.825
 21
-42.75
  0
LINE
  8
ゴム等
 10
-48.275
 20
-40.775
 11
-46.3
 21
-42.75
  0
LINE
  8
ゴム等
 10
-48.25
 20
-41.25
 11
-46.775
 21
-42.75
  0
LINE
  8
ゴム等
 10
-48.275
 20
-41.725
 11
-47.25
 21
-42.75
  0
LINE
  8
ゴム等
 10
-48.275
 20
-42.2
 11
-47.7
 21
-42.75
  0
LINE
  8
ゴム等
 10
-48.275
 20
-42.675
 11
-48.175
 21
-42.775
  0
ENDBLK
  0
BLOCK
  2
*HAT_0006
 70
    65
 10
0.0
 20
0.0
  0
LINE
  8
ゴム等
 10
-47.875
 20
-37.35
 11
-48.25
 21
-36.975
  0
LINE
  8
ゴム等
 10
-47.4
 20
-37.35
 11
-48.25
 21
-36.5
  0
LINE
  8
ゴム等
 10
-46.95
 20
-37.35
 11
-48.25
 21
-36.025
  0
LINE
  8
ゴム等
 10
-46.475
 20
-37.35
 11
-48.25
 21
-35.575
  0
LINE
  8
ゴム等
 10
-46.0
 20
-37.35
 11
-48.175
 21
-35.175
  0
LINE
  8
ゴム等
 10
-45.575
 20
-37.3
 11
-47.7
 21
-35.175
  0
LINE
  8
ゴム等
 10
-45.575
 20
-36.825
 11
-47.225
 21
-35.175
  0
LINE
  8
ゴム等
 10
-45.575
 20
-36.35
 11
-46.75
 21
-35.175
  0
LINE
  8
ゴム等
 10
-45.575
 20
-35.875
 11
-46.275
 21
-35.175
  0
LINE
  8
ゴム等
 10
-45.575
 20
-35.4
 11
-45.825
 21
-35.175
  0
ENDBLK
  0
BLOCK
  2
*HAT_0007
 70
    65
 10
0.0
 20
0.0
  0
LINE
  8
ゴム等
 10
-19.325
 20
-40.625
 11
-19.25
 21
-40.55
  0
LINE
  8
ゴム等
 10
-20.175
 20
-40.625
 11
-19.25
 21
-39.7
  0
LINE
  8
ゴム等
 10
-21.025
 20
-40.625
 11
-20.025
 21
-39.625
  0
LINE
  8
ゴム等
 10
-21.875
 20
-40.625
 11
-20.875
 21
-39.625
  0
LINE
  8
ゴム等
 10
-22.725
 20
-40.625
 11
-21.725
 21
-39.625
  0
LINE
  8
ゴム等
 10
-23.55
 20
-40.625
 11
-22.575
 21
-39.625
  0
LINE
  8
ゴム等
 10
-23.8
 20
-40.0
 11
-23.4
 21
-39.625
  0
ENDBLK
  0
BLOCK
  2
*HAT_0008
 70
    65
 10
0.0
 20
0.0
  0
LINE
  8
ゴム等
 10
-58.05
 20
-40.625
 11
-58.125
 21
-40.55
  0
LINE
  8
ゴム等
 10
-57.2
 20
-40.625
 11
-58.125
 21
-39.7
  0
LINE
  8
ゴム等
 10
-56.35
 20
-40.625
 11
-57.35
 21
-39.625
  0
LINE
  8
ゴム等
 10
-55.5
 20
-40.625
 11
-56.5
 21
-39.625
  0
LINE
  8
ゴム等
 10
-54.65
 20
-40.625
 11
-55.65
 21
-39.625
  0
LINE
  8
ゴム等
 10
-53.825
 20
-40.625
 11
-54.8
 21
-39.625
  0
LINE
  8
ゴム等
 10
-53.575
 20
-40.0
 11
-53.975
 21
-39.625
  0
ENDBLK
  0
BLOCK
  2
*HAT_0009
 70
    65
 10
0.0
 20
0.0
  0
LINE
  8
ゴム等
 10
3.275
 20
-1.6
 11
3.325
 21
-1.55
  0
LINE
  8
ゴム等
 10
2.425
 20
-1.6
 11
3.325
 21
-0.7
  0
LINE
  8
ゴム等
 10
1.575
 20
-1.6
 11
2.575
 21
-0.6
  0
LINE
  8
ゴム等
 10
0.725
 20
-1.6
 11
1.725
 21
-0.6
  0
LINE
  8
ゴム等
 10
-0.125
 20
-1.6
 11
0.875
 21
-0.6
  0
LINE
  8
ゴム等
 10
-0.975
 20
-1.6
 11
0.025
 21
-0.6
  0
LINE
  8
ゴム等
 10
-1.8
 20
-1.6
 11
-0.8
 21
-0.6
  0
LINE
  8
ゴム等
 10
-2.65
 20
-1.6
 11
-1.65
 21
-0.6
  0
LINE
  8
ゴム等
 10
-3.35
 20
-1.45
 11
-2.5
 21
-0.6
  0
LINE
  8
ゴム等
 10
-3.35
 20
-0.6
 11
-3.35
 21
-0.6
  0
ENDBLK
  0
BLOCK
  2
*HAT_0010
 70
    65
 10
0.0
 20
0.0
  0
LINE
  8
ﾊｯﾁﾝｸﾞ
 10
-110.0
 20
-78.55
 11
-110.025
 21
-78.5
  0
LINE
  8
ﾊｯﾁﾝｸﾞ
 10
-110.125
 20
-78.575
 11
-110.0
 21
-78.5
  0
LINE
  8
ﾊｯﾁﾝｸﾞ
 10
-113.9
 20
-78.8
 11
-113.5
 21
-79.0
  0
LINE
  8
ﾊｯﾁﾝｸﾞ
 10
-112.5
 20
-77.025
 11
-113.0
 21
-78.025
  0
LINE
  8
ﾊｯﾁﾝｸﾞ
 10
-102.5
 20
-77.025
 11
-102.8
 21
-77.575
  0
LINE
  8
ﾊｯﾁﾝｸﾞ
 10
-113.0
 20
-78.0
 11
-112.5
 21
-78.5
  0
LINE
  8
ﾊｯﾁﾝｸﾞ
 10
-112.5
 20
-78.5
 11
-112.5
 21
-77.0
  0
LINE
  8
ﾊｯﾁﾝｸﾞ
 10
-102.5
 20
-77.55
 11
-102.5
 21
-77.0
  0
LINE
  8
ﾊｯﾁﾝｸﾞ
 10
-108.0
 20
-75.025
 11
-108.5
 21
-76.0
  0
LINE
  8
ﾊｯﾁﾝｸﾞ
 10
-108.5
 20
-76.025
 11
-108.0
 21
-76.525
  0
LINE
  8
ﾊｯﾁﾝｸﾞ
 10
-108.0
 20
-76.5
 11
-107.5
 21
-76.5
  0
LINE
  8
ﾊｯﾁﾝｸﾞ
 10
-107.5
 20
-76.5
 11
-108.0
 21
-75.0
  0
LINE
  8
ﾊｯﾁﾝｸﾞ
 10
-108.85
 20
-68.8
 11
-108.5
 21
-69.5
  0
LINE
  8
ﾊｯﾁﾝｸﾞ
 10
-108.5
 20
-69.5
 11
-108.0
 21
-68.5
  0
LINE
  8
ﾊｯﾁﾝｸﾞ
 10
-108.0
 20
-68.5
 11
-108.475
 21
-68.05
  0
LINE
  8
ﾊｯﾁﾝｸﾞ
 10
-101.8
 20
-62.325
 11
-102.0
 21
-62.5
  0
LINE
  8
ﾊｯﾁﾝｸﾞ
 10
-102.0
 20
-62.525
 11
-101.825
 21
-62.7
  0
LINE
  8
ﾊｯﾁﾝｸﾞ
 10
-102.0
 20
-66.0
 11
-101.8
 21
-66.0
  0
LINE
  8
ﾊｯﾁﾝｸﾞ
 10
-101.825
 20
-66.625
 11
-102.0
 21
-67.025
  0
LINE
  8
ﾊｯﾁﾝｸﾞ
 10
-102.0
 20
-67.0
 11
-102.5
 21
-67.0
  0
LINE
  8
ﾊｯﾁﾝｸﾞ
 10
-102.5
 20
-67.0
 11
-102.5
 21
-66.5
  0
LINE
  8
ﾊｯﾁﾝｸﾞ
 10
-102.5
 20
-66.5
 11
-102.0
 21
-66.0
  0
LINE
  8
ﾊｯﾁﾝｸﾞ
 10
-102.5
 20
-71.5
 11
-102.5
 21
-72.0
  0
LINE
  8
ﾊｯﾁﾝｸﾞ
 10
-102.5
 20
-72.0
 11
-102.0
 21
-72.5
  0
LINE
  8
ﾊｯﾁﾝｸﾞ
 10
-102.0
 20
-72.5
 11
-101.8
 21
-72.3
  0
LINE
  8
ﾊｯﾁﾝｸﾞ
 10
-101.8
 20
-71.85
 11
-102.5
 21
-71.5
  0
LINE
  8
ﾊｯﾁﾝｸﾞ
 10
-110.5
 20
-74.5
 11
-111.0
 21
-75.025
  0
LINE
  8
ﾊｯﾁﾝｸﾞ
 10
-111.0
 20
-75.0
 11
-111.0
 21
-75.5
  0
LINE
  8
ﾊｯﾁﾝｸﾞ
 10
-111.0
 20
-75.5
 11
-110.5
 21
-75.5
  0
LINE
  8
ﾊｯﾁﾝｸﾞ
 10
-110.5
 20
-75.5
 11
-110.5
 21
-74.5
  0
LINE
  8
ﾊｯﾁﾝｸﾞ
 10
-111.0
 20
-76.5
 11
-111.5
 21
-77.0
  0
LINE
  8
ﾊｯﾁﾝｸﾞ
 10
-111.5
 20
-77.0
 11
-111.5
 21
-77.5
  0
LINE
  8
ﾊｯﾁﾝｸﾞ
 10
-111.5
 20
-77.5
 11
-110.5
 21
-77.5
  0
LINE
  8
ﾊｯﾁﾝｸﾞ
 10
-110.5
 20
-77.5
 11
-111.0
 21
-76.5
  0
LINE
  8
ﾊｯﾁﾝｸﾞ
 10
-109.0
 20
-78.025
 11
-109.475
 21
-78.475
  0
LINE
  8
ﾊｯﾁﾝｸﾞ
 10
-108.65
 20
-78.35
 11
-109.0
 21
-78.025
  0
LINE
  8
ﾊｯﾁﾝｸﾞ
 10
-109.5
 20
-73.5
 11
-108.5
 21
-72.0
  0
LINE
  8
ﾊｯﾁﾝｸﾞ
 10
-108.5
 20
-72.0
 11
-106.5
 21
-74.0
  0
LINE
  8
ﾊｯﾁﾝｸﾞ
 10
-106.5
 20
-74.025
 11
-107.5
 21
-74.525
  0
LINE
  8
ﾊｯﾁﾝｸﾞ
 10
-107.5
 20
-74.5
 11
-109.5
 21
-73.525
  0
LINE
  8
ﾊｯﾁﾝｸﾞ
 10
-106.0
 20
-63.5
 11
-105.0
 21
-63.5
  0
LINE
  8
ﾊｯﾁﾝｸﾞ
 10
-105.0
 20
-63.5
 11
-104.5
 21
-65.0
  0
LINE
  8
ﾊｯﾁﾝｸﾞ
 10
-104.5
 20
-65.0
 11
-105.0
 21
-66.5
  0
LINE
  8
ﾊｯﾁﾝｸﾞ
 10
-105.0
 20
-66.5
 11
-106.5
 21
-66.0
  0
LINE
  8
ﾊｯﾁﾝｸﾞ
 10
-106.5
 20
-66.0
 11
-106.975
 21
-65.1
  0
LINE
  8
ﾊｯﾁﾝｸﾞ
 10
-106.675
 20
-64.5
 11
-106.0
 21
-63.5
  0
LINE
  8
ﾊｯﾁﾝｸﾞ
 10
-103.5
 20
-63.0
 11
-104.0
 21
-63.5
  0
LINE
  8
ﾊｯﾁﾝｸﾞ
 10
-104.0
 20
-63.5
 11
-103.5
 21
-64.5
  0
LINE
  8
ﾊｯﾁﾝｸﾞ
 10
-103.5
 20
-64.5
 11
-103.0
 21
-64.0
  0
LINE
  8
ﾊｯﾁﾝｸﾞ
 10
-103.0
 20
-64.0
 11
-103.5
 21
-63.0
  0
LINE
  8
ﾊｯﾁﾝｸﾞ
 10
-103.5
 20
-68.0
 11
-103.5
 21
-69.0
  0
LINE
  8
ﾊｯﾁﾝｸﾞ
 10
-103.5
 20
-69.025
 11
-104.0
 21
-70.025
  0
LINE
  8
ﾊｯﾁﾝｸﾞ
 10
-104.0
 20
-70.0
 11
-105.0
 21
-69.0
  0
LINE
  8
ﾊｯﾁﾝｸﾞ
 10
-105.0
 20
-69.0
 11
-103.5
 21
-68.0
  0
LINE
  8
ﾊｯﾁﾝｸﾞ
 10
-104.5
 20
-75.0
 11
-102.5
 21
-73.5
  0
LINE
  8
ﾊｯﾁﾝｸﾞ
 10
-102.5
 20
-73.5
 11
-102.0
 21
-74.0
  0
LINE
  8
ﾊｯﾁﾝｸﾞ
 10
-102.0
 20
-74.025
 11
-102.5
 21
-76.025
  0
LINE
  8
ﾊｯﾁﾝｸﾞ
 10
-102.5
 20
-76.0
 11
-104.5
 21
-75.025
  0
LINE
  8
ﾊｯﾁﾝｸﾞ
 10
-106.0
 20
-75.0
 11
-105.5
 21
-75.0
  0
LINE
  8
ﾊｯﾁﾝｸﾞ
 10
-105.5
 20
-75.0
 11
-105.0
 21
-76.0
  0
LINE
  8
ﾊｯﾁﾝｸﾞ
 10
-105.0
 20
-76.0
 11
-105.5
 21
-76.0
  0
LINE
  8
ﾊｯﾁﾝｸﾞ
 10
-105.5
 20
-76.0
 11
-106.0
 21
-75.0
  0
LINE
  8
ﾊｯﾁﾝｸﾞ
 10
-106.5
 20
-68.5
 11
-107.0
 21
-70.0
  0
LINE
  8
ﾊｯﾁﾝｸﾞ
 10
-107.0
 20
-70.0
 11
-106.5
 21
-71.0
  0
LINE
  8
ﾊｯﾁﾝｸﾞ
 10
-106.5
 20
-71.0
 11
-105.5
 21
-71.0
  0
LINE
  8
ﾊｯﾁﾝｸﾞ
 10
-105.5
 20
-71.0
 11
-106.5
 21
-68.5
  0
LINE
  8
ﾊｯﾁﾝｸﾞ
 10
-106.0
 20
-67.0
 11
-106.0
 21
-67.5
  0
LINE
  8
ﾊｯﾁﾝｸﾞ
 10
-106.0
 20
-67.5
 11
-105.0
 21
-67.5
  0
LINE
  8
ﾊｯﾁﾝｸﾞ
 10
-105.0
 20
-67.525
 11
-106.0
 21
-67.025
  0
LINE
  8
ﾊｯﾁﾝｸﾞ
 10
-107.0
 20
-71.5
 11
-107.0
 21
-72.5
  0
LINE
  8
ﾊｯﾁﾝｸﾞ
 10
-107.0
 20
-72.5
 11
-106.5
 21
-72.0
  0
LINE
  8
ﾊｯﾁﾝｸﾞ
 10
-106.5
 20
-72.0
 11
-107.0
 21
-71.5
  0
LINE
  8
ﾊｯﾁﾝｸﾞ
 10
-105.675
 20
-62.5
 11
-105.5
 21
-62.5
  0
LINE
  8
ﾊｯﾁﾝｸﾞ
 10
-105.525
 20
-62.5
 11
-105.625
 21
-62.4
  0
LINE
  8
ﾊｯﾁﾝｸﾞ
 10
-105.0
 20
-72.5
 11
-104.5
 21
-72.0
  0
LINE
  8
ﾊｯﾁﾝｸﾞ
 10
-104.5
 20
-72.0
 11
-104.0
 21
-72.5
  0
LINE
  8
ﾊｯﾁﾝｸﾞ
 10
-104.0
 20
-72.525
 11
-104.5
 21
-73.025
  0
LINE
  8
ﾊｯﾁﾝｸﾞ
 10
-104.5
 20
-73.0
 11
-105.0
 21
-73.0
  0
LINE
  8
ﾊｯﾁﾝｸﾞ
 10
-105.0
 20
-73.0
 11
-105.0
 21
-72.5
  0
LINE
  8
ﾊｯﾁﾝｸﾞ
 10
-110.0
 20
-73.5
 11
-109.9
 21
-73.5
  0
LINE
  8
ﾊｯﾁﾝｸﾞ
 10
-110.0
 20
-77.0
 11
-109.9
 21
-77.0
  0
LINE
  8
ﾊｯﾁﾝｸﾞ
 10
-104.55
 20
-62.0
 11
-104.45
 21
-62.0
  0
LINE
  8
ﾊｯﾁﾝｸﾞ
 10
-105.05
 20
-63.0
 11
-104.95
 21
-63.0
  0
LINE
  8
ﾊｯﾁﾝｸﾞ
 10
-103.55
 20
-62.0
 11
-103.45
 21
-62.0
  0
LINE
  8
ﾊｯﾁﾝｸﾞ
 10
-102.55
 20
-62.0
 11
-102.45
 21
-62.0
  0
LINE
  8
ﾊｯﾁﾝｸﾞ
 10
-102.05
 20
-63.5
 11
-101.95
 21
-63.5
  0
LINE
  8
ﾊｯﾁﾝｸﾞ
 10
-102.55
 20
-64.5
 11
-102.45
 21
-64.5
  0
LINE
  8
ﾊｯﾁﾝｸﾞ
 10
-102.05
 20
-65.5
 11
-101.95
 21
-65.5
  0
LINE
  8
ﾊｯﾁﾝｸﾞ
 10
-104.05
 20
-65.5
 11
-103.95
 21
-65.5
  0
LINE
  8
ﾊｯﾁﾝｸﾞ
 10
-103.05
 20
-66.0
 11
-102.95
 21
-66.0
  0
LINE
  8
ﾊｯﾁﾝｸﾞ
 10
-104.05
 20
-67.0
 11
-103.95
 21
-67.0
  0
LINE
  8
ﾊｯﾁﾝｸﾞ
 10
-104.55
 20
-67.5
 11
-104.45
 21
-67.5
  0
LINE
  8
ﾊｯﾁﾝｸﾞ
 10
-103.05
 20
-67.5
 11
-102.95
 21
-67.5
  0
LINE
  8
ﾊｯﾁﾝｸﾞ
 10
-102.55
 20
-68.0
 11
-102.45
 21
-68.0
  0
LINE
  8
ﾊｯﾁﾝｸﾞ
 10
-102.05
 20
-69.0
 11
-101.95
 21
-69.0
  0
LINE
  8
ﾊｯﾁﾝｸﾞ
 10
-107.05
 20
-67.0
 11
-106.95
 21
-67.0
  0
LINE
  8
ﾊｯﾁﾝｸﾞ
 10
-107.55
 20
-68.0
 11
-107.45
 21
-68.0
  0
LINE
  8
ﾊｯﾁﾝｸﾞ
 10
-106.55
 20
-68.0
 11
-106.45
 21
-68.0
  0
LINE
  8
ﾊｯﾁﾝｸﾞ
 10
-105.55
 20
-69.0
 11
-105.45
 21
-69.0
  0
LINE
  8
ﾊｯﾁﾝｸﾞ
 10
-107.55
 20
-69.5
 11
-107.45
 21
-69.5
  0
LINE
  8
ﾊｯﾁﾝｸﾞ
 10
-108.55
 20
-70.5
 11
-108.45
 21
-70.5
  0
LINE
  8
ﾊｯﾁﾝｸﾞ
 10
-109.55
 20
-71.0
 11
-109.45
 21
-71.0
  0
LINE
  8
ﾊｯﾁﾝｸﾞ
 10
-107.55
 20
-71.0
 11
-107.45
 21
-71.0
  0
LINE
  8
ﾊｯﾁﾝｸﾞ
 10
-104.55
 20
-70.5
 11
-104.45
 21
-70.5
  0
LINE
  8
ﾊｯﾁﾝｸﾞ
 10
-104.05
 20
-71.0
 11
-103.95
 21
-71.0
  0
LINE
  8
ﾊｯﾁﾝｸﾞ
 10
-103.05
 20
-71.0
 11
-102.95
 21
-71.0
  0
LINE
  8
ﾊｯﾁﾝｸﾞ
 10
-103.05
 20
-70.0
 11
-102.95
 21
-70.0
  0
LINE
  8
ﾊｯﾁﾝｸﾞ
 10
-102.55
 20
-70.0
 11
-102.45
 21
-70.0
  0
LINE
  8
ﾊｯﾁﾝｸﾞ
 10
-110.475
 20
-72.0
 11
-110.45
 21
-72.0
  0
LINE
  8
ﾊｯﾁﾝｸﾞ
 10
-110.55
 20
-73.5
 11
-110.45
 21
-73.5
  0
LINE
  8
ﾊｯﾁﾝｸﾞ
 10
-110.975
 20
-73.0
 11
-110.95
 21
-73.0
  0
LINE
  8
ﾊｯﾁﾝｸﾞ
 10
-111.05
 20
-74.5
 11
-110.95
 21
-74.5
  0
LINE
  8
ﾊｯﾁﾝｸﾞ
 10
-111.55
 20
-75.0
 11
-111.45
 21
-75.0
  0
LINE
  8
ﾊｯﾁﾝｸﾞ
 10
-103.55
 20
-73.5
 11
-103.45
 21
-73.5
  0
LINE
  8
ﾊｯﾁﾝｸﾞ
 10
-104.55
 20
-74.0
 11
-104.45
 21
-74.0
  0
LINE
  8
ﾊｯﾁﾝｸﾞ
 10
-105.55
 20
-74.5
 11
-105.45
 21
-74.5
  0
LINE
  8
ﾊｯﾁﾝｸﾞ
 10
-106.55
 20
-75.5
 11
-106.45
 21
-75.5
  0
LINE
  8
ﾊｯﾁﾝｸﾞ
 10
-107.55
 20
-75.0
 11
-107.45
 21
-75.0
  0
LINE
  8
ﾊｯﾁﾝｸﾞ
 10
-109.05
 20
-75.5
 11
-108.95
 21
-75.5
  0
LINE
  8
ﾊｯﾁﾝｸﾞ
 10
-109.55
 20
-75.5
 11
-109.45
 21
-75.5
  0
LINE
  8
ﾊｯﾁﾝｸﾞ
 10
-106.05
 20
-73.5
 11
-105.95
 21
-73.5
  0
LINE
  8
ﾊｯﾁﾝｸﾞ
 10
-106.05
 20
-73.0
 11
-105.95
 21
-73.0
  0
LINE
  8
ﾊｯﾁﾝｸﾞ
 10
-105.55
 20
-72.5
 11
-105.45
 21
-72.5
  0
LINE
  8
ﾊｯﾁﾝｸﾞ
 10
-105.05
 20
-71.5
 11
-104.95
 21
-71.5
  0
LINE
  8
ﾊｯﾁﾝｸﾞ
 10
-108.05
 20
-78.0
 11
-107.95
 21
-78.0
  0
LINE
  8
ﾊｯﾁﾝｸﾞ
 10
-107.55
 20
-77.5
 11
-107.45
 21
-77.5
  0
LINE
  8
ﾊｯﾁﾝｸﾞ
 10
-109.05
 20
-77.5
 11
-108.95
 21
-77.5
  0
LINE
  8
ﾊｯﾁﾝｸﾞ
 10
-106.55
 20
-77.5
 11
-106.45
 21
-77.5
  0
LINE
  8
ﾊｯﾁﾝｸﾞ
 10
-107.05
 20
-76.5
 11
-106.95
 21
-76.5
  0
LINE
  8
ﾊｯﾁﾝｸﾞ
 10
-105.55
 20
-77.0
 11
-105.45
 21
-77.0
  0
LINE
  8
ﾊｯﾁﾝｸﾞ
 10
-104.55
 20
-77.0
 11
-104.45
 21
-77.0
  0
LINE
  8
ﾊｯﾁﾝｸﾞ
 10
-104.05
 20
-77.0
 11
-103.95
 21
-77.0
  0
LINE
  8
ﾊｯﾁﾝｸﾞ
 10
-104.05
 20
-76.5
 11
-103.95
 21
-76.5
  0
LINE
  8
ﾊｯﾁﾝｸﾞ
 10
-103.05
 20
-76.5
 11
-102.95
 21
-76.5
  0
LINE
  8
ﾊｯﾁﾝｸﾞ
 10
-112.05
 20
-76.5
 11
-111.95
 21
-76.5
  0
LINE
  8
ﾊｯﾁﾝｸﾞ
 10
-102.05
 20
-76.5
 11
-101.95
 21
-76.5
  0
LINE
  8
ﾊｯﾁﾝｸﾞ
 10
-111.55
 20
-76.0
 11
-111.45
 21
-76.0
  0
LINE
  8
ﾊｯﾁﾝｸﾞ
 10
-110.55
 20
-78.0
 11
-110.45
 21
-78.0
  0
LINE
  8
ﾊｯﾁﾝｸﾞ
 10
-111.55
 20
-78.5
 11
-111.45
 21
-78.5
  0
LINE
  8
ﾊｯﾁﾝｸﾞ
 10
-103.55
 20
-72.0
 11
-103.45
 21
-72.0
  0
LINE
  8
ﾊｯﾁﾝｸﾞ
 10
-108.55
 20
-71.5
 11
-108.45
 21
-71.5
  0
LINE
  8
ﾊｯﾁﾝｸﾞ
 10
-109.55
 20
-74.5
 11
-109.45
 21
-74.5
  0
ENDBLK
  0
BLOCK
  2
*HAT_0011
 70
    65
 10
0.0
 20
0.0
  0
LINE
  8
ﾊｯﾁﾝｸﾞ
 10
-139.8
 20
-79.15
 11
-140.0
 21
-78.5
  0
LINE
  8
ﾊｯﾁﾝｸﾞ
 10
-141.175
 20
-79.35
 11
-141.0
 21
-79.0
  0
LINE
  8
ﾊｯﾁﾝｸﾞ
 10
-141.0
 20
-79.0
 11
-140.0
 21
-78.5
  0
LINE
  8
ﾊｯﾁﾝｸﾞ
 10
-137.7
 20
-78.875
 11
-137.5
 21
-78.5
  0
LINE
  8
ﾊｯﾁﾝｸﾞ
 10
-137.5
 20
-78.5
 11
-137.025
 21
-78.75
  0
LINE
  8
ﾊｯﾁﾝｸﾞ
 10
-143.6
 20
-78.975
 11
-143.5
 21
-79.0
  0
LINE
  8
ﾊｯﾁﾝｸﾞ
 10
-143.5
 20
-79.025
 11
-143.6
 21
-79.05
  0
LINE
  8
ﾊｯﾁﾝｸﾞ
 10
-142.5
 20
-77.0
 11
-143.0
 21
-78.0
  0
LINE
  8
ﾊｯﾁﾝｸﾞ
 10
-143.0
 20
-78.0
 11
-142.5
 21
-78.5
  0
LINE
  8
ﾊｯﾁﾝｸﾞ
 10
-142.5
 20
-78.5
 11
-142.5
 21
-77.0
  0
LINE
  8
ﾊｯﾁﾝｸﾞ
 10
-138.0
 20
-75.025
 11
-138.5
 21
-76.0
  0
LINE
  8
ﾊｯﾁﾝｸﾞ
 10
-138.5
 20
-76.025
 11
-138.0
 21
-76.525
  0
LINE
  8
ﾊｯﾁﾝｸﾞ
 10
-138.0
 20
-76.5
 11
-137.5
 21
-76.5
  0
LINE
  8
ﾊｯﾁﾝｸﾞ
 10
-137.5
 20
-76.5
 11
-138.0
 21
-75.0
  0
LINE
  8
ﾊｯﾁﾝｸﾞ
 10
-140.0
 20
-69.0
 11
-139.5
 21
-69.0
  0
LINE
  8
ﾊｯﾁﾝｸﾞ
 10
-139.5
 20
-69.0
 11
-139.175
 21
-67.675
  0
LINE
  8
ﾊｯﾁﾝｸﾞ
 10
-140.825
 20
-68.2
 11
-140.0
 21
-69.0
  0
LINE
  8
ﾊｯﾁﾝｸﾞ
 10
-138.5
 20
-68.0
 11
-139.0
 21
-68.5
  0
LINE
  8
ﾊｯﾁﾝｸﾞ
 10
-139.0
 20
-68.525
 11
-138.5
 21
-69.525
  0
LINE
  8
ﾊｯﾁﾝｸﾞ
 10
-138.5
 20
-69.5
 11
-138.0
 21
-68.5
  0
LINE
  8
ﾊｯﾁﾝｸﾞ
 10
-138.0
 20
-68.5
 11
-138.5
 21
-68.0
  0
LINE
  8
ﾊｯﾁﾝｸﾞ
 10
-141.0
 20
-69.525
 11
-141.5
 21
-70.025
  0
LINE
  8
ﾊｯﾁﾝｸﾞ
 10
-141.5
 20
-70.0
 11
-141.5
 21
-70.5
  0
LINE
  8
ﾊｯﾁﾝｸﾞ
 10
-141.5
 20
-70.5
 11
-141.0
 21
-70.5
  0
LINE
  8
ﾊｯﾁﾝｸﾞ
 10
-141.0
 20
-70.5
 11
-141.0
 21
-69.5
  0
LINE
  8
ﾊｯﾁﾝｸﾞ
 10
-142.5
 20
-71.625
 11
-142.5
 21
-72.0
  0
LINE
  8
ﾊｯﾁﾝｸﾞ
 10
-142.5
 20
-72.0
 11
-142.0
 21
-72.5
  0
LINE
  8
ﾊｯﾁﾝｸﾞ
 10
-142.0
 20
-72.5
 11
-141.5
 21
-72.0
  0
LINE
  8
ﾊｯﾁﾝｸﾞ
 10
-141.5
 20
-72.0
 11
-142.45
 21
-71.525
  0
LINE
  8
ﾊｯﾁﾝｸﾞ
 10
-140.5
 20
-74.5
 11
-141.0
 21
-75.025
  0
LINE
  8
ﾊｯﾁﾝｸﾞ
 10
-141.0
 20
-75.0
 11
-141.0
 21
-75.5
  0
LINE
  8
ﾊｯﾁﾝｸﾞ
 10
-141.0
 20
-75.5
 11
-140.5
 21
-75.5
  0
LINE
  8
ﾊｯﾁﾝｸﾞ
 10
-140.5
 20
-75.5
 11
-140.5
 21
-74.5
  0
LINE
  8
ﾊｯﾁﾝｸﾞ
 10
-141.0
 20
-76.5
 11
-141.5
 21
-77.0
  0
LINE
  8
ﾊｯﾁﾝｸﾞ
 10
-141.5
 20
-77.0
 11
-141.5
 21
-77.5
  0
LINE
  8
ﾊｯﾁﾝｸﾞ
 10
-141.5
 20
-77.5
 11
-140.5
 21
-77.5
  0
LINE
  8
ﾊｯﾁﾝｸﾞ
 10
-140.5
 20
-77.5
 11
-141.0
 21
-76.5
  0
LINE
  8
ﾊｯﾁﾝｸﾞ
 10
-139.0
 20
-78.025
 11
-139.5
 21
-78.5
  0
LINE
  8
ﾊｯﾁﾝｸﾞ
 10
-139.5
 20
-78.5
 11
-139.0
 21
-79.0
  0
LINE
  8
ﾊｯﾁﾝｸﾞ
 10
-139.0
 20
-79.0
 11
-138.5
 21
-78.5
  0
LINE
  8
ﾊｯﾁﾝｸﾞ
 10
-138.5
 20
-78.5
 11
-139.0
 21
-78.025
  0
LINE
  8
ﾊｯﾁﾝｸﾞ
 10
-139.5
 20
-73.5
 11
-138.5
 21
-72.0
  0
LINE
  8
ﾊｯﾁﾝｸﾞ
 10
-138.5
 20
-72.0
 11
-136.5
 21
-74.0
  0
LINE
  8
ﾊｯﾁﾝｸﾞ
 10
-136.5
 20
-74.025
 11
-137.5
 21
-74.525
  0
LINE
  8
ﾊｯﾁﾝｸﾞ
 10
-137.5
 20
-74.5
 11
-139.5
 21
-73.5
  0
LINE
  8
ﾊｯﾁﾝｸﾞ
 10
-134.15
 20
-69.85
 11
-135.0
 21
-69.0
  0
LINE
  8
ﾊｯﾁﾝｸﾞ
 10
-135.0
 20
-69.0
 11
-133.575
 21
-68.05
  0
LINE
  8
ﾊｯﾁﾝｸﾞ
 10
-143.6
 20
-74.325
 11
-142.5
 21
-73.5
  0
LINE
  8
ﾊｯﾁﾝｸﾞ
 10
-142.5
 20
-73.5
 11
-142.0
 21
-74.0
  0
LINE
  8
ﾊｯﾁﾝｸﾞ
 10
-142.0
 20
-74.0
 11
-142.5
 21
-76.0
  0
LINE
  8
ﾊｯﾁﾝｸﾞ
 10
-142.5
 20
-76.0
 11
-143.6
 21
-75.475
  0
LINE
  8
ﾊｯﾁﾝｸﾞ
 10
-136.0
 20
-75.0
 11
-135.825
 21
-75.0
  0
LINE
  8
ﾊｯﾁﾝｸﾞ
 10
-135.9
 20
-75.25
 11
-136.0
 21
-75.025
  0
LINE
  8
ﾊｯﾁﾝｸﾞ
 10
-136.5
 20
-68.5
 11
-137.0
 21
-70.0
  0
LINE
  8
ﾊｯﾁﾝｸﾞ
 10
-137.0
 20
-70.025
 11
-136.5
 21
-71.0
  0
LINE
  8
ﾊｯﾁﾝｸﾞ
 10
-136.5
 20
-71.0
 11
-135.5
 21
-71.0
  0
LINE
  8
ﾊｯﾁﾝｸﾞ
 10
-135.5
 20
-71.0
 11
-136.5
 21
-68.5
  0
LINE
  8
ﾊｯﾁﾝｸﾞ
 10
-136.0
 20
-67.25
 11
-136.0
 21
-67.5
  0
LINE
  8
ﾊｯﾁﾝｸﾞ
 10
-136.0
 20
-67.5
 11
-135.0
 21
-67.5
  0
LINE
  8
ﾊｯﾁﾝｸﾞ
 10
-135.0
 20
-67.5
 11
-135.65
 21
-67.2
  0
LINE
  8
ﾊｯﾁﾝｸﾞ
 10
-137.0
 20
-71.5
 11
-137.0
 21
-72.5
  0
LINE
  8
ﾊｯﾁﾝｸﾞ
 10
-137.0
 20
-72.5
 11
-136.5
 21
-72.0
  0
LINE
  8
ﾊｯﾁﾝｸﾞ
 10
-136.5
 20
-72.0
 11
-137.0
 21
-71.5
  0
LINE
  8
ﾊｯﾁﾝｸﾞ
 10
-140.0
 20
-73.5
 11
-139.9
 21
-73.5
  0
LINE
  8
ﾊｯﾁﾝｸﾞ
 10
-140.0
 20
-77.0
 11
-139.9
 21
-77.0
  0
LINE
  8
ﾊｯﾁﾝｸﾞ
 10
-134.05
 20
-67.0
 11
-133.95
 21
-67.0
  0
LINE
  8
ﾊｯﾁﾝｸﾞ
 10
-134.55
 20
-67.5
 11
-134.45
 21
-67.5
  0
LINE
  8
ﾊｯﾁﾝｸﾞ
 10
-141.05
 20
-69.0
 11
-140.95
 21
-69.0
  0
LINE
  8
ﾊｯﾁﾝｸﾞ
 10
-137.55
 20
-68.0
 11
-137.45
 21
-68.0
  0
LINE
  8
ﾊｯﾁﾝｸﾞ
 10
-136.55
 20
-68.0
 11
-136.45
 21
-68.0
  0
LINE
  8
ﾊｯﾁﾝｸﾞ
 10
-135.55
 20
-69.0
 11
-135.45
 21
-69.0
  0
LINE
  8
ﾊｯﾁﾝｸﾞ
 10
-139.55
 20
-69.5
 11
-139.45
 21
-69.5
  0
LINE
  8
ﾊｯﾁﾝｸﾞ
 10
-137.55
 20
-69.5
 11
-137.45
 21
-69.5
  0
LINE
  8
ﾊｯﾁﾝｸﾞ
 10
-138.55
 20
-70.5
 11
-138.45
 21
-70.5
  0
LINE
  8
ﾊｯﾁﾝｸﾞ
 10
-139.55
 20
-71.0
 11
-139.45
 21
-71.0
  0
LINE
  8
ﾊｯﾁﾝｸﾞ
 10
-137.55
 20
-71.0
 11
-137.45
 21
-71.0
  0
LINE
  8
ﾊｯﾁﾝｸﾞ
 10
-134.55
 20
-70.5
 11
-134.45
 21
-70.5
  0
LINE
  8
ﾊｯﾁﾝｸﾞ
 10
-141.55
 20
-71.0
 11
-141.45
 21
-71.0
  0
LINE
  8
ﾊｯﾁﾝｸﾞ
 10
-140.55
 20
-72.0
 11
-140.45
 21
-72.0
  0
LINE
  8
ﾊｯﾁﾝｸﾞ
 10
-140.55
 20
-73.5
 11
-140.45
 21
-73.5
  0
LINE
  8
ﾊｯﾁﾝｸﾞ
 10
-141.05
 20
-73.0
 11
-140.95
 21
-73.0
  0
LINE
  8
ﾊｯﾁﾝｸﾞ
 10
-141.55
 20
-73.5
 11
-141.45
 21
-73.5
  0
LINE
  8
ﾊｯﾁﾝｸﾞ
 10
-141.05
 20
-74.5
 11
-140.95
 21
-74.5
  0
LINE
  8
ﾊｯﾁﾝｸﾞ
 10
-141.55
 20
-75.0
 11
-141.45
 21
-75.0
  0
LINE
  8
ﾊｯﾁﾝｸﾞ
 10
-136.55
 20
-75.5
 11
-136.45
 21
-75.5
  0
LINE
  8
ﾊｯﾁﾝｸﾞ
 10
-137.55
 20
-75.0
 11
-137.45
 21
-75.0
  0
LINE
  8
ﾊｯﾁﾝｸﾞ
 10
-139.05
 20
-75.5
 11
-138.95
 21
-75.5
  0
LINE
  8
ﾊｯﾁﾝｸﾞ
 10
-139.55
 20
-75.5
 11
-139.45
 21
-75.5
  0
LINE
  8
ﾊｯﾁﾝｸﾞ
 10
-136.05
 20
-73.5
 11
-135.95
 21
-73.5
  0
LINE
  8
ﾊｯﾁﾝｸﾞ
 10
-136.05
 20
-73.0
 11
-135.95
 21
-73.0
  0
LINE
  8
ﾊｯﾁﾝｸﾞ
 10
-135.55
 20
-72.5
 11
-135.45
 21
-72.5
  0
LINE
  8
ﾊｯﾁﾝｸﾞ
 10
-135.05
 20
-71.5
 11
-134.95
 21
-71.5
  0
LINE
  8
ﾊｯﾁﾝｸﾞ
 10
-138.05
 20
-78.0
 11
-137.95
 21
-78.0
  0
LINE
  8
ﾊｯﾁﾝｸﾞ
 10
-137.55
 20
-77.5
 11
-137.45
 21
-77.5
  0
LINE
  8
ﾊｯﾁﾝｸﾞ
 10
-139.05
 20
-77.5
 11
-138.95
 21
-77.5
  0
LINE
  8
ﾊｯﾁﾝｸﾞ
 10
-137.05
 20
-76.5
 11
-136.95
 21
-76.5
  0
LINE
  8
ﾊｯﾁﾝｸﾞ
 10
-143.05
 20
-76.5
 11
-142.95
 21
-76.5
  0
LINE
  8
ﾊｯﾁﾝｸﾞ
 10
-142.05
 20
-76.5
 11
-141.95
 21
-76.5
  0
LINE
  8
ﾊｯﾁﾝｸﾞ
 10
-141.55
 20
-76.0
 11
-141.45
 21
-76.0
  0
LINE
  8
ﾊｯﾁﾝｸﾞ
 10
-140.55
 20
-78.0
 11
-140.45
 21
-78.0
  0
LINE
  8
ﾊｯﾁﾝｸﾞ
 10
-141.55
 20
-78.5
 11
-141.45
 21
-78.5
  0
LINE
  8
ﾊｯﾁﾝｸﾞ
 10
-143.05
 20
-79.5
 11
-142.95
 21
-79.5
  0
LINE
  8
ﾊｯﾁﾝｸﾞ
 10
-143.05
 20
-79.0
 11
-142.95
 21
-79.0
  0
LINE
  8
ﾊｯﾁﾝｸﾞ
 10
-138.55
 20
-71.5
 11
-138.45
 21
-71.5
  0
LINE
  8
ﾊｯﾁﾝｸﾞ
 10
-139.55
 20
-74.5
 11
-139.45
 21
-74.5
  0
ENDBLK
  0
BLOCK
  2
*HAT_0012
 70
    65
 10
0.0
 20
0.0
  0
LINE
  8
St
 10
111.6
 20
5.075
 11
110.975
 21
5.675
  0
LINE
  8
St
 10
112.05
 20
5.075
 11
111.175
 21
5.975
  0
LINE
  8
St
 10
112.525
 20
5.075
 11
111.525
 21
6.075
  0
LINE
  8
St
 10
113.0
 20
5.075
 11
112.0
 21
6.075
  0
LINE
  8
St
 10
113.475
 20
5.075
 11
112.475
 21
6.075
  0
LINE
  8
St
 10
113.95
 20
5.075
 11
112.95
 21
6.075
  0
LINE
  8
St
 10
114.425
 20
5.075
 11
113.425
 21
6.075
  0
LINE
  8
St
 10
114.875
 20
5.075
 11
113.875
 21
6.075
  0
LINE
  8
St
 10
115.35
 20
5.075
 11
114.35
 21
6.075
  0
LINE
  8
St
 10
115.825
 20
5.075
 11
114.825
 21
6.075
  0
LINE
  8
St
 10
116.3
 20
5.075
 11
115.3
 21
6.075
  0
LINE
  8
St
 10
116.775
 20
5.075
 11
115.775
 21
6.075
  0
LINE
  8
St
 10
117.25
 20
5.075
 11
116.25
 21
6.075
  0
LINE
  8
St
 10
117.7
 20
5.075
 11
116.7
 21
6.075
  0
LINE
  8
St
 10
118.175
 20
5.075
 11
117.175
 21
6.075
  0
LINE
  8
St
 10
118.65
 20
5.075
 11
117.65
 21
6.075
  0
LINE
  8
St
 10
119.125
 20
5.075
 11
118.125
 21
6.075
  0
LINE
  8
St
 10
119.6
 20
5.075
 11
118.6
 21
6.075
  0
LINE
  8
St
 10
120.075
 20
5.075
 11
119.075
 21
6.075
  0
LINE
  8
St
 10
120.525
 20
5.075
 11
119.525
 21
6.075
  0
LINE
  8
St
 10
120.85
 20
5.225
 11
120.0
 21
6.075
  0
LINE
  8
St
 10
120.975
 20
5.575
 11
120.475
 21
6.075
  0
ENDBLK
  0
BLOCK
  2
*HAT_0013
 70
    65
 10
0.0
 20
0.0
  0
LINE
  8
St
 10
-111.575
 20
5.05
 11
-110.975
 21
5.675
  0
LINE
  8
St
 10
-112.05
 20
5.05
 11
-111.15
 21
5.95
  0
LINE
  8
St
 10
-112.525
 20
5.05
 11
-111.525
 21
6.05
  0
LINE
  8
St
 10
-113.0
 20
5.05
 11
-112.0
 21
6.05
  0
LINE
  8
St
 10
-113.475
 20
5.05
 11
-112.475
 21
6.05
  0
LINE
  8
St
 10
-113.925
 20
5.05
 11
-112.925
 21
6.05
  0
LINE
  8
St
 10
-114.4
 20
5.05
 11
-113.4
 21
6.05
  0
LINE
  8
St
 10
-114.875
 20
5.05
 11
-113.875
 21
6.05
  0
LINE
  8
St
 10
-115.35
 20
5.05
 11
-114.35
 21
6.05
  0
LINE
  8
St
 10
-115.825
 20
5.05
 11
-114.825
 21
6.05
  0
LINE
  8
St
 10
-116.3
 20
5.05
 11
-115.3
 21
6.05
  0
LINE
  8
St
 10
-116.75
 20
5.05
 11
-115.75
 21
6.05
  0
LINE
  8
St
 10
-117.225
 20
5.05
 11
-116.225
 21
6.05
  0
LINE
  8
St
 10
-117.7
 20
5.05
 11
-116.7
 21
6.05
  0
LINE
  8
St
 10
-118.175
 20
5.05
 11
-117.175
 21
6.05
  0
LINE
  8
St
 10
-118.65
 20
5.05
 11
-117.65
 21
6.05
  0
LINE
  8
St
 10
-119.125
 20
5.05
 11
-118.125
 21
6.05
  0
LINE
  8
St
 10
-119.575
 20
5.05
 11
-118.575
 21
6.05
  0
LINE
  8
St
 10
-120.05
 20
5.05
 11
-119.05
 21
6.05
  0
LINE
  8
St
 10
-120.525
 20
5.05
 11
-119.525
 21
6.05
  0
LINE
  8
St
 10
-120.825
 20
5.225
 11
-120.0
 21
6.05
  0
LINE
  8
St
 10
-120.95
 20
5.575
 11
-120.475
 21
6.05
  0
ENDBLK
  0
BLOCK
  2
*HAT_0014
 70
    65
 10
0.0
 20
0.0
  0
LINE
  8
その他部品等
 10
-126.025
 20
-65.4
 11
-126.0
 21
-65.375
  0
LINE
  8
その他部品等
 10
-127.125
 20
-65.55
 11
-126.0
 21
-64.425
  0
LINE
  8
その他部品等
 10
-128.2
 20
-65.7
 11
-126.0
 21
-63.475
  0
LINE
  8
その他部品等
 10
-128.95
 20
-65.5
 11
-126.0
 21
-62.55
  0
LINE
  8
その他部品等
 10
-128.95
 20
-64.55
 11
-126.0
 21
-61.6
  0
LINE
  8
その他部品等
 10
-128.95
 20
-63.6
 11
-126.15
 21
-60.8
  0
LINE
  8
その他部品等
 10
-128.95
 20
-62.675
 11
-127.075
 21
-60.8
  0
LINE
  8
その他部品等
 10
-128.95
 20
-61.725
 11
-128.0
 21
-60.8
  0
LINE
  8
その他部品等
 10
-128.95
 20
-65.125
 11
-128.35
 21
-65.725
  0
LINE
  8
その他部品等
 10
-128.95
 20
-64.2
 11
-127.5
 21
-65.6
  0
LINE
  8
その他部品等
 10
-128.95
 20
-63.25
 11
-126.7
 21
-65.5
  0
LINE
  8
その他部品等
 10
-128.95
 20
-62.3
 11
-126.0
 21
-65.25
  0
LINE
  8
その他部品等
 10
-128.95
 20
-61.35
 11
-126.0
 21
-64.325
  0
LINE
  8
その他部品等
 10
-128.55
 20
-60.8
 11
-126.0
 21
-63.375
  0
LINE
  8
その他部品等
 10
-127.6
 20
-60.8
 11
-126.0
 21
-62.45
  0
LINE
  8
その他部品等
 10
-126.675
 20
-60.8
 11
-126.0
 21
-61.5
  0
ENDBLK
  0
BLOCK
  2
*HAT_0015
 70
    65
 10
0.0
 20
0.0
  0
LINE
  8
その他部品等
 10
-155.575
 20
-90.25
 11
-155.1
 21
-89.775
  0
LINE
  8
その他部品等
 10
-156.525
 20
-90.25
 11
-155.1
 21
-88.85
  0
LINE
  8
その他部品等
 10
-157.45
 20
-90.25
 11
-155.1
 21
-87.9
  0
LINE
  8
その他部品等
 10
-158.4
 20
-90.25
 11
-155.375
 21
-87.225
  0
LINE
  8
その他部品等
 10
-159.35
 20
-90.25
 11
-156.3
 21
-87.225
  0
LINE
  8
その他部品等
 10
-160.3
 20
-90.25
 11
-157.25
 21
-87.225
  0
LINE
  8
その他部品等
 10
-161.1
 20
-90.15
 11
-158.2
 21
-87.225
  0
LINE
  8
その他部品等
 10
-161.1
 20
-89.2
 11
-161.0
 21
-89.1
  0
LINE
  8
その他部品等
 10
-160.6
 20
-88.7
 11
-159.15
 21
-87.225
  0
LINE
  8
その他部品等
 10
-161.1
 20
-89.45
 11
-160.3
 21
-90.25
  0
LINE
  8
その他部品等
 10
-160.6
 20
-89.0
 11
-159.35
 21
-90.25
  0
LINE
  8
その他部品等
 10
-160.55
 20
-88.125
 11
-158.4
 21
-90.25
  0
LINE
  8
その他部品等
 10
-160.2
 20
-87.525
 11
-157.475
 21
-90.25
  0
LINE
  8
その他部品等
 10
-159.55
 20
-87.225
 11
-156.525
 21
-90.25
  0
LINE
  8
その他部品等
 10
-158.625
 20
-87.225
 11
-155.6
 21
-90.25
  0
LINE
  8
その他部品等
 10
-157.675
 20
-87.225
 11
-155.1
 21
-89.8
  0
LINE
  8
その他部品等
 10
-156.75
 20
-87.225
 11
-155.1
 21
-88.85
  0
LINE
  8
その他部品等
 10
-155.8
 20
-87.225
 11
-155.1
 21
-87.9
  0
ENDBLK
  0
BLOCK
  2
*HAT_0016
 70
    65
 10
0.0
 20
0.0
  0
LINE
  8
その他部品等
 10
126.05
 20
-65.4
 11
126.025
 21
-65.375
  0
LINE
  8
その他部品等
 10
127.15
 20
-65.55
 11
126.025
 21
-64.425
  0
LINE
  8
その他部品等
 10
128.225
 20
-65.7
 11
126.025
 21
-63.475
  0
LINE
  8
その他部品等
 10
128.975
 20
-65.5
 11
126.025
 21
-62.55
  0
LINE
  8
その他部品等
 10
128.975
 20
-64.55
 11
126.025
 21
-61.6
  0
LINE
  8
その他部品等
 10
128.975
 20
-63.6
 11
126.175
 21
-60.8
  0
LINE
  8
その他部品等
 10
128.975
 20
-62.675
 11
127.1
 21
-60.8
  0
LINE
  8
その他部品等
 10
128.975
 20
-61.725
 11
128.025
 21
-60.8
  0
LINE
  8
その他部品等
 10
128.975
 20
-65.125
 11
128.375
 21
-65.725
  0
LINE
  8
その他部品等
 10
128.975
 20
-64.2
 11
127.525
 21
-65.6
  0
LINE
  8
その他部品等
 10
128.975
 20
-63.25
 11
126.725
 21
-65.5
  0
LINE
  8
その他部品等
 10
128.975
 20
-62.3
 11
126.025
 21
-65.25
  0
LINE
  8
その他部品等
 10
128.975
 20
-61.35
 11
126.025
 21
-64.325
  0
LINE
  8
その他部品等
 10
128.575
 20
-60.8
 11
126.025
 21
-63.375
  0
LINE
  8
その他部品等
 10
127.625
 20
-60.8
 11
126.025
 21
-62.45
  0
LINE
  8
その他部品等
 10
126.7
 20
-60.8
 11
126.025
 21
-61.5
  0
ENDBLK
  0
BLOCK
  2
*HAT_0017
 70
    65
 10
0.0
 20
0.0
  0
LINE
  8
その他部品等
 10
155.6
 20
-90.25
 11
155.125
 21
-89.775
  0
LINE
  8
その他部品等
 10
156.55
 20
-90.25
 11
155.125
 21
-88.85
  0
LINE
  8
その他部品等
 10
157.475
 20
-90.25
 11
155.125
 21
-87.9
  0
LINE
  8
その他部品等
 10
158.425
 20
-90.25
 11
155.4
 21
-87.225
  0
LINE
  8
その他部品等
 10
159.375
 20
-90.25
 11
156.325
 21
-87.225
  0
LINE
  8
その他部品等
 10
160.325
 20
-90.25
 11
157.275
 21
-87.225
  0
LINE
  8
その他部品等
 10
161.125
 20
-90.15
 11
158.225
 21
-87.225
  0
LINE
  8
その他部品等
 10
161.125
 20
-89.2
 11
161.025
 21
-89.1
  0
LINE
  8
その他部品等
 10
160.625
 20
-88.7
 11
159.175
 21
-87.225
  0
LINE
  8
その他部品等
 10
161.125
 20
-89.45
 11
160.325
 21
-90.25
  0
LINE
  8
その他部品等
 10
160.625
 20
-89.0
 11
159.375
 21
-90.25
  0
LINE
  8
その他部品等
 10
160.575
 20
-88.125
 11
158.425
 21
-90.25
  0
LINE
  8
その他部品等
 10
160.225
 20
-87.525
 11
157.5
 21
-90.25
  0
LINE
  8
その他部品等
 10
159.575
 20
-87.225
 11
156.55
 21
-90.25
  0
LINE
  8
その他部品等
 10
158.65
 20
-87.225
 11
155.625
 21
-90.25
  0
LINE
  8
その他部品等
 10
157.7
 20
-87.225
 11
155.125
 21
-89.8
  0
LINE
  8
その他部品等
 10
156.775
 20
-87.225
 11
155.125
 21
-88.85
  0
LINE
  8
その他部品等
 10
155.825
 20
-87.225
 11
155.125
 21
-87.9
  0
ENDBLK
  0
BLOCK
  2
*GRP_0001
 70
    65
 10
0.0
 20
0.0
  0
LINE
  8
型材断面
  6
CONTINUOUS
 10
195.0
 20
133.5
 11
195.0
 21
-133.5
  0
LINE
  8
型材断面
  6
CONTINUOUS
 10
195.0
 20
-133.5
 11
-185.0
 21
-133.5
  0
LINE
  8
型材断面
  6
CONTINUOUS
 10
-185.0
 20
-133.5
 11
-185.0
 21
133.5
  0
LINE
  8
型材断面
  6
CONTINUOUS
 10
195.0
 20
133.5
 11
-185.0
 21
133.5
  0
LINE
  8
型材断面
  6
CONTINUOUS
 10
145.0
 20
-133.5
 11
145.0
 21
-118.5
  0
LINE
  8
型材断面
  6
CONTINUOUS
 10
195.0
 20
-118.5
 11
145.0
 21
-118.5
  0
ENDBLK
  0
BLOCK
  2
*GRP_0002
 70
    65
 10
0.0
 20
0.0
  0
LINE
  8
補助線
  6
BYBLOCK
 62
     0
 10
115.296487
 20
-44.60424
 11
126.963155
 21
-44.60424
  0
LINE
  8
補助線
  6
BYBLOCK
 62
     0
 10
121.12982
 20
-38.770907
 11
121.12982
 21
-50.437572
  0
ENDBLK
  0
BLOCK
  2
*GRP_0003
 70
    65
 10
0.0
 20
0.0
  0
LINE
  8
補助線
  6
BYBLOCK
 62
     0
 10
115.296493
 20
-18.270907
 11
126.96316
 21
-18.270907
  0
LINE
  8
補助線
  6
BYBLOCK
 62
     0
 10
121.129825
 20
-12.437572
 11
121.129825
 21
-24.10424
  0
ENDBLK
  0
BLOCK
  2
*GRP_0004
 70
    65
 10
0.0
 20
0.0
  0
LINE
  8
型材断面
  6
CONTINUOUS
 62
    47
 10
119.963145
 20
-60.770897
 11
119.963145
 21
-61.270897
  0
LINE
  8
型材断面
  6
CONTINUOUS
 62
    47
 10
122.796478
 20
-61.270897
 11
119.963145
 21
-61.270897
  0
LINE
  8
型材断面
  6
CONTINUOUS
 62
    47
 10
123.296478
 20
-65.770897
 11
122.796478
 21
-65.770897
  0
LINE
  8
型材断面
  6
CONTINUOUS
 62
    47
 10
122.796478
 20
-61.270897
 11
122.796478
 21
-65.770897
  0
ARC
  8
型材断面
  6
CONTINUOUS
 62
    47
 10
122.796476
 20
-61.270899
 40
0.5
 50
0.0
 51
90.0
  0
LINE
  8
型材断面
  6
CONTINUOUS
 62
    47
 10
119.963145
 20
-60.770897
 11
123.296478
 21
-60.770897
  0
LINE
  8
型材断面
  6
CONTINUOUS
 62
    47
 10
123.296478
 20
-65.770897
 11
123.296478
 21
-60.770897
  0
ENDBLK
  0
BLOCK
  2
*GRP_0005
 70
    65
 10
0.0
 20
0.0
  0
LINE
  8
型材断面
  6
CONTINUOUS
 62
    47
 10
102.62982
 20
-60.270897
 11
102.62982
 21
-59.770897
  0
LINE
  8
型材断面
  6
CONTINUOUS
 62
    47
 10
109.296485
 20
-50.937565
 11
108.796485
 21
-50.937565
  0
LINE
  8
型材断面
  6
CONTINUOUS
 62
    47
 10
108.796485
 20
-50.937565
 11
108.796485
 21
-59.770897
  0
LINE
  8
型材断面
  6
CONTINUOUS
 62
    47
 10
102.62982
 20
-59.770897
 11
108.796485
 21
-59.770897
  0
ARC
  8
型材断面
  6
CONTINUOUS
 62
    47
 10
108.796485
 20
-59.770899
 40
0.5
 50
270.0
 51
360.0
  0
LINE
  8
型材断面
  6
CONTINUOUS
 62
    47
 10
109.296485
 20
-50.937565
 11
109.296485
 21
-60.270897
  0
LINE
  8
型材断面
  6
CONTINUOUS
 62
    47
 10
102.62982
 20
-60.270897
 11
109.296485
 21
-60.270897
  0
LINE
  8
型材断面
  6
CONTINUOUS
 62
    47
 10
109.296485
 20
-54.437565
 11
108.796485
 21
-54.437565
  0
LINE
  8
型材断面
  6
CONTINUOUS
 62
    47
 10
109.296485
 20
-55.604233
 11
108.796485
 21
-55.604233
  0
LINE
  8
型材断面
  6
CONTINUOUS
 62
    47
 10
109.171485
 20
-54.437565
 11
109.171485
 21
-55.604233
  0
LINE
  8
型材断面
  6
CONTINUOUS
 62
    47
 10
109.046485
 20
-54.437565
 11
109.046485
 21
-55.604233
  0
LINE
  8
型材断面
  6
CONTINUOUS
 62
    47
 10
108.921485
 20
-54.437565
 11
108.921485
 21
-55.604233
  0
LINE
  8
型材断面
  6
CONTINUOUS
 62
    47
 10
108.256155
 20
-55.020897
 11
109.919735
 21
-55.020897
  0
ENDBLK
  0
BLOCK
  2
*GRP_0006
 70
    65
 10
0.0
 20
0.0
  0
LINE
  8
通り芯
  6
CONTINUOUS
 62
    47
 10
128.463145
 20
-56.937565
 11
125.12981
 21
-56.937565
  0
LINE
  8
通り芯
  6
CONTINUOUS
 62
    47
 10
128.463145
 20
-56.437565
 11
128.463145
 21
-56.937565
  0
LINE
  8
通り芯
  6
CONTINUOUS
 62
    47
 10
124.62981
 20
-59.770897
 11
121.296478
 21
-59.770897
  0
LINE
  8
通り芯
  6
CONTINUOUS
 62
    47
 10
121.296478
 20
-59.770897
 11
121.296478
 21
-60.270897
  0
ARC
  8
通り芯
  6
CONTINUOUS
 62
    47
 10
125.12981
 20
-56.937565
 40
0.5
 50
90.0
 51
180.0
  0
ARC
  8
通り芯
  6
CONTINUOUS
 62
    47
 10
124.62981
 20
-59.770899
 40
0.5
 50
270.0
 51
360.0
  0
LINE
  8
通り芯
  6
CONTINUOUS
 62
    47
 10
128.463145
 20
-56.437565
 11
124.62981
 21
-56.437565
  0
LINE
  8
通り芯
  6
CONTINUOUS
 62
    47
 10
124.62981
 20
-59.770897
 11
124.62981
 21
-56.437565
  0
LINE
  8
通り芯
  6
CONTINUOUS
 62
    47
 10
125.12981
 20
-56.937565
 11
125.12981
 21
-60.270897
  0
LINE
  8
通り芯
  6
CONTINUOUS
 62
    47
 10
121.296478
 20
-60.270897
 11
125.12981
 21
-60.270897
  0
ENDBLK
  0
BLOCK
  2
*GRP_0007
 70
    65
 10
0.0
 20
0.0
  0
LINE
  8
型材断面
  6
CONTINUOUS
 62
    63
 10
118.54649
 20
-37.437572
 11
120.379825
 21
-37.437572
  0
LINE
  8
型材断面
  6
CONTINUOUS
 62
    63
 10
119.463155
 20
-36.520905
 11
119.463155
 21
-38.354237
  0
LINE
  8
型材断面
  6
CONTINUOUS
 62
    63
 10
118.54649
 20
-51.770907
 11
120.379825
 21
-51.770907
  0
LINE
  8
型材断面
  6
CONTINUOUS
 62
    63
 10
119.463155
 20
-50.85424
 11
119.463155
 21
-52.687575
  0
ARC
  8
型材断面
  6
CONTINUOUS
 62
    63
 10
111.796487
 20
-38.604239
 40
0.733333
 50
192.301255
 51
347.698745
  0
LINE
  8
型材断面
  6
CONTINUOUS
 62
    63
 10
111.079995
 20
-38.60424
 11
111.079995
 21
-38.760483
  0
LINE
  8
型材断面
  6
CONTINUOUS
 62
    63
 10
112.51299
 20
-38.60424
 11
112.51299
 21
-38.760473
  0
ARC
  8
型材断面
  6
CONTINUOUS
 62
    63
 10
121.129819
 20
-44.60424
 40
5.166667
 50
211.072944
 51
508.927042
  0
LINE
  8
型材断面
  6
CONTINUOUS
 62
    63
 10
115.46316
 20
-37.270905
 11
109.796485
 21
-37.270905
  0
ARC
  8
型材断面
  6
CONTINUOUS
 62
    63
 10
109.796486
 20
-37.770905
 40
0.5
 50
90.0
 51
180.0
  0
LINE
  8
型材断面
  6
CONTINUOUS
 62
    63
 10
110.296485
 20
-51.937575
 11
117.29649
 21
-51.937575
  0
ARC
  8
型材断面
  6
CONTINUOUS
 62
    63
 10
127.963142
 20
-33.604239
 40
0.5
 50
0.0
 51
90.0
  0
LINE
  8
型材断面
  6
CONTINUOUS
 62
    63
 10
109.396485
 20
-55.020903
 11
109.296485
 21
-54.920903
  0
LINE
  8
型材断面
  6
CONTINUOUS
 62
    63
 10
109.396485
 20
-55.020903
 11
109.296485
 21
-55.120903
  0
LINE
  8
型材断面
  6
CONTINUOUS
 62
    63
 10
118.129825
 20
-28.703758
 11
118.229825
 21
-28.603758
  0
LINE
  8
型材断面
  6
CONTINUOUS
 62
    63
 10
118.129825
 20
-28.703758
 11
118.029825
 21
-28.603758
  0
LINE
  8
型材断面
  6
CONTINUOUS
 62
    63
 10
117.29649
 20
-51.937575
 11
117.29649
 21
-49.853582
  0
ARC
  8
型材断面
  6
CONTINUOUS
 62
    63
 10
115.963157
 20
-29.103758
 40
0.5
 50
90.0
 51
180.0
  0
LINE
  8
型材断面
  6
CONTINUOUS
 62
    63
 10
118.029825
 20
-28.603758
 11
115.96316
 21
-28.603758
  0
LINE
  8
型材断面
  6
CONTINUOUS
 62
    63
 10
116.46316
 20
-37.270905
 11
116.46316
 21
-29.603758
  0
LINE
  8
型材断面
  6
CONTINUOUS
 62
    63
 10
120.129825
 20
-29.603758
 11
120.129825
 21
-29.103758
  0
LINE
  8
型材断面
  6
CONTINUOUS
 62
    63
 10
118.229825
 20
-28.603758
 11
119.629825
 21
-28.603758
  0
ARC
  8
型材断面
  6
CONTINUOUS
 62
    63
 10
119.629823
 20
-29.103758
 40
0.5
 50
0.0
 51
90.0
  0
LINE
  8
型材断面
  6
CONTINUOUS
 62
    63
 10
116.46316
 20
-29.603758
 11
120.129825
 21
-29.603758
  0
LINE
  8
型材断面
  6
CONTINUOUS
 62
    63
 10
121.129825
 20
-38.10424
 11
121.129825
 21
-34.104237
  0
ARC
  8
型材断面
  6
CONTINUOUS
 62
    63
 10
118.580314
 20
-37.408071
 40
0.2
 50
74.999973
 51
178.086064
  0
LINE
  8
型材断面
  6
CONTINUOUS
 62
    63
 10
118.63208
 20
-37.214885
 11
118.731595
 21
-37.24155
  0
ARC
  8
型材断面
  6
CONTINUOUS
 62
    63
 10
118.679826
 20
-37.434735
 40
0.2
 50
359.792436
 51
434.999892
  0
ARC
  8
型材断面
  6
CONTINUOUS
 62
    63
 10
119.463155
 20
-37.437572
 40
0.583333
 50
179.792436
 51
450.207468
  0
ARC
  8
型材断面
  6
CONTINUOUS
 62
    63
 10
119.460318
 20
-36.654244
 40
0.2
 50
194.99995
 51
270.207468
  0
LINE
  8
型材断面
  6
CONTINUOUS
 62
    63
 10
119.24047
 20
-36.606495
 11
119.267135
 21
-36.706008
  0
ARC
  8
型材断面
  6
CONTINUOUS
 62
    63
 10
119.433654
 20
-36.554732
 40
0.2
 50
91.913843
 51
195.000012
  0
ARC
  8
型材断面
  6
CONTINUOUS
 62
    63
 10
120.066557
 20
-52.416031
 40
0.2
 50
209.999973
 51
313.086064
  0
LINE
  8
型材断面
  6
CONTINUOUS
 62
    63
 10
119.89335
 20
-52.51603
 11
119.84184
 21
-52.42681
  0
ARC
  8
型材断面
  6
CONTINUOUS
 62
    63
 10
120.015045
 20
-52.326811
 40
0.2
 50
134.792436
 51
209.999892
  0
ARC
  8
型材断面
  6
CONTINUOUS
 62
    63
 10
119.463155
 20
-51.770908
 40
0.583333
 50
314.792436
 51
585.207468
  0
ARC
  8
型材断面
  6
CONTINUOUS
 62
    63
 10
118.911264
 20
-52.32681
 40
0.2
 50
-30.00005
 51
45.207468
  0
LINE
  8
型材断面
  6
CONTINUOUS
 62
    63
 10
119.03296
 20
-52.516028
 11
119.08447
 21
-52.426807
  0
ARC
  8
型材断面
  6
CONTINUOUS
 62
    63
 10
118.859752
 20
-52.41603
 40
0.2
 50
226.913843
 51
330.000012
  0
ARC
  8
型材断面
  6
CONTINUOUS
 62
    63
 10
121.129819
 20
-44.604241
 40
6.500001
 50
233.861236
 51
246.259388
  0
ARC
  8
型材断面
  6
CONTINUOUS
 62
    63
 10
119.463155
 20
-51.770908
 40
1.083333
 50
139.948691
 51
226.913843
  0
ARC
  8
型材断面
  6
CONTINUOUS
 62
    63
 10
118.378741
 20
-50.859321
 40
0.333333
 50
319.948691
 51
426.259388
  0
ARC
  8
型材断面
  6
CONTINUOUS
 62
    63
 10
121.129819
 20
-44.604241
 40
6.500001
 50
267.556866
 51
269.999997
  0
ARC
  8
型材断面
  6
CONTINUOUS
 62
    63
 10
119.463155
 20
-51.770908
 40
1.083333
 50
313.086064
 51
373.867563
  0
ARC
  8
型材断面
  6
CONTINUOUS
 62
    63
 10
120.838529
 20
-51.431363
 40
0.333333
 50
87.556866
 51
193.867563
  0
ARC
  8
型材断面
  6
CONTINUOUS
 62
    63
 10
119.463155
 20
-37.437572
 40
1.083333
 50
178.086064
 51
220.051352
  0
LINE
  8
型材断面
  6
CONTINUOUS
 62
    63
 10
120.129825
 20
-33.104237
 11
120.129825
 21
-36.06068
  0
ARC
  8
型材断面
  6
CONTINUOUS
 62
    63
 10
119.463155
 20
-37.437572
 40
1.083333
 50
76.390965
 51
91.913843
  0
ARC
  8
型材断面
  6
CONTINUOUS
 62
    63
 10
119.79649
 20
-36.06068
 40
0.333333
 50
-103.609035
 51
0.0
  0
LINE
  8
型材断面
  6
CONTINUOUS
 62
    63
 10
114.296493
 20
-38.60424
 11
112.51299
 21
-38.60424
  0
LINE
  8
型材断面
  6
CONTINUOUS
 62
    63
 10
114.296493
 20
-50.60424
 11
112.512985
 21
-50.60424
  0
ARC
  8
型材断面
  6
CONTINUOUS
 62
    63
 10
118.378741
 20
-38.34916
 40
0.333333
 50
310.071543
 51
400.051352
  0
LINE
  8
型材断面
  6
CONTINUOUS
 62
    63
 10
115.96316
 20
-48.937572
 11
114.296493
 21
-50.60424
  0
ARC
  8
型材断面
  6
CONTINUOUS
 62
    63
 10
127.963142
 20
-59.770899
 40
0.5
 50
270.0
 51
360.0
  0
LINE
  8
型材断面
  6
CONTINUOUS
 62
    63
 10
127.46314
 20
-59.270897
 11
110.296485
 21
-59.270897
  0
LINE
  8
型材断面
  6
CONTINUOUS
 62
    63
 10
110.296485
 20
-51.937572
 11
110.296485
 21
-59.270897
  0
LINE
  8
型材断面
  6
CONTINUOUS
 62
    63
 10
109.296485
 20
-55.120903
 11
109.296485
 21
-60.270897
  0
LINE
  8
型材断面
  6
CONTINUOUS
 62
    63
 10
127.963145
 20
-60.270897
 11
117.39649
 21
-60.270897
  0
LINE
  8
型材断面
  6
CONTINUOUS
 62
    63
 10
109.296485
 20
-60.270897
 11
117.19649
 21
-60.270897
  0
LINE
  8
型材断面
  6
CONTINUOUS
 62
    63
 10
121.129825
 20
-34.104237
 11
124.12981
 21
-34.104237
  0
LINE
  8
型材断面
  6
CONTINUOUS
 62
    63
 10
122.796478
 20
-33.204237
 11
122.896478
 21
-33.104237
  0
LINE
  8
型材断面
  6
CONTINUOUS
 62
    63
 10
122.796478
 20
-33.204237
 11
122.696478
 21
-33.104237
  0
LINE
  8
型材断面
  6
CONTINUOUS
 62
    63
 10
120.129825
 20
-33.104237
 11
122.696478
 21
-33.104237
  0
LINE
  8
型材断面
  6
CONTINUOUS
 62
    63
 10
128.463145
 20
-33.604237
 11
128.463145
 21
-43.50424
  0
LINE
  8
型材断面
  6
CONTINUOUS
 62
    63
 10
128.463145
 20
-43.70424
 11
128.463145
 21
-45.50424
  0
LINE
  8
型材断面
  6
CONTINUOUS
 62
    63
 10
128.463145
 20
-45.70424
 11
128.463145
 21
-59.770897
  0
LINE
  8
型材断面
  6
CONTINUOUS
 62
    63
 10
127.463145
 20
-47.874497
 11
127.463145
 21
-59.270897
  0
ARC
  8
型材断面
  6
CONTINUOUS
 62
    63
 10
121.129819
 20
-44.604241
 40
6.500001
 50
269.999997
 51
331.407684
  0
ARC
  8
型材断面
  6
CONTINUOUS
 62
    63
 10
121.129819
 20
-44.604241
 40
6.500001
 50
28.592316
 51
90.000003
  0
LINE
  8
型材断面
  6
CONTINUOUS
 62
    63
 10
118.593325
 20
-38.60424
 11
117.46316
 21
-38.60424
  0
LINE
  8
型材断面
  6
CONTINUOUS
 62
    63
 10
116.46316
 20
-37.270905
 11
117.46316
 21
-37.270905
  0
LINE
  8
型材断面
  6
CONTINUOUS
 62
    63
 10
115.56316
 20
-30.93709
 11
115.46316
 21
-30.83709
  0
LINE
  8
型材断面
  6
CONTINUOUS
 62
    63
 10
115.56316
 20
-30.93709
 11
115.46316
 21
-31.03709
  0
LINE
  8
型材断面
  6
CONTINUOUS
 62
    63
 10
115.46316
 20
-29.103758
 11
115.46316
 21
-30.83709
  0
LINE
  8
型材断面
  6
CONTINUOUS
 62
    63
 10
115.46316
 20
-37.270905
 11
115.46316
 21
-31.03709
  0
LINE
  8
型材断面
  6
CONTINUOUS
 62
    63
 10
109.296485
 20
-37.770905
 11
109.296485
 21
-38.437572
  0
LINE
  8
型材断面
  6
CONTINUOUS
 62
    63
 10
111.079995
 20
-38.60424
 11
109.463153
 21
-38.60424
  0
LINE
  8
型材断面
  6
CONTINUOUS
 62
    63
 10
111.079995
 20
-50.60424
 11
109.463153
 21
-50.60424
  0
LINE
  8
型材断面
  6
CONTINUOUS
 62
    63
 10
109.296485
 20
-54.920903
 11
109.296485
 21
-50.770907
  0
LINE
  8
型材断面
  6
CONTINUOUS
 62
    63
 10
127.963145
 20
-33.104237
 11
127.62981
 21
-33.104237
  0
LINE
  8
型材断面
  6
CONTINUOUS
 62
    63
 10
127.463145
 20
-41.333983
 11
127.463145
 21
-33.270903
  0
LINE
  8
型材断面
  6
CONTINUOUS
 62
    63
 10
123.963145
 20
-33.104237
 11
122.896478
 21
-33.104237
  0
LINE
  8
型材断面
  6
CONTINUOUS
 62
    63
 10
117.29649
 20
-60.170897
 11
117.19649
 21
-60.270897
  0
LINE
  8
型材断面
  6
CONTINUOUS
 62
    63
 10
117.29649
 20
-60.170897
 11
117.39649
 21
-60.270897
  0
LINE
  8
型材断面
  6
CONTINUOUS
 62
    63
 10
128.363145
 20
-43.60424
 11
128.463145
 21
-43.50424
  0
LINE
  8
型材断面
  6
CONTINUOUS
 62
    63
 10
128.363145
 20
-43.60424
 11
128.463145
 21
-43.70424
  0
LINE
  8
型材断面
  6
CONTINUOUS
 62
    63
 10
128.363145
 20
-45.60424
 11
128.463145
 21
-45.50424
  0
LINE
  8
型材断面
  6
CONTINUOUS
 62
    63
 10
128.363145
 20
-45.60424
 11
128.463145
 21
-45.70424
  0
ARC
  8
型材断面
  6
CONTINUOUS
 62
    63
 10
127.129809
 20
-47.874497
 40
0.333333
 50
0.0
 51
151.407684
  0
ARC
  8
型材断面
  6
CONTINUOUS
 62
    63
 10
127.129809
 20
-41.333984
 40
0.333333
 50
-151.407684
 51
0.0
  0
LINE
  8
型材断面
  6
CONTINUOUS
 62
    63
 10
117.46316
 20
-38.60424
 11
117.46316
 21
-37.270905
  0
ARC
  8
型材断面
  6
CONTINUOUS
 62
    63
 10
109.463151
 20
-38.437574
 40
0.166667
 50
180.0
 51
270.0
  0
ARC
  8
型材断面
  6
CONTINUOUS
 62
    63
 10
109.463151
 20
-50.770907
 40
0.166667
 50
90.0
 51
180.0
  0
ARC
  8
型材断面
  6
CONTINUOUS
 62
    63
 10
127.629808
 20
-33.270905
 40
0.166667
 50
90.0
 51
180.0
  0
LINE
  8
型材断面
  6
CONTINUOUS
 62
    63
 10
124.12981
 20
-33.270903
 11
124.12981
 21
-34.104237
  0
ARC
  8
型材断面
  6
CONTINUOUS
 62
    63
 10
123.963142
 20
-33.270905
 40
0.166667
 50
0.0
 51
90.0
  0
LINE
  8
型材断面
  6
CONTINUOUS
 62
    63
 10
112.512985
 20
-50.60424
 11
112.512985
 21
-50.178712
  0
LINE
  8
型材断面
  6
CONTINUOUS
 62
    63
 10
111.079995
 20
-50.60424
 11
111.079995
 21
-50.178705
  0
LINE
  8
型材断面
  6
CONTINUOUS
 62
    63
 10
115.96316
 20
-40.270907
 11
115.96316
 21
-41.937572
  0
LINE
  8
型材断面
  6
CONTINUOUS
 62
    63
 10
115.96316
 20
-48.937572
 11
115.96316
 21
-47.270905
  0
LINE
  8
型材断面
  6
CONTINUOUS
 62
    63
 10
116.73785
 20
-47.270905
 11
115.96316
 21
-47.270905
  0
LINE
  8
型材断面
  6
CONTINUOUS
 62
    63
 10
116.73785
 20
-41.937572
 11
115.96316
 21
-41.937572
  0
LINE
  8
ゴム等
  6
CONTINUOUS
 62
    63
 10
117.546493
 20
-29.603758
 11
117.546493
 21
-28.603758
  0
LINE
  8
ゴム等
  6
CONTINUOUS
 62
    63
 10
118.71316
 20
-29.603758
 11
118.71316
 21
-28.603758
  0
LINE
  8
ゴム等
  6
CONTINUOUS
 62
    63
 10
116.46316
 20
-33.520662
 11
115.46316
 21
-33.520662
  0
LINE
  8
ゴム等
  6
CONTINUOUS
 62
    63
 10
116.46316
 20
-32.353995
 11
115.46316
 21
-32.353995
  0
LINE
  8
ゴム等
  6
CONTINUOUS
 62
    63
 10
110.296485
 20
-55.604233
 11
109.296485
 21
-55.604233
  0
LINE
  8
ゴム等
  6
CONTINUOUS
 62
    63
 10
110.296485
 20
-54.437568
 11
109.296485
 21
-54.437568
  0
LINE
  8
ゴム等
  6
CONTINUOUS
 62
    63
 10
123.713145
 20
-59.270897
 11
123.713145
 21
-60.270897
  0
LINE
  8
ゴム等
  6
CONTINUOUS
 62
    63
 10
124.87981
 20
-59.270897
 11
124.87981
 21
-60.270897
  0
LINE
  8
ゴム等
  6
CONTINUOUS
 62
    63
 10
123.713145
 20
-59.520897
 11
124.87981
 21
-59.520897
  0
LINE
  8
ゴム等
  6
CONTINUOUS
 62
    63
 10
123.713145
 20
-59.770897
 11
124.87981
 21
-59.770897
  0
LINE
  8
ゴム等
  6
CONTINUOUS
 62
    63
 10
123.713145
 20
-60.020897
 11
124.87981
 21
-60.020897
  0
LINE
  8
ゴム等
  6
CONTINUOUS
 62
    63
 10
109.546485
 20
-54.437568
 11
109.546485
 21
-55.604233
  0
LINE
  8
ゴム等
  6
CONTINUOUS
 62
    63
 10
109.796485
 20
-54.437568
 11
109.796485
 21
-55.604233
  0
LINE
  8
ゴム等
  6
CONTINUOUS
 62
    63
 10
110.046485
 20
-54.437568
 11
110.046485
 21
-55.604233
  0
LINE
  8
ゴム等
  6
CONTINUOUS
 62
    63
 10
116.21316
 20
-32.353995
 11
116.21316
 21
-33.520662
  0
LINE
  8
ゴム等
  6
CONTINUOUS
 62
    63
 10
115.96316
 20
-32.353995
 11
115.96316
 21
-33.520662
  0
LINE
  8
ゴム等
  6
CONTINUOUS
 62
    63
 10
115.71316
 20
-32.353995
 11
115.71316
 21
-33.520662
  0
LINE
  8
ゴム等
  6
CONTINUOUS
 62
    63
 10
118.71316
 20
-28.853758
 11
117.546493
 21
-28.853758
  0
LINE
  8
ゴム等
  6
CONTINUOUS
 62
    63
 10
118.71316
 20
-29.103758
 11
117.546493
 21
-29.103758
  0
LINE
  8
ゴム等
  6
CONTINUOUS
 62
    63
 10
118.71316
 20
-29.353758
 11
117.546493
 21
-29.353758
  0
LINE
  8
ゴム等
  6
CONTINUOUS
 62
    63
 10
115.13129
 20
-47.770907
 11
115.13129
 21
-47.770907
  0
LINE
  8
ゴム等
  6
CONTINUOUS
 62
    63
 10
114.296493
 20
-38.60424
 11
115.96316
 21
-40.270907
  0
LINE
  8
ゴム等
  6
CONTINUOUS
 62
    63
 10
115.96316
 20
-40.270907
 11
115.96316
 21
-40.937572
  0
ARC
  8
ゴム等
  6
CONTINUOUS
 62
    63
 10
111.796486
 20
-50.604242
 40
0.833333
 50
30.70609
 51
149.293349
  0
ENDBLK
  0
BLOCK
  2
*GRP_0008
 70
    65
 10
0.0
 20
0.0
  0
LINE
  8
型材断面
  6
CONTINUOUS
 62
    47
 10
109.296485
 20
-25.604238
 11
109.296485
 21
-3.770903
  0
ARC
  8
型材断面
  6
CONTINUOUS
 62
    47
 10
109.296484
 20
-25.604238
 40
0.5
 50
180.0
 51
270.0
  0
LINE
  8
型材断面
  6
CONTINUOUS
 62
    47
 10
108.796485
 20
-26.104238
 11
108.796485
 21
-3.770903
  0
ARC
  8
型材断面
  6
CONTINUOUS
 62
    47
 10
123.263152
 20
-26.104238
 40
0.5
 50
0.0
 51
90.0
  0
LINE
  8
型材断面
  6
CONTINUOUS
 62
    47
 10
108.796485
 20
-26.104238
 11
123.263155
 21
-26.104238
  0
LINE
  8
型材断面
  6
CONTINUOUS
 62
    47
 10
123.263155
 20
-26.104238
 11
123.263155
 21
-30.43757
  0
LINE
  8
型材断面
  6
CONTINUOUS
 62
    47
 10
123.763155
 20
-30.43757
 11
123.263155
 21
-30.43757
  0
LINE
  8
型材断面
  6
CONTINUOUS
 62
    47
 10
109.296485
 20
-25.604238
 11
123.763155
 21
-25.604238
  0
LINE
  8
型材断面
  6
CONTINUOUS
 62
    47
 10
123.763155
 20
-25.604238
 11
123.763155
 21
-30.43757
  0
LINE
  8
型材断面
  6
CONTINUOUS
 62
    47
 10
109.296485
 20
-3.770903
 11
108.796485
 21
-3.770903
  0
ENDBLK
  0
BLOCK
  2
*GRP_0009
 70
    65
 10
0.0
 20
0.0
  0
LINE
  8
補助線
  6
BYBLOCK
 62
    63
 10
115.629825
 20
-18.270907
 11
126.629825
 21
-18.270907
  0
LINE
  8
補助線
  6
BYBLOCK
 62
    63
 10
121.129825
 20
-12.770907
 11
121.129825
 21
-23.770907
  0
LINE
  8
補助線
  6
BYBLOCK
 62
    63
 10
110.629825
 20
-12.270907
 11
112.96316
 21
-12.270907
  0
LINE
  8
補助線
  6
BYBLOCK
 62
    63
 10
111.796493
 20
-11.104242
 11
111.796493
 21
-13.437575
  0
LINE
  8
補助線
  6
BYBLOCK
 62
    63
 10
110.729825
 20
-24.270905
 11
112.86316
 21
-24.270905
  0
LINE
  8
補助線
  6
BYBLOCK
 62
    63
 10
111.796493
 20
-23.204237
 11
111.796493
 21
-25.337572
  0
LINE
  8
ゴム等
  6
CONTINUOUS
 62
    63
 10
115.964627
 20
-13.937572
 11
114.29796
 21
-12.270907
  0
LINE
  8
ゴム等
  6
CONTINUOUS
 62
    63
 10
115.964627
 20
-22.60424
 11
114.29796
 21
-24.270907
  0
LINE
  8
ゴム等
  6
CONTINUOUS
 62
    63
 10
120.596435
 20
-7.037572
 11
123.763142
 21
-7.037572
  0
LINE
  8
ゴム等
  6
CONTINUOUS
 62
    63
 10
119.7631
 20
-7.037572
 11
115.363125
 21
-7.037572
  0
LINE
  8
ゴム等
  6
CONTINUOUS
 62
    63
 10
123.096475
 20
-7.70424
 11
114.529793
 21
-7.70424
  0
LINE
  8
ゴム等
  6
CONTINUOUS
 62
    63
 10
114.529793
 20
-7.437572
 11
114.529793
 21
-7.70424
  0
LINE
  8
St
  6
CONTINUOUS
 62
    63
 10
121.129825
 20
-12.770907
 11
121.129825
 21
-12.270905
  0
LINE
  8
St
  6
CONTINUOUS
 62
    63
 10
121.129825
 20
-12.270905
 11
115.712175
 21
-12.270905
  0
ARC
  8
St
  6
CONTINUOUS
 62
    63
 10
111.796492
 20
-12.270909
 40
0.833333
 50
89.999943
 51
89.999943
  0
ARC
  8
St
  6
CONTINUOUS
 62
    63
 10
111.796493
 20
-24.270905
 40
0.733333
 50
12.301255
 51
167.698745
  0
LINE
  8
St
  6
CONTINUOUS
 62
    63
 10
112.512985
 20
-24.270907
 11
112.512985
 21
-24.114663
  0
LINE
  8
St
  6
CONTINUOUS
 62
    63
 10
111.079992
 20
-24.270907
 11
111.079992
 21
-24.114663
  0
ARC
  8
St
  6
CONTINUOUS
 62
    63
 10
121.129825
 20
-18.270907
 40
5.166667
 50
211.072944
 51
508.927042
  0
LINE
  8
St
  6
CONTINUOUS
 62
    63
 10
109.296485
 20
-11.437572
 11
109.296485
 21
-12.104238
  0
LINE
  8
St
  6
CONTINUOUS
 62
    63
 10
111.079992
 20
-12.270907
 11
109.46315
 21
-12.270907
  0
LINE
  8
St
  6
CONTINUOUS
 62
    63
 10
111.079992
 20
-24.270907
 11
109.46315
 21
-24.270907
  0
ARC
  8
St
  6
CONTINUOUS
 62
    63
 10
109.463157
 20
-12.104241
 40
0.166667
 50
180.0
 51
270.0
  0
ARC
  8
St
  6
CONTINUOUS
 62
    63
 10
109.463157
 20
-24.437574
 40
0.166667
 50
90.0
 51
180.0
  0
LINE
  8
St
  6
CONTINUOUS
 62
    63
 10
109.296485
 20
-24.437572
 11
109.296485
 21
-24.604238
  0
ARC
  8
St
  6
CONTINUOUS
 62
    63
 10
127.463148
 20
-9.270907
 40
1.0
 50
0.0
 51
90.0
  0
ARC
  8
St
  6
CONTINUOUS
 62
    63
 10
127.463148
 20
-9.270907
 40
0.333333
 50
0.0
 51
90.0
  0
ARC
  8
St
  6
CONTINUOUS
 62
    63
 10
127.463148
 20
-24.604242
 40
1.0
 50
270.0
 51
360.0
  0
ARC
  8
St
  6
CONTINUOUS
 62
    63
 10
127.463148
 20
-24.604242
 40
0.333333
 50
270.0
 51
360.0
  0
ARC
  8
St
  6
CONTINUOUS
 62
    63
 10
110.296491
 20
-24.604242
 40
1.0
 50
180.0
 51
270.0
  0
LINE
  8
St
  6
CONTINUOUS
 62
    63
 10
127.463142
 20
-8.270907
 11
123.763142
 21
-8.270907
  0
LINE
  8
St
  6
CONTINUOUS
 62
    63
 10
127.463142
 20
-8.937572
 11
123.096475
 21
-8.937572
  0
LINE
  8
St
  6
CONTINUOUS
 62
    63
 10
109.296485
 20
-3.770907
 11
109.296485
 21
-9.337572
  0
LINE
  8
St
  6
CONTINUOUS
 62
    63
 10
109.296485
 20
-9.537572
 11
109.296485
 21
-12.270907
  0
LINE
  8
St
  6
CONTINUOUS
 62
    63
 10
128.363142
 20
-10.104238
 11
128.463142
 21
-10.004237
  0
LINE
  8
St
  6
CONTINUOUS
 62
    63
 10
128.363142
 20
-10.104238
 11
128.463142
 21
-10.204238
  0
LINE
  8
St
  6
CONTINUOUS
 62
    63
 10
128.463142
 20
-10.004237
 11
128.463142
 21
-9.270907
  0
LINE
  8
St
  6
CONTINUOUS
 62
    63
 10
128.463142
 20
-24.604238
 11
128.463142
 21
-19.937572
  0
LINE
  8
St
  6
CONTINUOUS
 62
    63
 10
128.463142
 20
-10.204238
 11
128.463142
 21
-19.937572
  0
LINE
  8
St
  6
CONTINUOUS
 62
    63
 10
127.796475
 20
-24.604238
 11
127.796475
 21
-18.937572
  0
LINE
  8
St
  6
CONTINUOUS
 62
    63
 10
127.796475
 20
-9.270907
 11
127.796475
 21
-17.604238
  0
LINE
  8
St
  6
CONTINUOUS
 62
    63
 10
109.396485
 20
-9.437572
 11
109.296485
 21
-9.337572
  0
LINE
  8
St
  6
CONTINUOUS
 62
    63
 10
109.396485
 20
-9.437572
 11
109.296485
 21
-9.537572
  0
ARC
  8
St
  6
CONTINUOUS
 62
    63
 10
110.829819
 20
-3.8709
 40
0.1
 50
0.0
 51
89.99588
  0
ARC
  8
St
  6
CONTINUOUS
 62
    63
 10
113.829806
 20
-3.8709
 40
0.1
 50
89.99588
 51
179.997253
  0
LINE
  8
St
  6
CONTINUOUS
 62
    63
 10
113.8298
 20
-3.770907
 11
115.029793
 21
-3.770907
  0
LINE
  8
St
  6
CONTINUOUS
 62
    63
 10
109.296485
 20
-3.770907
 11
110.828643
 21
-3.770907
  0
ARC
  8
St
  6
CONTINUOUS
 62
    63
 10
119.063115
 20
-3.8709
 40
0.1
 50
90.00412
 51
180.0
  0
ARC
  8
St
  6
CONTINUOUS
 62
    63
 10
116.063128
 20
-3.8709
 40
0.1
 50
0.002747
 51
90.00412
  0
LINE
  8
St
  6
CONTINUOUS
 62
    63
 10
116.063125
 20
-3.770907
 11
114.863125
 21
-3.770907
  0
LINE
  8
St
  6
CONTINUOUS
 62
    63
 10
120.596435
 20
-3.770907
 11
119.064285
 21
-3.770907
  0
LINE
  8
St
  6
CONTINUOUS
 62
    63
 10
113.89645
 20
-4.604237
 11
114.529793
 21
-4.604237
  0
LINE
  8
St
  6
CONTINUOUS
 62
    63
 10
110.763118
 20
-4.604237
 11
110.129817
 21
-4.604237
  0
ARC
  8
St
  6
CONTINUOUS
 62
    63
 10
113.89646
 20
-4.437571
 40
0.166667
 50
179.997253
 51
269.998627
  0
ARC
  8
St
  6
CONTINUOUS
 62
    63
 10
110.763119
 20
-4.437571
 40
0.166667
 50
269.998627
 51
360.0
  0
LINE
  8
St
  6
CONTINUOUS
 62
    63
 10
115.996467
 20
-4.604237
 11
115.363125
 21
-4.604237
  0
LINE
  8
St
  6
CONTINUOUS
 62
    63
 10
119.12981
 20
-4.604237
 11
119.7631
 21
-4.604237
  0
ARC
  8
St
  6
CONTINUOUS
 62
    63
 10
115.996474
 20
-4.437571
 40
0.166667
 50
270.001373
 51
360.002747
  0
ARC
  8
St
  6
CONTINUOUS
 62
    63
 10
119.129815
 20
-4.437571
 40
0.166667
 50
180.0
 51
270.001373
  0
LINE
  8
St
  6
CONTINUOUS
 62
    63
 10
113.729785
 20
-3.870897
 11
113.729785
 21
-4.437558
  0
LINE
  8
St
  6
CONTINUOUS
 62
    63
 10
116.163142
 20
-3.870897
 11
116.163142
 21
-4.437558
  0
LINE
  8
St
  6
CONTINUOUS
 62
    63
 10
110.929785
 20
-3.870897
 11
110.929785
 21
-4.437558
  0
LINE
  8
St
  6
CONTINUOUS
 62
    63
 10
118.963142
 20
-3.870897
 11
118.963142
 21
-4.437558
  0
LINE
  8
St
  6
CONTINUOUS
 62
    63
 10
114.529793
 20
-4.604237
 11
114.529793
 21
-6.770907
  0
LINE
  8
St
  6
CONTINUOUS
 62
    63
 10
114.529793
 20
-6.770907
 11
110.129817
 21
-6.770907
  0
LINE
  8
St
  6
CONTINUOUS
 62
    63
 10
110.129817
 20
-4.604237
 11
110.129817
 21
-6.770907
  0
LINE
  8
St
  6
CONTINUOUS
 62
    63
 10
110.129817
 20
-7.437572
 11
110.129817
 21
-11.437572
  0
LINE
  8
St
  6
CONTINUOUS
 62
    63
 10
127.796475
 20
-17.604238
 11
127.092668
 21
-17.604238
  0
LINE
  8
St
  6
CONTINUOUS
 62
    63
 10
127.796475
 20
-18.937572
 11
127.092668
 21
-18.937572
  0
LINE
  8
St
  6
CONTINUOUS
 62
    63
 10
111.079992
 20
-12.270907
 11
111.079992
 21
-12.696437
  0
LINE
  8
St
  6
CONTINUOUS
 62
    63
 10
112.512992
 20
-12.270907
 11
112.512992
 21
-12.696432
  0
ARC
  8
St
  6
CONTINUOUS
 62
    63
 10
111.796492
 20
-12.270909
 40
0.833333
 50
210.706651
 51
329.294247
  0
LINE
  8
St
  6
CONTINUOUS
 62
    63
 10
116.73785
 20
-15.604238
 11
115.96316
 21
-15.604238
  0
LINE
  8
St
  6
CONTINUOUS
 62
    63
 10
116.704517
 20
-20.937572
 11
115.964625
 21
-20.937572
  0
LINE
  8
St
  6
CONTINUOUS
 62
    63
 10
127.463142
 20
-24.937572
 11
121.79649
 21
-24.937572
  0
LINE
  8
St
  6
CONTINUOUS
 62
    63
 10
111.96315
 20
-10.937572
 11
111.629817
 21
-11.437572
  0
LINE
  8
St
  6
CONTINUOUS
 62
    63
 10
110.129817
 20
-11.437572
 11
111.629817
 21
-11.437572
  0
LINE
  8
St
  6
CONTINUOUS
 62
    63
 10
110.129817
 20
-7.437572
 11
114.529793
 21
-7.437572
  0
LINE
  8
St
  6
CONTINUOUS
 62
    63
 10
119.7631
 20
-4.604237
 11
119.7631
 21
-7.037572
  0
LINE
  8
St
  6
CONTINUOUS
 62
    63
 10
120.596435
 20
-3.770907
 11
120.596435
 21
-7.037572
  0
LINE
  8
St
  6
CONTINUOUS
 62
    63
 10
123.763142
 20
-8.270907
 11
123.763142
 21
-7.037572
  0
LINE
  8
St
  6
CONTINUOUS
 62
    63
 10
123.096475
 20
-8.937572
 11
123.096475
 21
-7.70424
  0
LINE
  8
St
  6
CONTINUOUS
 62
    63
 10
115.363125
 20
-4.604237
 11
115.363125
 21
-7.037572
  0
LINE
  8
St
  6
CONTINUOUS
 62
    63
 10
115.96316
 20
-15.604238
 11
115.96316
 21
-13.936107
  0
LINE
  8
St
  6
CONTINUOUS
 62
    63
 10
112.512992
 20
-12.270907
 11
114.29796
 21
-12.270907
  0
LINE
  8
St
  6
CONTINUOUS
 62
    63
 10
115.964625
 20
-20.937572
 11
115.964625
 21
-22.604242
  0
LINE
  8
St
  6
CONTINUOUS
 62
    63
 10
112.512985
 20
-24.270907
 11
114.29796
 21
-24.270907
  0
LINE
  8
St
  6
CONTINUOUS
 62
    63
 10
111.96315
 20
-10.937572
 11
114.37884
 21
-10.937572
  0
LINE
  8
St
  6
CONTINUOUS
 62
    63
 10
127.463142
 20
-25.604238
 11
120.796475
 21
-25.604238
  0
LINE
  8
St
  6
CONTINUOUS
 62
    63
 10
121.79649
 20
-24.937558
 11
121.79649
 21
-24.233752
  0
LINE
  8
St
  6
CONTINUOUS
 62
    63
 10
110.296485
 20
-25.604238
 11
114.850245
 21
-25.604238
  0
ARC
  8
St
  6
CONTINUOUS
 62
    63
 10
121.129825
 20
-18.270906
 40
6.0
 50
276.379341
 51
353.620622
  0
LINE
  8
St
  6
CONTINUOUS
 62
    63
 10
114.850245
 20
-25.604238
 11
116.18358
 21
-24.270905
  0
LINE
  8
St
  6
CONTINUOUS
 62
    63
 10
120.796475
 20
-25.604238
 11
120.796475
 21
-24.604238
  0
LINE
  8
St
  6
CONTINUOUS
 62
    63
 10
116.18358
 20
-24.270905
 11
120.463142
 21
-24.270905
  0
ARC
  8
St
  6
CONTINUOUS
 62
    63
 10
120.463142
 20
-24.604239
 40
0.333333
 50
0.0
 51
90.0
  0
LINE
  8
St
  6
CONTINUOUS
 62
    63
 10
114.37884
 20
-10.937572
 11
115.712175
 21
-12.270905
  0
ARC
  8
St
  6
CONTINUOUS
 62
    63
 10
121.129825
 20
-18.270906
 40
6.0
 50
6.379362
 51
89.999997
  0
ENDBLK
  0
BLOCK
  2
*GRP_0010
 70
    65
 10
0.0
 20
0.0
  0
LINE
  8
型材断面
  6
CONTINUOUS
 10
128.463145
 20
-60.270897
 11
128.963145
 21
-60.270897
  0
LINE
  8
型材断面
  6
CONTINUOUS
 10
128.463145
 20
-58.270897
 11
128.963145
 21
-58.270897
  0
LINE
  8
型材断面
  6
CONTINUOUS
 10
128.838145
 20
-58.270897
 11
128.838145
 21
-60.270897
  0
LINE
  8
型材断面
  6
CONTINUOUS
 10
128.713145
 20
-58.270897
 11
128.713145
 21
-60.270897
  0
LINE
  8
型材断面
  6
CONTINUOUS
 10
128.588145
 20
-58.270897
 11
128.588145
 21
-60.270897
  0
LINE
  8
型材断面
  6
CONTINUOUS
 62
    47
 10
125.296478
 20
-60.770897
 11
125.0187
 21
-60.270897
  0
LINE
  8
型材断面
  6
CONTINUOUS
 62
    47
 10
123.574255
 20
-60.270897
 11
123.296478
 21
-60.770897
  0
LINE
  8
型材断面
  6
CONTINUOUS
 62
    47
 10
123.50481
 20
-60.395897
 11
125.088145
 21
-60.395897
  0
LINE
  8
型材断面
  6
CONTINUOUS
 62
    47
 10
123.435365
 20
-60.520897
 11
125.15759
 21
-60.520897
  0
LINE
  8
型材断面
  6
CONTINUOUS
 62
    47
 10
123.365922
 20
-60.645897
 11
125.227032
 21
-60.645897
  0
ARC
  8
型材断面
  6
CONTINUOUS
 62
    47
 10
128.463142
 20
-60.270901
 40
0.5
 50
270.0
 51
360.0
  0
ARC
  8
型材断面
  6
CONTINUOUS
 62
    47
 10
90.629819
 20
-60.270901
 40
0.5
 50
180.0
 51
270.0
  0
LINE
  8
型材断面
  6
CONTINUOUS
 62
    47
 10
128.463145
 20
-60.270897
 11
90.62982
 21
-60.270897
  0
LINE
  8
型材断面
  6
CONTINUOUS
 62
    47
 10
128.963145
 20
-60.770897
 11
90.12982
 21
-60.770897
  0
LINE
  8
型材断面
  6
CONTINUOUS
 62
    47
 10
119.129825
 20
-27.603755
 11
118.852047
 21
-28.103758
  0
LINE
  8
型材断面
  6
CONTINUOUS
 62
    47
 10
117.407603
 20
-28.103758
 11
117.129825
 21
-27.603755
  0
LINE
  8
型材断面
  6
CONTINUOUS
 62
    47
 10
117.19927
 20
-27.728758
 11
119.06038
 21
-27.728758
  0
LINE
  8
型材断面
  6
CONTINUOUS
 62
    47
 10
117.268715
 20
-27.853758
 11
118.990935
 21
-27.853758
  0
LINE
  8
型材断面
  6
CONTINUOUS
 62
    47
 10
117.33816
 20
-27.978758
 11
118.921493
 21
-27.978758
  0
LINE
  8
型材断面
  6
CONTINUOUS
 62
    47
 10
115.46316
 20
-28.103758
 11
120.12981
 21
-28.103758
  0
ARC
  8
型材断面
  6
CONTINUOUS
 62
    47
 10
120.129807
 20
-28.103759
 40
0.5
 50
0.0
 51
90.0
  0
ARC
  8
型材断面
  6
CONTINUOUS
 62
    47
 10
120.629807
 20
-32.104239
 40
0.5
 50
180.0
 51
270.0
  0
ARC
  8
型材断面
  6
CONTINUOUS
 62
    47
 10
128.463142
 20
-32.604239
 40
0.5
 50
0.0
 51
90.0
  0
LINE
  8
型材断面
  6
CONTINUOUS
 62
    47
 10
120.62981
 20
-32.104237
 11
128.963145
 21
-32.104237
  0
LINE
  8
型材断面
  6
CONTINUOUS
 62
    47
 10
128.463145
 20
-32.604237
 11
120.12981
 21
-32.604237
  0
LINE
  8
型材断面
  6
CONTINUOUS
 62
    47
 10
120.12981
 20
-28.103758
 11
120.12981
 21
-32.604237
  0
LINE
  8
型材断面
  6
CONTINUOUS
 62
    47
 10
120.62981
 20
-32.104237
 11
120.62981
 21
-27.603758
  0
LINE
  8
型材断面
  6
CONTINUOUS
 62
    47
 10
120.62981
 20
-27.603758
 11
115.46316
 21
-27.603758
  0
LINE
  8
型材断面
  6
CONTINUOUS
 62
    47
 10
128.963145
 20
-60.770897
 11
128.963145
 21
-32.104237
  0
LINE
  8
型材断面
  6
CONTINUOUS
 62
    47
 10
128.463145
 20
-60.270897
 11
128.463145
 21
-32.604237
  0
LINE
  8
型材断面
  6
CONTINUOUS
 10
115.46316
 20
-27.603758
 11
115.46316
 21
-28.103758
  0
LINE
  8
型材断面
  6
CONTINUOUS
 62
    47
 10
90.12982
 20
-60.770897
 11
90.12982
 21
-54.104233
  0
LINE
  8
型材断面
  6
CONTINUOUS
 10
90.12982
 20
-54.104233
 11
90.62982
 21
-54.104233
  0
LINE
  8
型材断面
  6
CONTINUOUS
 62
    47
 10
90.62982
 20
-60.270897
 11
90.62982
 21
-54.104233
  0
ENDBLK
  0
BLOCK
  2
*GRP_0011
 70
    65
 10
0.0
 20
0.0
  0
LINE
  8
型材断面
  6
CONTINUOUS
 10
122.629817
 20
4.560757
 11
109.796485
 21
4.560757
  0
LINE
  8
型材断面
  6
CONTINUOUS
 10
122.629817
 20
5.060757
 11
122.629817
 21
4.560757
  0
ARC
  8
型材断面
  6
CONTINUOUS
 10
109.796484
 20
4.560756
 40
0.5
 50
90.0
 51
180.0
  0
LINE
  8
型材断面
  6
CONTINUOUS
 10
122.629817
 20
5.060757
 11
109.296485
 21
5.060757
  0
ARC
  8
型材断面
  6
CONTINUOUS
 10
123.763144
 20
-3.770902
 40
0.5
 50
0.0
 51
90.0
  0
ARC
  8
型材断面
  6
CONTINUOUS
 10
128.463144
 20
-8.270907
 40
0.5
 50
0.0
 51
90.0
  0
LINE
  8
型材断面
  6
CONTINUOUS
 10
123.763145
 20
-7.770907
 11
123.763145
 21
-3.770903
  0
LINE
  8
型材断面
  6
CONTINUOUS
 10
124.263145
 20
-8.270907
 11
128.463145
 21
-8.270907
  0
ARC
  8
型材断面
  6
CONTINUOUS
 10
124.263144
 20
-7.770907
 40
0.5
 50
180.0
 51
270.0
  0
LINE
  8
型材断面
  6
CONTINUOUS
 10
109.796485
 20
4.560757
 11
109.796485
 21
-3.270903
  0
ARC
  8
型材断面
  6
CONTINUOUS
 10
109.796485
 20
-3.270902
 40
0.5
 50
180.0
 51
270.0
  0
LINE
  8
型材断面
  6
CONTINUOUS
 10
123.763145
 20
-3.770903
 11
109.296485
 21
-3.770903
  0
LINE
  8
型材断面
  6
CONTINUOUS
 10
109.296485
 20
5.060757
 11
109.296485
 21
-3.770903
  0
LINE
  8
型材断面
  6
CONTINUOUS
 10
109.796485
 20
-3.270903
 11
124.263145
 21
-3.270903
  0
LINE
  8
型材断面
  6
CONTINUOUS
 10
124.263145
 20
-7.770907
 11
124.263145
 21
-3.270903
  0
LINE
  8
型材断面
  6
CONTINUOUS
 10
124.263145
 20
-7.770907
 11
128.963145
 21
-7.770907
  0
ARC
  8
型材断面
  6
CONTINUOUS
 62
    47
 10
128.463142
 20
-25.604238
 40
0.5
 50
270.0
 51
360.0
  0
ARC
  8
型材断面
  6
CONTINUOUS
 62
    47
 10
124.263152
 20
-26.104238
 40
0.5
 50
90.0
 51
180.0
  0
LINE
  8
型材断面
  6
CONTINUOUS
 62
    47
 10
131.596485
 20
-31.604717
 11
131.596485
 21
-34.497822
  0
LINE
  8
型材断面
  6
CONTINUOUS
 62
    47
 10
131.596485
 20
-34.497822
 11
132.096485
 21
-34.497822
  0
ARC
  8
型材断面
  6
CONTINUOUS
 62
    47
 10
131.596485
 20
-31.604716
 40
0.5
 50
360.0
 51
442.724994
  0
LINE
  8
型材断面
  6
CONTINUOUS
 62
    47
 10
132.096485
 20
-34.497822
 11
132.096485
 21
-31.164487
  0
LINE
  8
型材断面
  6
CONTINUOUS
 62
    47
 10
132.096485
 20
-31.164487
 11
124.263155
 21
-30.164487
  0
LINE
  8
型材断面
  6
CONTINUOUS
 62
    47
 10
124.263155
 20
-26.104238
 11
124.263155
 21
-30.164487
  0
ARC
  8
型材断面
  6
CONTINUOUS
 62
    47
 10
124.263153
 20
-30.164488
 40
0.5
 50
180.0
 51
262.724994
  0
LINE
  8
型材断面
  6
CONTINUOUS
 62
    47
 10
131.596485
 20
-31.604717
 11
123.763155
 21
-30.604717
  0
LINE
  8
型材断面
  6
CONTINUOUS
 62
    47
 10
123.763155
 20
-25.604238
 11
123.763155
 21
-30.604717
  0
LINE
  8
型材断面
  6
CONTINUOUS
 62
    47
 10
124.263155
 20
-26.104238
 11
128.963145
 21
-26.104238
  0
LINE
  8
型材断面
  6
CONTINUOUS
 62
    47
 10
128.463145
 20
-25.604238
 11
123.763155
 21
-25.604238
  0
LINE
  8
型材断面
  6
CONTINUOUS
 62
    47
 10
128.963145
 20
-26.104238
 11
128.963145
 21
-7.770907
  0
LINE
  8
型材断面
  6
CONTINUOUS
 62
    47
 10
128.463145
 20
-25.604238
 11
128.463145
 21
-8.270907
  0
ENDBLK
  0
BLOCK
  2
*GRP_0012
 70
    65
 10
0.0
 20
0.0
  0
LINE
  8
型材断面
  6
CONTINUOUS
 10
100.696485
 20
4.829092
 11
100.696485
 21
4.329092
  0
LINE
  8
型材断面
  6
CONTINUOUS
 10
100.696485
 20
4.829092
 11
109.296485
 21
4.829092
  0
LINE
  8
型材断面
  6
CONTINUOUS
 10
100.696485
 20
4.329092
 11
109.296485
 21
4.329092
  0
LINE
  8
型材断面
  6
CONTINUOUS
 10
109.296485
 20
4.329092
 11
109.296485
 21
4.829092
  0
ENDBLK
  0
BLOCK
  2
*GRP_0013
 70
    65
 10
0.0
 20
0.0
  0
LINE
  8
型材断面
  6
CONTINUOUS
 62
    47
 10
-119.963145
 20
-60.770897
 11
-119.963145
 21
-61.270897
  0
LINE
  8
型材断面
  6
CONTINUOUS
 62
    47
 10
-122.796478
 20
-61.270897
 11
-119.963145
 21
-61.270897
  0
LINE
  8
型材断面
  6
CONTINUOUS
 62
    47
 10
-123.296478
 20
-65.770897
 11
-122.796478
 21
-65.770897
  0
LINE
  8
型材断面
  6
CONTINUOUS
 62
    47
 10
-122.796478
 20
-61.270897
 11
-122.796478
 21
-65.770897
  0
ARC
  8
型材断面
  6
CONTINUOUS
 62
    47
 10
-122.796471
 20
-61.270902
 40
0.5
 50
90.0
 51
180.0
  0
LINE
  8
型材断面
  6
CONTINUOUS
 62
    47
 10
-119.963145
 20
-60.770897
 11
-123.296478
 21
-60.770897
  0
LINE
  8
型材断面
  6
CONTINUOUS
 62
    47
 10
-123.296478
 20
-65.770897
 11
-123.296478
 21
-60.770897
  0
ENDBLK
  0
BLOCK
  2
*GRP_0014
 70
    65
 10
0.0
 20
0.0
  0
LINE
  8
型材断面
  6
CONTINUOUS
 10
-128.463145
 20
-60.270897
 11
-128.963145
 21
-60.270897
  0
LINE
  8
型材断面
  6
CONTINUOUS
 10
-128.463145
 20
-58.270897
 11
-128.963145
 21
-58.270897
  0
LINE
  8
型材断面
  6
CONTINUOUS
 10
-128.838145
 20
-58.270897
 11
-128.838145
 21
-60.270897
  0
LINE
  8
型材断面
  6
CONTINUOUS
 10
-128.713145
 20
-58.270897
 11
-128.713145
 21
-60.270897
  0
LINE
  8
型材断面
  6
CONTINUOUS
 10
-128.588145
 20
-58.270897
 11
-128.588145
 21
-60.270897
  0
ARC
  8
型材断面
  6
CONTINUOUS
 62
    47
 10
-128.463142
 20
-60.2709
 40
0.5
 50
180.0
 51
270.0
  0
ARC
  8
型材断面
  6
CONTINUOUS
 62
    47
 10
-90.629819
 20
-60.2709
 40
0.5
 50
270.0
 51
360.0
  0
LINE
  8
型材断面
  6
CONTINUOUS
 62
    47
 10
-128.463145
 20
-60.270897
 11
-90.62982
 21
-60.270897
  0
LINE
  8
型材断面
  6
CONTINUOUS
 62
    47
 10
-128.963145
 20
-60.770897
 11
-90.12982
 21
-60.770897
  0
ARC
  8
型材断面
  6
CONTINUOUS
 62
    47
 10
-120.629807
 20
-32.104239
 40
0.5
 50
-90.0
 51
0.0
  0
ARC
  8
型材断面
  6
CONTINUOUS
 62
    47
 10
-128.463142
 20
-32.604239
 40
0.5
 50
90.0
 51
180.0
  0
LINE
  8
型材断面
  6
CONTINUOUS
 62
    47
 10
-120.12981
 20
-32.604237
 11
-128.463145
 21
-32.604237
  0
LINE
  8
型材断面
  6
CONTINUOUS
 62
    47
 10
-128.463145
 20
-60.270897
 11
-128.463145
 21
-32.604237
  0
LINE
  8
型材断面
  6
CONTINUOUS
 62
    47
 10
-120.62981
 20
-32.104237
 11
-128.963145
 21
-32.104237
  0
LINE
  8
型材断面
  6
CONTINUOUS
 62
    47
 10
-128.963145
 20
-60.770897
 11
-128.963145
 21
-32.104237
  0
ARC
  8
型材断面
  6
CONTINUOUS
 62
    47
 10
-120.129807
 20
-28.104234
 40
0.5
 50
90.0
 51
180.0
  0
LINE
  8
型材断面
  6
CONTINUOUS
 62
    47
 10
-120.12981
 20
-32.604237
 11
-120.12981
 21
-28.104233
  0
LINE
  8
型材断面
  6
CONTINUOUS
 62
    47
 10
-120.62981
 20
-32.104237
 11
-120.62981
 21
-27.604233
  0
LINE
  8
型材断面
  6
CONTINUOUS
 62
    47
 10
-120.12981
 20
-28.104233
 11
-115.96316
 21
-28.104233
  0
LINE
  8
型材断面
  6
CONTINUOUS
 10
-115.96316
 20
-30.937565
 11
-115.96316
 21
-28.104233
  0
ARC
  8
型材断面
  6
CONTINUOUS
 10
-115.963158
 20
-28.104232
 40
0.5
 50
0.0
 51
90.0
  0
LINE
  8
型材断面
  6
CONTINUOUS
 62
    47
 10
-120.62981
 20
-27.604233
 11
-115.46316
 21
-27.604233
  0
LINE
  8
型材断面
  6
CONTINUOUS
 62
    47
 10
-115.46316
 20
-27.604233
 11
-115.46316
 21
-30.937565
  0
LINE
  8
型材断面
  6
CONTINUOUS
 10
-115.96316
 20
-30.937565
 11
-115.46316
 21
-30.937565
  0
LINE
  8
型材断面
  6
CONTINUOUS
 62
    47
 10
-90.12982
 20
-60.770897
 11
-90.12982
 21
-54.104233
  0
LINE
  8
型材断面
  6
CONTINUOUS
 10
-90.12982
 20
-54.104233
 11
-90.62982
 21
-54.104233
  0
LINE
  8
型材断面
  6
CONTINUOUS
 62
    47
 10
-90.62982
 20
-60.270897
 11
-90.62982
 21
-54.104233
  0
LINE
  8
St
  6
DOT
 62
    47
 10
-115.46316
 20
-28.604233
 11
-115.96316
 21
-28.882007
  0
LINE
  8
St
  6
DOT
 62
    47
 10
-115.46316
 20
-30.604233
 11
-115.96316
 21
-30.326452
  0
LINE
  8
St
  6
DOT
 62
    47
 10
-115.58816
 20
-28.673675
 11
-115.58816
 21
-30.534788
  0
LINE
  8
St
  6
DOT
 62
    47
 10
-115.71316
 20
-28.74312
 11
-115.71316
 21
-30.465343
  0
LINE
  8
St
  6
DOT
 62
    47
 10
-115.83816
 20
-28.812565
 11
-115.83816
 21
-30.395897
  0
ENDBLK
  0
BLOCK
  2
*GRP_0015
 70
    65
 10
0.0
 20
0.0
  0
LINE
  8
型材断面
  6
CONTINUOUS
 10
-122.629817
 20
4.560763
 11
-109.796485
 21
4.560763
  0
LINE
  8
型材断面
  6
CONTINUOUS
 10
-122.629817
 20
5.060763
 11
-122.629817
 21
4.560763
  0
ARC
  8
型材断面
  6
CONTINUOUS
 10
-109.796485
 20
4.560762
 40
0.5
 50
0.0
 51
90.0
  0
LINE
  8
型材断面
  6
CONTINUOUS
 10
-122.629817
 20
5.060763
 11
-109.296485
 21
5.060763
  0
ARC
  8
型材断面
  6
CONTINUOUS
 10
-123.763144
 20
-3.770897
 40
0.5
 50
90.0
 51
180.0
  0
ARC
  8
型材断面
  6
CONTINUOUS
 10
-128.463144
 20
-8.270902
 40
0.5
 50
90.0
 51
180.0
  0
LINE
  8
型材断面
  6
CONTINUOUS
 10
-123.763145
 20
-7.770903
 11
-123.763145
 21
-3.770897
  0
LINE
  8
型材断面
  6
CONTINUOUS
 10
-124.263145
 20
-8.270903
 11
-128.463145
 21
-8.270903
  0
ARC
  8
型材断面
  6
CONTINUOUS
 10
-124.263144
 20
-7.770902
 40
0.5
 50
-90.0
 51
0.0
  0
LINE
  8
型材断面
  6
CONTINUOUS
 10
-109.796485
 20
4.560763
 11
-109.796485
 21
-3.270897
  0
ARC
  8
型材断面
  6
CONTINUOUS
 10
-109.796485
 20
-3.270897
 40
0.5
 50
-90.0
 51
0.0
  0
LINE
  8
型材断面
  6
CONTINUOUS
 10
-123.763145
 20
-3.770897
 11
-109.296485
 21
-3.770897
  0
LINE
  8
型材断面
  6
CONTINUOUS
 10
-109.296485
 20
5.060763
 11
-109.296485
 21
-3.770897
  0
LINE
  8
型材断面
  6
CONTINUOUS
 10
-109.796485
 20
-3.270897
 11
-124.263145
 21
-3.270897
  0
LINE
  8
型材断面
  6
CONTINUOUS
 10
-124.263145
 20
-7.770903
 11
-124.263145
 21
-3.270897
  0
LINE
  8
型材断面
  6
CONTINUOUS
 10
-124.263145
 20
-7.770903
 11
-128.963145
 21
-7.770903
  0
ARC
  8
型材断面
  6
CONTINUOUS
 62
    47
 10
-128.463142
 20
-25.604232
 40
0.5
 50
180.0
 51
270.0
  0
ARC
  8
型材断面
  6
CONTINUOUS
 62
    47
 10
-124.263152
 20
-26.104232
 40
0.5
 50
0.0
 51
90.0
  0
LINE
  8
型材断面
  6
CONTINUOUS
 62
    47
 10
-131.596485
 20
-31.604713
 11
-131.596485
 21
-34.497818
  0
LINE
  8
型材断面
  6
CONTINUOUS
 62
    47
 10
-131.596485
 20
-34.497818
 11
-132.096485
 21
-34.497818
  0
ARC
  8
型材断面
  6
CONTINUOUS
 62
    47
 10
-131.596485
 20
-31.60471
 40
0.5
 50
97.275006
 51
180.0
  0
LINE
  8
型材断面
  6
CONTINUOUS
 62
    47
 10
-132.096485
 20
-34.497818
 11
-132.096485
 21
-31.164483
  0
LINE
  8
型材断面
  6
CONTINUOUS
 62
    47
 10
-132.096485
 20
-31.164483
 11
-124.263155
 21
-30.164483
  0
LINE
  8
型材断面
  6
CONTINUOUS
 62
    47
 10
-124.263155
 20
-26.104233
 11
-124.263155
 21
-30.164483
  0
ARC
  8
型材断面
  6
CONTINUOUS
 62
    47
 10
-124.263153
 20
-30.164482
 40
0.5
 50
-82.724994
 51
0.0
  0
LINE
  8
型材断面
  6
CONTINUOUS
 62
    47
 10
-131.596485
 20
-31.604713
 11
-123.763155
 21
-30.604713
  0
LINE
  8
型材断面
  6
CONTINUOUS
 62
    47
 10
-123.763155
 20
-25.604233
 11
-123.763155
 21
-30.604713
  0
LINE
  8
型材断面
  6
CONTINUOUS
 62
    47
 10
-124.263155
 20
-26.104233
 11
-128.963145
 21
-26.104233
  0
LINE
  8
型材断面
  6
CONTINUOUS
 62
    47
 10
-128.463145
 20
-25.604233
 11
-123.763155
 21
-25.604233
  0
LINE
  8
型材断面
  6
CONTINUOUS
 62
    47
 10
-128.963145
 20
-26.104233
 11
-128.963145
 21
-7.770903
  0
LINE
  8
型材断面
  6
CONTINUOUS
 62
    47
 10
-128.463145
 20
-25.604233
 11
-128.463145
 21
-8.270903
  0
ENDBLK
  0
BLOCK
  2
*GRP_0016
 70
    65
 10
0.0
 20
0.0
  0
LINE
  8
型材断面
  6
CONTINUOUS
 10
-100.696485
 20
4.829097
 11
-100.696485
 21
4.329097
  0
LINE
  8
型材断面
  6
CONTINUOUS
 10
-100.696485
 20
4.829097
 11
-109.296485
 21
4.829097
  0
LINE
  8
型材断面
  6
CONTINUOUS
 10
-100.696485
 20
4.329097
 11
-109.296485
 21
4.329097
  0
LINE
  8
型材断面
  6
CONTINUOUS
 10
-109.296485
 20
4.329097
 11
-109.296485
 21
4.829097
  0
ENDBLK
  0
BLOCK
  2
*GRP_0017
 70
    65
 10
0.0
 20
0.0
  0
LINE
  8
型材断面
  6
CONTINUOUS
 10
100.696487
 20
-1.104235
 11
101.196487
 21
-1.104235
  0
LINE
  8
型材断面
  6
CONTINUOUS
 10
101.196485
 20
-3.270903
 11
108.796485
 21
-3.270903
  0
ARC
  8
型材断面
  6
CONTINUOUS
 10
108.796485
 20
-3.270902
 40
0.5
 50
270.0
 51
360.0
  0
LINE
  8
型材断面
  6
CONTINUOUS
 10
101.196487
 20
-1.104235
 11
101.196485
 21
-3.270903
  0
ARC
  8
型材断面
  6
CONTINUOUS
 10
101.196486
 20
-3.270902
 40
0.5
 50
179.999985
 51
270.0
  0
LINE
  8
型材断面
  6
CONTINUOUS
 10
100.696487
 20
-1.104235
 11
100.696485
 21
-3.770903
  0
LINE
  8
型材断面
  6
CONTINUOUS
 62
    47
 10
100.696485
 20
-3.770903
 11
109.296485
 21
-3.770903
  0
LINE
  8
型材断面
  6
CONTINUOUS
 10
108.796485
 20
3.829097
 11
105.963153
 21
3.829097
  0
LINE
  8
型材断面
  6
CONTINUOUS
 10
105.963153
 20
4.329097
 11
105.963153
 21
3.829097
  0
ARC
  8
型材断面
  6
CONTINUOUS
 10
108.796485
 20
3.829097
 40
0.5
 50
0.0
 51
90.0
  0
LINE
  8
型材断面
  6
CONTINUOUS
 10
109.296485
 20
4.329097
 11
105.963153
 21
4.329097
  0
LINE
  8
型材断面
  6
CONTINUOUS
 10
109.296485
 20
-3.770903
 11
109.296485
 21
4.329097
  0
LINE
  8
型材断面
  6
CONTINUOUS
 10
108.796485
 20
-3.270903
 11
108.796485
 21
3.829097
  0
ENDBLK
  0
BLOCK
  2
*GRP_0018
 70
    65
 10
0.0
 20
0.0
  0
LINE
  8
型材断面
  6
CONTINUOUS
 10
-100.696487
 20
-1.10423
 11
-101.196487
 21
-1.10423
  0
LINE
  8
型材断面
  6
CONTINUOUS
 10
-101.196485
 20
-3.270897
 11
-108.796485
 21
-3.270897
  0
ARC
  8
型材断面
  6
CONTINUOUS
 10
-108.796486
 20
-3.270896
 40
0.5
 50
180.0
 51
270.0
  0
LINE
  8
型材断面
  6
CONTINUOUS
 10
-101.196487
 20
-1.10423
 11
-101.196485
 21
-3.270897
  0
ARC
  8
型材断面
  6
CONTINUOUS
 10
-101.196487
 20
-3.270896
 40
0.5
 50
270.0
 51
360.000015
  0
LINE
  8
型材断面
  6
CONTINUOUS
 10
-100.696487
 20
-1.10423
 11
-100.696485
 21
-3.770897
  0
LINE
  8
型材断面
  6
CONTINUOUS
 62
    47
 10
-100.696485
 20
-3.770897
 11
-109.296485
 21
-3.770897
  0
LINE
  8
型材断面
  6
CONTINUOUS
 10
-108.796485
 20
3.829103
 11
-105.963152
 21
3.829103
  0
LINE
  8
型材断面
  6
CONTINUOUS
 10
-105.963152
 20
4.329103
 11
-105.963152
 21
3.829103
  0
ARC
  8
型材断面
  6
CONTINUOUS
 10
-108.796486
 20
3.829103
 40
0.5
 50
90.0
 51
180.0
  0
LINE
  8
型材断面
  6
CONTINUOUS
 10
-109.296485
 20
4.329103
 11
-105.963152
 21
4.329103
  0
LINE
  8
型材断面
  6
CONTINUOUS
 10
-109.296485
 20
-3.770897
 11
-109.296485
 21
4.329103
  0
LINE
  8
型材断面
  6
CONTINUOUS
 10
-108.796485
 20
-3.270897
 11
-108.796485
 21
3.829103
  0
ENDBLK
  0
BLOCK
  2
*GRP_0019
 70
    65
 10
0.0
 20
0.0
  0
LINE
  8
ゴム等
  6
CONTINUOUS
 10
123.296475
 20
-30.43757
 11
121.963142
 21
-30.43757
  0
LINE
  8
ゴム等
  6
CONTINUOUS
 10
121.963142
 20
-30.43757
 11
121.963142
 21
-30.104238
  0
LINE
  8
ゴム等
  6
CONTINUOUS
 10
123.296475
 20
-30.43757
 11
123.296475
 21
-30.104238
  0
LINE
  8
ゴム等
  6
CONTINUOUS
 10
121.963142
 20
-30.104238
 11
120.62981
 21
-30.104238
  0
LINE
  8
ゴム等
  6
CONTINUOUS
 10
120.62981
 20
-30.104238
 11
120.62981
 21
-32.104237
  0
LINE
  8
ゴム等
  6
CONTINUOUS
 10
120.62981
 20
-32.104237
 11
124.963142
 21
-32.104237
  0
LINE
  8
ゴム等
  6
CONTINUOUS
 10
124.963142
 20
-32.104237
 11
124.963142
 21
-30.88442
  0
LINE
  8
ゴム等
  6
CONTINUOUS
 10
123.296475
 20
-30.104238
 11
124.6238
 21
-30.230663
  0
LINE
  8
ゴム等
  6
CONTINUOUS
 10
124.6238
 20
-30.230663
 11
124.615072
 21
-30.322313
  0
ARC
  8
ゴム等
  6
CONTINUOUS
 10
125.991017
 20
-30.520859
 40
0.133333
 50
265.689519
 51
448.558923
  0
LINE
  8
ゴム等
  6
CONTINUOUS
 10
125.99437
 20
-30.387565
 11
124.883045
 21
-30.347837
  0
LINE
  8
ゴム等
  6
CONTINUOUS
 10
124.615072
 20
-30.322313
 11
124.883043
 21
-30.347837
  0
ARC
  8
ゴム等
  6
CONTINUOUS
 10
125.629809
 20
-30.884422
 40
0.666667
 50
162.246172
 51
180.0
  0
LINE
  8
ゴム等
  6
CONTINUOUS
 10
125.980995
 20
-30.653813
 11
124.994893
 21
-30.681135
  0
INSERT
  2
*HAT_0001
  8
ゴム等
 10
0.0
 20
0.0
  0
ENDBLK
  0
BLOCK
  2
*GRP_0020
 70
    65
 10
0.0
 20
0.0
  0
LINE
  8
ゴム等
  6
CONTINUOUS
 10
-123.296478
 20
-30.437572
 11
-121.963145
 21
-30.437572
  0
LINE
  8
ゴム等
  6
CONTINUOUS
 10
-121.963145
 20
-30.437572
 11
-121.963145
 21
-30.104238
  0
LINE
  8
ゴム等
  6
CONTINUOUS
 10
-123.296478
 20
-30.437572
 11
-123.296478
 21
-30.104238
  0
LINE
  8
ゴム等
  6
CONTINUOUS
 10
-121.963145
 20
-30.104238
 11
-120.62981
 21
-30.104238
  0
LINE
  8
ゴム等
  6
CONTINUOUS
 10
-120.62981
 20
-30.104238
 11
-120.62981
 21
-32.104237
  0
LINE
  8
ゴム等
  6
CONTINUOUS
 10
-120.62981
 20
-32.104237
 11
-124.963145
 21
-32.104237
  0
LINE
  8
ゴム等
  6
CONTINUOUS
 10
-124.963145
 20
-32.104237
 11
-124.963145
 21
-30.884422
  0
LINE
  8
ゴム等
  6
CONTINUOUS
 10
-123.296478
 20
-30.104238
 11
-124.623802
 21
-30.230663
  0
LINE
  8
ゴム等
  6
CONTINUOUS
 10
-124.623802
 20
-30.230663
 11
-124.61507
 21
-30.322313
  0
ARC
  8
ゴム等
  6
CONTINUOUS
 10
-125.991012
 20
-30.52086
 40
0.133333
 50
91.441077
 51
274.310481
  0
LINE
  8
ゴム等
  6
CONTINUOUS
 10
-125.99437
 20
-30.387562
 11
-124.883045
 21
-30.347837
  0
LINE
  8
ゴム等
  6
CONTINUOUS
 10
-124.61507
 20
-30.322313
 11
-124.883045
 21
-30.347837
  0
ARC
  8
ゴム等
  6
CONTINUOUS
 10
-125.629803
 20
-30.884423
 40
0.666667
 50
0.0
 51
17.753828
  0
LINE
  8
ゴム等
  6
CONTINUOUS
 10
-125.980995
 20
-30.653813
 11
-124.994895
 21
-30.681138
  0
INSERT
  2
*HAT_0002
  8
ゴム等
 10
0.0
 20
0.0
  0
ENDBLK
  0
BLOCK
  2
*GRP_0021
 70
    65
 10
0.0
 20
0.0
  0
LINE
  8
ボルト／ビス
  6
CONTINUOUS
 10
110.62982
 20
-8.770907
 11
110.796485
 21
-8.937572
  0
LINE
  8
ボルト／ビス
  6
CONTINUOUS
 10
110.62982
 20
-10.10424
 11
110.796485
 21
-9.937572
  0
LINE
  8
ボルト／ビス
  6
CONTINUOUS
 10
110.796485
 20
-8.937572
 11
110.796485
 21
-9.937572
  0
LINE
  8
ボルト／ビス
  6
CONTINUOUS
 10
110.62982
 20
-8.770907
 11
110.62982
 21
-10.10424
  0
LINE
  8
ボルト／ビス
  6
CONTINUOUS
 10
110.62982
 20
-8.770907
 11
109.396485
 21
-8.770907
  0
LINE
  8
ボルト／ビス
  6
CONTINUOUS
 10
110.796485
 20
-8.937572
 11
109.396485
 21
-8.937572
  0
LINE
  8
ボルト／ビス
  6
CONTINUOUS
 10
110.796485
 20
-9.937572
 11
109.396485
 21
-9.937572
  0
LINE
  8
ボルト／ビス
  6
CONTINUOUS
 10
110.62982
 20
-10.10424
 11
109.396485
 21
-10.10424
  0
LINE
  8
ボルト／ビス
  6
CONTINUOUS
 10
109.396485
 20
-8.770907
 11
109.396485
 21
-10.10424
  0
LINE
  8
ボルト／ビス
  6
CONTINUOUS
 10
108.796485
 20
-8.437572
 11
109.396485
 21
-8.770907
  0
LINE
  8
ボルト／ビス
  6
CONTINUOUS
 10
108.796485
 20
-8.437572
 11
108.796485
 21
-10.437572
  0
LINE
  8
ボルト／ビス
  6
CONTINUOUS
 10
108.796485
 20
-10.437572
 11
109.396485
 21
-10.10424
  0
LINE
  8
ボルト／ビス
  6
CONTINUOUS
 10
111.32331
 20
-9.437572
 11
108.301975
 21
-9.437572
  0
ENDBLK
  0
BLOCK
  2
*GRP_0022
 70
    65
 10
0.0
 20
0.0
  0
LINE
  8
ボルト／ビス
  6
CONTINUOUS
 10
122.42982
 20
-27.43757
 11
122.263155
 21
-27.604238
  0
LINE
  8
ボルト／ビス
  6
CONTINUOUS
 10
122.42982
 20
-28.770903
 11
122.263155
 21
-28.604238
  0
LINE
  8
ボルト／ビス
  6
CONTINUOUS
 10
122.263155
 20
-27.604238
 11
122.263155
 21
-28.604238
  0
LINE
  8
ボルト／ビス
  6
CONTINUOUS
 10
122.42982
 20
-27.43757
 11
122.42982
 21
-28.770903
  0
LINE
  8
ボルト／ビス
  6
CONTINUOUS
 10
122.42982
 20
-27.43757
 11
123.663155
 21
-27.43757
  0
LINE
  8
ボルト／ビス
  6
CONTINUOUS
 10
122.263155
 20
-27.604238
 11
123.663155
 21
-27.604238
  0
LINE
  8
ボルト／ビス
  6
CONTINUOUS
 10
122.263155
 20
-28.604238
 11
123.663155
 21
-28.604238
  0
LINE
  8
ボルト／ビス
  6
CONTINUOUS
 10
122.42982
 20
-28.770903
 11
123.663155
 21
-28.770903
  0
LINE
  8
ボルト／ビス
  6
CONTINUOUS
 10
123.663155
 20
-27.43757
 11
123.663155
 21
-28.770903
  0
LINE
  8
ボルト／ビス
  6
CONTINUOUS
 10
124.263155
 20
-27.104238
 11
123.663155
 21
-27.43757
  0
LINE
  8
ボルト／ビス
  6
CONTINUOUS
 10
124.263155
 20
-27.104238
 11
124.263155
 21
-29.104238
  0
LINE
  8
ボルト／ビス
  6
CONTINUOUS
 10
124.263155
 20
-29.104238
 11
123.663155
 21
-28.770903
  0
LINE
  8
ボルト／ビス
  6
CONTINUOUS
 10
121.73633
 20
-28.104238
 11
124.757665
 21
-28.104238
  0
ENDBLK
  0
BLOCK
  2
*GRP_0023
 70
    65
 10
0.0
 20
0.0
  0
LINE
  8
ボルト／ビス
  6
CONTINUOUS
 10
117.463157
 20
-29.43709
 11
117.629825
 21
-29.603758
  0
LINE
  8
ボルト／ビス
  6
CONTINUOUS
 10
118.79649
 20
-29.43709
 11
118.629825
 21
-29.603758
  0
LINE
  8
ボルト／ビス
  6
CONTINUOUS
 10
117.629825
 20
-29.603758
 11
118.629825
 21
-29.603758
  0
LINE
  8
ボルト／ビス
  6
CONTINUOUS
 10
117.463157
 20
-29.43709
 11
118.79649
 21
-29.43709
  0
LINE
  8
ボルト／ビス
  6
CONTINUOUS
 10
117.463157
 20
-29.43709
 11
117.463157
 21
-28.203758
  0
LINE
  8
ボルト／ビス
  6
CONTINUOUS
 10
117.629825
 20
-29.603758
 11
117.629825
 21
-28.203758
  0
LINE
  8
ボルト／ビス
  6
CONTINUOUS
 10
118.629825
 20
-29.603758
 11
118.629825
 21
-28.203758
  0
LINE
  8
ボルト／ビス
  6
CONTINUOUS
 10
118.79649
 20
-29.43709
 11
118.79649
 21
-28.203758
  0
LINE
  8
ボルト／ビス
  6
CONTINUOUS
 10
117.463157
 20
-28.203758
 11
118.79649
 21
-28.203758
  0
LINE
  8
ボルト／ビス
  6
CONTINUOUS
 10
117.129825
 20
-27.603758
 11
117.463157
 21
-28.203758
  0
LINE
  8
ボルト／ビス
  6
CONTINUOUS
 10
117.129825
 20
-27.603758
 11
119.129825
 21
-27.603758
  0
LINE
  8
ボルト／ビス
  6
CONTINUOUS
 10
119.129825
 20
-27.603758
 11
118.79649
 21
-28.203758
  0
LINE
  8
ボルト／ビス
  6
CONTINUOUS
 10
118.129825
 20
-30.130583
 11
118.129825
 21
-27.109248
  0
ENDBLK
  0
BLOCK
  2
*GRP_0024
 70
    65
 10
0.0
 20
0.0
  0
LINE
  8
ボルト／ビス
  6
CONTINUOUS
 10
116.796493
 20
-32.270662
 11
116.96316
 21
-32.437327
  0
LINE
  8
ボルト／ビス
  6
CONTINUOUS
 10
116.796493
 20
-33.603995
 11
116.96316
 21
-33.437327
  0
LINE
  8
ボルト／ビス
  6
CONTINUOUS
 10
116.96316
 20
-32.437327
 11
116.96316
 21
-33.437327
  0
LINE
  8
ボルト／ビス
  6
CONTINUOUS
 10
116.796493
 20
-32.270662
 11
116.796493
 21
-33.603995
  0
LINE
  8
ボルト／ビス
  6
CONTINUOUS
 10
116.796493
 20
-32.270662
 11
115.56316
 21
-32.270662
  0
LINE
  8
ボルト／ビス
  6
CONTINUOUS
 10
116.96316
 20
-32.437327
 11
115.56316
 21
-32.437327
  0
LINE
  8
ボルト／ビス
  6
CONTINUOUS
 10
116.96316
 20
-33.437327
 11
115.56316
 21
-33.437327
  0
LINE
  8
ボルト／ビス
  6
CONTINUOUS
 10
116.796493
 20
-33.603995
 11
115.56316
 21
-33.603995
  0
LINE
  8
ボルト／ビス
  6
CONTINUOUS
 10
115.56316
 20
-32.270662
 11
115.56316
 21
-33.603995
  0
LINE
  8
ボルト／ビス
  6
CONTINUOUS
 10
114.96316
 20
-31.937327
 11
115.56316
 21
-32.270662
  0
LINE
  8
ボルト／ビス
  6
CONTINUOUS
 10
114.96316
 20
-31.937327
 11
114.96316
 21
-33.937327
  0
LINE
  8
ボルト／ビス
  6
CONTINUOUS
 10
114.96316
 20
-33.937327
 11
115.56316
 21
-33.603995
  0
LINE
  8
ボルト／ビス
  6
CONTINUOUS
 10
117.489985
 20
-32.937327
 11
114.46865
 21
-32.937327
  0
ENDBLK
  0
BLOCK
  2
*GRP_0025
 70
    65
 10
0.0
 20
0.0
  0
LINE
  8
ボルト／ビス
  6
CONTINUOUS
 10
108.896485
 20
-54.354233
 11
108.896485
 21
-55.687565
  0
LINE
  8
ボルト／ビス
  6
CONTINUOUS
 10
108.296485
 20
-54.020897
 11
108.896485
 21
-54.354233
  0
LINE
  8
ボルト／ビス
  6
CONTINUOUS
 10
108.296485
 20
-54.020897
 11
108.296485
 21
-56.020897
  0
LINE
  8
ボルト／ビス
  6
CONTINUOUS
 10
108.296485
 20
-56.020897
 11
108.896485
 21
-55.687565
  0
LINE
  8
ボルト／ビス
  6
CONTINUOUS
 10
107.801975
 20
-55.020897
 11
111.256163
 21
-55.020897
  0
LINE
  8
ボルト／ビス
  6
CONTINUOUS
 10
110.796485
 20
-54.354233
 11
110.963153
 21
-54.520897
  0
LINE
  8
ボルト／ビス
  6
CONTINUOUS
 10
110.796485
 20
-55.687565
 11
110.963153
 21
-55.520897
  0
LINE
  8
ボルト／ビス
  6
CONTINUOUS
 10
110.963153
 20
-54.520897
 11
110.963153
 21
-55.520897
  0
LINE
  8
ボルト／ビス
  6
CONTINUOUS
 10
110.796485
 20
-54.354233
 11
110.796485
 21
-55.687565
  0
LINE
  8
ボルト／ビス
  6
CONTINUOUS
 10
108.896485
 20
-54.520897
 11
110.963153
 21
-54.520897
  0
LINE
  8
ボルト／ビス
  6
CONTINUOUS
 10
108.896485
 20
-55.520897
 11
110.963153
 21
-55.520897
  0
LINE
  8
ボルト／ビス
  6
CONTINUOUS
 10
108.896485
 20
-55.687565
 11
110.796485
 21
-55.687565
  0
LINE
  8
ボルト／ビス
  6
CONTINUOUS
 10
108.896485
 20
-54.354233
 11
110.796485
 21
-54.354233
  0
ENDBLK
  0
BLOCK
  2
*GRP_0026
 70
    65
 10
0.0
 20
0.0
  0
LINE
  8
ボルト／ビス
  6
CONTINUOUS
 10
123.62981
 20
-60.170897
 11
124.963145
 21
-60.170897
  0
LINE
  8
ボルト／ビス
  6
CONTINUOUS
 10
123.296478
 20
-60.770897
 11
123.62981
 21
-60.170897
  0
LINE
  8
ボルト／ビス
  6
CONTINUOUS
 10
123.296478
 20
-60.770897
 11
125.296478
 21
-60.770897
  0
LINE
  8
ボルト／ビス
  6
CONTINUOUS
 10
125.296478
 20
-60.770897
 11
124.963145
 21
-60.170897
  0
LINE
  8
ボルト／ビス
  6
CONTINUOUS
 10
124.296478
 20
-61.26541
 11
124.296478
 21
-57.811222
  0
LINE
  8
ボルト／ビス
  6
CONTINUOUS
 10
123.62981
 20
-58.270897
 11
123.796478
 21
-58.104233
  0
LINE
  8
ボルト／ビス
  6
CONTINUOUS
 10
124.963145
 20
-58.270897
 11
124.796478
 21
-58.104233
  0
LINE
  8
ボルト／ビス
  6
CONTINUOUS
 10
123.796478
 20
-58.104233
 11
124.796478
 21
-58.104233
  0
LINE
  8
ボルト／ビス
  6
CONTINUOUS
 10
123.62981
 20
-58.270897
 11
124.963145
 21
-58.270897
  0
LINE
  8
ボルト／ビス
  6
CONTINUOUS
 10
123.796478
 20
-60.170897
 11
123.796478
 21
-58.104233
  0
LINE
  8
ボルト／ビス
  6
CONTINUOUS
 10
124.796478
 20
-60.170897
 11
124.796478
 21
-58.104233
  0
LINE
  8
ボルト／ビス
  6
CONTINUOUS
 10
124.963145
 20
-60.170897
 11
124.963145
 21
-58.270897
  0
LINE
  8
ボルト／ビス
  6
CONTINUOUS
 10
123.62981
 20
-60.170897
 11
123.62981
 21
-58.270897
  0
ENDBLK
  0
BLOCK
  2
*GRP_0027
 70
    65
 10
0.0
 20
0.0
  0
INSERT
  2
M8横横
  8
型材断面
  6
CONTINUOUS
 10
117.563138
 20
-4.770915
 50
180.0
 41
0.333333
 42
0.333333
  0
INSERT
  2
M8横
  8
ゴム等
  6
CONTINUOUS
 10
117.563138
 20
-2.037572
 50
180.0
 41
0.333333
 42
-0.333333
  0
INSERT
  2
*GRP_0054
  8
ゴム等
  6
CONTINUOUS
 10
0.0
 20
0.0
  0
LINE
  8
ボルト／ビス
  6
CONTINUOUS
 10
116.229805
 20
0.062418
 11
116.396472
 21
0.229085
  0
LINE
  8
ボルト／ビス
  6
CONTINUOUS
 10
118.729805
 20
0.229085
 11
118.896472
 21
0.062418
  0
LINE
  8
ボルト／ビス
  6
CONTINUOUS
 10
118.896472
 20
0.062418
 11
116.229805
 21
0.062418
  0
LINE
  8
ボルト／ビス
  6
CONTINUOUS
 10
118.729805
 20
0.229085
 11
116.396472
 21
0.229085
  0
LINE
  8
ボルト／ビス
  6
CONTINUOUS
 10
116.229805
 20
-4.770915
 11
116.229805
 21
-3.270907
  0
LINE
  8
ボルト／ビス
  6
CONTINUOUS
 10
116.396472
 20
-4.770915
 11
116.396472
 21
-3.270907
  0
LINE
  8
ボルト／ビス
  6
CONTINUOUS
 10
118.729805
 20
-4.770915
 11
118.729805
 21
-3.270907
  0
LINE
  8
ボルト／ビス
  6
CONTINUOUS
 10
118.896472
 20
-4.770915
 11
118.896472
 21
-3.270907
  0
LINE
  8
ボルト／ビス
  6
CONTINUOUS
 10
116.396472
 20
0.229085
 11
116.396472
 21
-0.20424
  0
LINE
  8
ボルト／ビス
  6
CONTINUOUS
 10
116.229805
 20
0.062418
 11
116.229805
 21
-0.20424
  0
LINE
  8
ボルト／ビス
  6
CONTINUOUS
 10
118.896472
 20
0.062418
 11
118.896472
 21
-0.20424
  0
LINE
  8
ボルト／ビス
  6
CONTINUOUS
 10
118.729805
 20
0.229085
 11
118.729805
 21
-0.20424
  0
ENDBLK
  0
BLOCK
  2
*GRP_0028
 70
    65
 10
0.0
 20
0.0
  0
LINE
  8
ボルト／ビス
  6
CONTINUOUS
 10
106.963153
 20
4.229095
 11
108.296485
 21
4.229095
  0
LINE
  8
ボルト／ビス
  6
CONTINUOUS
 10
106.629817
 20
4.829095
 11
106.963153
 21
4.229095
  0
LINE
  8
ボルト／ビス
  6
CONTINUOUS
 10
106.629817
 20
4.829095
 11
108.629817
 21
4.829095
  0
LINE
  8
ボルト／ビス
  6
CONTINUOUS
 10
108.629817
 20
4.829095
 11
108.296485
 21
4.229095
  0
LINE
  8
ボルト／ビス
  6
CONTINUOUS
 10
107.629817
 20
5.323605
 11
107.629817
 21
1.122847
  0
LINE
  8
ボルト／ビス
  6
CONTINUOUS
 10
106.963153
 20
1.662428
 11
107.129817
 21
1.495762
  0
LINE
  8
ボルト／ビス
  6
CONTINUOUS
 10
108.296485
 20
1.662428
 11
108.129817
 21
1.495762
  0
LINE
  8
ボルト／ビス
  6
CONTINUOUS
 10
107.129817
 20
1.495762
 11
108.129817
 21
1.495762
  0
LINE
  8
ボルト／ビス
  6
CONTINUOUS
 10
106.963153
 20
1.662428
 11
108.296485
 21
1.662428
  0
LINE
  8
ボルト／ビス
  6
CONTINUOUS
 10
108.129817
 20
4.229095
 11
108.129817
 21
1.495762
  0
LINE
  8
ボルト／ビス
  6
CONTINUOUS
 10
107.129817
 20
4.229095
 11
107.129817
 21
1.495762
  0
LINE
  8
ボルト／ビス
  6
CONTINUOUS
 10
106.963153
 20
4.229095
 11
106.963153
 21
1.662428
  0
LINE
  8
ボルト／ビス
  6
CONTINUOUS
 10
108.296485
 20
4.229095
 11
108.296485
 21
1.662428
  0
ENDBLK
  0
BLOCK
  2
*GRP_0029
 70
    65
 10
0.0
 20
0.0
  0
LINE
  8
ボルト／ビス
  6
CONTINUOUS
 10
109.196485
 20
0.729092
 11
109.196485
 21
-0.60424
  0
LINE
  8
ボルト／ビス
  6
CONTINUOUS
 10
109.796485
 20
1.062428
 11
109.196485
 21
0.729092
  0
LINE
  8
ボルト／ビス
  6
CONTINUOUS
 10
109.796485
 20
1.062428
 11
109.796485
 21
-0.937572
  0
LINE
  8
ボルト／ビス
  6
CONTINUOUS
 10
109.796485
 20
-0.937572
 11
109.196485
 21
-0.60424
  0
LINE
  8
ボルト／ビス
  6
CONTINUOUS
 10
110.290995
 20
0.062428
 11
106.090235
 21
0.062428
  0
LINE
  8
ボルト／ビス
  6
CONTINUOUS
 10
106.629815
 20
0.729092
 11
106.463153
 21
0.562428
  0
LINE
  8
ボルト／ビス
  6
CONTINUOUS
 10
106.629815
 20
-0.60424
 11
106.463153
 21
-0.437572
  0
LINE
  8
ボルト／ビス
  6
CONTINUOUS
 10
106.463153
 20
0.562428
 11
106.463153
 21
-0.437572
  0
LINE
  8
ボルト／ビス
  6
CONTINUOUS
 10
106.629815
 20
0.729092
 11
106.629815
 21
-0.60424
  0
LINE
  8
ボルト／ビス
  6
CONTINUOUS
 10
109.196485
 20
-0.437572
 11
106.463153
 21
-0.437572
  0
LINE
  8
ボルト／ビス
  6
CONTINUOUS
 10
109.196485
 20
0.562428
 11
106.463153
 21
0.562428
  0
LINE
  8
ボルト／ビス
  6
CONTINUOUS
 10
109.196485
 20
0.729092
 11
106.629815
 21
0.729092
  0
LINE
  8
ボルト／ビス
  6
CONTINUOUS
 10
109.196485
 20
-0.60424
 11
106.629815
 21
-0.60424
  0
ENDBLK
  0
BLOCK
  2
*GRP_0030
 70
    65
 10
0.0
 20
0.0
  0
INSERT
  2
M8横横
  8
型材断面
  6
CONTINUOUS
 10
117.563138
 20
-4.770915
 50
180.0
 41
0.333333
 42
0.333333
  0
INSERT
  2
M8横
  8
ゴム等
  6
CONTINUOUS
 10
117.563138
 20
-2.037572
 50
180.0
 41
0.333333
 42
-0.333333
  0
INSERT
  2
*GRP_0055
  8
ゴム等
  6
CONTINUOUS
 10
0.0
 20
0.0
  0
LINE
  8
ボルト／ビス
  6
CONTINUOUS
 10
116.229805
 20
0.062418
 11
116.396472
 21
0.229085
  0
LINE
  8
ボルト／ビス
  6
CONTINUOUS
 10
118.729805
 20
0.229085
 11
118.896472
 21
0.062418
  0
LINE
  8
ボルト／ビス
  6
CONTINUOUS
 10
118.896472
 20
0.062418
 11
116.229805
 21
0.062418
  0
LINE
  8
ボルト／ビス
  6
CONTINUOUS
 10
118.729805
 20
0.229085
 11
116.396472
 21
0.229085
  0
LINE
  8
ボルト／ビス
  6
CONTINUOUS
 10
116.229805
 20
-4.770915
 11
116.229805
 21
-3.270907
  0
LINE
  8
ボルト／ビス
  6
CONTINUOUS
 10
116.396472
 20
-4.770915
 11
116.396472
 21
-3.270907
  0
LINE
  8
ボルト／ビス
  6
CONTINUOUS
 10
118.729805
 20
-4.770915
 11
118.729805
 21
-3.270907
  0
LINE
  8
ボルト／ビス
  6
CONTINUOUS
 10
118.896472
 20
-4.770915
 11
118.896472
 21
-3.270907
  0
LINE
  8
ボルト／ビス
  6
CONTINUOUS
 10
116.396472
 20
0.229085
 11
116.396472
 21
-0.20424
  0
LINE
  8
ボルト／ビス
  6
CONTINUOUS
 10
116.229805
 20
0.062418
 11
116.229805
 21
-0.20424
  0
LINE
  8
ボルト／ビス
  6
CONTINUOUS
 10
118.896472
 20
0.062418
 11
118.896472
 21
-0.20424
  0
LINE
  8
ボルト／ビス
  6
CONTINUOUS
 10
118.729805
 20
0.229085
 11
118.729805
 21
-0.20424
  0
ENDBLK
  0
BLOCK
  2
*GRP_0031
 70
    65
 10
0.0
 20
0.0
  0
LINE
  8
ボルト／ビス
  6
CONTINUOUS
 10
-123.62981
 20
-58.937565
 11
-123.796478
 21
-58.770897
  0
LINE
  8
ボルト／ビス
  6
CONTINUOUS
 10
-124.963145
 20
-58.937565
 11
-124.796478
 21
-58.770897
  0
LINE
  8
ボルト／ビス
  6
CONTINUOUS
 10
-123.796478
 20
-58.770897
 11
-124.796478
 21
-58.770897
  0
LINE
  8
ボルト／ビス
  6
CONTINUOUS
 10
-123.62981
 20
-58.937565
 11
-124.963145
 21
-58.937565
  0
LINE
  8
ボルト／ビス
  6
CONTINUOUS
 10
-123.62981
 20
-58.937565
 11
-123.62981
 21
-60.170897
  0
LINE
  8
ボルト／ビス
  6
CONTINUOUS
 10
-123.796478
 20
-58.770897
 11
-123.796478
 21
-60.170897
  0
LINE
  8
ボルト／ビス
  6
CONTINUOUS
 10
-124.796478
 20
-58.770897
 11
-124.796478
 21
-60.170897
  0
LINE
  8
ボルト／ビス
  6
CONTINUOUS
 10
-124.963145
 20
-58.937565
 11
-124.963145
 21
-60.170897
  0
LINE
  8
ボルト／ビス
  6
CONTINUOUS
 10
-123.62981
 20
-60.170897
 11
-124.963145
 21
-60.170897
  0
LINE
  8
ボルト／ビス
  6
CONTINUOUS
 10
-123.296478
 20
-60.770897
 11
-123.62981
 21
-60.170897
  0
LINE
  8
ボルト／ビス
  6
CONTINUOUS
 10
-123.296478
 20
-60.770897
 11
-125.296478
 21
-60.770897
  0
LINE
  8
ボルト／ビス
  6
CONTINUOUS
 10
-125.296478
 20
-60.770897
 11
-124.963145
 21
-60.170897
  0
LINE
  8
ボルト／ビス
  6
CONTINUOUS
 10
-124.296478
 20
-58.244073
 11
-124.296478
 21
-61.265408
  0
ENDBLK
  0
BLOCK
  2
*GRP_0032
 70
    65
 10
0.0
 20
0.0
  0
LINE
  8
ボルト／ビス
  6
CONTINUOUS
 10
-117.296493
 20
-28.937565
 11
-117.46316
 21
-29.104233
  0
LINE
  8
ボルト／ビス
  6
CONTINUOUS
 10
-117.296493
 20
-30.270897
 11
-117.46316
 21
-30.104233
  0
LINE
  8
ボルト／ビス
  6
CONTINUOUS
 10
-117.46316
 20
-29.104233
 11
-117.46316
 21
-30.104233
  0
LINE
  8
ボルト／ビス
  6
CONTINUOUS
 10
-117.296493
 20
-28.937565
 11
-117.296493
 21
-30.270897
  0
LINE
  8
ボルト／ビス
  6
CONTINUOUS
 10
-117.296493
 20
-28.937565
 11
-116.06316
 21
-28.937565
  0
LINE
  8
ボルト／ビス
  6
CONTINUOUS
 10
-117.46316
 20
-29.104233
 11
-116.06316
 21
-29.104233
  0
LINE
  8
ボルト／ビス
  6
CONTINUOUS
 10
-117.46316
 20
-30.104233
 11
-116.06316
 21
-30.104233
  0
LINE
  8
ボルト／ビス
  6
CONTINUOUS
 10
-117.296493
 20
-30.270897
 11
-116.06316
 21
-30.270897
  0
LINE
  8
ボルト／ビス
  6
CONTINUOUS
 10
-116.06316
 20
-28.937565
 11
-116.06316
 21
-30.270897
  0
LINE
  8
ボルト／ビス
  6
CONTINUOUS
 10
-115.46316
 20
-28.604233
 11
-116.06316
 21
-28.937565
  0
LINE
  8
ボルト／ビス
  6
CONTINUOUS
 10
-115.46316
 20
-28.604233
 11
-115.46316
 21
-30.604233
  0
LINE
  8
ボルト／ビス
  6
CONTINUOUS
 10
-115.46316
 20
-30.604233
 11
-116.06316
 21
-30.270897
  0
LINE
  8
ボルト／ビス
  6
CONTINUOUS
 10
-117.989985
 20
-29.604233
 11
-114.96865
 21
-29.604233
  0
ENDBLK
  0
BLOCK
  2
*GRP_0033
 70
    65
 10
0.0
 20
0.0
  0
LINE
  8
ボルト／ビス
  6
CONTINUOUS
 10
-122.42982
 20
-27.437565
 11
-122.263155
 21
-27.604233
  0
LINE
  8
ボルト／ビス
  6
CONTINUOUS
 10
-122.42982
 20
-28.770897
 11
-122.263155
 21
-28.604233
  0
LINE
  8
ボルト／ビス
  6
CONTINUOUS
 10
-122.263155
 20
-27.604233
 11
-122.263155
 21
-28.604233
  0
LINE
  8
ボルト／ビス
  6
CONTINUOUS
 10
-122.42982
 20
-27.437565
 11
-122.42982
 21
-28.770897
  0
LINE
  8
ボルト／ビス
  6
CONTINUOUS
 10
-122.42982
 20
-27.437565
 11
-123.663155
 21
-27.437565
  0
LINE
  8
ボルト／ビス
  6
CONTINUOUS
 10
-122.263155
 20
-27.604233
 11
-123.663155
 21
-27.604233
  0
LINE
  8
ボルト／ビス
  6
CONTINUOUS
 10
-122.263155
 20
-28.604233
 11
-123.663155
 21
-28.604233
  0
LINE
  8
ボルト／ビス
  6
CONTINUOUS
 10
-122.42982
 20
-28.770897
 11
-123.663155
 21
-28.770897
  0
LINE
  8
ボルト／ビス
  6
CONTINUOUS
 10
-123.663155
 20
-27.437565
 11
-123.663155
 21
-28.770897
  0
LINE
  8
ボルト／ビス
  6
CONTINUOUS
 10
-124.263155
 20
-27.104233
 11
-123.663155
 21
-27.437565
  0
LINE
  8
ボルト／ビス
  6
CONTINUOUS
 10
-124.263155
 20
-27.104233
 11
-124.263155
 21
-29.104233
  0
LINE
  8
ボルト／ビス
  6
CONTINUOUS
 10
-124.263155
 20
-29.104233
 11
-123.663155
 21
-28.770897
  0
LINE
  8
ボルト／ビス
  6
CONTINUOUS
 10
-121.73633
 20
-28.104233
 11
-124.757665
 21
-28.104233
  0
ENDBLK
  0
BLOCK
  2
*GRP_0034
 70
    65
 10
0.0
 20
0.0
  0
LINE
  8
ボルト／ビス
  6
CONTINUOUS
 10
-106.963152
 20
4.2291
 11
-108.296485
 21
4.2291
  0
LINE
  8
ボルト／ビス
  6
CONTINUOUS
 10
-106.629817
 20
4.8291
 11
-106.963152
 21
4.2291
  0
LINE
  8
ボルト／ビス
  6
CONTINUOUS
 10
-106.629817
 20
4.8291
 11
-108.629817
 21
4.8291
  0
LINE
  8
ボルト／ビス
  6
CONTINUOUS
 10
-108.629817
 20
4.8291
 11
-108.296485
 21
4.2291
  0
LINE
  8
ボルト／ビス
  6
CONTINUOUS
 10
-107.629817
 20
5.32361
 11
-107.629817
 21
1.122853
  0
LINE
  8
ボルト／ビス
  6
CONTINUOUS
 10
-106.963152
 20
1.662433
 11
-107.129817
 21
1.495767
  0
LINE
  8
ボルト／ビス
  6
CONTINUOUS
 10
-108.296485
 20
1.662433
 11
-108.129817
 21
1.495767
  0
LINE
  8
ボルト／ビス
  6
CONTINUOUS
 10
-107.129817
 20
1.495767
 11
-108.129817
 21
1.495767
  0
LINE
  8
ボルト／ビス
  6
CONTINUOUS
 10
-106.963152
 20
1.662433
 11
-108.296485
 21
1.662433
  0
LINE
  8
ボルト／ビス
  6
CONTINUOUS
 10
-108.129817
 20
4.2291
 11
-108.129817
 21
1.495767
  0
LINE
  8
ボルト／ビス
  6
CONTINUOUS
 10
-107.129817
 20
4.2291
 11
-107.129817
 21
1.495767
  0
LINE
  8
ボルト／ビス
  6
CONTINUOUS
 10
-106.963152
 20
4.2291
 11
-106.963152
 21
1.662433
  0
LINE
  8
ボルト／ビス
  6
CONTINUOUS
 10
-108.296485
 20
4.2291
 11
-108.296485
 21
1.662433
  0
ENDBLK
  0
BLOCK
  2
*GRP_0035
 70
    65
 10
0.0
 20
0.0
  0
LINE
  8
ボルト／ビス
  6
CONTINUOUS
 10
-109.196485
 20
0.729097
 11
-109.196485
 21
-0.604235
  0
LINE
  8
ボルト／ビス
  6
CONTINUOUS
 10
-109.796485
 20
1.062433
 11
-109.196485
 21
0.729097
  0
LINE
  8
ボルト／ビス
  6
CONTINUOUS
 10
-109.796485
 20
1.062433
 11
-109.796485
 21
-0.937568
  0
LINE
  8
ボルト／ビス
  6
CONTINUOUS
 10
-109.796485
 20
-0.937568
 11
-109.196485
 21
-0.604235
  0
LINE
  8
ボルト／ビス
  6
CONTINUOUS
 10
-110.290995
 20
0.062433
 11
-106.090235
 21
0.062433
  0
LINE
  8
ボルト／ビス
  6
CONTINUOUS
 10
-106.629815
 20
0.729097
 11
-106.463152
 21
0.562433
  0
LINE
  8
ボルト／ビス
  6
CONTINUOUS
 10
-106.629815
 20
-0.604235
 11
-106.463152
 21
-0.437568
  0
LINE
  8
ボルト／ビス
  6
CONTINUOUS
 10
-106.463152
 20
0.562433
 11
-106.463152
 21
-0.437568
  0
LINE
  8
ボルト／ビス
  6
CONTINUOUS
 10
-106.629815
 20
0.729097
 11
-106.629815
 21
-0.604235
  0
LINE
  8
ボルト／ビス
  6
CONTINUOUS
 10
-109.196485
 20
-0.437568
 11
-106.463152
 21
-0.437568
  0
LINE
  8
ボルト／ビス
  6
CONTINUOUS
 10
-109.196485
 20
0.562433
 11
-106.463152
 21
0.562433
  0
LINE
  8
ボルト／ビス
  6
CONTINUOUS
 10
-109.196485
 20
0.729097
 11
-106.629815
 21
0.729097
  0
LINE
  8
ボルト／ビス
  6
CONTINUOUS
 10
-109.196485
 20
-0.604235
 11
-106.629815
 21
-0.604235
  0
ENDBLK
  0
BLOCK
  2
*GRP_0036
 70
    65
 10
0.0
 20
0.0
  0
ARC
  8
ボルト／ビス
  6
CONTINUOUS
 10
-117.129819
 20
2.060761
 40
0.333333
 50
180.0
 51
270.0
  0
LINE
  8
ボルト／ビス
  6
CONTINUOUS
 10
-114.796485
 20
1.72743
 11
-117.129817
 21
1.72743
  0
ARC
  8
ボルト／ビス
  6
CONTINUOUS
 10
-114.796486
 20
2.060761
 40
0.333333
 50
270.0
 51
360.0
  0
LINE
  8
ボルト／ビス
  6
CONTINUOUS
 10
-114.296485
 20
5.22743
 11
-114.296485
 21
5.060763
  0
LINE
  8
ボルト／ビス
  6
CONTINUOUS
 10
-117.629817
 20
5.22743
 11
-117.629817
 21
5.060763
  0
LINE
  8
ボルト／ビス
  6
CONTINUOUS
 10
-114.296485
 20
5.22743
 11
-117.629817
 21
5.22743
  0
LINE
  8
ボルト／ビス
  6
CONTINUOUS
 10
-114.296485
 20
5.060763
 11
-117.629817
 21
5.060763
  0
LINE
  8
ボルト／ビス
  6
CONTINUOUS
 10
-114.463152
 20
2.060763
 11
-114.463152
 21
4.060763
  0
LINE
  8
ボルト／ビス
  6
CONTINUOUS
 10
-114.463152
 20
4.560763
 11
-114.463152
 21
5.060763
  0
LINE
  8
ボルト／ビス
  6
CONTINUOUS
 10
-117.463152
 20
5.060763
 11
-117.463152
 21
4.560763
  0
LINE
  8
ボルト／ビス
  6
CONTINUOUS
 10
-117.463152
 20
4.060763
 11
-117.463152
 21
2.060763
  0
LINE
  8
ボルト／ビス
  6
CONTINUOUS
 10
-114.046485
 20
4.560763
 11
-115.963152
 21
4.560763
  0
ARC
  8
ボルト／ビス
  6
CONTINUOUS
 10
-114.046486
 20
4.310761
 40
0.25
 50
0.0
 51
90.0
  0
LINE
  8
ボルト／ビス
  6
CONTINUOUS
 10
-113.796485
 20
4.310763
 11
-113.796485
 21
4.310763
  0
LINE
  8
ボルト／ビス
  6
CONTINUOUS
 10
-114.046485
 20
4.060763
 11
-115.963152
 21
4.060763
  0
ARC
  8
ボルト／ビス
  6
CONTINUOUS
 10
-114.046486
 20
4.310761
 40
0.25
 50
-90.0
 51
0.0
  0
LINE
  8
ボルト／ビス
  6
CONTINUOUS
 10
-117.879817
 20
4.560763
 11
-115.963152
 21
4.560763
  0
ARC
  8
ボルト／ビス
  6
CONTINUOUS
 10
-117.879819
 20
4.310761
 40
0.25
 50
90.0
 51
180.0
  0
LINE
  8
ボルト／ビス
  6
CONTINUOUS
 10
-118.129817
 20
4.310763
 11
-118.129817
 21
4.310763
  0
LINE
  8
ボルト／ビス
  6
CONTINUOUS
 10
-117.879817
 20
4.060763
 11
-115.963152
 21
4.060763
  0
ARC
  8
ボルト／ビス
  6
CONTINUOUS
 10
-117.879819
 20
4.310761
 40
0.25
 50
180.0
 51
270.0
  0
ENDBLK
  0
BLOCK
  2
*DIM_0037
 70
    65
 10
0.0
 20
0.0
  0
LINE
  8
寸法
  6
BYBLOCK
 62
     0
 10
-109.296485
 20
9.061953
 11
-109.296485
 21
101.3027
  0
LINE
  8
寸法
  6
BYBLOCK
 62
     0
 10
109.296485
 20
9.061953
 11
109.296485
 21
101.3027
  0
LINE
  8
寸法
  6
BYBLOCK
 62
     0
 10
-109.296485
 20
101.3027
 11
109.296485
 21
101.3027
  0
POINT
  8
寸法
 62
     0
 10
-109.296485
 20
101.3027
  0
POINT
  8
寸法
 62
     0
 10
109.296485
 20
101.3027
  0
TEXT
  7
TextStyle03
  8
寸法
  6
CONTINUOUS
 62
     0
 10
-13.6
 20
101.65
  1
ドーム呼称寸法
 40
3.5
 72
     5
 11
13.6
 21
101.65
  0
ENDBLK
  0
BLOCK
  2
*DIM_0038
 70
    65
 10
0.0
 20
0.0
  0
LINE
  8
寸法
  6
BYBLOCK
 62
     0
 10
-125.963152
 20
9.061953
 11
-125.963152
 21
101.3027
  0
LINE
  8
寸法
  6
BYBLOCK
 62
     0
 10
-109.296485
 20
101.3027
 11
-125.963152
 21
101.3027
  0
POINT
  8
寸法
 62
     0
 10
-109.296485
 20
101.3027
  0
POINT
  8
寸法
 62
     0
 10
-125.963152
 20
101.3027
  0
TEXT
  7
TextStyle03
  8
寸法
  6
CONTINUOUS
 62
     0
 10
-119.5125
 20
101.65
  1
50
 40
3.5
 72
     5
 11
-115.7875
 21
101.65
  0
ENDBLK
  0
BLOCK
  2
*DIM_0039
 70
    65
 10
0.0
 20
0.0
  0
LINE
  8
寸法
  6
BYBLOCK
 62
     0
 10
125.963153
 20
9.061953
 11
125.963153
 21
101.3027
  0
LINE
  8
寸法
  6
BYBLOCK
 62
     0
 10
109.296485
 20
101.3027
 11
125.963153
 21
101.3027
  0
POINT
  8
寸法
 62
     0
 10
109.296485
 20
101.3027
  0
POINT
  8
寸法
 62
     0
 10
125.963153
 20
101.3027
  0
TEXT
  7
TextStyle03
  8
寸法
  6
CONTINUOUS
 62
     0
 10
115.7625
 20
101.65
  1
50
 40
3.5
 72
     5
 11
119.4875
 21
101.65
  0
ENDBLK
  0
BLOCK
  2
*DIM_0040
 70
    65
 10
0.0
 20
0.0
  0
LINE
  8
寸法
  6
BYBLOCK
 62
     0
 10
-132.296475
 20
-28.85953
 11
-132.296475
 21
101.3027
  0
LINE
  8
寸法
  6
BYBLOCK
 62
     0
 10
-125.963152
 20
101.3027
 11
-132.296475
 21
101.3027
  0
POINT
  8
寸法
 62
     0
 10
-125.963152
 20
101.3027
  0
POINT
  8
寸法
 62
     0
 10
-132.296475
 20
101.3027
  0
TEXT
  7
TextStyle03
  8
寸法
  6
CONTINUOUS
 62
     0
 10
-131.0125
 20
101.65
  1
19
 40
3.5
 72
     5
 11
-127.2875
 21
101.65
  0
ENDBLK
  0
BLOCK
  2
*DIM_0041
 70
    65
 10
0.0
 20
0.0
  0
LINE
  8
寸法
  6
BYBLOCK
 62
     0
 10
132.296475
 20
-28.85953
 11
132.296475
 21
101.3027
  0
LINE
  8
寸法
  6
BYBLOCK
 62
     0
 10
125.963153
 20
101.3027
 11
132.296475
 21
101.3027
  0
POINT
  8
寸法
 62
     0
 10
125.963153
 20
101.3027
  0
POINT
  8
寸法
 62
     0
 10
132.296475
 20
101.3027
  0
TEXT
  7
TextStyle03
  8
寸法
  6
CONTINUOUS
 62
     0
 10
127.2625
 20
101.65
  1
19
 40
3.5
 72
     5
 11
130.9875
 21
101.65
  0
ENDBLK
  0
BLOCK
  2
*DIM_0042
 70
    65
 10
0.0
 20
0.0
  0
LINE
  8
寸法
  6
BYBLOCK
 62
     0
 10
-132.296475
 20
89.850037
 11
-132.296475
 21
88.853023
  0
LINE
  8
寸法
  6
BYBLOCK
 62
     0
 10
-90.129817
 20
-53.771382
 11
-90.129817
 21
88.853023
  0
LINE
  8
寸法
  6
BYBLOCK
 62
     0
 10
-132.296475
 20
88.853023
 11
-90.129817
 21
88.853023
  0
POINT
  8
寸法
 62
     0
 10
-132.296475
 20
88.853023
  0
POINT
  8
寸法
 62
     0
 10
-90.129817
 20
88.853023
  0
TEXT
  7
TextStyle03
  8
寸法
  6
CONTINUOUS
 62
     0
 10
-116.05
 20
89.2
  1
126.5
 40
3.5
 72
     5
 11
-106.4
 21
89.2
  0
ENDBLK
  0
BLOCK
  2
*DIM_0043
 70
    65
 10
0.0
 20
0.0
  0
LINE
  8
寸法
  6
BYBLOCK
 62
     0
 10
90.129817
 20
-53.771382
 11
90.129817
 21
88.853023
  0
LINE
  8
寸法
  6
BYBLOCK
 62
     0
 10
-90.129817
 20
88.853023
 11
90.129817
 21
88.853023
  0
POINT
  8
寸法
 62
     0
 10
90.129817
 20
88.853023
  0
TEXT
  7
TextStyle03
  8
寸法
  6
CONTINUOUS
 62
     0
 10
-7.675
 20
89.2
  1
有効開口
 40
3.5
 72
     5
 11
7.675
 21
89.2
  0
ENDBLK
  0
BLOCK
  2
*DIM_0044
 70
    65
 10
0.0
 20
0.0
  0
LINE
  8
寸法
  6
BYBLOCK
 62
     0
 10
132.296475
 20
-26.85953
 11
132.296475
 21
88.853023
  0
LINE
  8
寸法
  6
BYBLOCK
 62
     0
 10
90.129817
 20
88.853023
 11
132.296475
 21
88.853023
  0
POINT
  8
寸法
 62
     0
 10
132.296475
 20
88.853023
  0
TEXT
  7
TextStyle03
  8
寸法
  6
CONTINUOUS
 62
     0
 10
106.375
 20
89.2
  1
126.5
 40
3.5
 72
     5
 11
116.025
 21
89.2
  0
ENDBLK
  0
BLOCK
  2
*DIM_0045
 70
    65
 10
0.0
 20
0.0
  0
LINE
  8
寸法
  6
BYBLOCK
 62
     0
 10
-127.963152
 20
7.061953
 11
-172.775735
 21
7.061953
  0
LINE
  8
寸法
  6
BYBLOCK
 62
     0
 10
-130.96314
 20
-60.771382
 11
-172.775735
 21
-60.771382
  0
LINE
  8
寸法
  6
BYBLOCK
 62
     0
 10
-172.775735
 20
7.061953
 11
-172.775735
 21
-60.771382
  0
POINT
  8
寸法
 62
     0
 10
-172.775735
 20
7.061953
  0
POINT
  8
寸法
 62
     0
 10
-172.775735
 20
-60.771382
  0
TEXT
  7
TextStyle03
  8
寸法
  6
CONTINUOUS
 62
     0
 10
-173.175
 20
-31.7
  1
203.5
 40
3.5
 50
90.0
 72
     5
 11
-173.175
 21
-22.05
  0
ENDBLK
  0
BLOCK
  2
*DIM_0046
 70
    65
 10
0.0
 20
0.0
  0
LINE
  8
寸法
  6
BYBLOCK
 62
     0
 10
-131.963145
 20
-2.938047
 11
-165.544405
 21
-2.938047
  0
LINE
  8
寸法
  6
BYBLOCK
 62
     0
 10
-165.544405
 20
7.061953
 11
-165.544405
 21
-2.938047
  0
POINT
  8
寸法
 62
     0
 10
-165.544405
 20
7.061953
  0
POINT
  8
寸法
 62
     0
 10
-165.544405
 20
-2.938047
  0
TEXT
  7
TextStyle03
  8
寸法
  6
CONTINUOUS
 62
     0
 10
-165.925
 20
0.1875
  1
30
 40
3.5
 50
90.0
 72
     5
 11
-165.925
 21
3.9125
  0
ENDBLK
  0
BLOCK
  2
*DIM_0047
 70
    65
 10
0.0
 20
0.0
  0
LINE
  8
寸法
  6
BYBLOCK
 62
     0
 10
-134.096485
 20
-31.164487
 11
-165.544405
 21
-31.164487
  0
LINE
  8
寸法
  6
BYBLOCK
 62
     0
 10
-165.544405
 20
-2.938047
 11
-165.544405
 21
-31.164487
  0
POINT
  8
寸法
 62
     0
 10
-165.544405
 20
-2.938047
  0
POINT
  8
寸法
 62
     0
 10
-165.544405
 20
-31.164487
  0
TEXT
  7
TextStyle03
  8
寸法
  6
CONTINUOUS
 62
     0
 10
-165.925
 20
-20.9125
  1
84.7
 40
3.5
 50
90.0
 72
     5
 11
-165.925
 21
-13.2375
  0
ENDBLK
  0
BLOCK
  2
*DIM_0048
 70
    65
 10
0.0
 20
0.0
  0
LINE
  8
寸法
  6
BYBLOCK
 62
     0
 10
-134.096485
 20
-34.497822
 11
-165.544405
 21
-34.497822
  0
LINE
  8
寸法
  6
BYBLOCK
 62
     0
 10
-165.544405
 20
-31.164487
 11
-165.544405
 21
-34.497822
  0
POINT
  8
寸法
 62
     0
 10
-165.544405
 20
-34.497822
  0
TEXT
  7
TextStyle03
  8
寸法
  6
CONTINUOUS
 62
     0
 10
-165.925
 20
-34.7125
  1
10
 40
3.5
 50
90.0
 72
     5
 11
-165.925
 21
-30.9875
  0
ENDBLK
  0
BLOCK
  2
*DIM_0049
 70
    65
 10
0.0
 20
0.0
  0
LINE
  8
寸法
  6
BYBLOCK
 62
     0
 10
-132.96314
 20
-60.771382
 11
-165.544405
 21
-60.771382
  0
LINE
  8
寸法
  6
BYBLOCK
 62
     0
 10
-165.544405
 20
-34.497822
 11
-165.544405
 21
-60.771382
  0
POINT
  8
寸法
 62
     0
 10
-165.544405
 20
-60.771382
  0
TEXT
  7
TextStyle03
  8
寸法
  6
CONTINUOUS
 62
     0
 10
-165.925
 20
-51.4875
  1
78.8
 40
3.5
 50
90.0
 72
     5
 11
-165.925
 21
-43.8125
  0
ENDBLK
  0
BLOCK
  2
*GRP_0050
 70
    65
 10
0.0
 20
0.0
  0
LINE
  8
ボルト／ビス
  6
CONTINUOUS
 10
114.963153
 20
-37.270905
 11
111.62982
 21
-37.270905
  0
LINE
  8
ボルト／ビス
  6
CONTINUOUS
 10
114.963153
 20
-37.270905
 11
114.12982
 21
-38.370905
  0
LINE
  8
ボルト／ビス
  6
CONTINUOUS
 10
112.463153
 20
-38.370905
 11
111.62982
 21
-37.270905
  0
LINE
  8
ボルト／ビス
  6
CONTINUOUS
 10
114.12982
 20
-38.370905
 11
112.463153
 21
-38.370905
  0
LINE
  8
ボルト／ビス
  6
CONTINUOUS
 10
113.296485
 20
-36.769413
 11
113.296485
 21
-55.020652
  0
LINE
  8
ボルト／ビス
  6
CONTINUOUS
 10
114.12982
 20
-52.104237
 11
113.963153
 21
-52.270905
  0
LINE
  8
ボルト／ビス
  6
CONTINUOUS
 10
112.463153
 20
-52.104237
 11
112.62982
 21
-52.270905
  0
LINE
  8
ボルト／ビス
  6
CONTINUOUS
 10
112.62982
 20
-52.270905
 11
113.963153
 21
-52.270905
  0
LINE
  8
ボルト／ビス
  6
CONTINUOUS
 10
114.12982
 20
-52.104237
 11
112.463153
 21
-52.104237
  0
LINE
  8
ボルト／ビス
  6
CONTINUOUS
 10
112.62982
 20
-38.370905
 11
112.62982
 21
-52.270905
  0
LINE
  8
ボルト／ビス
  6
CONTINUOUS
 10
113.963153
 20
-38.370905
 11
113.963153
 21
-52.270905
  0
LINE
  8
ボルト／ビス
  6
CONTINUOUS
 10
114.12982
 20
-38.370905
 11
114.12982
 21
-52.104237
  0
LINE
  8
ボルト／ビス
  6
CONTINUOUS
 10
112.463153
 20
-38.370905
 11
112.463153
 21
-52.104237
  0
ENDBLK
  0
BLOCK
  2
*GRP_0051
 70
    65
 10
0.0
 20
0.0
  0
LINE
  8
ボルト／ビス
  6
CONTINUOUS
 10
114.963153
 20
-25.604238
 11
111.62982
 21
-25.604238
  0
LINE
  8
ボルト／ビス
  6
CONTINUOUS
 10
114.963153
 20
-25.604238
 11
114.12982
 21
-24.504237
  0
LINE
  8
ボルト／ビス
  6
CONTINUOUS
 10
112.463153
 20
-24.504237
 11
111.62982
 21
-25.604238
  0
LINE
  8
ボルト／ビス
  6
CONTINUOUS
 10
114.12982
 20
-24.504237
 11
112.463153
 21
-24.504237
  0
LINE
  8
ボルト／ビス
  6
CONTINUOUS
 10
113.296485
 20
-26.105728
 11
113.296485
 21
-7.854487
  0
LINE
  8
ボルト／ビス
  6
CONTINUOUS
 10
114.12982
 20
-10.770903
 11
113.963153
 21
-10.604238
  0
LINE
  8
ボルト／ビス
  6
CONTINUOUS
 10
112.463153
 20
-10.770903
 11
112.62982
 21
-10.604238
  0
LINE
  8
ボルト／ビス
  6
CONTINUOUS
 10
112.62982
 20
-10.604238
 11
113.963153
 21
-10.604238
  0
LINE
  8
ボルト／ビス
  6
CONTINUOUS
 10
114.12982
 20
-10.770903
 11
112.463153
 21
-10.770903
  0
LINE
  8
ボルト／ビス
  6
CONTINUOUS
 10
112.62982
 20
-24.504237
 11
112.62982
 21
-10.604238
  0
LINE
  8
ボルト／ビス
  6
CONTINUOUS
 10
113.963153
 20
-24.504237
 11
113.963153
 21
-10.604238
  0
LINE
  8
ボルト／ビス
  6
CONTINUOUS
 10
114.12982
 20
-24.504237
 11
114.12982
 21
-10.770903
  0
LINE
  8
ボルト／ビス
  6
CONTINUOUS
 10
112.463153
 20
-24.504237
 11
112.463153
 21
-10.770903
  0
ENDBLK
  0
BLOCK
  2
*GRP_0052
 70
    65
 10
0.0
 20
0.0
  0
ARC
  8
ゴム等
  6
CONTINUOUS
 62
   127
 10
111.463151
 20
5.560758
 40
0.5
 50
90.0
 51
180.0
  0
LINE
  8
ゴム等
  6
CONTINUOUS
 62
   127
 10
110.96315
 20
5.560757
 11
110.96315
 21
5.560757
  0
ARC
  8
ゴム等
  6
CONTINUOUS
 62
   127
 10
111.463151
 20
5.560758
 40
0.5
 50
180.0
 51
270.0
  0
LINE
  8
ゴム等
  6
CONTINUOUS
 62
   127
 10
120.46315
 20
6.060757
 11
111.46315
 21
6.060757
  0
ARC
  8
ゴム等
  6
CONTINUOUS
 62
   127
 10
120.463151
 20
5.560758
 40
0.5
 50
0.0
 51
90.0
  0
LINE
  8
ゴム等
  6
CONTINUOUS
 62
   127
 10
120.96315
 20
5.560757
 11
120.96315
 21
5.560757
  0
LINE
  8
ゴム等
  6
CONTINUOUS
 62
   127
 10
120.46315
 20
5.060757
 11
111.46315
 21
5.060757
  0
ARC
  8
ゴム等
  6
CONTINUOUS
 62
   127
 10
120.463151
 20
5.560758
 40
0.5
 50
270.0
 51
360.0
  0
ENDBLK
  0
BLOCK
  2
*GRP_0053
 70
    65
 10
0.0
 20
0.0
  0
ARC
  8
ゴム等
  6
CONTINUOUS
 62
   127
 10
-111.463152
 20
5.560763
 40
0.5
 50
0.0
 51
90.0
  0
LINE
  8
ゴム等
  6
CONTINUOUS
 62
   127
 10
-110.96315
 20
5.560763
 11
-110.96315
 21
5.560763
  0
ARC
  8
ゴム等
  6
CONTINUOUS
 62
   127
 10
-111.463152
 20
5.560763
 40
0.5
 50
-90.0
 51
0.0
  0
LINE
  8
ゴム等
  6
CONTINUOUS
 62
   127
 10
-120.46315
 20
6.060763
 11
-111.46315
 21
6.060763
  0
ARC
  8
ゴム等
  6
CONTINUOUS
 62
   127
 10
-120.463152
 20
5.560763
 40
0.5
 50
90.0
 51
180.0
  0
LINE
  8
ゴム等
  6
CONTINUOUS
 62
   127
 10
-120.96315
 20
5.560763
 11
-120.96315
 21
5.560763
  0
LINE
  8
ゴム等
  6
CONTINUOUS
 62
   127
 10
-120.46315
 20
5.060763
 11
-111.46315
 21
5.060763
  0
ARC
  8
ゴム等
  6
CONTINUOUS
 62
   127
 10
-120.463152
 20
5.560763
 40
0.5
 50
180.0
 51
270.0
  0
ENDBLK
  0
BLOCK
  2
*GRP_0054
 70
    65
 10
0.0
 20
0.0
  0
LINE
  8
ボルト／ビス
  6
CONTINUOUS
 10
121.229805
 20
-2.037572
 11
113.896472
 21
-2.037572
  0
LINE
  8
ボルト／ビス
  6
CONTINUOUS
 10
113.396472
 20
-2.437572
 11
113.396472
 21
-3.270907
  0
LINE
  8
ボルト／ビス
  6
CONTINUOUS
 10
113.396472
 20
-3.270907
 11
121.729805
 21
-3.270907
  0
LINE
  8
ボルト／ビス
  6
CONTINUOUS
 10
121.729805
 20
-3.270907
 11
121.729805
 21
-2.437572
  0
LINE
  8
ボルト／ビス
  6
CONTINUOUS
 10
113.396472
 20
-2.437572
 11
121.729805
 21
-2.437572
  0
LINE
  8
ボルト／ビス
  6
CONTINUOUS
 10
121.229805
 20
-2.037572
 11
121.229805
 21
-2.437572
  0
LINE
  8
ボルト／ビス
  6
CONTINUOUS
 10
113.896472
 20
-2.037572
 11
113.896472
 21
-2.437572
  0
LINE
  8
ボルト／ビス
  6
CONTINUOUS
 10
117.563138
 20
-2.537572
 11
117.563138
 21
-2.037572
  0
ENDBLK
  0
BLOCK
  2
*GRP_0055
 70
    65
 10
0.0
 20
0.0
  0
LINE
  8
ボルト／ビス
  6
CONTINUOUS
 10
121.229805
 20
-2.037572
 11
113.896472
 21
-2.037572
  0
LINE
  8
ボルト／ビス
  6
CONTINUOUS
 10
113.396472
 20
-2.437572
 11
113.396472
 21
-3.270907
  0
LINE
  8
ボルト／ビス
  6
CONTINUOUS
 10
113.396472
 20
-3.270907
 11
121.729805
 21
-3.270907
  0
LINE
  8
ボルト／ビス
  6
CONTINUOUS
 10
121.729805
 20
-3.270907
 11
121.729805
 21
-2.437572
  0
LINE
  8
ボルト／ビス
  6
CONTINUOUS
 10
113.396472
 20
-2.437572
 11
121.729805
 21
-2.437572
  0
LINE
  8
ボルト／ビス
  6
CONTINUOUS
 10
121.229805
 20
-2.037572
 11
121.229805
 21
-2.437572
  0
LINE
  8
ボルト／ビス
  6
CONTINUOUS
 10
113.896472
 20
-2.037572
 11
113.896472
 21
-2.437572
  0
LINE
  8
ボルト／ビス
  6
CONTINUOUS
 10
117.563138
 20
-2.537572
 11
117.563138
 21
-2.037572
  0
ENDBLK
  0
BLOCK
  2
*GRP_0056
 70
    65
 10
0.0
 20
0.0
  0
LINE
  8
型材断面
  6
CONTINUOUS
 62
    47
 10
-161.629847
 20
-90.21534
 11
-161.129847
 21
-90.21534
  0
LINE
  8
型材断面
  6
CONTINUOUS
 10
-161.129847
 20
-90.21534
 11
-161.12981
 21
-70.65192
  0
ARC
  8
型材断面
  6
CONTINUOUS
 10
-123.796475
 20
-65.067948
 40
0.5
 50
-82.252229
 51
0.0
  0
LINE
  8
型材断面
  6
CONTINUOUS
 10
-161.12981
 20
-70.65192
 11
-123.296475
 21
-65.504528
  0
ARC
  8
型材断面
  6
CONTINUOUS
 10
-161.129809
 20
-70.65192
 40
0.5
 50
97.747771
 51
179.999885
  0
LINE
  8
型材断面
  6
CONTINUOUS
 10
-123.796475
 20
-65.06795
 11
-161.629807
 21
-70.21534
  0
LINE
  8
型材断面
  6
CONTINUOUS
 62
    47
 10
-161.629847
 20
-90.21534
 11
-161.629807
 21
-70.21534
  0
INSERT
  2
*GRP_0057
  8
型材断面
  6
CONTINUOUS
 10
0.0
 20
0.0
  0
INSERT
  2
*GRP_0058
  8
型材断面
  6
CONTINUOUS
 10
0.0
 20
0.0
  0
INSERT
  2
*GRP_0059
  8
型材断面
  6
CONTINUOUS
 10
0.0
 20
0.0
  0
LINE
  8
型材断面
  6
CONTINUOUS
 10
-123.796475
 20
-61.204528
 11
-123.296475
 21
-61.204528
  0
LINE
  8
型材断面
  6
CONTINUOUS
 10
-123.796475
 20
-63.03786
 11
-123.296475
 21
-63.03786
  0
LINE
  8
型材断面
  6
CONTINUOUS
 10
-123.796475
 20
-62.03786
 11
-123.296475
 21
-62.03786
  0
LINE
  8
型材断面
  6
CONTINUOUS
 10
-123.796475
 20
-64.03786
 11
-123.296475
 21
-64.03786
  0
LINE
  8
型材断面
  6
CONTINUOUS
 10
-123.671475
 20
-62.03786
 11
-123.671475
 21
-64.03786
  0
LINE
  8
型材断面
  6
CONTINUOUS
 10
-123.546475
 20
-62.03786
 11
-123.546475
 21
-64.03786
  0
LINE
  8
型材断面
  6
CONTINUOUS
 10
-123.421475
 20
-62.03786
 11
-123.421475
 21
-64.03786
  0
LINE
  8
型材断面
  6
CONTINUOUS
 62
    47
 10
-123.296475
 20
-65.504528
 11
-123.296475
 21
-61.204528
  0
LINE
  8
型材断面
  6
CONTINUOUS
 10
-123.796475
 20
-65.06795
 11
-123.796475
 21
-61.204528
  0
ENDBLK
  0
BLOCK
  2
*GRP_0057
 70
    65
 10
0.0
 20
0.0
  0
LINE
  8
型材断面
  6
CONTINUOUS
 10
-156.756473
 20
-70.662435
 11
-157.82823
 21
-70.202725
  0
LINE
  8
型材断面
  6
CONTINUOUS
 10
-156.826292
 20
-71.17654
 11
-157.898053
 21
-70.71683
  0
LINE
  8
型材断面
  6
CONTINUOUS
 10
-156.826292
 20
-71.17654
 11
-155.698193
 21
-71.023057
  0
LINE
  8
型材断面
  6
CONTINUOUS
 10
-155.698193
 20
-71.023057
 11
-155.7656
 21
-70.527622
  0
LINE
  8
型材断面
  6
CONTINUOUS
 10
-155.7656
 20
-70.527622
 11
-156.756473
 21
-70.662435
  0
LINE
  8
型材断面
  6
CONTINUOUS
 10
-157.898053
 20
-70.71683
 11
-158.751695
 21
-70.832975
  0
LINE
  8
型材断面
  6
CONTINUOUS
 10
-158.751695
 20
-70.832975
 11
-158.819103
 21
-70.33754
  0
LINE
  8
型材断面
  6
CONTINUOUS
 10
-157.82823
 20
-70.202725
 11
-158.819103
 21
-70.33754
  0
LINE
  8
型材断面
  6
CONTINUOUS
 10
-158.173687
 20
-70.754332
 11
-158.241093
 21
-70.258897
  0
LINE
  8
型材断面
  6
CONTINUOUS
 10
-158.765175
 20
-70.733888
 11
-158.187168
 21
-70.655245
  0
LINE
  8
型材断面
  6
CONTINUOUS
 10
-158.778658
 20
-70.6348
 11
-158.200648
 21
-70.55616
  0
LINE
  8
型材断面
  6
CONTINUOUS
 10
-158.79214
 20
-70.535713
 11
-158.21413
 21
-70.457072
  0
LINE
  8
型材断面
  6
CONTINUOUS
 10
-158.80562
 20
-70.436625
 11
-158.227613
 21
-70.357985
  0
ENDBLK
  0
BLOCK
  2
*GRP_0058
 70
    65
 10
0.0
 20
0.0
  0
LINE
  8
型材断面
  6
CONTINUOUS
 10
-160.529845
 20
-87.048675
 11
-161.129845
 21
-88.048675
  0
LINE
  8
型材断面
  6
CONTINUOUS
 10
-160.029845
 20
-87.187168
 11
-160.629845
 21
-88.187168
  0
LINE
  8
型材断面
  6
CONTINUOUS
 10
-160.029845
 20
-87.187168
 11
-160.029845
 21
-86.048675
  0
LINE
  8
型材断面
  6
CONTINUOUS
 10
-160.029845
 20
-86.048675
 11
-160.529845
 21
-86.048675
  0
LINE
  8
型材断面
  6
CONTINUOUS
 10
-160.529845
 20
-86.048675
 11
-160.529845
 21
-87.048675
  0
LINE
  8
型材断面
  6
CONTINUOUS
 10
-160.629845
 20
-88.187168
 11
-160.629845
 21
-89.048675
  0
LINE
  8
型材断面
  6
CONTINUOUS
 10
-160.629845
 20
-89.048675
 11
-161.129845
 21
-89.048675
  0
LINE
  8
型材断面
  6
CONTINUOUS
 10
-161.129845
 20
-88.048675
 11
-161.129845
 21
-89.048675
  0
LINE
  8
型材断面
  6
CONTINUOUS
 10
-160.629845
 20
-88.46534
 11
-161.129845
 21
-88.46534
  0
LINE
  8
型材断面
  6
CONTINUOUS
 10
-160.729845
 20
-89.048675
 11
-160.729845
 21
-88.46534
  0
LINE
  8
型材断面
  6
CONTINUOUS
 10
-160.829845
 20
-89.048675
 11
-160.829845
 21
-88.46534
  0
LINE
  8
型材断面
  6
CONTINUOUS
 10
-160.929845
 20
-89.048675
 11
-160.929845
 21
-88.46534
  0
LINE
  8
型材断面
  6
CONTINUOUS
 10
-161.029845
 20
-89.048675
 11
-161.029845
 21
-88.46534
  0
ENDBLK
  0
BLOCK
  2
*GRP_0059
 70
    65
 10
0.0
 20
0.0
  0
LINE
  8
型材断面
  6
CONTINUOUS
 10
-125.629922
 20
-66.427535
 11
-124.71994
 21
-65.698197
  0
LINE
  8
型材断面
  6
CONTINUOUS
 10
-125.425288
 20
-66.9043
 11
-124.515305
 21
-66.174963
  0
LINE
  8
型材断面
  6
CONTINUOUS
 10
-125.425288
 20
-66.9043
 11
-126.553388
 21
-67.057785
  0
LINE
  8
型材断面
  6
CONTINUOUS
 10
-126.553388
 20
-67.057785
 11
-126.620792
 21
-66.56235
  0
LINE
  8
型材断面
  6
CONTINUOUS
 10
-126.620792
 20
-66.56235
 11
-125.629922
 21
-66.427535
  0
LINE
  8
型材断面
  6
CONTINUOUS
 10
-124.515305
 20
-66.174963
 11
-123.661662
 21
-66.05882
  0
LINE
  8
型材断面
  6
CONTINUOUS
 10
-123.661662
 20
-66.05882
 11
-123.729068
 21
-65.563385
  0
LINE
  8
型材断面
  6
CONTINUOUS
 10
-124.71994
 20
-65.698197
 11
-123.729068
 21
-65.563385
  0
LINE
  8
型材断面
  6
CONTINUOUS
 10
-124.23967
 20
-66.13746
 11
-124.307078
 21
-65.642025
  0
LINE
  8
型材断面
  6
CONTINUOUS
 10
-123.675143
 20
-65.959735
 11
-124.253153
 21
-66.038375
  0
LINE
  8
型材断面
  6
CONTINUOUS
 10
-123.688625
 20
-65.860647
 11
-124.266633
 21
-65.939287
  0
LINE
  8
型材断面
  6
CONTINUOUS
 10
-123.702105
 20
-65.761557
 11
-124.280115
 21
-65.8402
  0
LINE
  8
型材断面
  6
CONTINUOUS
 10
-123.715588
 20
-65.662472
 11
-124.293595
 21
-65.741112
  0
ENDBLK
  0
BLOCK
  2
*GRP_0060
 70
    65
 10
0.0
 20
0.0
  0
LINE
  8
St
  6
CONTINUOUS
 62
   127
 10
-119.963145
 20
-60.770892
 11
-99.963145
 21
-60.770892
  0
LINE
  8
St
  6
CONTINUOUS
 62
   127
 10
-119.963145
 20
-60.770892
 11
-119.963145
 21
-70.770892
  0
LINE
  8
St
  6
CONTINUOUS
 62
   127
 10
-99.963145
 20
-60.770892
 11
-99.963145
 21
-70.770892
  0
LINE
  8
St
  6
CONTINUOUS
 62
   127
 10
-119.963145
 20
-61.770892
 11
-99.963145
 21
-61.770892
  0
LINE
  8
St
  6
CONTINUOUS
 62
   127
 10
-104.28793
 20
-60.770892
 11
-105.28793
 21
-61.770892
  0
LINE
  8
St
  6
CONTINUOUS
 62
   127
 10
-103.81653
 20
-60.770892
 11
-104.81653
 21
-61.770892
  0
LINE
  8
St
  6
CONTINUOUS
 62
   127
 10
-119.963145
 20
-70.770892
 11
-99.963145
 21
-70.770892
  0
LINE
  8
St
  6
CONTINUOUS
 62
   127
 10
-115.428635
 20
-60.770892
 11
-116.428635
 21
-61.770892
  0
LINE
  8
St
  6
CONTINUOUS
 62
   127
 10
-114.957235
 20
-60.770892
 11
-115.957235
 21
-61.770892
  0
ENDBLK
  0
BLOCK
  2
*GRP_0061
 70
    65
 10
0.0
 20
0.0
  0
LINE
  8
ボルト／ビス
  6
CONTINUOUS
 62
    64
 10
-123.796475
 20
-61.871192
 11
-124.145863
 21
-61.90176
  0
ARC
  8
ボルト／ビス
  6
CONTINUOUS
 62
    64
 10
-124.096475
 20
-62.466271
 40
0.566667
 50
94.999989
 51
180.0
  0
LINE
  8
ボルト／ビス
  6
CONTINUOUS
 62
    64
 10
-124.663142
 20
-62.46627
 11
-124.663142
 21
-63.03786
  0
LINE
  8
ボルト／ビス
  6
CONTINUOUS
 62
    64
 10
-123.796475
 20
-64.204528
 11
-124.145863
 21
-64.17396
  0
ARC
  8
ボルト／ビス
  6
CONTINUOUS
 62
    64
 10
-124.096475
 20
-63.609449
 40
0.566667
 50
180.0
 51
265.000011
  0
LINE
  8
ボルト／ビス
  6
CONTINUOUS
 62
    64
 10
-124.663142
 20
-63.60945
 11
-124.663142
 21
-63.03786
  0
LINE
  8
ボルト／ビス
  6
CONTINUOUS
 62
    64
 10
-124.53484
 20
-62.23898
 11
-124.61556
 21
-62.23898
  0
LINE
  8
ボルト／ビス
  6
CONTINUOUS
 62
    64
 10
-124.318145
 20
-62.804528
 11
-124.318145
 21
-63.03786
  0
LINE
  8
ボルト／ビス
  6
CONTINUOUS
 62
    64
 10
-124.53484
 20
-62.671192
 11
-124.53484
 21
-62.23898
  0
LINE
  8
ボルト／ビス
  6
CONTINUOUS
 62
    64
 10
-124.318145
 20
-62.804528
 11
-124.401508
 21
-62.804528
  0
ARC
  8
ボルト／ビス
  6
CONTINUOUS
 62
    64
 10
-124.401507
 20
-62.671193
 40
0.133333
 50
180.0
 51
270.0
  0
LINE
  8
ボルト／ビス
  6
CONTINUOUS
 62
    64
 10
-124.53484
 20
-63.83674
 11
-124.61556
 21
-63.83674
  0
LINE
  8
ボルト／ビス
  6
CONTINUOUS
 62
    64
 10
-124.318145
 20
-63.271192
 11
-124.318145
 21
-63.03786
  0
LINE
  8
ボルト／ビス
  6
CONTINUOUS
 62
    64
 10
-124.53484
 20
-63.404528
 11
-124.53484
 21
-63.83674
  0
LINE
  8
ボルト／ビス
  6
CONTINUOUS
 62
    64
 10
-124.318145
 20
-63.271192
 11
-124.401508
 21
-63.271192
  0
ARC
  8
ボルト／ビス
  6
CONTINUOUS
 62
    64
 10
-124.401507
 20
-63.404527
 40
0.133333
 50
90.0
 51
180.0
  0
LINE
  8
ボルト／ビス
  6
CONTINUOUS
 62
    64
 10
-123.796475
 20
-61.871192
 11
-123.796475
 21
-64.204528
  0
LINE
  8
ボルト／ビス
  6
CONTINUOUS
 62
    64
 10
-120.629807
 20
-62.371192
 11
-120.463142
 21
-62.53786
  0
LINE
  8
ボルト／ビス
  6
CONTINUOUS
 62
    64
 10
-120.629807
 20
-63.704528
 11
-120.463142
 21
-63.53786
  0
LINE
  8
ボルト／ビス
  6
CONTINUOUS
 62
    64
 10
-120.629807
 20
-62.371192
 11
-120.629807
 21
-63.704528
  0
LINE
  8
ボルト／ビス
  6
CONTINUOUS
 62
    64
 10
-120.463142
 20
-62.53786
 11
-120.463142
 21
-63.53786
  0
LINE
  8
ボルト／ビス
  6
CONTINUOUS
 62
    64
 10
-125.32027
 20
-63.03786
 11
-119.938185
 21
-63.03786
  0
LINE
  8
ボルト／ビス
  6
CONTINUOUS
 62
    64
 10
-123.796475
 20
-62.371192
 11
-120.629807
 21
-62.371192
  0
LINE
  8
ボルト／ビス
  6
CONTINUOUS
 62
    64
 10
-123.796475
 20
-63.704528
 11
-120.629807
 21
-63.704528
  0
LINE
  8
ボルト／ビス
  6
CONTINUOUS
 62
    64
 10
-123.796475
 20
-63.53786
 11
-120.463142
 21
-63.53786
  0
LINE
  8
ボルト／ビス
  6
CONTINUOUS
 62
    64
 10
-123.796475
 20
-62.53786
 11
-120.463142
 21
-62.53786
  0
ENDBLK
  0
BLOCK
  2
*DIM_0062
 70
    65
 10
0.0
 20
0.0
  0
LINE
  8
寸法
  6
BYBLOCK
 62
     0
 10
-89.129822
 20
-60.770892
 11
-77.469523
 21
-60.770892
  0
LINE
  8
寸法
  6
BYBLOCK
 62
     0
 10
-100.796487
 20
-77.437565
 11
-77.469523
 21
-77.437565
  0
LINE
  8
寸法
  6
BYBLOCK
 62
     0
 10
-77.469523
 20
-60.770892
 11
-77.469523
 21
-77.437565
  0
POINT
  8
寸法
 62
     0
 10
-77.469523
 20
-60.770892
  0
POINT
  8
寸法
 62
     0
 10
-77.469523
 20
-77.437565
  0
TEXT
  7
TextStyle03
  8
寸法
  6
CONTINUOUS
 62
     0
 10
-77.825
 20
-70.74375
  1
50
 40
3.0
 50
90.0
 72
     5
 11
-77.825
 21
-67.55625
  0
ENDBLK
  0
BLOCK
  2
*DIM_0063
 70
    65
 10
0.0
 20
0.0
  0
LINE
  8
寸法
  6
BYBLOCK
 62
     0
 10
-91.796487
 20
-103.17806
 11
-91.796487
 21
-108.379355
  0
LINE
  8
寸法
  6
BYBLOCK
 62
     0
 10
-101.796487
 20
-103.17806
 11
-101.796487
 21
-108.379355
  0
LINE
  8
寸法
  6
BYBLOCK
 62
     0
 10
-91.796487
 20
-108.379355
 11
-101.796487
 21
-108.379355
  0
POINT
  8
寸法
 62
     0
 10
-101.796487
 20
-108.379355
  0
TEXT
  7
TextStyle03
  8
寸法
  6
CONTINUOUS
 62
     0
 10
-98.36875
 20
-108.05
  1
30
 40
3.0
 72
     5
 11
-95.18125
 21
-108.05
  0
ENDBLK
  0
BLOCK
  2
*DIM_0064
 70
    65
 10
0.0
 20
0.0
  0
LINE
  8
寸法
  6
BYBLOCK
 62
     0
 10
-101.796487
 20
-103.17806
 11
-101.796487
 21
-108.379355
  0
LINE
  8
寸法
  6
BYBLOCK
 62
     0
 10
-151.796525
 20
-103.17806
 11
-151.796525
 21
-108.379355
  0
LINE
  8
寸法
  6
BYBLOCK
 62
     0
 10
-101.796487
 20
-108.379355
 11
-151.796525
 21
-108.379355
  0
POINT
  8
寸法
 62
     0
 10
-151.796525
 20
-108.379355
  0
TEXT
  7
TextStyle03
  8
寸法
  6
CONTINUOUS
 62
     0
 10
-129.2125
 20
-108.05
  1
150
 40
3.0
 72
     5
 11
-124.3375
 21
-108.05
  0
ENDBLK
  0
BLOCK
  2
*DIM_0065
 70
    65
 10
0.0
 20
0.0
  0
LINE
  8
寸法
  6
BYBLOCK
 62
     0
 10
-151.796525
 20
-103.17806
 11
-151.796525
 21
-108.379355
  0
LINE
  8
寸法
  6
BYBLOCK
 62
     0
 10
-155.129857
 20
-103.17806
 11
-155.129857
 21
-108.379355
  0
LINE
  8
寸法
  6
BYBLOCK
 62
     0
 10
-151.796525
 20
-108.379355
 11
-155.129857
 21
-108.379355
  0
POINT
  8
寸法
 62
     0
 10
-155.129857
 20
-108.379355
  0
TEXT
  7
TextStyle03
  8
寸法
  6
CONTINUOUS
 62
     0
 10
-155.04375
 20
-111.425
  1
10
 40
3.0
 72
     5
 11
-151.85625
 21
-111.425
  0
ENDBLK
  0
BLOCK
  2
*GRP_0066
 70
    65
 10
0.0
 20
0.0
  0
POLYLINE
  8
寸法
  6
BYBLOCK
 62
     0
 66
     1
  0
VERTEX
  8
寸法
 10
-163.129825
 20
-81.3389
  0
VERTEX
  8
寸法
 10
-161.629825
 20
-78.740823
  0
VERTEX
  8
寸法
 10
-164.2279
 20
-80.240823
  0
SEQEND
  0
POLYLINE
  8
寸法
  6
BYBLOCK
 62
     0
 66
     1
  0
VERTEX
  8
寸法
 10
-161.629825
 20
-78.740823
  0
VERTEX
  8
寸法
 10
-165.33201
 20
-82.443008
  0
VERTEX
  8
寸法
 10
-169.312803
 20
-82.443008
  0
SEQEND
  0
ENDBLK
  0
BLOCK
  2
*DIM_0067
 70
    65
 10
0.0
 20
0.0
  0
LINE
  8
寸法
  6
BYBLOCK
 62
     0
 10
-90.129822
 20
-61.770892
 11
-90.129822
 21
-108.379355
  0
LINE
  8
寸法
  6
BYBLOCK
 62
     0
 10
-91.796487
 20
-103.17806
 11
-91.796487
 21
-108.379355
  0
LINE
  8
寸法
  6
BYBLOCK
 62
     0
 10
-90.129822
 20
-108.379355
 11
-91.796487
 21
-108.379355
  0
POINT
  8
寸法
 62
     0
 10
-90.129822
 20
-108.379355
  0
POINT
  8
寸法
 62
     0
 10
-91.796487
 20
-108.379355
  0
TEXT
  7
TextStyle03
  8
寸法
  6
CONTINUOUS
 62
     0
 10
-89.45
 20
-108.375
  1
5
 40
3.0
 72
     5
 11
-87.95
 21
-108.375
  0
ENDBLK
  0
BLOCK
  2
*DIM_0068
 70
    65
 10
0.0
 20
0.0
  0
LINE
  8
寸法
  6
BYBLOCK
 62
     0
 10
-155.129857
 20
-103.17806
 11
-155.129857
 21
-108.379355
  0
LINE
  8
寸法
  6
BYBLOCK
 62
     0
 10
-161.629847
 20
-91.21534
 11
-161.629847
 21
-108.379355
  0
LINE
  8
寸法
  6
BYBLOCK
 62
     0
 10
-155.129857
 20
-108.379355
 11
-161.629847
 21
-108.379355
  0
POINT
  8
寸法
 62
     0
 10
-161.629847
 20
-108.379355
  0
TEXT
  7
TextStyle03
  8
寸法
  6
CONTINUOUS
 62
     0
 10
-169.88125
 20
-108.325
  1
19.5
 40
3.0
 72
     5
 11
-163.31875
 21
-108.325
  0
ENDBLK
  0
BLOCK
  2
*GRP_0069
 70
    65
 10
0.0
 20
0.0
  0
LINE
  8
型材断面
  6
CONTINUOUS
 62
    47
 10
161.629873
 20
-90.215345
 11
161.129873
 21
-90.215345
  0
LINE
  8
型材断面
  6
CONTINUOUS
 10
161.129873
 20
-90.215345
 11
161.129835
 21
-70.651925
  0
ARC
  8
型材断面
  6
CONTINUOUS
 10
123.7965
 20
-65.067953
 40
0.5
 50
180.0
 51
262.252229
  0
LINE
  8
型材断面
  6
CONTINUOUS
 10
161.129835
 20
-70.651925
 11
123.2965
 21
-65.504533
  0
ARC
  8
型材断面
  6
CONTINUOUS
 10
161.129834
 20
-70.651925
 40
0.5
 50
0.000115
 51
82.252229
  0
LINE
  8
型材断面
  6
CONTINUOUS
 10
123.7965
 20
-65.067955
 11
161.629832
 21
-70.215345
  0
LINE
  8
型材断面
  6
CONTINUOUS
 62
    47
 10
161.629873
 20
-90.215345
 11
161.629832
 21
-70.215345
  0
INSERT
  2
*GRP_0071
  8
型材断面
  6
CONTINUOUS
 10
0.0
 20
0.0
  0
INSERT
  2
*GRP_0072
  8
型材断面
  6
CONTINUOUS
 10
0.0
 20
0.0
  0
INSERT
  2
*GRP_0073
  8
型材断面
  6
CONTINUOUS
 10
0.0
 20
0.0
  0
LINE
  8
型材断面
  6
CONTINUOUS
 10
123.7965
 20
-61.204533
 11
123.2965
 21
-61.204533
  0
LINE
  8
型材断面
  6
CONTINUOUS
 10
123.7965
 20
-63.037865
 11
123.2965
 21
-63.037865
  0
LINE
  8
型材断面
  6
CONTINUOUS
 10
123.7965
 20
-62.037865
 11
123.2965
 21
-62.037865
  0
LINE
  8
型材断面
  6
CONTINUOUS
 10
123.7965
 20
-64.037865
 11
123.2965
 21
-64.037865
  0
LINE
  8
型材断面
  6
CONTINUOUS
 10
123.6715
 20
-62.037865
 11
123.6715
 21
-64.037865
  0
LINE
  8
型材断面
  6
CONTINUOUS
 10
123.5465
 20
-62.037865
 11
123.5465
 21
-64.037865
  0
LINE
  8
型材断面
  6
CONTINUOUS
 10
123.4215
 20
-62.037865
 11
123.4215
 21
-64.037865
  0
LINE
  8
型材断面
  6
CONTINUOUS
 62
    47
 10
123.2965
 20
-65.504533
 11
123.2965
 21
-61.204533
  0
LINE
  8
型材断面
  6
CONTINUOUS
 10
123.7965
 20
-65.067955
 11
123.7965
 21
-61.204533
  0
ENDBLK
  0
BLOCK
  2
*GRP_0070
 70
    65
 10
0.0
 20
0.0
  0
LINE
  8
ボルト／ビス
  6
CONTINUOUS
 62
    64
 10
123.7965
 20
-61.871198
 11
124.145888
 21
-61.901765
  0
ARC
  8
ボルト／ビス
  6
CONTINUOUS
 62
    64
 10
124.0965
 20
-62.466276
 40
0.566667
 50
0.0
 51
85.000011
  0
LINE
  8
ボルト／ビス
  6
CONTINUOUS
 62
    64
 10
124.663168
 20
-62.466275
 11
124.663168
 21
-63.037865
  0
LINE
  8
ボルト／ビス
  6
CONTINUOUS
 62
    64
 10
123.7965
 20
-64.204532
 11
124.145888
 21
-64.173965
  0
ARC
  8
ボルト／ビス
  6
CONTINUOUS
 62
    64
 10
124.0965
 20
-63.609454
 40
0.566667
 50
274.999989
 51
360.0
  0
LINE
  8
ボルト／ビス
  6
CONTINUOUS
 62
    64
 10
124.663168
 20
-63.609455
 11
124.663168
 21
-63.037865
  0
LINE
  8
ボルト／ビス
  6
CONTINUOUS
 62
    64
 10
124.534865
 20
-62.238985
 11
124.615585
 21
-62.238985
  0
LINE
  8
ボルト／ビス
  6
CONTINUOUS
 62
    64
 10
124.31817
 20
-62.804533
 11
124.31817
 21
-63.037865
  0
LINE
  8
ボルト／ビス
  6
CONTINUOUS
 62
    64
 10
124.534865
 20
-62.671198
 11
124.534865
 21
-62.238985
  0
LINE
  8
ボルト／ビス
  6
CONTINUOUS
 62
    64
 10
124.31817
 20
-62.804533
 11
124.401533
 21
-62.804533
  0
ARC
  8
ボルト／ビス
  6
CONTINUOUS
 62
    64
 10
124.401532
 20
-62.671198
 40
0.133333
 50
270.0
 51
360.0
  0
LINE
  8
ボルト／ビス
  6
CONTINUOUS
 62
    64
 10
124.534865
 20
-63.836745
 11
124.615585
 21
-63.836745
  0
LINE
  8
ボルト／ビス
  6
CONTINUOUS
 62
    64
 10
124.31817
 20
-63.271198
 11
124.31817
 21
-63.037865
  0
LINE
  8
ボルト／ビス
  6
CONTINUOUS
 62
    64
 10
124.534865
 20
-63.404533
 11
124.534865
 21
-63.836745
  0
LINE
  8
ボルト／ビス
  6
CONTINUOUS
 62
    64
 10
124.31817
 20
-63.271198
 11
124.401533
 21
-63.271198
  0
ARC
  8
ボルト／ビス
  6
CONTINUOUS
 62
    64
 10
124.401532
 20
-63.404532
 40
0.133333
 50
0.0
 51
90.0
  0
LINE
  8
ボルト／ビス
  6
CONTINUOUS
 62
    64
 10
123.7965
 20
-61.871198
 11
123.7965
 21
-64.204532
  0
LINE
  8
ボルト／ビス
  6
CONTINUOUS
 62
    64
 10
120.629832
 20
-62.371198
 11
120.463168
 21
-62.537865
  0
LINE
  8
ボルト／ビス
  6
CONTINUOUS
 62
    64
 10
120.629832
 20
-63.704533
 11
120.463168
 21
-63.537865
  0
LINE
  8
ボルト／ビス
  6
CONTINUOUS
 62
    64
 10
120.629832
 20
-62.371198
 11
120.629832
 21
-63.704533
  0
LINE
  8
ボルト／ビス
  6
CONTINUOUS
 62
    64
 10
120.463168
 20
-62.537865
 11
120.463168
 21
-63.537865
  0
LINE
  8
ボルト／ビス
  6
CONTINUOUS
 62
    64
 10
125.320295
 20
-63.037865
 11
119.93821
 21
-63.037865
  0
LINE
  8
ボルト／ビス
  6
CONTINUOUS
 62
    64
 10
123.7965
 20
-62.371198
 11
120.629832
 21
-62.371198
  0
LINE
  8
ボルト／ビス
  6
CONTINUOUS
 62
    64
 10
123.7965
 20
-63.704533
 11
120.629832
 21
-63.704533
  0
LINE
  8
ボルト／ビス
  6
CONTINUOUS
 62
    64
 10
123.7965
 20
-63.537865
 11
120.463168
 21
-63.537865
  0
LINE
  8
ボルト／ビス
  6
CONTINUOUS
 62
    64
 10
123.7965
 20
-62.537865
 11
120.463168
 21
-62.537865
  0
ENDBLK
  0
BLOCK
  2
*GRP_0071
 70
    65
 10
0.0
 20
0.0
  0
LINE
  8
型材断面
  6
CONTINUOUS
 10
156.756497
 20
-70.66244
 11
157.828255
 21
-70.20273
  0
LINE
  8
型材断面
  6
CONTINUOUS
 10
156.826318
 20
-71.176545
 11
157.898078
 21
-70.716835
  0
LINE
  8
型材断面
  6
CONTINUOUS
 10
156.826318
 20
-71.176545
 11
155.698217
 21
-71.023063
  0
LINE
  8
型材断面
  6
CONTINUOUS
 10
155.698217
 20
-71.023063
 11
155.765625
 21
-70.527628
  0
LINE
  8
型材断面
  6
CONTINUOUS
 10
155.765625
 20
-70.527628
 11
156.756497
 21
-70.66244
  0
LINE
  8
型材断面
  6
CONTINUOUS
 10
157.898078
 20
-70.716835
 11
158.75172
 21
-70.83298
  0
LINE
  8
型材断面
  6
CONTINUOUS
 10
158.75172
 20
-70.83298
 11
158.819127
 21
-70.337545
  0
LINE
  8
型材断面
  6
CONTINUOUS
 10
157.828255
 20
-70.20273
 11
158.819127
 21
-70.337545
  0
LINE
  8
型材断面
  6
CONTINUOUS
 10
158.173712
 20
-70.754338
 11
158.241117
 21
-70.258903
  0
LINE
  8
型材断面
  6
CONTINUOUS
 10
158.7652
 20
-70.733892
 11
158.187192
 21
-70.65525
  0
LINE
  8
型材断面
  6
CONTINUOUS
 10
158.778682
 20
-70.634805
 11
158.200672
 21
-70.556165
  0
LINE
  8
型材断面
  6
CONTINUOUS
 10
158.792165
 20
-70.535718
 11
158.214155
 21
-70.457078
  0
LINE
  8
型材断面
  6
CONTINUOUS
 10
158.805645
 20
-70.43663
 11
158.227637
 21
-70.35799
  0
ENDBLK
  0
BLOCK
  2
*GRP_0072
 70
    65
 10
0.0
 20
0.0
  0
LINE
  8
型材断面
  6
CONTINUOUS
 10
160.52987
 20
-87.04868
 11
161.12987
 21
-88.04868
  0
LINE
  8
型材断面
  6
CONTINUOUS
 10
160.02987
 20
-87.187173
 11
160.62987
 21
-88.187173
  0
LINE
  8
型材断面
  6
CONTINUOUS
 10
160.02987
 20
-87.187173
 11
160.02987
 21
-86.04868
  0
LINE
  8
型材断面
  6
CONTINUOUS
 10
160.02987
 20
-86.04868
 11
160.52987
 21
-86.04868
  0
LINE
  8
型材断面
  6
CONTINUOUS
 10
160.52987
 20
-86.04868
 11
160.52987
 21
-87.04868
  0
LINE
  8
型材断面
  6
CONTINUOUS
 10
160.62987
 20
-88.187173
 11
160.62987
 21
-89.04868
  0
LINE
  8
型材断面
  6
CONTINUOUS
 10
160.62987
 20
-89.04868
 11
161.12987
 21
-89.04868
  0
LINE
  8
型材断面
  6
CONTINUOUS
 10
161.12987
 20
-88.04868
 11
161.12987
 21
-89.04868
  0
LINE
  8
型材断面
  6
CONTINUOUS
 10
160.62987
 20
-88.465345
 11
161.12987
 21
-88.465345
  0
LINE
  8
型材断面
  6
CONTINUOUS
 10
160.72987
 20
-89.04868
 11
160.72987
 21
-88.465345
  0
LINE
  8
型材断面
  6
CONTINUOUS
 10
160.82987
 20
-89.04868
 11
160.82987
 21
-88.465345
  0
LINE
  8
型材断面
  6
CONTINUOUS
 10
160.92987
 20
-89.04868
 11
160.92987
 21
-88.465345
  0
LINE
  8
型材断面
  6
CONTINUOUS
 10
161.02987
 20
-89.04868
 11
161.02987
 21
-88.465345
  0
ENDBLK
  0
BLOCK
  2
*GRP_0073
 70
    65
 10
0.0
 20
0.0
  0
LINE
  8
型材断面
  6
CONTINUOUS
 10
125.629947
 20
-66.42754
 11
124.719965
 21
-65.698203
  0
LINE
  8
型材断面
  6
CONTINUOUS
 10
125.425312
 20
-66.904305
 11
124.51533
 21
-66.174968
  0
LINE
  8
型材断面
  6
CONTINUOUS
 10
125.425312
 20
-66.904305
 11
126.553413
 21
-67.05779
  0
LINE
  8
型材断面
  6
CONTINUOUS
 10
126.553413
 20
-67.05779
 11
126.620817
 21
-66.562355
  0
LINE
  8
型材断面
  6
CONTINUOUS
 10
126.620817
 20
-66.562355
 11
125.629947
 21
-66.42754
  0
LINE
  8
型材断面
  6
CONTINUOUS
 10
124.51533
 20
-66.174968
 11
123.661687
 21
-66.058825
  0
LINE
  8
型材断面
  6
CONTINUOUS
 10
123.661687
 20
-66.058825
 11
123.729092
 21
-65.56339
  0
LINE
  8
型材断面
  6
CONTINUOUS
 10
124.719965
 20
-65.698203
 11
123.729092
 21
-65.56339
  0
LINE
  8
型材断面
  6
CONTINUOUS
 10
124.239695
 20
-66.137465
 11
124.307102
 21
-65.64203
  0
LINE
  8
型材断面
  6
CONTINUOUS
 10
123.675167
 20
-65.95974
 11
124.253177
 21
-66.03838
  0
LINE
  8
型材断面
  6
CONTINUOUS
 10
123.68865
 20
-65.860653
 11
124.266657
 21
-65.939293
  0
LINE
  8
型材断面
  6
CONTINUOUS
 10
123.70213
 20
-65.761563
 11
124.28014
 21
-65.840205
  0
LINE
  8
型材断面
  6
CONTINUOUS
 10
123.715612
 20
-65.662478
 11
124.29362
 21
-65.741118
  0
ENDBLK
  0
BLOCK
  2
*DIM_0074
 70
    65
 10
0.0
 20
0.0
  0
LINE
  8
寸法
  6
BYBLOCK
 62
     0
 10
91.796513
 20
-103.178065
 11
91.796513
 21
-108.37936
  0
LINE
  8
寸法
  6
BYBLOCK
 62
     0
 10
101.796513
 20
-103.178065
 11
101.796513
 21
-108.37936
  0
LINE
  8
寸法
  6
BYBLOCK
 62
     0
 10
91.796513
 20
-108.37936
 11
101.796513
 21
-108.37936
  0
POINT
  8
寸法
 62
     0
 10
101.796513
 20
-108.37936
  0
TEXT
  7
TextStyle03
  8
寸法
  6
CONTINUOUS
 62
     0
 10
95.18125
 20
-108.05
  1
30
 40
3.0
 50
360.0
 72
     5
 11
98.36875
 21
-108.05
  0
ENDBLK
  0
BLOCK
  2
*DIM_0075
 70
    65
 10
0.0
 20
0.0
  0
LINE
  8
寸法
  6
BYBLOCK
 62
     0
 10
101.796513
 20
-103.178065
 11
101.796513
 21
-108.37936
  0
LINE
  8
寸法
  6
BYBLOCK
 62
     0
 10
151.79655
 20
-103.178065
 11
151.79655
 21
-108.37936
  0
LINE
  8
寸法
  6
BYBLOCK
 62
     0
 10
101.796513
 20
-108.37936
 11
151.79655
 21
-108.37936
  0
POINT
  8
寸法
 62
     0
 10
151.79655
 20
-108.37936
  0
TEXT
  7
TextStyle03
  8
寸法
  6
CONTINUOUS
 62
     0
 10
124.3375
 20
-108.05
  1
150
 40
3.0
 50
360.0
 72
     5
 11
129.2125
 21
-108.05
  0
ENDBLK
  0
BLOCK
  2
*DIM_0076
 70
    65
 10
0.0
 20
0.0
  0
LINE
  8
寸法
  6
BYBLOCK
 62
     0
 10
90.129847
 20
-61.770897
 11
90.129847
 21
-108.37936
  0
LINE
  8
寸法
  6
BYBLOCK
 62
     0
 10
91.796513
 20
-103.178065
 11
91.796513
 21
-108.37936
  0
LINE
  8
寸法
  6
BYBLOCK
 62
     0
 10
90.129847
 20
-108.37936
 11
91.796513
 21
-108.37936
  0
POINT
  8
寸法
 62
     0
 10
90.129847
 20
-108.37936
  0
POINT
  8
寸法
 62
     0
 10
91.796513
 20
-108.37936
  0
TEXT
  7
TextStyle03
  8
寸法
  6
CONTINUOUS
 62
     0
 10
87.975
 20
-108.375
  1
5
 40
3.0
 50
360.0
 72
     5
 11
89.475
 21
-108.375
  0
ENDBLK
  0
BLOCK
  2
*DIM_0077
 70
    65
 10
0.0
 20
0.0
  0
LINE
  8
寸法
  6
BYBLOCK
 62
     0
 10
90.129847
 20
-107.37936
 11
90.129847
 21
-108.379355
  0
LINE
  8
寸法
  6
BYBLOCK
 62
     0
 10
-90.129822
 20
-108.379355
 11
90.129847
 21
-108.379355
  0
POINT
  8
寸法
 62
     0
 10
-90.129822
 20
-108.379355
  0
POINT
  8
寸法
 62
     0
 10
90.129847
 20
-108.379355
  0
TEXT
  7
TextStyle03
  8
寸法
  6
CONTINUOUS
 62
     0
 10
-9.9375
 20
-108.025
  1
有効開口寸法
 40
3.0
 72
     5
 11
9.9375
 21
-108.025
  0
ENDBLK
  0
BLOCK
  2
*DIM_0078
 70
    65
 10
0.0
 20
0.0
  0
LINE
  8
寸法
  6
BYBLOCK
 62
     0
 10
-129.963145
 20
-65.770897
 11
-172.775735
 21
-65.770897
  0
LINE
  8
寸法
  6
BYBLOCK
 62
     0
 10
-172.775735
 20
-60.771382
 11
-172.775735
 21
-65.770897
  0
POINT
  8
寸法
 62
     0
 10
-172.775735
 20
-60.771382
  0
POINT
  8
寸法
 62
     0
 10
-172.775735
 20
-65.770897
  0
TEXT
  7
TextStyle03
  8
寸法
  6
CONTINUOUS
 62
     0
 10
-173.175
 20
-64.86875
  1
15
 40
3.0
 50
90.0
 72
     5
 11
-173.175
 21
-61.68125
  0
ENDBLK
  0
BLOCK
  2
*DIM_0079
 70
    65
 10
0.0
 20
0.0
  0
LINE
  8
寸法
  6
BYBLOCK
 62
     0
 10
155.129858
 20
-103.17806
 11
155.129858
 21
-108.37936
  0
LINE
  8
寸法
  6
BYBLOCK
 62
     0
 10
151.79655
 20
-108.37936
 11
155.129858
 21
-108.37936
  0
POINT
  8
寸法
 62
     0
 10
151.79655
 20
-108.37936
  0
POINT
  8
寸法
 62
     0
 10
155.129858
 20
-108.37936
  0
TEXT
  7
TextStyle03
  8
寸法
  6
CONTINUOUS
 62
     0
 10
151.85625
 20
-111.4
  1
10
 40
3.0
 72
     5
 11
155.04375
 21
-111.4
  0
ENDBLK
  0
BLOCK
  2
*DIM_0080
 70
    65
 10
0.0
 20
0.0
  0
LINE
  8
寸法
  6
BYBLOCK
 62
     0
 10
161.629873
 20
-91.215345
 11
161.629873
 21
-108.37936
  0
LINE
  8
寸法
  6
BYBLOCK
 62
     0
 10
155.129858
 20
-108.37936
 11
161.629873
 21
-108.37936
  0
POINT
  8
寸法
 62
     0
 10
161.629873
 20
-108.37936
  0
TEXT
  7
TextStyle03
  8
寸法
  6
CONTINUOUS
 62
     0
 10
161.84375
 20
-108.025
  1
19.5
 40
3.0
 72
     5
 11
168.40625
 21
-108.025
  0
ENDBLK
  0
BLOCK
  2
*DIM_0081
 70
    65
 10
0.0
 20
0.0
  0
LINE
  8
寸法
  6
BYBLOCK
 62
     0
 10
89.12982
 20
-60.770897
 11
74.262118
 21
-60.770897
  0
LINE
  8
寸法
  6
BYBLOCK
 62
     0
 10
100.796487
 20
-80.770897
 11
74.262118
 21
-80.770897
  0
LINE
  8
寸法
  6
BYBLOCK
 62
     0
 10
74.262118
 20
-60.770897
 11
74.262118
 21
-80.770897
  0
POINT
  8
寸法
 62
     0
 10
74.262118
 20
-60.770897
  0
POINT
  8
寸法
 62
     0
 10
74.262118
 20
-80.770897
  0
TEXT
  7
TextStyle03
  8
寸法
  6
CONTINUOUS
 62
     0
 10
73.875
 20
-72.36875
  1
60
 40
3.0
 50
90.0
 72
     5
 11
73.875
 21
-69.18125
  0
ENDBLK
  0
BLOCK
  2
*GRP_0082
 70
    65
 10
0.0
 20
0.0
  0
LINE
  8
St
  6
CONTINUOUS
 62
    47
 10
-138.963145
 20
-36.164487
 11
-128.963145
 21
-36.164487
  0
LINE
  8
St
  6
CONTINUOUS
 62
    47
 10
-128.963145
 20
-36.164487
 11
-128.963145
 21
-46.164487
  0
ARC
  8
St
  6
CONTINUOUS
 62
    47
 10
-131.629813
 20
-38.831155
 40
1.666667
 50
0.0
 51
90.0
  0
LINE
  8
St
  6
CONTINUOUS
 62
    47
 10
-129.296478
 20
-46.164487
 11
-128.963145
 21
-46.164487
  0
LINE
  8
St
  6
CONTINUOUS
 62
    47
 10
-129.963145
 20
-45.49782
 11
-129.963145
 21
-38.831155
  0
ARC
  8
St
  6
CONTINUOUS
 62
    47
 10
-129.296479
 20
-45.497822
 40
0.666667
 50
180.0
 51
270.0
  0
LINE
  8
St
  6
CONTINUOUS
 62
    47
 10
-138.963145
 20
-36.49782
 11
-138.963145
 21
-36.164487
  0
LINE
  8
St
  6
CONTINUOUS
 62
    47
 10
-138.296478
 20
-37.164487
 11
-131.629813
 21
-37.164487
  0
ARC
  8
St
  6
CONTINUOUS
 62
    47
 10
-138.296479
 20
-36.497822
 40
0.666667
 50
180.0
 51
270.0
  0
LINE
  8
St
  6
CONTINUOUS
 62
    47
 10
-137.630422
 20
-36.164487
 11
-136.630422
 21
-37.164487
  0
LINE
  8
St
  6
CONTINUOUS
 62
    47
 10
-129.963145
 20
-43.831765
 11
-128.963145
 21
-44.831765
  0
ENDBLK
  0
BLOCK
  2
*GRP_0083
 70
    65
 10
0.0
 20
0.0
  0
LINE
  8
St
  6
CONTINUOUS
 62
    47
 10
-138.963145
 20
-26.104238
 11
-128.963145
 21
-26.104238
  0
LINE
  8
St
  6
CONTINUOUS
 62
    47
 10
-128.963145
 20
-26.104238
 11
-128.963145
 21
-16.104238
  0
ARC
  8
St
  6
CONTINUOUS
 62
    47
 10
-131.629813
 20
-23.437571
 40
1.666667
 50
-90.0
 51
0.0
  0
LINE
  8
St
  6
CONTINUOUS
 62
    47
 10
-129.296478
 20
-16.104238
 11
-128.963145
 21
-16.104238
  0
LINE
  8
St
  6
CONTINUOUS
 62
    47
 10
-129.963145
 20
-16.770905
 11
-129.963145
 21
-23.43757
  0
ARC
  8
St
  6
CONTINUOUS
 62
    47
 10
-129.296479
 20
-16.770905
 40
0.666667
 50
90.0
 51
180.0
  0
LINE
  8
St
  6
CONTINUOUS
 62
    47
 10
-138.963145
 20
-25.770905
 11
-138.963145
 21
-26.104238
  0
LINE
  8
St
  6
CONTINUOUS
 62
    47
 10
-138.296478
 20
-25.104238
 11
-131.629813
 21
-25.104238
  0
ARC
  8
St
  6
CONTINUOUS
 62
    47
 10
-138.296479
 20
-25.770905
 40
0.666667
 50
90.0
 51
180.0
  0
LINE
  8
St
  6
CONTINUOUS
 62
    47
 10
-137.630422
 20
-26.104238
 11
-136.630422
 21
-25.104238
  0
LINE
  8
St
  6
CONTINUOUS
 62
    47
 10
-129.963145
 20
-18.43696
 11
-128.963145
 21
-17.43696
  0
ENDBLK
  0
BLOCK
  2
*GRP_0084
 70
    65
 10
0.0
 20
0.0
  0
LINE
  8
ボルト／ビス
  6
CONTINUOUS
 62
    64
 10
-132.197152
 20
-21.78757
 11
-131.683953
 21
-21.97436
  0
ARC
  8
ボルト／ビス
  6
CONTINUOUS
 62
    64
 10
-132.453753
 20
-23.467227
 40
1.679656
 50
90.0
 51
117.277991
  0
LINE
  8
ボルト／ビス
  6
CONTINUOUS
 62
    64
 10
-137.329155
 20
-21.78757
 11
-137.842355
 21
-21.97436
  0
ARC
  8
ボルト／ビス
  6
CONTINUOUS
 62
    64
 10
-137.072555
 20
-23.467227
 40
1.679656
 50
62.722009
 51
90.0
  0
ARC
  8
ボルト／ビス
  6
CONTINUOUS
 62
    64
 10
-134.763154
 20
-28.22601
 40
6.438438
 50
76.165012
 51
103.834988
  0
LINE
  8
ボルト／ビス
  6
CONTINUOUS
 62
    64
 10
-136.302755
 20
-23.870905
 11
-136.302755
 21
-21.97436
  0
LINE
  8
ボルト／ビス
  6
CONTINUOUS
 62
    64
 10
-133.223553
 20
-23.870905
 11
-133.223553
 21
-21.97436
  0
LINE
  8
ボルト／ビス
  6
CONTINUOUS
 62
    64
 10
-131.683953
 20
-23.870905
 11
-131.683953
 21
-21.97436
  0
LINE
  8
ボルト／ビス
  6
CONTINUOUS
 62
    64
 10
-137.842355
 20
-23.870905
 11
-137.842355
 21
-21.97436
  0
LINE
  8
ボルト／ビス
  6
CONTINUOUS
 62
    64
 10
-137.329155
 20
-21.78757
 11
-132.197152
 21
-21.78757
  0
LINE
  8
ボルト／ビス
  6
CONTINUOUS
 62
    64
 10
-131.096485
 20
-24.704237
 11
-131.096485
 21
-25.104238
  0
LINE
  8
ボルト／ビス
  6
CONTINUOUS
 62
    64
 10
-131.096485
 20
-24.704237
 11
-138.429817
 21
-24.704237
  0
LINE
  8
ボルト／ビス
  6
CONTINUOUS
 62
    64
 10
-138.429817
 20
-24.704237
 11
-138.429817
 21
-25.104238
  0
LINE
  8
ボルト／ビス
  6
CONTINUOUS
 62
    64
 10
-131.096485
 20
-25.104238
 11
-138.429817
 21
-25.104238
  0
LINE
  8
ボルト／ビス
  6
CONTINUOUS
 62
    64
 10
-134.763152
 20
-23.870905
 11
-134.763152
 21
-24.704237
  0
LINE
  8
ボルト／ビス
  6
CONTINUOUS
 62
    64
 10
-137.996485
 20
-23.870905
 11
-137.996485
 21
-24.704237
  0
LINE
  8
ボルト／ビス
  6
CONTINUOUS
 62
    64
 10
-131.529817
 20
-23.870905
 11
-131.529817
 21
-24.704237
  0
LINE
  8
ボルト／ビス
  6
CONTINUOUS
 62
    64
 10
-137.996485
 20
-23.870905
 11
-131.529817
 21
-23.870905
  0
ENDBLK
  0
BLOCK
  2
*GRP_0085
 70
    65
 10
0.0
 20
0.0
  0
LINE
  8
ボルト／ビス
  6
CONTINUOUS
 62
    64
 10
-132.197152
 20
-40.481155
 11
-131.683953
 21
-40.294368
  0
ARC
  8
ボルト／ビス
  6
CONTINUOUS
 62
    64
 10
-132.453752
 20
-38.801502
 40
1.679656
 50
242.722009
 51
270.0
  0
LINE
  8
ボルト／ビス
  6
CONTINUOUS
 62
    64
 10
-137.329155
 20
-40.481155
 11
-137.842355
 21
-40.294368
  0
ARC
  8
ボルト／ビス
  6
CONTINUOUS
 62
    64
 10
-137.072554
 20
-38.801502
 40
1.679656
 50
270.0
 51
297.277991
  0
ARC
  8
ボルト／ビス
  6
CONTINUOUS
 62
    64
 10
-134.763153
 20
-34.042719
 40
6.438438
 50
256.165012
 51
283.834988
  0
LINE
  8
ボルト／ビス
  6
CONTINUOUS
 62
    64
 10
-136.302755
 20
-38.39782
 11
-136.302755
 21
-40.294368
  0
LINE
  8
ボルト／ビス
  6
CONTINUOUS
 62
    64
 10
-133.223553
 20
-38.39782
 11
-133.223553
 21
-40.294368
  0
LINE
  8
ボルト／ビス
  6
CONTINUOUS
 62
    64
 10
-131.683953
 20
-38.39782
 11
-131.683953
 21
-40.294368
  0
LINE
  8
ボルト／ビス
  6
CONTINUOUS
 62
    64
 10
-137.842355
 20
-38.39782
 11
-137.842355
 21
-40.294368
  0
LINE
  8
ボルト／ビス
  6
CONTINUOUS
 62
    64
 10
-137.329155
 20
-40.481155
 11
-132.197152
 21
-40.481155
  0
LINE
  8
ボルト／ビス
  6
CONTINUOUS
 62
    64
 10
-131.096485
 20
-37.564487
 11
-131.096485
 21
-37.164487
  0
LINE
  8
ボルト／ビス
  6
CONTINUOUS
 62
    64
 10
-131.096485
 20
-37.564487
 11
-138.429817
 21
-37.564487
  0
LINE
  8
ボルト／ビス
  6
CONTINUOUS
 62
    64
 10
-138.429817
 20
-37.564487
 11
-138.429817
 21
-37.164487
  0
LINE
  8
ボルト／ビス
  6
CONTINUOUS
 62
    64
 10
-131.096485
 20
-37.164487
 11
-138.429817
 21
-37.164487
  0
LINE
  8
ボルト／ビス
  6
CONTINUOUS
 62
    64
 10
-134.763152
 20
-38.39782
 11
-134.763152
 21
-37.564487
  0
LINE
  8
ボルト／ビス
  6
CONTINUOUS
 62
    64
 10
-137.996485
 20
-38.39782
 11
-137.996485
 21
-37.564487
  0
LINE
  8
ボルト／ビス
  6
CONTINUOUS
 62
    64
 10
-131.529817
 20
-38.39782
 11
-131.529817
 21
-37.564487
  0
LINE
  8
ボルト／ビス
  6
CONTINUOUS
 62
    64
 10
-137.996485
 20
-38.39782
 11
-131.529817
 21
-38.39782
  0
LINE
  8
ボルト／ビス
  6
CONTINUOUS
 62
    64
 10
-134.763152
 20
-42.14782
 11
-134.763152
 21
-18.39782
  0
LINE
  8
ボルト／ビス
  6
CONTINUOUS
 62
    64
 10
-133.496485
 20
-20.064487
 11
-136.029817
 21
-20.064487
  0
LINE
  8
ボルト／ビス
  6
CONTINUOUS
 62
    64
 10
-136.429817
 20
-20.564487
 11
-136.029817
 21
-20.064487
  0
LINE
  8
ボルト／ビス
  6
CONTINUOUS
 62
    64
 10
-133.096485
 20
-20.564487
 11
-133.496485
 21
-20.064487
  0
LINE
  8
ボルト／ビス
  6
CONTINUOUS
 62
    64
 10
-136.429817
 20
-20.564487
 11
-133.096485
 21
-20.564487
  0
LINE
  8
ボルト／ビス
  6
CONTINUOUS
 62
    64
 10
-133.496485
 20
-20.064487
 11
-136.029817
 21
-20.064487
  0
LINE
  8
ボルト／ビス
  6
CONTINUOUS
 62
    64
 10
-136.429817
 20
-37.164487
 11
-136.429817
 21
-20.564487
  0
LINE
  8
ボルト／ビス
  6
CONTINUOUS
 62
    64
 10
-133.096485
 20
-37.164487
 11
-133.096485
 21
-20.564487
  0
LINE
  8
ボルト／ビス
  6
CONTINUOUS
 62
    64
 10
-136.029817
 20
-20.064487
 11
-136.029817
 21
-37.164487
  0
LINE
  8
ボルト／ビス
  6
CONTINUOUS
 62
    64
 10
-133.496485
 20
-20.064487
 11
-133.496485
 21
-37.164487
  0
ENDBLK
  0
BLOCK
  2
*DIM_0086
 70
    65
 10
0.0
 20
0.0
  0
LINE
  8
寸法
  6
BYBLOCK
 62
     0
 10
-109.296485
 20
94.466447
 11
-109.296485
 21
95.430263
  0
LINE
  8
寸法
  6
BYBLOCK
 62
     0
 10
-115.963152
 20
12.29529
 11
-115.963152
 21
95.430263
  0
LINE
  8
寸法
  6
BYBLOCK
 62
     0
 10
-109.296485
 20
95.430263
 11
-115.963152
 21
95.430263
  0
POINT
  8
寸法
 62
     0
 10
-109.296485
 20
95.430263
  0
POINT
  8
寸法
 62
     0
 10
-115.963152
 20
95.430263
  0
TEXT
  7
TextStyle03
  8
寸法
  6
CONTINUOUS
 62
     0
 10
-114.24375
 20
95.8
  1
20
 40
3.0
 72
     5
 11
-111.05625
 21
95.8
  0
ENDBLK
  0
BLOCK
  2
*DIM_0087
 70
    65
 10
0.0
 20
0.0
  0
LINE
  8
寸法
  6
BYBLOCK
 62
     0
 10
-125.963152
 20
10.061953
 11
-125.963152
 21
95.430263
  0
LINE
  8
寸法
  6
BYBLOCK
 62
     0
 10
-115.963152
 20
95.430263
 11
-125.963152
 21
95.430263
  0
POINT
  8
寸法
 62
     0
 10
-125.963152
 20
95.430263
  0
TEXT
  7
TextStyle03
  8
寸法
  6
CONTINUOUS
 62
     0
 10
-122.56875
 20
95.8
  1
30
 40
3.0
 72
     5
 11
-119.38125
 21
95.8
  0
ENDBLK
  0
BLOCK
  2
*DIM_0088
 70
    65
 10
0.0
 20
0.0
  0
LINE
  8
寸法
  6
BYBLOCK
 62
     0
 10
109.296485
 20
94.466447
 11
109.296485
 21
95.430263
  0
LINE
  8
寸法
  6
BYBLOCK
 62
     0
 10
115.963153
 20
12.29529
 11
115.963153
 21
95.430263
  0
LINE
  8
寸法
  6
BYBLOCK
 62
     0
 10
109.296485
 20
95.430263
 11
115.963153
 21
95.430263
  0
POINT
  8
寸法
 62
     0
 10
109.296485
 20
95.430263
  0
POINT
  8
寸法
 62
     0
 10
115.963153
 20
95.430263
  0
TEXT
  7
TextStyle03
  8
寸法
  6
CONTINUOUS
 62
     0
 10
111.03125
 20
95.8
  1
20
 40
3.0
 72
     5
 11
114.21875
 21
95.8
  0
ENDBLK
  0
BLOCK
  2
*DIM_0089
 70
    65
 10
0.0
 20
0.0
  0
LINE
  8
寸法
  6
BYBLOCK
 62
     0
 10
115.963153
 20
12.29529
 11
115.963153
 21
95.430263
  0
LINE
  8
寸法
  6
BYBLOCK
 62
     0
 10
125.963153
 20
10.061953
 11
125.963153
 21
95.430263
  0
LINE
  8
寸法
  6
BYBLOCK
 62
     0
 10
115.963153
 20
95.430263
 11
125.963153
 21
95.430263
  0
POINT
  8
寸法
 62
     0
 10
125.963153
 20
95.430263
  0
TEXT
  7
TextStyle03
  8
寸法
  6
CONTINUOUS
 62
     0
 10
119.35625
 20
95.8
  1
30
 40
3.0
 72
     5
 11
122.54375
 21
95.8
  0
ENDBLK
  0
BLOCK
  2
*GRP_0090
 70
    65
 10
0.0
 20
0.0
  0
ARC
  8
ボルト／ビス
  6
CONTINUOUS
 10
117.129819
 20
2.060761
 40
0.333333
 50
270.0
 51
360.0
  0
LINE
  8
ボルト／ビス
  6
CONTINUOUS
 10
114.796485
 20
1.72743
 11
117.129817
 21
1.72743
  0
ARC
  8
ボルト／ビス
  6
CONTINUOUS
 10
114.796486
 20
2.060761
 40
0.333333
 50
180.0
 51
270.0
  0
LINE
  8
ボルト／ビス
  6
CONTINUOUS
 10
114.296485
 20
5.22743
 11
114.296485
 21
5.060763
  0
LINE
  8
ボルト／ビス
  6
CONTINUOUS
 10
117.629817
 20
5.22743
 11
117.629817
 21
5.060763
  0
LINE
  8
ボルト／ビス
  6
CONTINUOUS
 10
114.296485
 20
5.22743
 11
117.629817
 21
5.22743
  0
LINE
  8
ボルト／ビス
  6
CONTINUOUS
 10
114.296485
 20
5.060763
 11
117.629817
 21
5.060763
  0
LINE
  8
ボルト／ビス
  6
CONTINUOUS
 10
114.463153
 20
2.060763
 11
114.463153
 21
4.060763
  0
LINE
  8
ボルト／ビス
  6
CONTINUOUS
 10
114.463153
 20
4.560763
 11
114.463153
 21
5.060763
  0
LINE
  8
ボルト／ビス
  6
CONTINUOUS
 10
117.463153
 20
5.060763
 11
117.463153
 21
4.560763
  0
LINE
  8
ボルト／ビス
  6
CONTINUOUS
 10
117.463153
 20
4.060763
 11
117.463153
 21
2.060763
  0
LINE
  8
ボルト／ビス
  6
CONTINUOUS
 10
114.046485
 20
4.560763
 11
115.963153
 21
4.560763
  0
ARC
  8
ボルト／ビス
  6
CONTINUOUS
 10
114.046486
 20
4.310761
 40
0.25
 50
90.0
 51
180.0
  0
LINE
  8
ボルト／ビス
  6
CONTINUOUS
 10
113.796485
 20
4.310763
 11
113.796485
 21
4.310763
  0
LINE
  8
ボルト／ビス
  6
CONTINUOUS
 10
114.046485
 20
4.060763
 11
115.963153
 21
4.060763
  0
ARC
  8
ボルト／ビス
  6
CONTINUOUS
 10
114.046486
 20
4.310761
 40
0.25
 50
180.0
 51
270.0
  0
LINE
  8
ボルト／ビス
  6
CONTINUOUS
 10
117.879817
 20
4.560763
 11
115.963153
 21
4.560763
  0
ARC
  8
ボルト／ビス
  6
CONTINUOUS
 10
117.879819
 20
4.310761
 40
0.25
 50
0.0
 51
90.0
  0
LINE
  8
ボルト／ビス
  6
CONTINUOUS
 10
118.129817
 20
4.310763
 11
118.129817
 21
4.310763
  0
LINE
  8
ボルト／ビス
  6
CONTINUOUS
 10
117.879817
 20
4.060763
 11
115.963153
 21
4.060763
  0
ARC
  8
ボルト／ビス
  6
CONTINUOUS
 10
117.879819
 20
4.310761
 40
0.25
 50
270.0
 51
360.0
  0
ENDBLK
  0
BLOCK
  2
*GRP_0091
 70
    65
 10
0.0
 20
0.0
  0
LINE
  8
ゴム等
  6
CONTINUOUS
 10
-29.118995
 20
-39.626575
 11
-29.118995
 21
-42.793242
  0
LINE
  8
ゴム等
  6
CONTINUOUS
 10
-29.118995
 20
-42.793242
 11
-32.452327
 21
-42.793242
  0
LINE
  8
ゴム等
  6
CONTINUOUS
 10
-32.452325
 20
-41.793242
 11
-31.952327
 21
-41.793242
  0
LINE
  8
ゴム等
  6
CONTINUOUS
 10
-31.952327
 20
-39.626575
 11
-31.952327
 21
-41.793242
  0
LINE
  8
ゴム等
  6
CONTINUOUS
 10
-32.452327
 20
-42.793242
 11
-32.452325
 21
-41.793242
  0
LINE
  8
ゴム等
  6
CONTINUOUS
 10
-29.118995
 20
-39.626575
 11
-31.952327
 21
-39.626575
  0
INSERT
  2
*HAT_0003
  8
ゴム等
 10
0.0
 20
0.0
  0
ENDBLK
  0
BLOCK
  2
*GRP_0092
 70
    65
 10
0.0
 20
0.0
  0
LINE
  8
ゴム等
  6
CONTINUOUS
 10
-31.785663
 20
-35.193242
 11
-29.118995
 21
-35.193242
  0
LINE
  8
ゴム等
  6
CONTINUOUS
 10
-29.118995
 20
-35.193242
 11
-29.118995
 21
-37.359908
  0
LINE
  8
ゴム等
  6
CONTINUOUS
 10
-29.118995
 20
-37.359908
 11
-31.785663
 21
-37.359908
  0
LINE
  8
ゴム等
  6
CONTINUOUS
 10
-31.785663
 20
-35.193242
 11
-31.785663
 21
-37.359908
  0
INSERT
  2
*HAT_0004
  8
ゴム等
 10
0.0
 20
0.0
  0
ENDBLK
  0
BLOCK
  2
*GRP_0093
 70
    65
 10
0.0
 20
0.0
  0
LINE
  8
ボルト／ビス
  6
DOT
 62
    64
 10
-26.118998
 20
-41.226575
 11
-24.785663
 21
-41.226575
  0
LINE
  8
ボルト／ビス
  6
DOT
 62
    64
 10
-26.45233
 20
-40.626575
 11
-26.118998
 21
-41.226575
  0
LINE
  8
ボルト／ビス
  6
DOT
 62
    64
 10
-26.45233
 20
-40.626575
 11
-24.45233
 21
-40.626575
  0
LINE
  8
ボルト／ビス
  6
DOT
 62
    64
 10
-24.45233
 20
-40.626575
 11
-24.785663
 21
-41.226575
  0
LINE
  8
ボルト／ビス
  6
DOT
 62
    64
 10
-25.45233
 20
-40.132065
 11
-25.45233
 21
-44.332825
  0
LINE
  8
ボルト／ビス
  6
DOT
 62
    64
 10
-26.118998
 20
-43.793242
 11
-25.95233
 21
-43.95991
  0
LINE
  8
ボルト／ビス
  6
DOT
 62
    64
 10
-24.785663
 20
-43.793242
 11
-24.95233
 21
-43.95991
  0
LINE
  8
ボルト／ビス
  6
DOT
 62
    64
 10
-25.95233
 20
-43.95991
 11
-24.95233
 21
-43.95991
  0
LINE
  8
ボルト／ビス
  6
DOT
 62
    64
 10
-26.118998
 20
-43.793242
 11
-24.785663
 21
-43.793242
  0
LINE
  8
ボルト／ビス
  6
DOT
 62
    64
 10
-24.95233
 20
-41.226575
 11
-24.95233
 21
-43.95991
  0
LINE
  8
ボルト／ビス
  6
DOT
 62
    64
 10
-25.95233
 20
-41.226575
 11
-25.95233
 21
-43.95991
  0
LINE
  8
ボルト／ビス
  6
DOT
 62
    64
 10
-26.118998
 20
-41.226575
 11
-26.118998
 21
-43.793242
  0
LINE
  8
ボルト／ビス
  6
DOT
 62
    64
 10
-24.785663
 20
-41.226575
 11
-24.785663
 21
-43.793242
  0
ENDBLK
  0
BLOCK
  2
*DIM_0094
 70
    65
 10
0.0
 20
0.0
  0
LINE
  8
寸法
  6
BYBLOCK
 62
     0
 10
-51.185663
 20
-49.026575
 11
-51.185663
 21
-58.206375
  0
LINE
  8
寸法
  6
BYBLOCK
 62
     0
 10
-26.185663
 20
-49.026575
 11
-26.185663
 21
-58.206375
  0
LINE
  8
寸法
  6
BYBLOCK
 62
     0
 10
-51.185663
 20
-58.206375
 11
-26.185663
 21
-58.206375
  0
POINT
  8
寸法
 62
     0
 10
-51.185663
 20
-58.206375
  0
POINT
  8
寸法
 62
     0
 10
-26.185663
 20
-58.206375
  0
TEXT
  7
TextStyle03
  8
寸法
  6
CONTINUOUS
 62
     0
 10
-40.29375
 20
-57.85
  1
75
 40
3.0
 72
     5
 11
-37.10625
 21
-57.85
  0
ENDBLK
  0
BLOCK
  2
*DIM_0095
 70
    65
 10
0.0
 20
0.0
  0
LINE
  8
寸法
  6
BYBLOCK
 62
     0
 10
-48.25233
 20
-33.693242
 11
-48.25233
 21
-27.88631
  0
LINE
  8
寸法
  6
BYBLOCK
 62
     0
 10
-29.118995
 20
-33.693242
 11
-29.118995
 21
-27.88631
  0
LINE
  8
寸法
  6
BYBLOCK
 62
     0
 10
-48.25233
 20
-27.88631
 11
-29.118995
 21
-27.88631
  0
POINT
  8
寸法
 62
     0
 10
-48.25233
 20
-27.88631
  0
POINT
  8
寸法
 62
     0
 10
-29.118995
 20
-27.88631
  0
TEXT
  7
TextStyle03
  8
寸法
  6
CONTINUOUS
 62
     0
 10
-41.98125
 20
-27.525
  1
57.4
 40
3.0
 72
     5
 11
-35.41875
 21
-27.525
  0
ENDBLK
  0
BLOCK
  2
*GRP_0096
 70
    65
 10
0.0
 20
0.0
  0
LINE
  8
ゴム等
  6
CONTINUOUS
 10
-48.25233
 20
-39.626575
 11
-48.25233
 21
-42.793242
  0
LINE
  8
ゴム等
  6
CONTINUOUS
 10
-48.25233
 20
-42.793242
 11
-44.918998
 21
-42.793242
  0
LINE
  8
ゴム等
  6
CONTINUOUS
 10
-44.919
 20
-41.793242
 11
-45.418998
 21
-41.793242
  0
LINE
  8
ゴム等
  6
CONTINUOUS
 10
-45.418998
 20
-39.626575
 11
-45.418998
 21
-41.793242
  0
LINE
  8
ゴム等
  6
CONTINUOUS
 10
-44.918998
 20
-42.793242
 11
-44.919
 21
-41.793242
  0
LINE
  8
ゴム等
  6
CONTINUOUS
 10
-48.25233
 20
-39.626575
 11
-45.418998
 21
-39.626575
  0
INSERT
  2
*HAT_0005
  8
ゴム等
 10
0.0
 20
0.0
  0
ENDBLK
  0
BLOCK
  2
*GRP_0097
 70
    65
 10
0.0
 20
0.0
  0
LINE
  8
ゴム等
  6
CONTINUOUS
 10
-45.585663
 20
-35.193242
 11
-48.25233
 21
-35.193242
  0
LINE
  8
ゴム等
  6
CONTINUOUS
 10
-48.25233
 20
-35.193242
 11
-48.25233
 21
-37.359908
  0
LINE
  8
ゴム等
  6
CONTINUOUS
 10
-48.25233
 20
-37.359908
 11
-45.585663
 21
-37.359908
  0
LINE
  8
ゴム等
  6
CONTINUOUS
 10
-45.585663
 20
-35.193242
 11
-45.585663
 21
-37.359908
  0
INSERT
  2
*HAT_0006
  8
ゴム等
 10
0.0
 20
0.0
  0
ENDBLK
  0
BLOCK
  2
*GRP_0098
 70
    65
 10
0.0
 20
0.0
  0
LINE
  8
ボルト／ビス
  6
DOT
 62
    64
 10
-51.252327
 20
-41.226575
 11
-52.585663
 21
-41.226575
  0
LINE
  8
ボルト／ビス
  6
DOT
 62
    64
 10
-50.918995
 20
-40.626575
 11
-51.252327
 21
-41.226575
  0
LINE
  8
ボルト／ビス
  6
DOT
 62
    64
 10
-50.918995
 20
-40.626575
 11
-52.918995
 21
-40.626575
  0
LINE
  8
ボルト／ビス
  6
DOT
 62
    64
 10
-52.918995
 20
-40.626575
 11
-52.585663
 21
-41.226575
  0
LINE
  8
ボルト／ビス
  6
DOT
 62
    64
 10
-51.918995
 20
-40.132065
 11
-51.918995
 21
-44.332825
  0
LINE
  8
ボルト／ビス
  6
DOT
 62
    64
 10
-51.252327
 20
-43.793242
 11
-51.418995
 21
-43.95991
  0
LINE
  8
ボルト／ビス
  6
DOT
 62
    64
 10
-52.585663
 20
-43.793242
 11
-52.418995
 21
-43.95991
  0
LINE
  8
ボルト／ビス
  6
DOT
 62
    64
 10
-51.418995
 20
-43.95991
 11
-52.418995
 21
-43.95991
  0
LINE
  8
ボルト／ビス
  6
DOT
 62
    64
 10
-51.252327
 20
-43.793242
 11
-52.585663
 21
-43.793242
  0
LINE
  8
ボルト／ビス
  6
DOT
 62
    64
 10
-52.418995
 20
-41.226575
 11
-52.418995
 21
-43.95991
  0
LINE
  8
ボルト／ビス
  6
DOT
 62
    64
 10
-51.418995
 20
-41.226575
 11
-51.418995
 21
-43.95991
  0
LINE
  8
ボルト／ビス
  6
DOT
 62
    64
 10
-51.252327
 20
-41.226575
 11
-51.252327
 21
-43.793242
  0
LINE
  8
ボルト／ビス
  6
DOT
 62
    64
 10
-52.585663
 20
-41.226575
 11
-52.585663
 21
-43.793242
  0
ENDBLK
  0
BLOCK
  2
*GRP_0099
 70
    65
 10
0.0
 20
0.0
  0
POLYLINE
  8
寸法
  6
BYBLOCK
 62
     0
 66
     1
  0
VERTEX
  8
寸法
 10
4.5
 20
-4.062103
  0
VERTEX
  8
寸法
 10
-2.993155
 20
-15.85497
  0
VERTEX
  8
寸法
 10
4.250937
 20
-15.85497
  0
SEQEND
  0
ENDBLK
  0
BLOCK
  2
*GRP_0100
 70
    65
 10
0.0
 20
0.0
  0
LINE
  8
寸法
  6
BYBLOCK
 62
     0
 10
2.50497
 20
-1.604235
 11
-2.993155
 21
-15.85497
  0
ENDBLK
  0
BLOCK
  2
*GRP_0101
 70
    65
 10
0.0
 20
0.0
  0
LINE
  8
ボルト／ビス
  6
CONTINUOUS
 62
    64
 10
-37.518995
 20
-38.693242
 11
-37.549562
 21
-38.343855
  0
ARC
  8
ボルト／ビス
  6
CONTINUOUS
 62
    64
 10
-38.114074
 20
-38.393245
 40
0.566667
 50
4.999989
 51
90.0
  0
LINE
  8
ボルト／ビス
  6
CONTINUOUS
 62
    64
 10
-38.114073
 20
-37.826577
 11
-38.685663
 21
-37.826577
  0
LINE
  8
ボルト／ビス
  6
CONTINUOUS
 62
    64
 10
-39.852327
 20
-38.693242
 11
-39.82176
 21
-38.343855
  0
ARC
  8
ボルト／ビス
  6
CONTINUOUS
 62
    64
 10
-39.257251
 20
-38.393245
 40
0.566667
 50
90.0
 51
175.000011
  0
LINE
  8
ボルト／ビス
  6
CONTINUOUS
 62
    64
 10
-39.25725
 20
-37.826577
 11
-38.685663
 21
-37.826577
  0
LINE
  8
ボルト／ビス
  6
CONTINUOUS
 62
    64
 10
-37.886783
 20
-37.954878
 11
-37.886783
 21
-37.874158
  0
LINE
  8
ボルト／ビス
  6
CONTINUOUS
 62
    64
 10
-38.452327
 20
-38.171573
 11
-38.685663
 21
-38.171573
  0
LINE
  8
ボルト／ビス
  6
CONTINUOUS
 62
    64
 10
-38.318995
 20
-37.954878
 11
-37.886783
 21
-37.954878
  0
LINE
  8
ボルト／ビス
  6
CONTINUOUS
 62
    64
 10
-38.452327
 20
-38.171573
 11
-38.452327
 21
-38.088213
  0
ARC
  8
ボルト／ビス
  6
CONTINUOUS
 62
    64
 10
-38.318996
 20
-38.088213
 40
0.133333
 50
90.0
 51
180.0
  0
LINE
  8
ボルト／ビス
  6
CONTINUOUS
 62
    64
 10
-39.484543
 20
-37.954878
 11
-39.484543
 21
-37.874158
  0
LINE
  8
ボルト／ビス
  6
CONTINUOUS
 62
    64
 10
-38.918995
 20
-38.171573
 11
-38.685663
 21
-38.171573
  0
LINE
  8
ボルト／ビス
  6
CONTINUOUS
 62
    64
 10
-39.052327
 20
-37.954878
 11
-39.484543
 21
-37.954878
  0
LINE
  8
ボルト／ビス
  6
CONTINUOUS
 62
    64
 10
-38.918995
 20
-38.171573
 11
-38.918995
 21
-38.088213
  0
ARC
  8
ボルト／ビス
  6
CONTINUOUS
 62
    64
 10
-39.052329
 20
-38.088213
 40
0.133333
 50
0.0
 51
90.0
  0
LINE
  8
ボルト／ビス
  6
CONTINUOUS
 62
    64
 10
-37.518995
 20
-38.693242
 11
-39.852327
 21
-38.693242
  0
LINE
  8
ボルト／ビス
  6
CONTINUOUS
 62
    64
 10
-38.018995
 20
-41.85991
 11
-38.185663
 21
-42.026577
  0
LINE
  8
ボルト／ビス
  6
CONTINUOUS
 62
    64
 10
-39.352327
 20
-41.85991
 11
-39.185663
 21
-42.026577
  0
LINE
  8
ボルト／ビス
  6
CONTINUOUS
 62
    64
 10
-38.018995
 20
-41.85991
 11
-39.352327
 21
-41.85991
  0
LINE
  8
ボルト／ビス
  6
CONTINUOUS
 62
    64
 10
-38.185663
 20
-42.026577
 11
-39.185663
 21
-42.026577
  0
LINE
  8
ボルト／ビス
  6
CONTINUOUS
 62
    64
 10
-38.685663
 20
-37.169448
 11
-38.685663
 21
-42.551535
  0
LINE
  8
ボルト／ビス
  6
CONTINUOUS
 62
    64
 10
-38.018995
 20
-38.693242
 11
-38.018995
 21
-41.85991
  0
LINE
  8
ボルト／ビス
  6
CONTINUOUS
 62
    64
 10
-39.352327
 20
-38.693242
 11
-39.352327
 21
-41.85991
  0
LINE
  8
ボルト／ビス
  6
CONTINUOUS
 62
    64
 10
-39.185663
 20
-38.693242
 11
-39.185663
 21
-42.026577
  0
LINE
  8
ボルト／ビス
  6
CONTINUOUS
 62
    64
 10
-38.185663
 20
-38.693242
 11
-38.185663
 21
-42.026577
  0
ENDBLK
  0
BLOCK
  2
*GRP_0102
 70
    65
 10
0.0
 20
0.0
  0
POLYLINE
  8
寸法
  6
BYBLOCK
 62
     0
 66
     1
  0
VERTEX
  8
寸法
 10
-40.593998
 20
-42.793242
  0
VERTEX
  8
寸法
 10
-43.035448
 20
-53.136455
  0
VERTEX
  8
寸法
 10
-53.879828
 20
-53.136455
  0
SEQEND
  0
ENDBLK
  0
BLOCK
  2
*GRP_0103
 70
    65
 10
0.0
 20
0.0
  0
POLYLINE
  8
寸法
  6
BYBLOCK
 62
     0
 66
     1
  0
VERTEX
  8
寸法
 10
-2.649088
 20
-3.575912
  0
VERTEX
  8
寸法
 10
-10.79719
 20
-10.1049
  0
VERTEX
  8
寸法
 10
-12.382925
 20
-10.1049
  0
SEQEND
  0
ENDBLK
  0
BLOCK
  2
*GRP_0104
 70
    65
 10
0.0
 20
0.0
  0
LINE
  8
St
  6
CONTINUOUS
 10
103.157573
 20
-60.770897
 11
104.224237
 21
-61.837565
  0
LINE
  8
St
  6
CONTINUOUS
 10
103.393275
 20
-60.770897
 11
104.45994
 21
-61.837565
  0
LINE
  8
St
  6
CONTINUOUS
 10
112.70473
 20
-60.770897
 11
113.771395
 21
-61.837565
  0
LINE
  8
St
  6
CONTINUOUS
 10
112.940432
 20
-60.770897
 11
114.007098
 21
-61.837565
  0
LINE
  8
St
  6
CONTINUOUS
 10
109.066265
 20
-77.4376
 11
110.132933
 21
-77.4376
  0
ARC
  8
St
  6
CONTINUOUS
 62
   127
 10
109.066263
 20
-61.8376
 40
1.066667
 50
360.0
 51
450.0
  0
LINE
  8
St
  6
CONTINUOUS
 62
   127
 10
109.066265
 20
-61.837602
 11
109.066265
 21
-77.4376
  0
LINE
  8
St
  6
CONTINUOUS
 62
   127
 10
110.132933
 20
-61.837602
 11
110.132933
 21
-77.4376
  0
LINE
  8
St
  6
CONTINUOUS
 10
109.066265
 20
-74.104265
 11
110.132933
 21
-74.104265
  0
LINE
  8
St
  6
CONTINUOUS
 10
109.066265
 20
-70.77093
 11
110.132933
 21
-70.77093
  0
LINE
  8
St
  6
CONTINUOUS
 10
109.332933
 20
-70.77093
 11
109.332933
 21
-74.104265
  0
LINE
  8
St
  6
CONTINUOUS
 10
109.5996
 20
-70.77093
 11
109.5996
 21
-74.104265
  0
LINE
  8
St
  6
CONTINUOUS
 10
109.866265
 20
-70.77093
 11
109.866265
 21
-74.104265
  0
LINE
  8
St
  6
CONTINUOUS
 10
111.1996
 20
-72.437597
 11
107.997328
 21
-72.437597
  0
LINE
  8
St
  6
CONTINUOUS
 62
   127
 10
101.635763
 20
-61.837565
 11
119.963142
 21
-61.837565
  0
LINE
  8
St
  6
CONTINUOUS
 62
   127
 10
101.62981
 20
-60.770897
 11
119.963142
 21
-60.770897
  0
LINE
  8
St
  6
CONTINUOUS
 10
119.963142
 20
-61.837565
 11
119.963142
 21
-60.770897
  0
LINE
  8
St
  6
CONTINUOUS
 10
101.62981
 20
-61.837565
 11
101.62981
 21
-60.770897
  0
ENDBLK
  0
BLOCK
  2
*GRP_0105
 70
    65
 10
0.0
 20
0.0
  0
LINE
  8
ボルト／ビス
  6
CONTINUOUS
 62
    64
 10
113.8496
 20
-74.522475
 11
113.697833
 21
-74.93945
  0
ARC
  8
ボルト／ビス
  6
CONTINUOUS
 62
    64
 10
112.484877
 20
-74.313988
 40
1.364723
 50
0.0
 51
27.277966
  0
LINE
  8
ボルト／ビス
  6
CONTINUOUS
 62
    64
 10
113.8496
 20
-70.352722
 11
113.697833
 21
-69.935747
  0
ARC
  8
ボルト／ビス
  6
CONTINUOUS
 62
    64
 10
112.484877
 20
-70.561209
 40
1.364723
 50
332.722034
 51
360.0
  0
ARC
  8
ボルト／ビス
  6
CONTINUOUS
 62
    64
 10
108.618356
 20
-72.437598
 40
5.231244
 50
346.165046
 51
373.834954
  0
LINE
  8
ボルト／ビス
  6
CONTINUOUS
 62
    64
 10
112.132933
 20
-74.93945
 11
113.697833
 21
-74.93945
  0
LINE
  8
ボルト／ビス
  6
CONTINUOUS
 62
    64
 10
112.132933
 20
-69.935747
 11
113.697833
 21
-69.935747
  0
LINE
  8
ボルト／ビス
  6
CONTINUOUS
 62
    64
 10
113.8496
 20
-70.352722
 11
113.8496
 21
-74.522475
  0
LINE
  8
ボルト／ビス
  6
CONTINUOUS
 62
    64
 10
113.697833
 20
-71.186672
 11
112.132933
 21
-71.186672
  0
LINE
  8
ボルト／ビス
  6
CONTINUOUS
 62
    64
 10
113.697833
 20
-73.688525
 11
112.132933
 21
-73.688525
  0
LINE
  8
ボルト／ビス
  6
CONTINUOUS
 62
    64
 10
112.132933
 20
-69.935747
 11
112.132933
 21
-74.93945
  0
LINE
  8
ボルト／ビス
  6
CONTINUOUS
 62
    64
 10
111.532933
 20
-75.354265
 11
111.1996
 21
-75.354265
  0
LINE
  8
ボルト／ビス
  6
CONTINUOUS
 62
    64
 10
111.532933
 20
-69.520932
 11
111.1996
 21
-69.520932
  0
LINE
  8
ボルト／ビス
  6
CONTINUOUS
 62
    64
 10
111.532933
 20
-75.354265
 11
111.532933
 21
-69.520932
  0
LINE
  8
ボルト／ビス
  6
CONTINUOUS
 62
    64
 10
111.1996
 20
-75.354265
 11
111.1996
 21
-69.520932
  0
LINE
  8
ボルト／ビス
  6
CONTINUOUS
 62
    64
 10
112.132933
 20
-72.437597
 11
111.532933
 21
-72.437597
  0
LINE
  8
ボルト／ビス
  6
CONTINUOUS
 62
    64
 10
112.132933
 20
-69.804265
 11
111.532933
 21
-69.804265
  0
LINE
  8
ボルト／ビス
  6
CONTINUOUS
 62
    64
 10
112.132933
 20
-75.070932
 11
111.532933
 21
-75.070932
  0
LINE
  8
ボルト／ビス
  6
CONTINUOUS
 62
    64
 10
112.132933
 20
-69.804265
 11
112.132933
 21
-75.070932
  0
LINE
  8
ボルト／ビス
  6
CONTINUOUS
 62
    64
 10
115.516265
 20
-72.437597
 11
102.132933
 21
-72.437597
  0
LINE
  8
ボルト／ビス
  6
CONTINUOUS
 62
    64
 10
103.7996
 20
-71.370932
 11
103.7996
 21
-73.504265
  0
LINE
  8
ボルト／ビス
  6
CONTINUOUS
 62
    64
 10
104.1996
 20
-71.104265
 11
103.7996
 21
-71.370932
  0
LINE
  8
ボルト／ビス
  6
CONTINUOUS
 62
    64
 10
104.1996
 20
-73.770932
 11
103.7996
 21
-73.504265
  0
LINE
  8
ボルト／ビス
  6
CONTINUOUS
 62
    64
 10
103.7996
 20
-71.370932
 11
103.7996
 21
-73.504265
  0
LINE
  8
ボルト／ビス
  6
CONTINUOUS
 62
    64
 10
104.1996
 20
-71.104265
 11
104.1996
 21
-73.770932
  0
LINE
  8
ボルト／ビス
  6
CONTINUOUS
 62
    64
 10
111.1996
 20
-71.104265
 11
104.1996
 21
-71.104265
  0
LINE
  8
ボルト／ビス
  6
CONTINUOUS
 62
    64
 10
111.1996
 20
-73.770932
 11
104.1996
 21
-73.770932
  0
LINE
  8
ボルト／ビス
  6
CONTINUOUS
 62
    64
 10
111.1996
 20
-71.370932
 11
103.7996
 21
-71.370932
  0
LINE
  8
ボルト／ビス
  6
CONTINUOUS
 62
    64
 10
111.1996
 20
-73.504265
 11
103.7996
 21
-73.504265
  0
ENDBLK
  0
BLOCK
  2
*GRP_0106
 70
    65
 10
0.0
 20
0.0
  0
LINE
  8
ボルト／ビス
  6
CONTINUOUS
 62
    64
 10
106.416265
 20
-74.522473
 11
106.56803
 21
-74.939448
  0
ARC
  8
ボルト／ビス
  6
CONTINUOUS
 62
    64
 10
107.780987
 20
-74.313986
 40
1.364723
 50
152.722034
 51
180.0
  0
LINE
  8
ボルト／ビス
  6
CONTINUOUS
 62
    64
 10
106.416265
 20
-70.35272
 11
106.56803
 21
-69.935745
  0
ARC
  8
ボルト／ビス
  6
CONTINUOUS
 62
    64
 10
107.780987
 20
-70.561208
 40
1.364723
 50
180.0
 51
207.277966
  0
ARC
  8
ボルト／ビス
  6
CONTINUOUS
 62
    64
 10
111.647508
 20
-72.437597
 40
5.231244
 50
166.165046
 51
193.834954
  0
LINE
  8
ボルト／ビス
  6
CONTINUOUS
 62
    64
 10
108.132933
 20
-74.939448
 11
106.56803
 21
-74.939448
  0
LINE
  8
ボルト／ビス
  6
CONTINUOUS
 62
    64
 10
108.132933
 20
-69.935745
 11
106.56803
 21
-69.935745
  0
LINE
  8
ボルト／ビス
  6
CONTINUOUS
 62
    64
 10
106.416265
 20
-70.35272
 11
106.416265
 21
-74.522473
  0
LINE
  8
ボルト／ビス
  6
CONTINUOUS
 62
    64
 10
106.56803
 20
-71.18667
 11
108.132933
 21
-71.18667
  0
LINE
  8
ボルト／ビス
  6
CONTINUOUS
 62
    64
 10
106.56803
 20
-73.688523
 11
108.132933
 21
-73.688523
  0
LINE
  8
ボルト／ビス
  6
CONTINUOUS
 62
    64
 10
108.132933
 20
-69.935745
 11
108.132933
 21
-74.939448
  0
LINE
  8
ボルト／ビス
  6
CONTINUOUS
 62
    64
 10
108.732933
 20
-75.354263
 11
109.066265
 21
-75.354263
  0
LINE
  8
ボルト／ビス
  6
CONTINUOUS
 62
    64
 10
108.732933
 20
-69.52093
 11
109.066265
 21
-69.52093
  0
LINE
  8
ボルト／ビス
  6
CONTINUOUS
 62
    64
 10
108.732933
 20
-75.354263
 11
108.732933
 21
-69.52093
  0
LINE
  8
ボルト／ビス
  6
CONTINUOUS
 62
    64
 10
109.066265
 20
-75.354263
 11
109.066265
 21
-69.52093
  0
LINE
  8
ボルト／ビス
  6
CONTINUOUS
 62
    64
 10
108.132933
 20
-72.437595
 11
108.732933
 21
-72.437595
  0
LINE
  8
ボルト／ビス
  6
CONTINUOUS
 62
    64
 10
108.132933
 20
-69.804263
 11
108.732933
 21
-69.804263
  0
LINE
  8
ボルト／ビス
  6
CONTINUOUS
 62
    64
 10
108.132933
 20
-75.07093
 11
108.732933
 21
-75.07093
  0
LINE
  8
ボルト／ビス
  6
CONTINUOUS
 62
    64
 10
108.132933
 20
-69.804263
 11
108.132933
 21
-75.07093
  0
ENDBLK
  0
BLOCK
  2
*GRP_0107
 70
    65
 10
0.0
 20
0.0
  0
LINE
  8
ボルト／ビス
  6
CONTINUOUS
 10
119.62982
 20
7.061965
 11
119.62982
 21
7.728632
  0
LINE
  8
ボルト／ビス
  6
CONTINUOUS
 10
119.62982
 20
7.728632
 11
112.296485
 21
7.728632
  0
LINE
  8
ボルト／ビス
  6
CONTINUOUS
 10
112.296485
 20
7.728632
 11
112.296485
 21
7.061965
  0
LINE
  8
ボルト／ビス
  6
CONTINUOUS
 10
119.62982
 20
7.061965
 11
112.296485
 21
7.061965
  0
LINE
  8
ボルト／ビス
  6
CONTINUOUS
 10
118.963153
 20
8.061965
 11
118.963153
 21
7.728632
  0
LINE
  8
ボルト／ビス
  6
CONTINUOUS
 10
118.963153
 20
8.061965
 11
112.963153
 21
8.061965
  0
LINE
  8
ボルト／ビス
  6
CONTINUOUS
 10
112.963153
 20
8.061965
 11
112.963153
 21
7.728632
  0
LINE
  8
ボルト／ビス
  6
CONTINUOUS
 62
    64
 10
117.566902
 20
10.061965
 11
117.887652
 21
9.945223
  0
ARC
  8
ボルト／ビス
  6
CONTINUOUS
 62
    64
 10
117.406527
 20
9.012181
 40
1.049784
 50
90.0
 51
117.278033
  0
ARC
  8
ボルト／ビス
  6
CONTINUOUS
 62
    64
 10
115.963152
 20
6.037943
 40
4.024022
 50
76.165015
 51
103.834998
  0
LINE
  8
ボルト／ビス
  6
CONTINUOUS
 62
    64
 10
114.359403
 20
10.061965
 11
114.038652
 21
9.945223
  0
ARC
  8
ボルト／ビス
  6
CONTINUOUS
 62
    64
 10
114.519776
 20
9.012181
 40
1.049784
 50
62.721967
 51
90.0
  0
LINE
  8
ボルト／ビス
  6
CONTINUOUS
 62
    64
 10
117.566902
 20
10.061965
 11
114.359403
 21
10.061965
  0
LINE
  8
ボルト／ビス
  6
CONTINUOUS
 62
    64
 10
114.038652
 20
9.945223
 11
114.038652
 21
8.728632
  0
LINE
  8
ボルト／ビス
  6
CONTINUOUS
 62
    64
 10
115.000902
 20
9.945223
 11
115.000902
 21
8.728632
  0
LINE
  8
ボルト／ビス
  6
CONTINUOUS
 62
    64
 10
117.887652
 20
9.945223
 11
117.887652
 21
8.728632
  0
LINE
  8
ボルト／ビス
  6
CONTINUOUS
 62
    64
 10
116.925403
 20
9.945223
 11
116.925403
 21
8.728632
  0
LINE
  8
ボルト／ビス
  6
CONTINUOUS
 10
117.887652
 20
8.728632
 11
114.038652
 21
8.728632
  0
LINE
  8
ボルト／ビス
  6
CONTINUOUS
 10
117.963153
 20
8.728632
 11
117.963153
 21
8.061965
  0
LINE
  8
ボルト／ビス
  6
CONTINUOUS
 10
117.963153
 20
8.728632
 11
113.963153
 21
8.728632
  0
LINE
  8
ボルト／ビス
  6
CONTINUOUS
 10
113.963153
 20
8.728632
 11
113.963153
 21
8.061965
  0
LINE
  8
ボルト／ビス
  6
CONTINUOUS
 62
    64
 10
115.196485
 20
7.061965
 11
115.196485
 21
0.3953
  0
LINE
  8
ボルト／ビス
  6
CONTINUOUS
 62
    64
 10
116.72982
 20
7.061965
 11
116.72982
 21
0.3953
  0
LINE
  8
ボルト／ビス
  6
CONTINUOUS
 62
    64
 10
116.72982
 20
0.3953
 11
115.196485
 21
0.3953
  0
LINE
  8
ボルト／ビス
  6
CONTINUOUS
 62
    64
 10
114.963153
 20
0.728632
 11
115.196485
 21
0.3953
  0
LINE
  8
ボルト／ビス
  6
CONTINUOUS
 62
    64
 10
116.963153
 20
0.728632
 11
116.72982
 21
0.3953
  0
LINE
  8
ボルト／ビス
  6
CONTINUOUS
 62
    64
 10
116.963153
 20
0.728632
 11
114.963153
 21
0.728632
  0
LINE
  8
ボルト／ビス
  6
CONTINUOUS
 62
    64
 10
116.72982
 20
0.3953
 11
115.196485
 21
0.3953
  0
LINE
  8
ボルト／ビス
  6
CONTINUOUS
 62
    64
 10
116.963153
 20
7.061965
 11
116.963153
 21
0.728632
  0
LINE
  8
ボルト／ビス
  6
CONTINUOUS
 62
    64
 10
114.963153
 20
7.061965
 11
114.963153
 21
0.728632
  0
ENDBLK
  0
BLOCK
  2
*GRP_0108
 70
    65
 10
0.0
 20
0.0
  0
LINE
  8
ボルト／ビス
  6
CONTINUOUS
 10
-119.62982
 20
7.061965
 11
-119.62982
 21
7.728632
  0
LINE
  8
ボルト／ビス
  6
CONTINUOUS
 10
-119.62982
 20
7.728632
 11
-112.296485
 21
7.728632
  0
LINE
  8
ボルト／ビス
  6
CONTINUOUS
 10
-112.296485
 20
7.728632
 11
-112.296485
 21
7.061965
  0
LINE
  8
ボルト／ビス
  6
CONTINUOUS
 10
-119.62982
 20
7.061965
 11
-112.296485
 21
7.061965
  0
LINE
  8
ボルト／ビス
  6
CONTINUOUS
 10
-118.963152
 20
8.061965
 11
-118.963152
 21
7.728632
  0
LINE
  8
ボルト／ビス
  6
CONTINUOUS
 10
-118.963152
 20
8.061965
 11
-112.963152
 21
8.061965
  0
LINE
  8
ボルト／ビス
  6
CONTINUOUS
 10
-112.963152
 20
8.061965
 11
-112.963152
 21
7.728632
  0
LINE
  8
ボルト／ビス
  6
CONTINUOUS
 62
    64
 10
-117.566903
 20
10.061965
 11
-117.887652
 21
9.945223
  0
ARC
  8
ボルト／ビス
  6
CONTINUOUS
 62
    64
 10
-117.406527
 20
9.012181
 40
1.049784
 50
62.721967
 51
90.0
  0
ARC
  8
ボルト／ビス
  6
CONTINUOUS
 62
    64
 10
-115.963152
 20
6.037943
 40
4.024022
 50
76.165002
 51
103.834985
  0
LINE
  8
ボルト／ビス
  6
CONTINUOUS
 62
    64
 10
-114.359403
 20
10.061965
 11
-114.038652
 21
9.945223
  0
ARC
  8
ボルト／ビス
  6
CONTINUOUS
 62
    64
 10
-114.519776
 20
9.012181
 40
1.049784
 50
90.0
 51
117.278033
  0
LINE
  8
ボルト／ビス
  6
CONTINUOUS
 62
    64
 10
-117.566903
 20
10.061965
 11
-114.359403
 21
10.061965
  0
LINE
  8
ボルト／ビス
  6
CONTINUOUS
 62
    64
 10
-114.038652
 20
9.945223
 11
-114.038652
 21
8.728632
  0
LINE
  8
ボルト／ビス
  6
CONTINUOUS
 62
    64
 10
-115.000903
 20
9.945223
 11
-115.000903
 21
8.728632
  0
LINE
  8
ボルト／ビス
  6
CONTINUOUS
 62
    64
 10
-117.887652
 20
9.945223
 11
-117.887652
 21
8.728632
  0
LINE
  8
ボルト／ビス
  6
CONTINUOUS
 62
    64
 10
-116.925403
 20
9.945223
 11
-116.925403
 21
8.728632
  0
LINE
  8
ボルト／ビス
  6
CONTINUOUS
 10
-117.887652
 20
8.728632
 11
-114.038652
 21
8.728632
  0
LINE
  8
ボルト／ビス
  6
CONTINUOUS
 10
-117.963152
 20
8.728632
 11
-117.963152
 21
8.061965
  0
LINE
  8
ボルト／ビス
  6
CONTINUOUS
 10
-117.963152
 20
8.728632
 11
-113.963152
 21
8.728632
  0
LINE
  8
ボルト／ビス
  6
CONTINUOUS
 10
-113.963152
 20
8.728632
 11
-113.963152
 21
8.061965
  0
LINE
  8
ボルト／ビス
  6
CONTINUOUS
 62
    64
 10
-115.196485
 20
7.061965
 11
-115.196485
 21
0.3953
  0
LINE
  8
ボルト／ビス
  6
CONTINUOUS
 62
    64
 10
-116.72982
 20
7.061965
 11
-116.72982
 21
0.3953
  0
LINE
  8
ボルト／ビス
  6
CONTINUOUS
 62
    64
 10
-116.72982
 20
0.3953
 11
-115.196485
 21
0.3953
  0
LINE
  8
ボルト／ビス
  6
CONTINUOUS
 62
    64
 10
-114.963152
 20
0.728632
 11
-115.196485
 21
0.3953
  0
LINE
  8
ボルト／ビス
  6
CONTINUOUS
 62
    64
 10
-116.963152
 20
0.728632
 11
-116.72982
 21
0.3953
  0
LINE
  8
ボルト／ビス
  6
CONTINUOUS
 62
    64
 10
-116.963152
 20
0.728632
 11
-114.963152
 21
0.728632
  0
LINE
  8
ボルト／ビス
  6
CONTINUOUS
 62
    64
 10
-116.72982
 20
0.3953
 11
-115.196485
 21
0.3953
  0
LINE
  8
ボルト／ビス
  6
CONTINUOUS
 62
    64
 10
-116.963152
 20
7.061965
 11
-116.963152
 21
0.728632
  0
LINE
  8
ボルト／ビス
  6
CONTINUOUS
 62
    64
 10
-114.963152
 20
7.061965
 11
-114.963152
 21
0.728632
  0
ENDBLK
  0
BLOCK
  2
*GRP_0109
 70
    65
 10
0.0
 20
0.0
  0
LINE
  8
別途部材
  6
CONTINUOUS
 10
-111.963158
 20
-5.93756
 11
-111.963158
 21
-20.604227
  0
ARC
  8
別途部材
  6
CONTINUOUS
 10
-109.963155
 20
-5.937561
 40
2.0
 50
90.0
 51
180.0
  0
LINE
  8
別途部材
  6
CONTINUOUS
 10
-107.963158
 20
-5.93756
 11
-107.963158
 21
-20.604227
  0
ARC
  8
別途部材
  6
CONTINUOUS
 10
-109.963155
 20
-5.937561
 40
2.0
 50
0.0
 51
90.0
  0
CIRCLE
  8
別途部材
  6
CONTINUOUS
 10
-109.963158
 20
-5.93756
 40
1.0
  0
LINE
  8
別途部材
  6
CONTINUOUS
 10
-110.963158
 20
-5.93756
 11
-108.963158
 21
-5.93756
  0
LINE
  8
別途部材
  6
CONTINUOUS
 10
-109.963158
 20
-4.93756
 11
-109.963158
 21
-6.93756
  0
LINE
  8
別途部材
  6
CONTINUOUS
 10
-111.963158
 20
-20.604227
 11
-111.296487
 21
-20.604227
  0
LINE
  8
別途部材
  6
CONTINUOUS
 10
-108.629822
 20
-20.604227
 11
-107.963158
 21
-20.604227
  0
LINE
  8
別途部材
  6
CONTINUOUS
 10
-111.296487
 20
-20.604227
 11
-111.296487
 21
-7.93756
  0
LINE
  8
別途部材
  6
CONTINUOUS
 10
-111.296487
 20
-7.93756
 11
-108.629822
 21
-7.93756
  0
LINE
  8
別途部材
  6
CONTINUOUS
 10
-108.629822
 20
-20.604227
 11
-108.629822
 21
-7.93756
  0
ARC
  8
別途部材
  6
CONTINUOUS
 10
-109.963155
 20
-20.45145
 40
0.847222
 50
10.38896
 51
169.61104
  0
LINE
  8
別途部材
  6
CONTINUOUS
 10
-108.796487
 20
-20.604227
 11
-109.129822
 21
-20.604227
  0
LINE
  8
別途部材
  6
CONTINUOUS
 10
-111.129822
 20
-20.604227
 11
-110.796487
 21
-20.604227
  0
CIRCLE
  8
別途部材
  6
CONTINUOUS
 10
-109.963158
 20
-9.270892
 40
0.333332
  0
LINE
  8
別途部材
  6
CONTINUOUS
 10
-109.629822
 20
-9.270892
 11
-110.296487
 21
-9.270892
  0
LINE
  8
別途部材
  6
CONTINUOUS
 10
-109.963158
 20
-8.93756
 11
-109.963158
 21
-9.604227
  0
ARC
  8
別途部材
  6
CONTINUOUS
 10
-109.963155
 20
-8.757003
 40
0.847222
 50
190.38896
 51
349.61104
  0
LINE
  8
別途部材
  6
CONTINUOUS
 10
-108.796487
 20
-8.604227
 11
-109.129822
 21
-8.604227
  0
LINE
  8
別途部材
  6
CONTINUOUS
 10
-110.796487
 20
-8.604227
 11
-111.129822
 21
-8.604227
  0
LINE
  8
別途部材
  6
CONTINUOUS
 10
-109.129822
 20
-20.604227
 11
-109.129822
 21
-8.604227
  0
LINE
  8
別途部材
  6
CONTINUOUS
 10
-108.796487
 20
-20.604227
 11
-108.796487
 21
-8.604227
  0
LINE
  8
別途部材
  6
CONTINUOUS
 10
-110.796487
 20
-20.604227
 11
-110.796487
 21
-8.604227
  0
LINE
  8
別途部材
  6
CONTINUOUS
 10
-111.129822
 20
-20.604227
 11
-111.129822
 21
-8.604227
  0
ENDBLK
  0
BLOCK
  2
*GRP_0110
 70
    65
 10
0.0
 20
0.0
  0
LINE
  8
別途部材
  6
CONTINUOUS
 10
-109.963158
 20
-3.93756
 11
-109.963158
 21
-3.93756
  0
LINE
  8
別途部材
  6
CONTINUOUS
 10
-111.963158
 20
-8.270895
 11
-112.79649
 21
-8.270895
  0
LINE
  8
別途部材
  6
CONTINUOUS
 10
-109.963158
 20
-3.770895
 11
-109.963155
 21
-3.937562
  0
LINE
  8
別途部材
  6
CONTINUOUS
 10
-115.463158
 20
-7.93756
 11
-112.79649
 21
-7.93756
  0
ARC
  8
別途部材
  6
CONTINUOUS
 10
-115.129824
 20
-20.270893
 40
0.333333
 50
180.0
 51
270.0
  0
LINE
  8
別途部材
  6
CONTINUOUS
 10
-113.129822
 20
-20.604227
 11
-115.129822
 21
-20.604227
  0
ARC
  8
別途部材
  6
CONTINUOUS
 10
-113.129824
 20
-20.270893
 40
0.333333
 50
270.0
 51
360.0
  0
LINE
  8
別途部材
  6
CONTINUOUS
 10
-115.463158
 20
-20.270895
 11
-115.463158
 21
-4.104227
  0
ARC
  8
別途部材
  6
CONTINUOUS
 10
-115.129824
 20
-4.104227
 40
0.333333
 50
90.0
 51
180.0
  0
LINE
  8
別途部材
  6
CONTINUOUS
 10
-112.79649
 20
-20.270895
 11
-112.79649
 21
-4.104227
  0
ARC
  8
別途部材
  6
CONTINUOUS
 10
-113.129824
 20
-4.104227
 40
0.333333
 50
0.0
 51
90.0
  0
LINE
  8
別途部材
  6
CONTINUOUS
 10
-115.129822
 20
-3.770895
 11
-109.963158
 21
-3.770895
  0
LINE
  8
別途部材
  6
CONTINUOUS
 10
-113.563158
 20
-10.270895
 11
-113.563158
 21
-11.93756
  0
LINE
  8
別途部材
  6
CONTINUOUS
 10
-113.563158
 20
-16.93756
 11
-113.563158
 21
-18.60423
  0
POLYLINE
  8
別途部材
  6
CONTINUOUS
 66
     1
  0
VERTEX
  8
別途部材
 10
-112.79649
 20
-9.770895
  0
VERTEX
  8
別途部材
 10
-113.563158
 20
-10.270895
  0
VERTEX
  8
別途部材
 10
-115.463158
 20
-10.270895
  0
SEQEND
  0
LINE
  8
別途部材
  6
CONTINUOUS
 10
-112.79649
 20
-11.10423
 11
-115.463158
 21
-11.10423
  0
POLYLINE
  8
別途部材
  6
CONTINUOUS
 66
     1
  0
VERTEX
  8
別途部材
 10
-112.79649
 20
-12.43756
  0
VERTEX
  8
別途部材
 10
-113.563158
 20
-11.93756
  0
VERTEX
  8
別途部材
 10
-115.463158
 20
-11.93756
  0
SEQEND
  0
POLYLINE
  8
別途部材
  6
CONTINUOUS
 66
     1
  0
VERTEX
  8
別途部材
 10
-112.79649
 20
-16.43756
  0
VERTEX
  8
別途部材
 10
-113.563158
 20
-16.93756
  0
VERTEX
  8
別途部材
 10
-115.463158
 20
-16.93756
  0
SEQEND
  0
LINE
  8
別途部材
  6
CONTINUOUS
 10
-112.79649
 20
-17.770895
 11
-115.463158
 21
-17.770895
  0
POLYLINE
  8
別途部材
  6
CONTINUOUS
 66
     1
  0
VERTEX
  8
別途部材
 10
-112.79649
 20
-19.10423
  0
VERTEX
  8
別途部材
 10
-113.563158
 20
-18.60423
  0
VERTEX
  8
別途部材
 10
-115.463158
 20
-18.60423
  0
SEQEND
  0
ENDBLK
  0
BLOCK
  2
*GRP_0111
 70
    65
 10
0.0
 20
0.0
  0
LINE
  8
ボルト／ビス
  6
CONTINUOUS
 10
-112.79649
 20
-16.437562
 11
-113.563158
 21
-16.937562
  0
LINE
  8
ボルト／ビス
  6
CONTINUOUS
 10
-112.79649
 20
-19.10423
 11
-113.563158
 21
-18.60423
  0
LINE
  8
ボルト／ビス
  6
CONTINUOUS
 10
-112.79649
 20
-16.437562
 11
-112.79649
 21
-19.10423
  0
LINE
  8
ボルト／ビス
  6
CONTINUOUS
 10
-113.563158
 20
-16.937562
 11
-113.563158
 21
-18.60423
  0
LINE
  8
ボルト／ビス
  6
CONTINUOUS
 10
-112.001422
 20
-17.770897
 11
-117.79649
 21
-17.770897
  0
LINE
  8
ボルト／ビス
  6
CONTINUOUS
 10
-117.629822
 20
-16.937562
 11
-117.79649
 21
-17.10423
  0
LINE
  8
ボルト／ビス
  6
CONTINUOUS
 10
-117.629822
 20
-18.60423
 11
-117.79649
 21
-18.437562
  0
LINE
  8
ボルト／ビス
  6
CONTINUOUS
 10
-117.79649
 20
-18.437562
 11
-117.79649
 21
-17.10423
  0
LINE
  8
ボルト／ビス
  6
CONTINUOUS
 10
-117.629822
 20
-18.60423
 11
-117.629822
 21
-16.937562
  0
LINE
  8
ボルト／ビス
  6
CONTINUOUS
 10
-113.563158
 20
-17.10423
 11
-117.79649
 21
-17.10423
  0
LINE
  8
ボルト／ビス
  6
CONTINUOUS
 10
-113.563158
 20
-18.437562
 11
-117.79649
 21
-18.437562
  0
LINE
  8
ボルト／ビス
  6
CONTINUOUS
 10
-113.563158
 20
-18.60423
 11
-117.629822
 21
-18.60423
  0
LINE
  8
ボルト／ビス
  6
CONTINUOUS
 10
-113.563158
 20
-16.937562
 11
-117.629822
 21
-16.937562
  0
ENDBLK
  0
BLOCK
  2
*GRP_0112
 70
    65
 10
0.0
 20
0.0
  0
LINE
  8
ボルト／ビス
  6
CONTINUOUS
 10
-112.79649
 20
-9.770897
 11
-113.563158
 21
-10.270897
  0
LINE
  8
ボルト／ビス
  6
CONTINUOUS
 10
-112.79649
 20
-12.437562
 11
-113.563158
 21
-11.937562
  0
LINE
  8
ボルト／ビス
  6
CONTINUOUS
 10
-112.79649
 20
-9.770897
 11
-112.79649
 21
-12.437562
  0
LINE
  8
ボルト／ビス
  6
CONTINUOUS
 10
-113.563158
 20
-10.270897
 11
-113.563158
 21
-11.937562
  0
LINE
  8
ボルト／ビス
  6
CONTINUOUS
 10
-112.001422
 20
-11.10423
 11
-117.79649
 21
-11.10423
  0
LINE
  8
ボルト／ビス
  6
CONTINUOUS
 10
-117.629822
 20
-10.270897
 11
-117.79649
 21
-10.437562
  0
LINE
  8
ボルト／ビス
  6
CONTINUOUS
 10
-117.629822
 20
-11.937562
 11
-117.79649
 21
-11.770897
  0
LINE
  8
ボルト／ビス
  6
CONTINUOUS
 10
-117.79649
 20
-11.770897
 11
-117.79649
 21
-10.437562
  0
LINE
  8
ボルト／ビス
  6
CONTINUOUS
 10
-117.629822
 20
-11.937562
 11
-117.629822
 21
-10.270897
  0
LINE
  8
ボルト／ビス
  6
CONTINUOUS
 10
-113.563158
 20
-10.437562
 11
-117.79649
 21
-10.437562
  0
LINE
  8
ボルト／ビス
  6
CONTINUOUS
 10
-113.563158
 20
-11.770897
 11
-117.79649
 21
-11.770897
  0
LINE
  8
ボルト／ビス
  6
CONTINUOUS
 10
-113.563158
 20
-11.937562
 11
-117.629822
 21
-11.937562
  0
LINE
  8
ボルト／ビス
  6
CONTINUOUS
 10
-113.563158
 20
-10.270897
 11
-117.629822
 21
-10.270897
  0
ENDBLK
  0
BLOCK
  2
*GRP_0113
 70
    65
 10
0.0
 20
0.0
  0
LINE
  8
別途部材
  6
CONTINUOUS
 10
-111.96316
 20
-58.104235
 11
-111.96316
 21
-43.437568
  0
ARC
  8
別途部材
  6
CONTINUOUS
 10
-109.963159
 20
-58.104235
 40
2.0
 50
180.0
 51
270.0
  0
LINE
  8
別途部材
  6
CONTINUOUS
 10
-107.96316
 20
-58.104235
 11
-107.96316
 21
-43.437568
  0
ARC
  8
別途部材
  6
CONTINUOUS
 10
-109.963159
 20
-58.104235
 40
2.0
 50
-90.0
 51
0.0
  0
CIRCLE
  8
別途部材
  6
CONTINUOUS
 10
-109.96316
 20
-58.104235
 40
1.0
  0
LINE
  8
別途部材
  6
CONTINUOUS
 10
-110.96316
 20
-58.104235
 11
-108.96316
 21
-58.104235
  0
LINE
  8
別途部材
  6
CONTINUOUS
 10
-109.96316
 20
-59.104235
 11
-109.96316
 21
-57.104235
  0
LINE
  8
別途部材
  6
CONTINUOUS
 10
-111.96316
 20
-43.437568
 11
-111.29649
 21
-43.437568
  0
LINE
  8
別途部材
  6
CONTINUOUS
 10
-108.629825
 20
-43.437568
 11
-107.96316
 21
-43.437568
  0
LINE
  8
別途部材
  6
CONTINUOUS
 10
-111.29649
 20
-43.437568
 11
-111.29649
 21
-56.104235
  0
LINE
  8
別途部材
  6
CONTINUOUS
 10
-111.29649
 20
-56.104235
 11
-108.629825
 21
-56.104235
  0
LINE
  8
別途部材
  6
CONTINUOUS
 10
-108.629825
 20
-43.437568
 11
-108.629825
 21
-56.104235
  0
ARC
  8
別途部材
  6
CONTINUOUS
 10
-109.963159
 20
-43.590346
 40
0.847222
 50
190.38896
 51
349.61104
  0
LINE
  8
別途部材
  6
CONTINUOUS
 10
-108.79649
 20
-43.437568
 11
-109.129825
 21
-43.437568
  0
LINE
  8
別途部材
  6
CONTINUOUS
 10
-111.129825
 20
-43.437568
 11
-110.79649
 21
-43.437568
  0
CIRCLE
  8
別途部材
  6
CONTINUOUS
 10
-109.96316
 20
-54.770903
 40
0.333332
  0
LINE
  8
別途部材
  6
CONTINUOUS
 10
-109.629825
 20
-54.770903
 11
-110.29649
 21
-54.770903
  0
LINE
  8
別途部材
  6
CONTINUOUS
 10
-109.96316
 20
-55.104235
 11
-109.96316
 21
-54.437568
  0
ARC
  8
別途部材
  6
CONTINUOUS
 10
-109.963159
 20
-55.284793
 40
0.847222
 50
10.38896
 51
169.61104
  0
LINE
  8
別途部材
  6
CONTINUOUS
 10
-108.79649
 20
-55.437568
 11
-109.129825
 21
-55.437568
  0
LINE
  8
別途部材
  6
CONTINUOUS
 10
-110.79649
 20
-55.437568
 11
-111.129825
 21
-55.437568
  0
LINE
  8
別途部材
  6
CONTINUOUS
 10
-109.129825
 20
-43.437568
 11
-109.129825
 21
-55.437568
  0
LINE
  8
別途部材
  6
CONTINUOUS
 10
-108.79649
 20
-43.437568
 11
-108.79649
 21
-55.437568
  0
LINE
  8
別途部材
  6
CONTINUOUS
 10
-110.79649
 20
-43.437568
 11
-110.79649
 21
-55.437568
  0
LINE
  8
別途部材
  6
CONTINUOUS
 10
-111.129825
 20
-43.437568
 11
-111.129825
 21
-55.437568
  0
ENDBLK
  0
BLOCK
  2
*GRP_0114
 70
    65
 10
0.0
 20
0.0
  0
LINE
  8
別途部材
  6
CONTINUOUS
 10
-109.96316
 20
-60.104235
 11
-109.96316
 21
-60.104235
  0
LINE
  8
別途部材
  6
CONTINUOUS
 10
-111.96316
 20
-55.7709
 11
-112.796493
 21
-55.7709
  0
LINE
  8
別途部材
  6
CONTINUOUS
 10
-109.96316
 20
-60.2709
 11
-109.963158
 21
-60.104233
  0
LINE
  8
別途部材
  6
CONTINUOUS
 10
-115.46316
 20
-56.104235
 11
-112.796493
 21
-56.104235
  0
ARC
  8
別途部材
  6
CONTINUOUS
 10
-115.129827
 20
-43.770902
 40
0.333333
 50
90.0
 51
180.0
  0
LINE
  8
別途部材
  6
CONTINUOUS
 10
-113.129825
 20
-43.437568
 11
-115.129825
 21
-43.437568
  0
ARC
  8
別途部材
  6
CONTINUOUS
 10
-113.129827
 20
-43.770902
 40
0.333333
 50
0.0
 51
90.0
  0
LINE
  8
別途部材
  6
CONTINUOUS
 10
-115.46316
 20
-43.7709
 11
-115.46316
 21
-59.937568
  0
ARC
  8
別途部材
  6
CONTINUOUS
 10
-115.129827
 20
-59.937569
 40
0.333333
 50
180.0
 51
270.0
  0
LINE
  8
別途部材
  6
CONTINUOUS
 10
-112.796493
 20
-43.7709
 11
-112.796493
 21
-59.937568
  0
ARC
  8
別途部材
  6
CONTINUOUS
 10
-113.129827
 20
-59.937569
 40
0.333333
 50
-90.0
 51
0.0
  0
LINE
  8
別途部材
  6
CONTINUOUS
 10
-115.129825
 20
-60.2709
 11
-109.96316
 21
-60.2709
  0
LINE
  8
別途部材
  6
CONTINUOUS
 10
-113.56316
 20
-53.7709
 11
-113.56316
 21
-52.104235
  0
LINE
  8
別途部材
  6
CONTINUOUS
 10
-113.56316
 20
-47.104235
 11
-113.56316
 21
-45.437565
  0
POLYLINE
  8
別途部材
  6
CONTINUOUS
 66
     1
  0
VERTEX
  8
別途部材
 10
-112.796493
 20
-54.2709
  0
VERTEX
  8
別途部材
 10
-113.56316
 20
-53.7709
  0
VERTEX
  8
別途部材
 10
-115.46316
 20
-53.7709
  0
SEQEND
  0
LINE
  8
別途部材
  6
CONTINUOUS
 10
-112.796493
 20
-52.937565
 11
-115.46316
 21
-52.937565
  0
POLYLINE
  8
別途部材
  6
CONTINUOUS
 66
     1
  0
VERTEX
  8
別途部材
 10
-112.796493
 20
-51.604235
  0
VERTEX
  8
別途部材
 10
-113.56316
 20
-52.104235
  0
VERTEX
  8
別途部材
 10
-115.46316
 20
-52.104235
  0
SEQEND
  0
POLYLINE
  8
別途部材
  6
CONTINUOUS
 66
     1
  0
VERTEX
  8
別途部材
 10
-112.796493
 20
-47.604235
  0
VERTEX
  8
別途部材
 10
-113.56316
 20
-47.104235
  0
VERTEX
  8
別途部材
 10
-115.46316
 20
-47.104235
  0
SEQEND
  0
LINE
  8
別途部材
  6
CONTINUOUS
 10
-112.796493
 20
-46.2709
 11
-115.46316
 21
-46.2709
  0
POLYLINE
  8
別途部材
  6
CONTINUOUS
 66
     1
  0
VERTEX
  8
別途部材
 10
-112.796493
 20
-44.937565
  0
VERTEX
  8
別途部材
 10
-113.56316
 20
-45.437565
  0
VERTEX
  8
別途部材
 10
-115.46316
 20
-45.437565
  0
SEQEND
  0
ENDBLK
  0
BLOCK
  2
*GRP_0115
 70
    65
 10
0.0
 20
0.0
  0
LINE
  8
別途部材
  6
CONTINUOUS
 10
-113.29649
 20
-52.770903
 11
-98.629825
 21
-52.770903
  0
ARC
  8
別途部材
  6
CONTINUOUS
 10
-113.296492
 20
-54.770904
 40
2.0
 50
90.0
 51
180.0
  0
LINE
  8
別途部材
  6
CONTINUOUS
 10
-113.29649
 20
-56.770903
 11
-98.629825
 21
-56.770903
  0
ARC
  8
別途部材
  6
CONTINUOUS
 10
-113.296492
 20
-54.770904
 40
2.0
 50
180.0
 51
270.0
  0
CIRCLE
  8
別途部材
  6
CONTINUOUS
 10
-113.29649
 20
-54.770903
 40
1.0
  0
LINE
  8
別途部材
  6
CONTINUOUS
 10
-113.29649
 20
-53.770903
 11
-113.29649
 21
-55.770903
  0
LINE
  8
別途部材
  6
CONTINUOUS
 10
-114.29649
 20
-54.770903
 11
-112.29649
 21
-54.770903
  0
LINE
  8
別途部材
  6
CONTINUOUS
 10
-98.629825
 20
-52.770903
 11
-98.629825
 21
-53.43757
  0
LINE
  8
別途部材
  6
CONTINUOUS
 10
-98.629825
 20
-56.104237
 11
-98.629825
 21
-56.770903
  0
LINE
  8
別途部材
  6
CONTINUOUS
 10
-98.629825
 20
-53.43757
 11
-111.29649
 21
-53.43757
  0
LINE
  8
別途部材
  6
CONTINUOUS
 10
-111.29649
 20
-53.43757
 11
-111.29649
 21
-56.104237
  0
LINE
  8
別途部材
  6
CONTINUOUS
 10
-98.629825
 20
-56.104237
 11
-111.29649
 21
-56.104237
  0
ARC
  8
別途部材
  6
CONTINUOUS
 10
-110.810381
 20
-54.770904
 40
0.847222
 50
180.0
 51
180.0
  0
ARC
  8
別途部材
  6
CONTINUOUS
 10
-98.782603
 20
-54.770904
 40
0.847222
 50
100.38896
 51
259.61104
  0
LINE
  8
別途部材
  6
CONTINUOUS
 10
-98.629825
 20
-55.93757
 11
-98.629825
 21
-55.604237
  0
LINE
  8
別途部材
  6
CONTINUOUS
 10
-98.629825
 20
-53.604237
 11
-98.629825
 21
-53.93757
  0
CIRCLE
  8
別途部材
  6
CONTINUOUS
 10
-109.96316
 20
-54.770903
 40
0.333332
  0
LINE
  8
別途部材
  6
CONTINUOUS
 10
-109.96316
 20
-55.104237
 11
-109.96316
 21
-54.43757
  0
LINE
  8
別途部材
  6
CONTINUOUS
 10
-110.296493
 20
-54.770903
 11
-109.629825
 21
-54.770903
  0
ARC
  8
別途部材
  6
CONTINUOUS
 10
-110.47705
 20
-54.770904
 40
0.847222
 50
280.38896
 51
439.61104
  0
LINE
  8
別途部材
  6
CONTINUOUS
 10
-110.629825
 20
-55.93757
 11
-110.629825
 21
-55.604237
  0
LINE
  8
別途部材
  6
CONTINUOUS
 10
-110.629825
 20
-53.93757
 11
-110.629825
 21
-53.604237
  0
LINE
  8
別途部材
  6
CONTINUOUS
 10
-98.629825
 20
-55.604237
 11
-110.629825
 21
-55.604237
  0
LINE
  8
別途部材
  6
CONTINUOUS
 10
-98.629825
 20
-55.93757
 11
-110.629825
 21
-55.93757
  0
LINE
  8
別途部材
  6
CONTINUOUS
 10
-98.629825
 20
-53.93757
 11
-110.629825
 21
-53.93757
  0
LINE
  8
別途部材
  6
CONTINUOUS
 10
-98.629825
 20
-53.604237
 11
-110.629825
 21
-53.604237
  0
ENDBLK
  0
BLOCK
  2
*GRP_0116
 70
    65
 10
0.0
 20
0.0
  0
LINE
  8
別途部材
  6
CONTINUOUS
 10
-115.29649
 20
-54.770903
 11
-115.29649
 21
-54.770903
  0
LINE
  8
別途部材
  6
CONTINUOUS
 10
-113.563158
 20
-48.604233
 11
-113.563158
 21
-50.2709
  0
LINE
  8
別途部材
  6
CONTINUOUS
 10
-112.79649
 20
-49.437568
 11
-115.463158
 21
-49.437568
  0
POLYLINE
  8
別途部材
  6
CONTINUOUS
 66
     1
  0
VERTEX
  8
別途部材
 10
-112.79649
 20
-50.7709
  0
VERTEX
  8
別途部材
 10
-113.563158
 20
-50.2709
  0
VERTEX
  8
別途部材
 10
-115.463158
 20
-50.2709
  0
SEQEND
  0
POLYLINE
  8
別途部材
  6
CONTINUOUS
 66
     1
  0
VERTEX
  8
別途部材
 10
-112.79649
 20
-48.104233
  0
VERTEX
  8
別途部材
 10
-113.563158
 20
-48.604233
  0
VERTEX
  8
別途部材
 10
-115.463158
 20
-48.604233
  0
SEQEND
  0
LINE
  8
別途部材
  6
CONTINUOUS
 10
-115.463158
 20
-54.770903
 11
-115.29649
 21
-54.770903
  0
ARC
  8
別途部材
  6
CONTINUOUS
 10
-113.129826
 20
-46.437568
 40
0.333333
 50
0.0
 51
90.0
  0
LINE
  8
別途部材
  6
CONTINUOUS
 10
-113.129825
 20
-46.104235
 11
-115.129825
 21
-46.104235
  0
ARC
  8
別途部材
  6
CONTINUOUS
 10
-115.129826
 20
-46.437568
 40
0.333333
 50
90.0
 51
180.0
  0
ARC
  8
別途部材
  6
CONTINUOUS
 10
-113.129826
 20
-51.770901
 40
0.333333
 50
-90.0
 51
0.0
  0
LINE
  8
別途部材
  6
CONTINUOUS
 10
-115.129825
 20
-52.104235
 11
-113.129825
 21
-52.104235
  0
ARC
  8
別途部材
  6
CONTINUOUS
 10
-115.129826
 20
-51.770901
 40
0.333333
 50
180.0
 51
270.0
  0
LINE
  8
別途部材
  6
CONTINUOUS
 10
-115.463158
 20
-46.437568
 11
-115.463158
 21
-54.770903
  0
LINE
  8
別途部材
  6
CONTINUOUS
 10
-112.79649
 20
-46.437568
 11
-112.79649
 21
-52.770903
  0
ENDBLK
  0
BLOCK
  2
*GRP_0117
 70
    65
 10
0.0
 20
0.0
  0
LINE
  8
ボルト／ビス
  6
CONTINUOUS
 10
-112.796493
 20
-51.604235
 11
-113.563158
 21
-52.104235
  0
LINE
  8
ボルト／ビス
  6
CONTINUOUS
 10
-112.796493
 20
-54.2709
 11
-113.563158
 21
-53.7709
  0
LINE
  8
ボルト／ビス
  6
CONTINUOUS
 10
-112.796493
 20
-51.604235
 11
-112.796493
 21
-54.2709
  0
LINE
  8
ボルト／ビス
  6
CONTINUOUS
 10
-113.563158
 20
-52.104235
 11
-113.563158
 21
-53.7709
  0
LINE
  8
ボルト／ビス
  6
CONTINUOUS
 10
-112.001422
 20
-52.937568
 11
-117.796493
 21
-52.937568
  0
LINE
  8
ボルト／ビス
  6
CONTINUOUS
 10
-117.629825
 20
-52.104235
 11
-117.796493
 21
-52.2709
  0
LINE
  8
ボルト／ビス
  6
CONTINUOUS
 10
-117.629825
 20
-53.7709
 11
-117.796493
 21
-53.604235
  0
LINE
  8
ボルト／ビス
  6
CONTINUOUS
 10
-117.796493
 20
-53.604235
 11
-117.796493
 21
-52.2709
  0
LINE
  8
ボルト／ビス
  6
CONTINUOUS
 10
-117.629825
 20
-53.7709
 11
-117.629825
 21
-52.104235
  0
LINE
  8
ボルト／ビス
  6
CONTINUOUS
 10
-113.563158
 20
-52.2709
 11
-117.796493
 21
-52.2709
  0
LINE
  8
ボルト／ビス
  6
CONTINUOUS
 10
-113.563158
 20
-53.604235
 11
-117.796493
 21
-53.604235
  0
LINE
  8
ボルト／ビス
  6
CONTINUOUS
 10
-113.563158
 20
-53.7709
 11
-117.629825
 21
-53.7709
  0
LINE
  8
ボルト／ビス
  6
CONTINUOUS
 10
-113.563158
 20
-52.104235
 11
-117.629825
 21
-52.104235
  0
ENDBLK
  0
BLOCK
  2
*GRP_0118
 70
    65
 10
0.0
 20
0.0
  0
LINE
  8
ボルト／ビス
  6
CONTINUOUS
 10
-112.796493
 20
-44.937568
 11
-113.563158
 21
-45.437568
  0
LINE
  8
ボルト／ビス
  6
CONTINUOUS
 10
-112.796493
 20
-47.604235
 11
-113.563158
 21
-47.104235
  0
LINE
  8
ボルト／ビス
  6
CONTINUOUS
 10
-112.796493
 20
-44.937568
 11
-112.796493
 21
-47.604235
  0
LINE
  8
ボルト／ビス
  6
CONTINUOUS
 10
-113.563158
 20
-45.437568
 11
-113.563158
 21
-47.104235
  0
LINE
  8
ボルト／ビス
  6
CONTINUOUS
 10
-112.001422
 20
-46.2709
 11
-117.796493
 21
-46.2709
  0
LINE
  8
ボルト／ビス
  6
CONTINUOUS
 10
-117.629825
 20
-45.437568
 11
-117.796493
 21
-45.604235
  0
LINE
  8
ボルト／ビス
  6
CONTINUOUS
 10
-117.629825
 20
-47.104235
 11
-117.796493
 21
-46.937568
  0
LINE
  8
ボルト／ビス
  6
CONTINUOUS
 10
-117.796493
 20
-46.937568
 11
-117.796493
 21
-45.604235
  0
LINE
  8
ボルト／ビス
  6
CONTINUOUS
 10
-117.629825
 20
-47.104235
 11
-117.629825
 21
-45.437568
  0
LINE
  8
ボルト／ビス
  6
CONTINUOUS
 10
-113.563158
 20
-45.604235
 11
-117.796493
 21
-45.604235
  0
LINE
  8
ボルト／ビス
  6
CONTINUOUS
 10
-113.563158
 20
-46.937568
 11
-117.796493
 21
-46.937568
  0
LINE
  8
ボルト／ビス
  6
CONTINUOUS
 10
-113.563158
 20
-47.104235
 11
-117.629825
 21
-47.104235
  0
LINE
  8
ボルト／ビス
  6
CONTINUOUS
 10
-113.563158
 20
-45.437568
 11
-117.629825
 21
-45.437568
  0
ENDBLK
  0
BLOCK
  2
*GRP_0119
 70
    65
 10
0.0
 20
0.0
  0
LINE
  8
ボルト／ビス
  6
CONTINUOUS
 10
-112.79649
 20
-48.104237
 11
-113.563155
 21
-48.604237
  0
LINE
  8
ボルト／ビス
  6
CONTINUOUS
 10
-112.79649
 20
-50.770903
 11
-113.563155
 21
-50.270903
  0
LINE
  8
ボルト／ビス
  6
CONTINUOUS
 10
-112.79649
 20
-48.104237
 11
-112.79649
 21
-50.770903
  0
LINE
  8
ボルト／ビス
  6
CONTINUOUS
 10
-113.563155
 20
-48.604237
 11
-113.563155
 21
-50.270903
  0
LINE
  8
ボルト／ビス
  6
CONTINUOUS
 10
-112.00142
 20
-49.43757
 11
-117.79649
 21
-49.43757
  0
LINE
  8
ボルト／ビス
  6
CONTINUOUS
 10
-117.629822
 20
-48.604237
 11
-117.79649
 21
-48.770903
  0
LINE
  8
ボルト／ビス
  6
CONTINUOUS
 10
-117.629822
 20
-50.270903
 11
-117.79649
 21
-50.104237
  0
LINE
  8
ボルト／ビス
  6
CONTINUOUS
 10
-117.79649
 20
-50.104237
 11
-117.79649
 21
-48.770903
  0
LINE
  8
ボルト／ビス
  6
CONTINUOUS
 10
-117.629822
 20
-50.270903
 11
-117.629822
 21
-48.604237
  0
LINE
  8
ボルト／ビス
  6
CONTINUOUS
 10
-113.563155
 20
-48.770903
 11
-117.79649
 21
-48.770903
  0
LINE
  8
ボルト／ビス
  6
CONTINUOUS
 10
-113.563155
 20
-50.104237
 11
-117.79649
 21
-50.104237
  0
LINE
  8
ボルト／ビス
  6
CONTINUOUS
 10
-113.563155
 20
-50.270903
 11
-117.629822
 21
-50.270903
  0
LINE
  8
ボルト／ビス
  6
CONTINUOUS
 10
-113.563155
 20
-48.604237
 11
-117.629822
 21
-48.604237
  0
ENDBLK
  0
BLOCK
  2
*GRP_0120
 70
    65
 10
0.0
 20
0.0
  0
LINE
  8
ゴム等
  6
CONTINUOUS
 10
-100.696487
 20
-1.10423
 11
-101.196483
 21
-1.10423
  0
LINE
  8
ゴム等
  6
CONTINUOUS
 10
-101.196485
 20
-2.937562
 11
-101.196483
 21
-1.10423
  0
LINE
  8
ゴム等
  6
CONTINUOUS
 10
-104.029817
 20
-3.270897
 11
-101.52982
 21
-3.270895
  0
LINE
  8
ゴム等
  6
CONTINUOUS
 10
-101.196485
 20
-2.937562
 11
-101.52982
 21
-3.270895
  0
LINE
  8
ゴム等
  6
CONTINUOUS
 10
-100.696487
 20
-1.10423
 11
-100.696483
 21
-0.60423
  0
LINE
  8
ゴム等
  6
CONTINUOUS
 10
-100.696483
 20
-0.60423
 11
-104.029817
 21
-0.60423
  0
LINE
  8
ゴム等
  6
CONTINUOUS
 10
-104.029817
 20
-3.270897
 11
-104.029817
 21
-0.60423
  0
LINE
  8
ゴム等
  6
CONTINUOUS
 10
-101.023235
 20
-0.60423
 11
-100.696485
 21
-0.93098
  0
LINE
  8
ゴム等
  6
CONTINUOUS
 10
-101.494638
 20
-0.60423
 11
-100.994638
 21
-1.104233
  0
LINE
  8
ゴム等
  6
CONTINUOUS
 10
-101.966043
 20
-0.60423
 11
-101.196483
 21
-1.37379
  0
LINE
  8
ゴム等
  6
CONTINUOUS
 10
-102.437445
 20
-0.604233
 11
-101.196483
 21
-1.845193
  0
LINE
  8
ゴム等
  6
CONTINUOUS
 10
-102.908847
 20
-0.60423
 11
-101.196485
 21
-2.316597
  0
LINE
  8
ゴム等
  6
CONTINUOUS
 10
-103.380255
 20
-0.60423
 11
-101.196485
 21
-2.788003
  0
LINE
  8
ゴム等
  6
CONTINUOUS
 10
-103.851657
 20
-0.60423
 11
-101.357405
 21
-3.098485
  0
LINE
  8
ゴム等
  6
CONTINUOUS
 10
-104.029817
 20
-0.897475
 11
-101.656398
 21
-3.270895
  0
LINE
  8
ゴム等
  6
CONTINUOUS
 10
-104.029817
 20
-1.36888
 11
-102.127805
 21
-3.270895
  0
LINE
  8
ゴム等
  6
CONTINUOUS
 10
-104.02982
 20
-1.840285
 11
-102.59921
 21
-3.270895
  0
LINE
  8
ゴム等
  6
CONTINUOUS
 10
-104.029817
 20
-2.311693
 11
-103.070615
 21
-3.270897
  0
LINE
  8
ゴム等
  6
CONTINUOUS
 10
-104.02982
 20
-2.783095
 11
-103.542018
 21
-3.2709
  0
ENDBLK
  0
BLOCK
  2
*GRP_0121
 70
    65
 10
0.0
 20
0.0
  0
LINE
  8
ゴム等
  6
CONTINUOUS
 10
-105.696485
 20
4.329097
 11
-105.696485
 21
1.66243
  0
LINE
  8
ゴム等
  6
CONTINUOUS
 10
-105.696485
 20
4.329097
 11
-100.696485
 21
4.329097
  0
LINE
  8
ゴム等
  6
CONTINUOUS
 10
-100.696485
 20
4.329097
 11
-100.696485
 21
1.66243
  0
LINE
  8
ゴム等
  6
CONTINUOUS
 10
-105.696485
 20
1.66243
 11
-100.696485
 21
1.66243
  0
LINE
  8
ゴム等
  6
CONTINUOUS
 10
-100.696485
 20
2.19762
 11
-101.231672
 21
1.66243
  0
LINE
  8
ゴム等
  6
CONTINUOUS
 10
-100.696485
 20
2.669025
 11
-101.703078
 21
1.66243
  0
LINE
  8
ゴム等
  6
CONTINUOUS
 10
-100.696485
 20
3.140428
 11
-102.174482
 21
1.66243
  0
LINE
  8
ゴム等
  6
CONTINUOUS
 10
-100.696485
 20
3.611832
 11
-102.645888
 21
1.66243
  0
LINE
  8
ゴム等
  6
CONTINUOUS
 10
-100.696485
 20
4.083237
 11
-103.117292
 21
1.66243
  0
LINE
  8
ゴム等
  6
CONTINUOUS
 10
-100.92203
 20
4.329097
 11
-103.588698
 21
1.66243
  0
LINE
  8
ゴム等
  6
CONTINUOUS
 10
-101.393433
 20
4.329097
 11
-104.0601
 21
1.66243
  0
LINE
  8
ゴム等
  6
CONTINUOUS
 10
-101.864837
 20
4.329097
 11
-104.531505
 21
1.66243
  0
LINE
  8
ゴム等
  6
CONTINUOUS
 10
-102.336243
 20
4.329097
 11
-105.00291
 21
1.66243
  0
LINE
  8
ゴム等
  6
CONTINUOUS
 10
-102.807647
 20
4.329097
 11
-105.474313
 21
1.66243
  0
LINE
  8
ゴム等
  6
CONTINUOUS
 10
-103.750458
 20
4.329097
 11
-105.696485
 21
2.38307
  0
LINE
  8
ゴム等
  6
CONTINUOUS
 10
-104.221863
 20
4.329097
 11
-105.696485
 21
2.854475
  0
LINE
  8
ゴム等
  6
CONTINUOUS
 10
-103.279053
 20
4.329097
 11
-105.696485
 21
1.911665
  0
LINE
  8
ゴム等
  6
CONTINUOUS
 10
-104.693265
 20
4.329097
 11
-105.696485
 21
3.325878
  0
LINE
  8
ゴム等
  6
CONTINUOUS
 10
-105.16467
 20
4.329097
 11
-105.696485
 21
3.797283
  0
ENDBLK
  0
BLOCK
  2
*GRP_0122
 70
    65
 10
0.0
 20
0.0
  0
LINE
  8
ゴム等
  6
CONTINUOUS
 10
100.696487
 20
-1.104235
 11
101.196482
 21
-1.104235
  0
LINE
  8
ゴム等
  6
CONTINUOUS
 10
101.196485
 20
-2.937568
 11
101.196482
 21
-1.104235
  0
LINE
  8
ゴム等
  6
CONTINUOUS
 10
104.029817
 20
-3.270903
 11
101.52982
 21
-3.2709
  0
LINE
  8
ゴム等
  6
CONTINUOUS
 10
101.196485
 20
-2.937568
 11
101.52982
 21
-3.2709
  0
LINE
  8
ゴム等
  6
CONTINUOUS
 10
100.696487
 20
-1.104235
 11
100.696482
 21
-0.604235
  0
LINE
  8
ゴム等
  6
CONTINUOUS
 10
100.696482
 20
-0.604235
 11
104.029817
 21
-0.604235
  0
LINE
  8
ゴム等
  6
CONTINUOUS
 10
104.029817
 20
-3.270903
 11
104.029817
 21
-0.604235
  0
LINE
  8
ゴム等
  6
CONTINUOUS
 10
101.023235
 20
-0.604235
 11
100.696485
 21
-0.930985
  0
LINE
  8
ゴム等
  6
CONTINUOUS
 10
101.494637
 20
-0.604235
 11
100.994637
 21
-1.104237
  0
LINE
  8
ゴム等
  6
CONTINUOUS
 10
101.966043
 20
-0.604235
 11
101.196482
 21
-1.373795
  0
LINE
  8
ゴム等
  6
CONTINUOUS
 10
102.437445
 20
-0.604237
 11
101.196482
 21
-1.845197
  0
LINE
  8
ゴム等
  6
CONTINUOUS
 10
102.908848
 20
-0.604235
 11
101.196485
 21
-2.316603
  0
LINE
  8
ゴム等
  6
CONTINUOUS
 10
103.380255
 20
-0.604235
 11
101.196485
 21
-2.788008
  0
LINE
  8
ゴム等
  6
CONTINUOUS
 10
103.851657
 20
-0.604235
 11
101.357405
 21
-3.09849
  0
LINE
  8
ゴム等
  6
CONTINUOUS
 10
104.029817
 20
-0.89748
 11
101.656397
 21
-3.2709
  0
LINE
  8
ゴム等
  6
CONTINUOUS
 10
104.029817
 20
-1.368885
 11
102.127805
 21
-3.2709
  0
LINE
  8
ゴム等
  6
CONTINUOUS
 10
104.02982
 20
-1.84029
 11
102.59921
 21
-3.2709
  0
LINE
  8
ゴム等
  6
CONTINUOUS
 10
104.029817
 20
-2.311697
 11
103.070615
 21
-3.270903
  0
LINE
  8
ゴム等
  6
CONTINUOUS
 10
104.02982
 20
-2.7831
 11
103.542017
 21
-3.270905
  0
ENDBLK
  0
BLOCK
  2
*GRP_0123
 70
    65
 10
0.0
 20
0.0
  0
LINE
  8
ゴム等
  6
CONTINUOUS
 10
105.696485
 20
4.329092
 11
105.696485
 21
1.662425
  0
LINE
  8
ゴム等
  6
CONTINUOUS
 10
105.696485
 20
4.329092
 11
100.696485
 21
4.329092
  0
LINE
  8
ゴム等
  6
CONTINUOUS
 10
100.696485
 20
4.329092
 11
100.696485
 21
1.662425
  0
LINE
  8
ゴム等
  6
CONTINUOUS
 10
105.696485
 20
1.662425
 11
100.696485
 21
1.662425
  0
LINE
  8
ゴム等
  6
CONTINUOUS
 10
100.696485
 20
2.197615
 11
101.231673
 21
1.662425
  0
LINE
  8
ゴム等
  6
CONTINUOUS
 10
100.696485
 20
2.66902
 11
101.703077
 21
1.662425
  0
LINE
  8
ゴム等
  6
CONTINUOUS
 10
100.696485
 20
3.140423
 11
102.174482
 21
1.662425
  0
LINE
  8
ゴム等
  6
CONTINUOUS
 10
100.696485
 20
3.611828
 11
102.645888
 21
1.662425
  0
LINE
  8
ゴム等
  6
CONTINUOUS
 10
100.696485
 20
4.083232
 11
103.117293
 21
1.662425
  0
LINE
  8
ゴム等
  6
CONTINUOUS
 10
100.92203
 20
4.329092
 11
103.588697
 21
1.662425
  0
LINE
  8
ゴム等
  6
CONTINUOUS
 10
101.393433
 20
4.329092
 11
104.0601
 21
1.662425
  0
LINE
  8
ゴム等
  6
CONTINUOUS
 10
101.864838
 20
4.329092
 11
104.531505
 21
1.662425
  0
LINE
  8
ゴム等
  6
CONTINUOUS
 10
102.336242
 20
4.329092
 11
105.00291
 21
1.662425
  0
LINE
  8
ゴム等
  6
CONTINUOUS
 10
102.807647
 20
4.329092
 11
105.474313
 21
1.662425
  0
LINE
  8
ゴム等
  6
CONTINUOUS
 10
103.750458
 20
4.329092
 11
105.696485
 21
2.383065
  0
LINE
  8
ゴム等
  6
CONTINUOUS
 10
104.221862
 20
4.329092
 11
105.696485
 21
2.85447
  0
LINE
  8
ゴム等
  6
CONTINUOUS
 10
103.279053
 20
4.329092
 11
105.696485
 21
1.91166
  0
LINE
  8
ゴム等
  6
CONTINUOUS
 10
104.693265
 20
4.329092
 11
105.696485
 21
3.325872
  0
LINE
  8
ゴム等
  6
CONTINUOUS
 10
105.16467
 20
4.329092
 11
105.696485
 21
3.797278
  0
ENDBLK
  0
BLOCK
  2
*GRP_0124
 70
    65
 10
0.0
 20
0.0
  0
LINE
  8
ボルト／ビス
  6
CONTINUOUS
 62
    64
 10
-0.666668
 20
-2.20423
 11
0.666668
 21
-2.20423
  0
LINE
  8
ボルト／ビス
  6
CONTINUOUS
 62
    64
 10
-1.0
 20
-1.60423
 11
-0.666668
 21
-2.20423
  0
LINE
  8
ボルト／ビス
  6
CONTINUOUS
 62
    64
 10
-1.0
 20
-1.60423
 11
1.0
 21
-1.60423
  0
LINE
  8
ボルト／ビス
  6
CONTINUOUS
 62
    64
 10
1.0
 20
-1.60423
 11
0.666668
 21
-2.20423
  0
LINE
  8
ボルト／ビス
  6
CONTINUOUS
 62
    64
 10
0.0
 20
-1.10972
 11
0.0
 21
-5.31048
  0
LINE
  8
ボルト／ビス
  6
CONTINUOUS
 62
    64
 10
-0.666668
 20
-4.770897
 11
-0.5
 21
-4.937565
  0
LINE
  8
ボルト／ビス
  6
CONTINUOUS
 62
    64
 10
0.666668
 20
-4.770897
 11
0.5
 21
-4.937565
  0
LINE
  8
ボルト／ビス
  6
CONTINUOUS
 62
    64
 10
-0.5
 20
-4.937565
 11
0.5
 21
-4.937565
  0
LINE
  8
ボルト／ビス
  6
CONTINUOUS
 62
    64
 10
-0.666668
 20
-4.770897
 11
0.666668
 21
-4.770897
  0
LINE
  8
ボルト／ビス
  6
CONTINUOUS
 62
    64
 10
0.5
 20
-2.20423
 11
0.5
 21
-4.937565
  0
LINE
  8
ボルト／ビス
  6
CONTINUOUS
 62
    64
 10
-0.5
 20
-2.20423
 11
-0.5
 21
-4.937565
  0
LINE
  8
ボルト／ビス
  6
CONTINUOUS
 62
    64
 10
-0.666668
 20
-2.20423
 11
-0.666668
 21
-4.770897
  0
LINE
  8
ボルト／ビス
  6
CONTINUOUS
 62
    64
 10
0.666668
 20
-2.20423
 11
0.666668
 21
-4.770897
  0
ENDBLK
  0
BLOCK
  2
*GRP_0125
 70
    65
 10
0.0
 20
0.0
  0
SPLINE
  5
1400000
100
AcDbEntity
  8
ガラス
100
AcDbSpline
  6
CONTINUOUS
 70
     0
 71
     3
 74
     3
 44
0.0
 11
-130.510818
 21
-60.967585
 11
-130.203145
 21
-60.444665
 11
-129.679922
 21
-60.24502
  0
SPLINE
  5
1400001
100
AcDbEntity
  8
ガラス
100
AcDbSpline
  6
CONTINUOUS
 70
     0
 71
     3
 74
     3
 44
0.0
 11
-129.679922
 21
-60.24502
 11
-129.82406
 21
-60.660325
 11
-129.877557
 21
-61.034213
  0
ARC
  8
ガラス
  6
CONTINUOUS
 10
-130.194188
 20
-61.000899
 40
0.318378
 50
173.993979
 51
353.993979
  0
ENDBLK
  0
BLOCK
  2
*GRP_0126
 70
    65
 10
0.0
 20
0.0
  0
SPLINE
  5
1400002
100
AcDbEntity
  8
ガラス
100
AcDbSpline
  6
CONTINUOUS
 70
     0
 71
     3
 74
     3
 44
0.0
 11
-131.476655
 21
-64.775212
 11
-131.168983
 21
-64.25229
 11
-130.64576
 21
-64.052645
  0
SPLINE
  5
1400003
100
AcDbEntity
  8
ガラス
100
AcDbSpline
  6
CONTINUOUS
 70
     0
 71
     3
 74
     3
 44
0.0
 11
-130.64576
 21
-64.052645
 11
-130.789898
 21
-64.46795
 11
-130.843393
 21
-64.841838
  0
ARC
  8
ガラス
  6
CONTINUOUS
 10
-131.160025
 20
-64.808524
 40
0.318378
 50
173.993979
 51
353.993979
  0
ENDBLK
  0
BLOCK
  2
*GRP_0127
 70
    65
 10
0.0
 20
0.0
  0
SPLINE
  5
1400004
100
AcDbEntity
  8
ガラス
100
AcDbSpline
  6
CONTINUOUS
 70
     0
 71
     3
 74
     3
 44
0.0
 11
-127.168575
 21
-59.54692
 11
-126.561873
 21
-59.542353
 11
-126.12185
 21
-59.888763
  0
SPLINE
  5
1400005
100
AcDbEntity
  8
ガラス
100
AcDbSpline
  6
CONTINUOUS
 70
     0
 71
     3
 74
     3
 44
0.0
 11
-126.12185
 21
-59.888763
 11
-126.552225
 21
-59.97838
 11
-126.90051
 21
-60.124503
  0
ARC
  8
ガラス
  6
CONTINUOUS
 10
-127.034543
 20
-59.83571
 40
0.318378
 50
114.896752
 51
294.896752
  0
ENDBLK
  0
BLOCK
  2
*GRP_0128
 70
    65
 10
0.0
 20
0.0
  0
SPLINE
  5
1400006
100
AcDbEntity
  8
ガラス
100
AcDbSpline
  6
CONTINUOUS
 70
     0
 71
     3
 74
     3
 44
0.0
 11
-120.203405
 21
-59.54692
 11
-119.596702
 21
-59.542353
 11
-119.156682
 21
-59.888763
  0
SPLINE
  5
1400007
100
AcDbEntity
  8
ガラス
100
AcDbSpline
  6
CONTINUOUS
 70
     0
 71
     3
 74
     3
 44
0.0
 11
-119.156682
 21
-59.888763
 11
-119.587057
 21
-59.97838
 11
-119.935343
 21
-60.124503
  0
ARC
  8
ガラス
  6
CONTINUOUS
 10
-120.069374
 20
-59.83571
 40
0.318378
 50
114.896752
 51
294.896752
  0
ENDBLK
  0
BLOCK
  2
*GRP_0129
 70
    65
 10
0.0
 20
0.0
  0
SPLINE
  5
1400008
100
AcDbEntity
  8
ガラス
100
AcDbSpline
  6
CONTINUOUS
 70
     0
 71
     3
 74
     3
 44
0.0
 11
-113.516842
 21
-59.54692
 11
-112.91014
 21
-59.542353
 11
-112.47012
 21
-59.888763
  0
SPLINE
  5
1400009
100
AcDbEntity
  8
ガラス
100
AcDbSpline
  6
CONTINUOUS
 70
     0
 71
     3
 74
     3
 44
0.0
 11
-112.47012
 21
-59.888763
 11
-112.900495
 21
-59.97838
 11
-113.24878
 21
-60.124503
  0
ARC
  8
ガラス
  6
CONTINUOUS
 10
-113.382811
 20
-59.83571
 40
0.318378
 50
114.896752
 51
294.896752
  0
ENDBLK
  0
BLOCK
  2
*GRP_0130
 70
    65
 10
0.0
 20
0.0
  0
SPLINE
  5
1400010
100
AcDbEntity
  8
ガラス
100
AcDbSpline
  6
CONTINUOUS
 70
     0
 71
     3
 74
     3
 44
0.0
 11
-106.050183
 21
-59.54692
 11
-105.44348
 21
-59.542353
 11
-105.003457
 21
-59.888763
  0
SPLINE
  5
1400011
100
AcDbEntity
  8
ガラス
100
AcDbSpline
  6
CONTINUOUS
 70
     0
 71
     3
 74
     3
 44
0.0
 11
-105.003457
 21
-59.888763
 11
-105.433832
 21
-59.97838
 11
-105.782118
 21
-60.124503
  0
ARC
  8
ガラス
  6
CONTINUOUS
 10
-105.91615
 20
-59.83571
 40
0.318378
 50
114.896752
 51
294.896752
  0
ENDBLK
  0
BLOCK
  2
*GRP_0131
 70
    65
 10
0.0
 20
0.0
  0
SPLINE
  5
1400012
100
AcDbEntity
  8
ガラス
100
AcDbSpline
  6
CONTINUOUS
 70
     0
 71
     3
 74
     3
 44
0.0
 11
-99.80939
 21
-59.54692
 11
-99.202687
 21
-59.542353
 11
-98.762665
 21
-59.888763
  0
SPLINE
  5
1400013
100
AcDbEntity
  8
ガラス
100
AcDbSpline
  6
CONTINUOUS
 70
     0
 71
     3
 74
     3
 44
0.0
 11
-98.762665
 21
-59.888763
 11
-99.19304
 21
-59.97838
 11
-99.541325
 21
-60.124503
  0
ARC
  8
ガラス
  6
CONTINUOUS
 10
-99.675358
 20
-59.83571
 40
0.318378
 50
114.896752
 51
294.896752
  0
ENDBLK
  0
BLOCK
  2
*GRP_0132
 70
    65
 10
0.0
 20
0.0
  0
SPLINE
  5
1400014
100
AcDbEntity
  8
ガラス
100
AcDbSpline
  6
CONTINUOUS
 70
     0
 71
     3
 74
     3
 44
0.0
 11
130.510817
 21
-60.967585
 11
130.203145
 21
-60.444665
 11
129.679923
 21
-60.24502
  0
SPLINE
  5
1400015
100
AcDbEntity
  8
ガラス
100
AcDbSpline
  6
CONTINUOUS
 70
     0
 71
     3
 74
     3
 44
0.0
 11
129.679923
 21
-60.24502
 11
129.82406
 21
-60.660325
 11
129.877557
 21
-61.034213
  0
ARC
  8
ガラス
  6
CONTINUOUS
 10
130.194188
 20
-61.000899
 40
0.318378
 50
186.006021
 51
366.006021
  0
ENDBLK
  0
BLOCK
  2
*GRP_0133
 70
    65
 10
0.0
 20
0.0
  0
SPLINE
  5
1400016
100
AcDbEntity
  8
ガラス
100
AcDbSpline
  6
CONTINUOUS
 70
     0
 71
     3
 74
     3
 44
0.0
 11
131.476655
 21
-64.775212
 11
131.168982
 21
-64.25229
 11
130.64576
 21
-64.052645
  0
SPLINE
  5
1400017
100
AcDbEntity
  8
ガラス
100
AcDbSpline
  6
CONTINUOUS
 70
     0
 71
     3
 74
     3
 44
0.0
 11
130.64576
 21
-64.052645
 11
130.789898
 21
-64.46795
 11
130.843392
 21
-64.841838
  0
ARC
  8
ガラス
  6
CONTINUOUS
 10
131.160025
 20
-64.808524
 40
0.318378
 50
186.006021
 51
366.006021
  0
ENDBLK
  0
BLOCK
  2
*GRP_0134
 70
    65
 10
0.0
 20
0.0
  0
SPLINE
  5
1400018
100
AcDbEntity
  8
ガラス
100
AcDbSpline
  6
CONTINUOUS
 70
     0
 71
     3
 74
     3
 44
0.0
 11
127.168575
 21
-59.54692
 11
126.561873
 21
-59.542353
 11
126.12185
 21
-59.888763
  0
SPLINE
  5
1400019
100
AcDbEntity
  8
ガラス
100
AcDbSpline
  6
CONTINUOUS
 70
     0
 71
     3
 74
     3
 44
0.0
 11
126.12185
 21
-59.888763
 11
126.552225
 21
-59.97838
 11
126.90051
 21
-60.124503
  0
ARC
  8
ガラス
  6
CONTINUOUS
 10
127.034543
 20
-59.83571
 40
0.318378
 50
245.103248
 51
425.103248
  0
ENDBLK
  0
BLOCK
  2
*GRP_0135
 70
    65
 10
0.0
 20
0.0
  0
SPLINE
  5
1400020
100
AcDbEntity
  8
ガラス
100
AcDbSpline
  6
CONTINUOUS
 70
     0
 71
     3
 74
     3
 44
0.0
 11
120.203405
 21
-59.54692
 11
119.596702
 21
-59.542353
 11
119.156682
 21
-59.888763
  0
SPLINE
  5
1400021
100
AcDbEntity
  8
ガラス
100
AcDbSpline
  6
CONTINUOUS
 70
     0
 71
     3
 74
     3
 44
0.0
 11
119.156682
 21
-59.888763
 11
119.587058
 21
-59.97838
 11
119.935342
 21
-60.124503
  0
ARC
  8
ガラス
  6
CONTINUOUS
 10
120.069374
 20
-59.83571
 40
0.318378
 50
245.103248
 51
425.103248
  0
ENDBLK
  0
BLOCK
  2
*GRP_0136
 70
    65
 10
0.0
 20
0.0
  0
SPLINE
  5
1400022
100
AcDbEntity
  8
ガラス
100
AcDbSpline
  6
CONTINUOUS
 70
     0
 71
     3
 74
     3
 44
0.0
 11
113.516842
 21
-59.54692
 11
112.91014
 21
-59.542353
 11
112.47012
 21
-59.888763
  0
SPLINE
  5
1400023
100
AcDbEntity
  8
ガラス
100
AcDbSpline
  6
CONTINUOUS
 70
     0
 71
     3
 74
     3
 44
0.0
 11
112.47012
 21
-59.888763
 11
112.900495
 21
-59.97838
 11
113.24878
 21
-60.124503
  0
ARC
  8
ガラス
  6
CONTINUOUS
 10
113.382811
 20
-59.83571
 40
0.318378
 50
245.103248
 51
425.103248
  0
ENDBLK
  0
BLOCK
  2
*GRP_0137
 70
    65
 10
0.0
 20
0.0
  0
SPLINE
  5
1400024
100
AcDbEntity
  8
ガラス
100
AcDbSpline
  6
CONTINUOUS
 70
     0
 71
     3
 74
     3
 44
0.0
 11
106.050182
 21
-59.54692
 11
105.44348
 21
-59.542353
 11
105.003457
 21
-59.888763
  0
SPLINE
  5
1400025
100
AcDbEntity
  8
ガラス
100
AcDbSpline
  6
CONTINUOUS
 70
     0
 71
     3
 74
     3
 44
0.0
 11
105.003457
 21
-59.888763
 11
105.433833
 21
-59.97838
 11
105.782117
 21
-60.124503
  0
ARC
  8
ガラス
  6
CONTINUOUS
 10
105.91615
 20
-59.83571
 40
0.318378
 50
245.103248
 51
425.103248
  0
ENDBLK
  0
BLOCK
  2
*GRP_0138
 70
    65
 10
0.0
 20
0.0
  0
SPLINE
  5
1400026
100
AcDbEntity
  8
ガラス
100
AcDbSpline
  6
CONTINUOUS
 70
     0
 71
     3
 74
     3
 44
0.0
 11
99.80939
 21
-59.54692
 11
99.202687
 21
-59.542353
 11
98.762665
 21
-59.888763
  0
SPLINE
  5
1400027
100
AcDbEntity
  8
ガラス
100
AcDbSpline
  6
CONTINUOUS
 70
     0
 71
     3
 74
     3
 44
0.0
 11
98.762665
 21
-59.888763
 11
99.19304
 21
-59.97838
 11
99.541325
 21
-60.124503
  0
ARC
  8
ガラス
  6
CONTINUOUS
 10
99.675358
 20
-59.83571
 40
0.318378
 50
245.103248
 51
425.103248
  0
ENDBLK
  0
BLOCK
  2
*GRP_0139
 70
    65
 10
0.0
 20
0.0
  0
LINE
  8
ボルト／ビス
  6
CONTINUOUS
 62
    64
 10
123.466265
 20
-73.63709
 11
123.466265
 21
-96.88399
  0
LINE
  8
ボルト／ビス
  6
CONTINUOUS
 62
    64
 10
122.299647
 20
-76.273315
 11
122.535323
 21
-76.037472
  0
LINE
  8
ボルト／ビス
  6
CONTINUOUS
 62
    64
 10
122.299647
 20
-76.273315
 11
122.299647
 21
-78.370798
  0
LINE
  8
ボルト／ビス
  6
CONTINUOUS
 62
    64
 10
122.299647
 20
-76.273315
 11
122.063973
 21
-76.037472
  0
LINE
  8
ボルト／ビス
  6
CONTINUOUS
 62
    64
 10
122.368683
 20
-74.37088
 11
122.368683
 21
-76.037472
  0
LINE
  8
ボルト／ビス
  6
CONTINUOUS
 62
    64
 10
120.799633
 20
-78.370798
 11
120.799633
 21
-79.204172
  0
LINE
  8
ボルト／ビス
  6
CONTINUOUS
 62
    64
 10
122.132907
 20
-86.037515
 11
122.368683
 21
-85.80184
  0
LINE
  8
ボルト／ビス
  6
CONTINUOUS
 62
    64
 10
122.368683
 20
-79.704265
 11
122.368683
 21
-85.80184
  0
LINE
  8
ボルト／ビス
  6
CONTINUOUS
 62
    64
 10
122.132907
 20
-89.170615
 11
120.83884
 21
-94.00028
  0
LINE
  8
ボルト／ビス
  6
CONTINUOUS
 62
    64
 10
122.132907
 20
-79.704265
 11
122.132907
 21
-89.170615
  0
LINE
  8
ボルト／ビス
  6
CONTINUOUS
 62
    64
 10
122.299647
 20
-76.273315
 11
122.535323
 21
-76.037472
  0
LINE
  8
ボルト／ビス
  6
CONTINUOUS
 62
    64
 10
124.612732
 20
-76.273315
 11
124.848408
 21
-76.037472
  0
LINE
  8
ボルト／ビス
  6
CONTINUOUS
 62
    64
 10
124.612732
 20
-76.273315
 11
124.612732
 21
-78.370798
  0
LINE
  8
ボルト／ビス
  6
CONTINUOUS
 62
    64
 10
124.612732
 20
-76.273315
 11
124.377058
 21
-76.037472
  0
LINE
  8
ボルト／ビス
  6
CONTINUOUS
 62
    64
 10
124.563907
 20
-74.37088
 11
124.563907
 21
-76.037472
  0
LINE
  8
ボルト／ビス
  6
CONTINUOUS
 62
    64
 10
126.132998
 20
-78.370798
 11
126.132998
 21
-79.204172
  0
LINE
  8
ボルト／ビス
  6
CONTINUOUS
 62
    64
 10
124.79959
 20
-86.037515
 11
124.563907
 21
-85.80184
  0
LINE
  8
ボルト／ビス
  6
CONTINUOUS
 62
    64
 10
124.563907
 20
-79.704265
 11
124.563907
 21
-85.80184
  0
LINE
  8
ボルト／ビス
  6
CONTINUOUS
 62
    64
 10
124.79959
 20
-89.170615
 11
126.09369
 21
-94.00028
  0
LINE
  8
ボルト／ビス
  6
CONTINUOUS
 62
    64
 10
124.79959
 20
-79.704265
 11
124.79959
 21
-89.170615
  0
LINE
  8
ボルト／ビス
  6
CONTINUOUS
 62
    64
 10
124.79959
 20
-74.606555
 11
124.563907
 21
-74.37088
  0
LINE
  8
ボルト／ビス
  6
CONTINUOUS
 62
    64
 10
124.79959
 20
-76.037472
 11
124.79959
 21
-74.606555
  0
LINE
  8
ボルト／ビス
  6
CONTINUOUS
 62
    64
 10
124.563907
 20
-74.37088
 11
122.368683
 21
-74.37088
  0
LINE
  8
ボルト／ビス
  6
CONTINUOUS
 62
    64
 10
122.368683
 20
-74.37088
 11
122.132907
 21
-74.606555
  0
LINE
  8
ボルト／ビス
  6
CONTINUOUS
 62
    64
 10
124.79959
 20
-74.606555
 11
122.132907
 21
-74.606555
  0
LINE
  8
ボルト／ビス
  6
CONTINUOUS
 62
    64
 10
122.132907
 20
-76.037472
 11
122.132907
 21
-74.606555
  0
LINE
  8
ボルト／ビス
  6
CONTINUOUS
 62
    64
 10
120.532972
 20
-76.273315
 11
120.768648
 21
-76.037472
  0
LINE
  8
ボルト／ビス
  6
CONTINUOUS
 62
    64
 10
120.532972
 20
-76.273315
 11
120.532972
 21
-78.370798
  0
LINE
  8
ボルト／ビス
  6
CONTINUOUS
 62
    64
 10
120.768648
 20
-76.037472
 11
126.163883
 21
-76.037472
  0
LINE
  8
ボルト／ビス
  6
CONTINUOUS
 62
    64
 10
126.399558
 20
-76.273315
 11
126.163883
 21
-76.037472
  0
LINE
  8
ボルト／ビス
  6
CONTINUOUS
 62
    64
 10
126.399558
 20
-76.273315
 11
126.399558
 21
-78.370798
  0
LINE
  8
ボルト／ビス
  6
CONTINUOUS
 62
    64
 10
120.532972
 20
-78.370798
 11
126.399558
 21
-78.370798
  0
LINE
  8
ボルト／ビス
  6
CONTINUOUS
 62
    64
 10
126.716323
 20
-79.204172
 11
126.716323
 21
-79.704265
  0
LINE
  8
ボルト／ビス
  6
CONTINUOUS
 62
    64
 10
126.716323
 20
-79.204172
 11
120.216265
 21
-79.204172
  0
LINE
  8
ボルト／ビス
  6
CONTINUOUS
 62
    64
 10
120.216265
 20
-79.204172
 11
120.216265
 21
-79.704265
  0
LINE
  8
ボルト／ビス
  6
CONTINUOUS
 62
    64
 10
126.716323
 20
-79.704265
 11
120.216265
 21
-79.704265
  0
LINE
  8
ボルト／ビス
  6
CONTINUOUS
 62
    64
 10
123.466265
 20
-89.390105
 11
124.794908
 21
-94.34833
  0
LINE
  8
ボルト／ビス
  6
CONTINUOUS
 62
    64
 10
126.09369
 20
-94.00028
 11
124.794908
 21
-94.34833
  0
LINE
  8
ボルト／ビス
  6
CONTINUOUS
 62
    64
 10
123.466265
 20
-89.390105
 11
122.137715
 21
-94.34833
  0
LINE
  8
ボルト／ビス
  6
CONTINUOUS
 62
    64
 10
120.83884
 20
-94.00028
 11
122.137715
 21
-94.34833
  0
LINE
  8
ボルト／ビス
  6
CONTINUOUS
 62
    64
 10
122.132907
 20
-95.037465
 11
122.562908
 21
-92.598765
  0
LINE
  8
ボルト／ビス
  6
CONTINUOUS
 62
    64
 10
124.79959
 20
-95.037465
 11
124.369622
 21
-92.598765
  0
LINE
  8
ボルト／ビス
  6
CONTINUOUS
 62
    64
 10
122.132907
 20
-95.037465
 11
124.79959
 21
-95.037465
  0
LINE
  8
ボルト／ビス
  6
CONTINUOUS
 62
    64
 10
122.562908
 20
-92.598765
 11
124.369622
 21
-92.598765
  0
ENDBLK
  0
BLOCK
  2
*GRP_0140
 70
    65
 10
0.0
 20
0.0
  0
LINE
  8
曲げ物
  6
CONTINUOUS
 10
159.463222
 20
-83.520505
 11
159.463172
 21
-103.520505
  0
LINE
  8
曲げ物
  6
DOT
 10
159.129897
 20
-83.520505
 11
159.129847
 21
-103.520505
  0
LINE
  8
曲げ物
  6
CONTINUOUS
 10
156.129882
 20
-83.520505
 11
156.129858
 21
-103.520505
  0
LINE
  8
曲げ物
  6
DOT
 10
156.463233
 20
-83.520505
 11
156.463183
 21
-103.520505
  0
LINE
  8
曲げ物
  6
CONTINUOUS
 10
159.463172
 20
-103.520505
 11
156.129858
 21
-103.520505
  0
LINE
  8
曲げ物
  6
CONTINUOUS
 10
159.463222
 20
-83.520505
 11
156.129882
 21
-83.520505
  0
ENDBLK
  0
BLOCK
  2
*GRP_0141
 70
    65
 10
0.0
 20
0.0
  0
LINE
  8
曲げ物
  6
CONTINUOUS
 10
-156.129832
 20
-83.520505
 11
-156.129882
 21
-103.520505
  0
LINE
  8
曲げ物
  6
DOT
 10
-156.463158
 20
-83.520505
 11
-156.463208
 21
-103.520505
  0
LINE
  8
曲げ物
  6
CONTINUOUS
 10
-159.463173
 20
-83.520505
 11
-159.463198
 21
-103.520505
  0
LINE
  8
曲げ物
  6
DOT
 10
-159.129822
 20
-83.520505
 11
-159.129872
 21
-103.520505
  0
LINE
  8
曲げ物
  6
CONTINUOUS
 10
-156.129882
 20
-103.520505
 11
-159.463198
 21
-103.520505
  0
LINE
  8
曲げ物
  6
CONTINUOUS
 10
-156.129832
 20
-83.520505
 11
-159.463173
 21
-83.520505
  0
ENDBLK
  0
BLOCK
  2
*GRP_0142
 70
    65
 10
0.0
 20
0.0
  0
ARC
  8
St
  6
CONTINUOUS
 62
   127
 10
111.199604
 20
-79.704265
 40
1.066667
 50
180.0
 51
270.0
  0
LINE
  8
St
  6
CONTINUOUS
 10
139.346803
 20
-79.704265
 11
140.413467
 21
-80.770932
  0
LINE
  8
St
  6
CONTINUOUS
 10
139.582508
 20
-79.704265
 11
140.649172
 21
-80.770932
  0
LINE
  8
St
  6
CONTINUOUS
 62
   127
 10
111.1996
 20
-79.704265
 11
143.466265
 21
-79.704265
  0
LINE
  8
St
  6
CONTINUOUS
 10
143.466265
 20
-79.704265
 11
143.466265
 21
-80.770932
  0
LINE
  8
St
  6
CONTINUOUS
 62
   127
 10
111.1996
 20
-80.770932
 11
143.466265
 21
-80.770932
  0
LINE
  8
St
  6
CONTINUOUS
 10
118.26461
 20
-80.770932
 11
117.197945
 21
-79.704265
  0
LINE
  8
St
  6
CONTINUOUS
 10
118.500315
 20
-80.770932
 11
117.43365
 21
-79.704265
  0
LINE
  8
St
  6
CONTINUOUS
 10
111.1996
 20
-69.354825
 11
110.132933
 21
-68.288155
  0
LINE
  8
St
  6
CONTINUOUS
 10
111.1996
 20
-69.11912
 11
110.132933
 21
-68.05245
  0
LINE
  8
St
  6
CONTINUOUS
 10
111.1996
 20
-67.437597
 11
110.132933
 21
-67.437597
  0
LINE
  8
St
  6
CONTINUOUS
 62
   127
 10
110.132933
 20
-79.704265
 11
110.132933
 21
-67.437597
  0
LINE
  8
St
  6
CONTINUOUS
 62
   127
 10
111.1996
 20
-79.704265
 11
111.1996
 21
-67.437597
  0
LINE
  8
St
  6
DOT
 10
108.517225
 20
-72.437597
 11
112.733473
 21
-72.437597
  0
LINE
  8
St
  6
DOT
 62
   127
 10
127.387997
 20
-81.63606
 11
127.387997
 21
-81.636057
  0
LINE
  8
St
  6
DOT
 10
120.132933
 20
-79.704265
 11
120.132933
 21
-80.770932
  0
LINE
  8
St
  6
DOT
 10
126.799597
 20
-79.704265
 11
126.799597
 21
-80.770932
  0
LINE
  8
St
  6
DOT
 10
131.799597
 20
-79.704265
 11
131.799597
 21
-80.770932
  0
LINE
  8
St
  6
DOT
 10
135.132933
 20
-79.704265
 11
135.132933
 21
-80.770932
  0
LINE
  8
St
  6
DOT
 10
123.466265
 20
-78.34962
 11
123.466265
 21
-82.17582
  0
LINE
  8
St
  6
DOT
 62
   127
 10
126.799597
 20
-79.970932
 11
120.132933
 21
-79.970932
  0
LINE
  8
St
  6
DOT
 62
   127
 10
126.799597
 20
-80.237597
 11
120.132933
 21
-80.237597
  0
LINE
  8
St
  6
DOT
 62
   127
 10
126.799597
 20
-80.504265
 11
120.132933
 21
-80.504265
  0
LINE
  8
St
  6
DOT
 10
131.799597
 20
-79.970932
 11
135.132933
 21
-79.970932
  0
LINE
  8
St
  6
DOT
 10
131.799597
 20
-80.237597
 11
135.132933
 21
-80.237597
  0
LINE
  8
St
  6
DOT
 10
131.799597
 20
-80.504265
 11
135.132933
 21
-80.504265
  0
LINE
  8
St
  6
DOT
 10
133.466265
 20
-78.34962
 11
133.466265
 21
-82.17582
  0
LINE
  8
St
  6
DOT
 10
110.132933
 20
-79.704265
 11
111.1996
 21
-79.704265
  0
LINE
  8
St
  6
DOT
 10
110.132933
 20
-69.104263
 11
111.1996
 21
-69.104263
  0
LINE
  8
St
  6
DOT
 10
111.1996
 20
-73.437597
 11
110.132933
 21
-73.437597
  0
LINE
  8
St
  6
DOT
 10
111.1996
 20
-71.437597
 11
110.132933
 21
-71.437597
  0
LINE
  8
St
  6
DOT
 62
   127
 10
110.932933
 20
-79.704265
 11
110.932933
 21
-69.104263
  0
LINE
  8
St
  6
DOT
 62
   127
 10
110.666267
 20
-79.704265
 11
110.666267
 21
-69.104263
  0
LINE
  8
St
  6
DOT
 62
   127
 10
110.3996
 20
-79.704265
 11
110.3996
 21
-69.104263
  0
ENDBLK
  0
BLOCK
  2
*GRP_0143
 70
    65
 10
0.0
 20
0.0
  0
POLYLINE
  8
寸法
  6
CONTINUOUS
 66
     1
  0
VERTEX
  8
寸法
 10
84.633273
 20
-40.769323
  0
VERTEX
  8
寸法
 10
77.185633
 20
-29.588108
  0
VERTEX
  8
寸法
 10
71.056285
 20
-29.588108
  0
SEQEND
  0
ENDBLK
  0
BLOCK
  2
*GRP_0144
 70
    65
 10
0.0
 20
0.0
  0
LINE
  8
寸法
  6
CONTINUOUS
 10
77.185633
 20
-29.588108
 11
81.477422
 21
-23.166465
  0
ENDBLK
  0
BLOCK
  2
*GRP_0145
 70
    65
 10
0.0
 20
0.0
  0
INSERT
  2
*GRP_0146
  8
補助線
  6
DOT
 10
0.0
 20
0.0
  0
INSERT
  2
*GRP_0147
  8
補助線
  6
DOT
 10
0.0
 20
0.0
  0
LINE
  8
St
  6
CONTINUOUS
 62
   127
 10
107.296487
 20
-15.187578
 11
107.296487
 21
-21.35424
  0
LINE
  8
St
  6
CONTINUOUS
 62
   127
 10
113.296493
 20
-14.104238
 11
115.229823
 21
-14.104238
  0
LINE
  8
St
  6
CONTINUOUS
 62
   127
 10
115.229823
 20
-14.104238
 11
115.229823
 21
-22.437572
  0
LINE
  8
St
  6
CONTINUOUS
 62
   127
 10
113.296493
 20
-22.437572
 11
115.229823
 21
-22.437572
  0
LINE
  8
St
  6
CONTINUOUS
 62
   127
 10
113.296493
 20
-14.104238
 11
113.296493
 21
-22.437572
  0
LINE
  8
St
  6
CONTINUOUS
 62
   127
 10
110.13059
 20
-20.862047
 11
110.13059
 21
-15.679715
  0
LINE
  8
St
  6
CONTINUOUS
 62
   127
 10
109.79724
 20
-20.862047
 11
109.79724
 21
-15.679715
  0
LINE
  8
St
  6
CONTINUOUS
 62
   127
 10
109.79724
 20
-15.679715
 11
110.13059
 21
-15.679715
  0
LINE
  8
St
  6
CONTINUOUS
 62
   127
 10
109.79724
 20
-20.862047
 11
110.13059
 21
-20.862047
  0
LINE
  8
St
  6
CONTINUOUS
 62
   127
 10
108.46391
 20
-16.66715
 11
108.580653
 21
-16.34642
  0
LINE
  8
St
  6
CONTINUOUS
 62
   127
 10
108.46391
 20
-19.874665
 11
108.580653
 21
-20.195395
  0
LINE
  8
St
  6
CONTINUOUS
 62
   127
 10
108.46391
 20
-16.66715
 11
108.46391
 21
-19.874665
  0
LINE
  8
St
  6
CONTINUOUS
 62
   127
 10
108.580653
 20
-20.195395
 11
109.79724
 21
-20.195395
  0
LINE
  8
St
  6
CONTINUOUS
 62
   127
 10
108.580653
 20
-19.233152
 11
109.79724
 21
-19.233152
  0
LINE
  8
St
  6
CONTINUOUS
 62
   127
 10
108.580653
 20
-16.34642
 11
109.79724
 21
-16.34642
  0
LINE
  8
St
  6
CONTINUOUS
 62
   127
 10
108.580653
 20
-17.308662
 11
109.79724
 21
-17.308662
  0
LINE
  8
St
  6
CONTINUOUS
 62
   127
 10
109.79724
 20
-20.195395
 11
109.79724
 21
-16.34642
  0
LINE
  8
St
  6
CONTINUOUS
 62
   127
 10
113.130575
 20
-18.270907
 11
113.130575
 21
-19.854225
  0
LINE
  8
St
  6
CONTINUOUS
 62
   127
 10
113.130575
 20
-19.854225
 11
113.297225
 21
-19.6876
  0
LINE
  8
St
  6
CONTINUOUS
 62
   127
 10
113.297225
 20
-18.270907
 11
113.297225
 21
-19.6876
  0
LINE
  8
St
  6
CONTINUOUS
 62
   127
 10
112.963925
 20
-19.854225
 11
113.130575
 21
-19.854225
  0
LINE
  8
St
  6
CONTINUOUS
 62
   127
 10
110.980743
 20
-24.104202
 11
110.980743
 21
-18.270907
  0
LINE
  8
St
  6
CONTINUOUS
 62
   127
 10
112.613747
 20
-24.104202
 11
112.613747
 21
-18.270907
  0
LINE
  8
St
  6
CONTINUOUS
 62
   127
 10
110.463915
 20
-18.270907
 11
110.463915
 21
-19.854225
  0
LINE
  8
St
  6
CONTINUOUS
 62
   127
 10
110.463915
 20
-19.854225
 11
110.29724
 21
-19.6876
  0
LINE
  8
St
  6
CONTINUOUS
 62
   127
 10
110.29724
 20
-18.270907
 11
110.29724
 21
-19.6876
  0
LINE
  8
St
  6
CONTINUOUS
 62
   127
 10
110.630567
 20
-19.854225
 11
110.463915
 21
-19.854225
  0
LINE
  8
St
  6
CONTINUOUS
 62
   127
 10
112.613747
 20
-24.104202
 11
112.79725
 21
-24.104202
  0
LINE
  8
St
  6
CONTINUOUS
 62
   127
 10
112.963925
 20
-23.937578
 11
112.963925
 21
-18.270907
  0
LINE
  8
St
  6
CONTINUOUS
 62
   127
 10
110.980743
 20
-24.104202
 11
110.797243
 21
-24.104202
  0
LINE
  8
St
  6
CONTINUOUS
 62
   127
 10
110.630567
 20
-23.937578
 11
110.630567
 21
-18.270907
  0
LINE
  8
St
  6
CONTINUOUS
 62
   127
 10
113.130575
 20
-18.270907
 11
113.130575
 21
-16.68759
  0
LINE
  8
St
  6
CONTINUOUS
 62
   127
 10
113.130575
 20
-16.68759
 11
113.297225
 21
-16.854215
  0
LINE
  8
St
  6
CONTINUOUS
 62
   127
 10
113.297225
 20
-18.270907
 11
113.297225
 21
-16.854215
  0
LINE
  8
St
  6
CONTINUOUS
 62
   127
 10
112.963925
 20
-16.68759
 11
113.130575
 21
-16.68759
  0
LINE
  8
St
  6
CONTINUOUS
 62
   127
 10
110.980743
 20
-12.437562
 11
110.980743
 21
-18.270907
  0
LINE
  8
St
  6
CONTINUOUS
 62
   127
 10
112.613747
 20
-12.437562
 11
112.613747
 21
-18.270907
  0
LINE
  8
St
  6
CONTINUOUS
 62
   127
 10
110.463915
 20
-18.270907
 11
110.463915
 21
-16.68759
  0
LINE
  8
St
  6
CONTINUOUS
 62
   127
 10
110.463915
 20
-16.68759
 11
110.29724
 21
-16.854215
  0
LINE
  8
St
  6
CONTINUOUS
 62
   127
 10
110.29724
 20
-18.270907
 11
110.29724
 21
-16.854215
  0
LINE
  8
St
  6
CONTINUOUS
 62
   127
 10
110.630567
 20
-16.68759
 11
110.463915
 21
-16.68759
  0
LINE
  8
St
  6
CONTINUOUS
 62
   127
 10
112.613747
 20
-12.437562
 11
112.79725
 21
-12.437562
  0
LINE
  8
St
  6
CONTINUOUS
 62
   127
 10
112.963925
 20
-12.60424
 11
112.963925
 21
-18.270907
  0
LINE
  8
St
  6
CONTINUOUS
 62
   127
 10
110.980743
 20
-12.437562
 11
110.797243
 21
-12.437562
  0
LINE
  8
St
  6
CONTINUOUS
 62
   127
 10
110.630567
 20
-12.60424
 11
110.630567
 21
-18.270907
  0
LINE
  8
St
  6
CONTINUOUS
 62
   127
 10
107.296487
 20
-15.187578
 11
110.630567
 21
-15.187578
  0
LINE
  8
St
  6
CONTINUOUS
 62
   127
 10
112.963925
 20
-15.187578
 11
113.296493
 21
-15.187578
  0
LINE
  8
St
  6
CONTINUOUS
 62
   127
 10
107.296487
 20
-21.35424
 11
110.630567
 21
-21.35424
  0
LINE
  8
St
  6
CONTINUOUS
 62
   127
 10
112.963925
 20
-21.35424
 11
113.296493
 21
-21.35424
  0
LINE
  8
St
  6
CONTINUOUS
 62
   127
 10
117.041395
 20
-16.020913
 11
116.844143
 21
-16.020913
  0
LINE
  8
St
  6
CONTINUOUS
 62
   127
 10
117.041395
 20
-20.52091
 11
116.844143
 21
-20.52091
  0
LINE
  8
St
  6
CONTINUOUS
 62
   127
 10
107.296487
 20
-41.521277
 11
107.296487
 21
-47.68794
  0
LINE
  8
St
  6
CONTINUOUS
 62
   127
 10
94.494988
 20
-42.937935
 11
97.961652
 21
-42.937935
  0
LINE
  8
St
  6
CONTINUOUS
 62
   127
 10
94.24499
 20
-43.187932
 11
97.961652
 21
-43.187932
  0
LINE
  8
St
  6
CONTINUOUS
 62
   127
 10
94.161645
 20
-45.937938
 11
94.161645
 21
-43.27127
  0
LINE
  8
St
  6
CONTINUOUS
 62
   127
 10
94.494988
 20
-46.271273
 11
94.494988
 21
-42.937935
  0
LINE
  8
St
  6
CONTINUOUS
 62
   127
 10
94.24499
 20
-46.021275
 11
97.961652
 21
-46.021275
  0
LINE
  8
St
  6
CONTINUOUS
 62
   127
 10
94.494988
 20
-46.271273
 11
97.961652
 21
-46.271273
  0
LINE
  8
St
  6
CONTINUOUS
 62
   127
 10
94.494988
 20
-46.271273
 11
94.161645
 21
-45.937938
  0
LINE
  8
St
  6
CONTINUOUS
 62
   127
 10
94.494988
 20
-42.937935
 11
94.161645
 21
-43.27127
  0
LINE
  8
St
  6
CONTINUOUS
 62
   127
 10
113.296493
 20
-40.437935
 11
115.229823
 21
-40.437935
  0
LINE
  8
St
  6
CONTINUOUS
 62
   127
 10
115.229823
 20
-40.437935
 11
115.229823
 21
-48.771273
  0
LINE
  8
St
  6
CONTINUOUS
 62
   127
 10
113.296493
 20
-48.771273
 11
115.229823
 21
-48.771273
  0
LINE
  8
St
  6
CONTINUOUS
 62
   127
 10
113.296493
 20
-40.437935
 11
113.296493
 21
-48.771273
  0
LINE
  8
St
  6
CONTINUOUS
 62
   127
 10
110.13059
 20
-47.195748
 11
110.13059
 21
-42.013418
  0
LINE
  8
St
  6
CONTINUOUS
 62
   127
 10
109.79724
 20
-47.195748
 11
109.79724
 21
-42.013418
  0
LINE
  8
St
  6
CONTINUOUS
 62
   127
 10
109.79724
 20
-42.013418
 11
110.13059
 21
-42.013418
  0
LINE
  8
St
  6
CONTINUOUS
 62
   127
 10
109.79724
 20
-47.195748
 11
110.13059
 21
-47.195748
  0
LINE
  8
St
  6
CONTINUOUS
 62
   127
 10
108.46391
 20
-43.000853
 11
108.580653
 21
-42.68012
  0
LINE
  8
St
  6
CONTINUOUS
 62
   127
 10
108.46391
 20
-46.208365
 11
108.580653
 21
-46.529097
  0
LINE
  8
St
  6
CONTINUOUS
 62
   127
 10
108.46391
 20
-43.000853
 11
108.46391
 21
-46.208365
  0
LINE
  8
St
  6
CONTINUOUS
 62
   127
 10
108.580653
 20
-46.529097
 11
109.79724
 21
-46.529097
  0
LINE
  8
St
  6
CONTINUOUS
 62
   127
 10
108.580653
 20
-45.566853
 11
109.79724
 21
-45.566853
  0
LINE
  8
St
  6
CONTINUOUS
 62
   127
 10
108.580653
 20
-42.68012
 11
109.79724
 21
-42.68012
  0
LINE
  8
St
  6
CONTINUOUS
 62
   127
 10
108.580653
 20
-43.642365
 11
109.79724
 21
-43.642365
  0
LINE
  8
St
  6
CONTINUOUS
 62
   127
 10
109.79724
 20
-46.529097
 11
109.79724
 21
-42.68012
  0
LINE
  8
St
  6
CONTINUOUS
 62
   127
 10
113.130575
 20
-44.604608
 11
113.130575
 21
-46.187928
  0
LINE
  8
St
  6
CONTINUOUS
 62
   127
 10
113.130575
 20
-46.187928
 11
113.297225
 21
-46.0213
  0
LINE
  8
St
  6
CONTINUOUS
 62
   127
 10
113.297225
 20
-44.604608
 11
113.297225
 21
-46.0213
  0
LINE
  8
St
  6
CONTINUOUS
 62
   127
 10
112.963925
 20
-46.187928
 11
113.130575
 21
-46.187928
  0
LINE
  8
St
  6
CONTINUOUS
 62
   127
 10
110.980743
 20
-50.437903
 11
110.980743
 21
-44.604608
  0
LINE
  8
St
  6
CONTINUOUS
 62
   127
 10
112.613747
 20
-50.437903
 11
112.613747
 21
-44.604608
  0
LINE
  8
St
  6
CONTINUOUS
 62
   127
 10
110.463915
 20
-44.604608
 11
110.463915
 21
-46.187928
  0
LINE
  8
St
  6
CONTINUOUS
 62
   127
 10
110.463915
 20
-46.187928
 11
110.29724
 21
-46.0213
  0
LINE
  8
St
  6
CONTINUOUS
 62
   127
 10
110.29724
 20
-44.604608
 11
110.29724
 21
-46.0213
  0
LINE
  8
St
  6
CONTINUOUS
 62
   127
 10
110.630567
 20
-46.187928
 11
110.463915
 21
-46.187928
  0
LINE
  8
St
  6
CONTINUOUS
 62
   127
 10
112.613747
 20
-50.437903
 11
112.79725
 21
-50.437903
  0
LINE
  8
St
  6
CONTINUOUS
 62
   127
 10
112.963925
 20
-50.271277
 11
112.963925
 21
-44.604608
  0
LINE
  8
St
  6
CONTINUOUS
 62
   127
 10
110.980743
 20
-50.437903
 11
110.797243
 21
-50.437903
  0
LINE
  8
St
  6
CONTINUOUS
 62
   127
 10
110.630567
 20
-50.271277
 11
110.630567
 21
-44.604608
  0
LINE
  8
St
  6
CONTINUOUS
 62
   127
 10
113.130575
 20
-44.604608
 11
113.130575
 21
-43.02129
  0
LINE
  8
St
  6
CONTINUOUS
 62
   127
 10
113.130575
 20
-43.02129
 11
113.297225
 21
-43.187918
  0
LINE
  8
St
  6
CONTINUOUS
 62
   127
 10
113.297225
 20
-44.604608
 11
113.297225
 21
-43.187918
  0
LINE
  8
St
  6
CONTINUOUS
 62
   127
 10
112.963925
 20
-43.02129
 11
113.130575
 21
-43.02129
  0
LINE
  8
St
  6
CONTINUOUS
 62
   127
 10
110.980743
 20
-38.771265
 11
110.980743
 21
-44.604608
  0
LINE
  8
St
  6
CONTINUOUS
 62
   127
 10
112.613747
 20
-38.771265
 11
112.613747
 21
-44.604608
  0
LINE
  8
St
  6
CONTINUOUS
 62
   127
 10
110.463915
 20
-44.604608
 11
110.463915
 21
-43.02129
  0
LINE
  8
St
  6
CONTINUOUS
 62
   127
 10
110.463915
 20
-43.02129
 11
110.29724
 21
-43.187918
  0
LINE
  8
St
  6
CONTINUOUS
 62
   127
 10
110.29724
 20
-44.604608
 11
110.29724
 21
-43.187918
  0
LINE
  8
St
  6
CONTINUOUS
 62
   127
 10
110.630567
 20
-43.02129
 11
110.463915
 21
-43.02129
  0
LINE
  8
St
  6
CONTINUOUS
 62
   127
 10
112.613747
 20
-38.771265
 11
112.79725
 21
-38.771265
  0
LINE
  8
St
  6
CONTINUOUS
 62
   127
 10
112.963925
 20
-38.93794
 11
112.963925
 21
-44.604608
  0
LINE
  8
St
  6
CONTINUOUS
 62
   127
 10
110.980743
 20
-38.771265
 11
110.797243
 21
-38.771265
  0
LINE
  8
St
  6
CONTINUOUS
 62
   127
 10
110.630567
 20
-38.93794
 11
110.630567
 21
-44.604608
  0
LINE
  8
St
  6
CONTINUOUS
 62
   127
 10
107.296487
 20
-41.521277
 11
110.630567
 21
-41.521277
  0
LINE
  8
St
  6
CONTINUOUS
 62
   127
 10
112.963925
 20
-41.521277
 11
113.296493
 21
-41.521277
  0
LINE
  8
St
  6
CONTINUOUS
 62
   127
 10
107.296487
 20
-47.68794
 11
110.630567
 21
-47.68794
  0
LINE
  8
St
  6
CONTINUOUS
 62
   127
 10
112.963925
 20
-47.68794
 11
113.296493
 21
-47.68794
  0
LINE
  8
St
  6
CONTINUOUS
 62
   127
 10
117.041395
 20
-42.354612
 11
116.844143
 21
-42.354612
  0
LINE
  8
St
  6
CONTINUOUS
 62
   127
 10
117.041395
 20
-46.854612
 11
116.844143
 21
-46.854612
  0
LINE
  8
St
  6
CONTINUOUS
 62
   127
 10
117.023225
 20
-16.054242
 11
115.229823
 21
-16.054242
  0
LINE
  8
St
  6
CONTINUOUS
 62
   127
 10
117.023225
 20
-20.487572
 11
115.229823
 21
-20.487572
  0
LINE
  8
St
  6
CONTINUOUS
 62
   127
 10
117.023225
 20
-42.387943
 11
115.229823
 21
-42.387943
  0
LINE
  8
St
  6
CONTINUOUS
 62
   127
 10
117.023225
 20
-46.821273
 11
115.229823
 21
-46.821273
  0
LINE
  8
St
  6
CONTINUOUS
 62
   127
 10
105.463157
 20
-24.937645
 11
106.296485
 21
-24.937645
  0
LINE
  8
St
  6
CONTINUOUS
 62
   127
 10
106.296485
 20
-11.604317
 11
106.296485
 21
-24.937645
  0
LINE
  8
St
  6
CONTINUOUS
 62
   127
 10
105.463157
 20
-11.604317
 11
106.296485
 21
-11.604317
  0
LINE
  8
St
  6
CONTINUOUS
 62
   127
 10
105.463157
 20
-21.604317
 11
98.79648
 21
-21.604317
  0
LINE
  8
St
  6
DOT
 62
   127
 10
105.463157
 20
-20.604315
 11
98.79648
 21
-20.604315
  0
LINE
  8
St
  6
CONTINUOUS
 62
   127
 10
105.463157
 20
-14.937645
 11
98.79648
 21
-14.937645
  0
LINE
  8
St
  6
DOT
 62
   127
 10
105.463157
 20
-15.93764
 11
98.79648
 21
-15.93764
  0
LINE
  8
St
  6
CONTINUOUS
 62
   127
 10
105.963105
 20
-22.437645
 11
105.963105
 21
-24.10431
  0
LINE
  8
St
  6
CONTINUOUS
 62
   127
 10
105.963105
 20
-23.868607
 11
103.12977
 21
-23.868607
  0
LINE
  8
St
  6
CONTINUOUS
 62
   127
 10
105.963105
 20
-22.67336
 11
103.12977
 21
-22.67336
  0
LINE
  8
St
  6
CONTINUOUS
 62
   127
 10
103.365475
 20
-22.437645
 11
103.365475
 21
-24.10431
  0
LINE
  8
St
  6
CONTINUOUS
 62
   127
 10
103.365475
 20
-24.10431
 11
103.12977
 21
-23.868607
  0
LINE
  8
St
  6
CONTINUOUS
 62
   127
 10
105.963105
 20
-24.10431
 11
103.365475
 21
-24.10431
  0
LINE
  8
St
  6
CONTINUOUS
 62
   127
 10
105.963105
 20
-22.437645
 11
103.365475
 21
-22.437645
  0
LINE
  8
St
  6
CONTINUOUS
 62
   127
 10
103.365475
 20
-22.437645
 11
103.12977
 21
-22.67336
  0
LINE
  8
St
  6
CONTINUOUS
 62
   127
 10
103.12977
 20
-22.67336
 11
103.12977
 21
-23.868607
  0
LINE
  8
St
  6
CONTINUOUS
 62
   127
 10
105.963105
 20
-14.10431
 11
105.963105
 21
-12.437645
  0
LINE
  8
St
  6
CONTINUOUS
 62
   127
 10
105.963105
 20
-12.67336
 11
103.12977
 21
-12.67336
  0
LINE
  8
St
  6
CONTINUOUS
 62
   127
 10
105.963105
 20
-13.868607
 11
103.12977
 21
-13.868607
  0
LINE
  8
St
  6
CONTINUOUS
 62
   127
 10
103.365475
 20
-14.10431
 11
103.365475
 21
-12.437645
  0
LINE
  8
St
  6
CONTINUOUS
 62
   127
 10
103.365475
 20
-12.437645
 11
103.12977
 21
-12.67336
  0
LINE
  8
St
  6
CONTINUOUS
 62
   127
 10
105.963105
 20
-12.437645
 11
103.365475
 21
-12.437645
  0
LINE
  8
St
  6
CONTINUOUS
 62
   127
 10
105.963105
 20
-14.10431
 11
103.365475
 21
-14.10431
  0
LINE
  8
St
  6
CONTINUOUS
 62
   127
 10
103.365475
 20
-14.10431
 11
103.12977
 21
-13.868607
  0
LINE
  8
St
  6
CONTINUOUS
 62
   127
 10
103.12977
 20
-13.868607
 11
103.12977
 21
-12.67336
  0
LINE
  8
St
  6
CONTINUOUS
 62
   127
 10
95.698855
 20
-51.271267
 11
95.463153
 21
-51.035565
  0
LINE
  8
St
  6
CONTINUOUS
 62
   127
 10
95.698855
 20
-49.604612
 11
95.463153
 21
-49.840315
  0
LINE
  8
St
  6
CONTINUOUS
 62
   127
 10
102.129817
 20
-49.10461
 11
102.129817
 21
-51.77127
  0
LINE
  8
St
  6
CONTINUOUS
 62
   127
 10
102.129817
 20
-49.10461
 11
100.463153
 21
-49.10461
  0
LINE
  8
St
  6
CONTINUOUS
 62
   127
 10
102.129817
 20
-51.77127
 11
100.463153
 21
-51.77127
  0
LINE
  8
St
  6
CONTINUOUS
 62
   127
 10
95.698855
 20
-39.6046
 11
95.698855
 21
-37.937945
  0
LINE
  8
St
  6
CONTINUOUS
 62
   127
 10
95.698855
 20
-37.937945
 11
95.463153
 21
-38.173647
  0
LINE
  8
St
  6
CONTINUOUS
 62
   127
 10
95.698855
 20
-39.6046
 11
95.463153
 21
-39.368898
  0
LINE
  8
St
  6
CONTINUOUS
 62
   127
 10
95.463153
 20
-39.368898
 11
95.463153
 21
-38.173647
  0
LINE
  8
St
  6
CONTINUOUS
 62
   127
 10
102.129817
 20
-40.104602
 11
102.129817
 21
-37.437943
  0
LINE
  8
St
  6
CONTINUOUS
 62
   127
 10
102.129817
 20
-40.104602
 11
100.463153
 21
-40.104602
  0
LINE
  8
St
  6
CONTINUOUS
 62
   127
 10
102.129817
 20
-37.437943
 11
100.463153
 21
-37.437943
  0
LINE
  8
St
  6
DOT
 62
   127
 10
91.36315
 20
-48.771347
 11
90.463153
 21
-48.771347
  0
LINE
  8
St
  6
DOT
 62
   127
 10
91.36315
 20
-40.438018
 11
90.463153
 21
-40.438018
  0
LINE
  8
St
  6
CONTINUOUS
 62
   127
 10
97.963153
 20
-42.304598
 11
97.963153
 21
-46.904602
  0
LINE
  8
St
  6
DOT
 62
   127
 10
97.129817
 20
-48.43802
 11
96.22982
 21
-48.43802
  0
LINE
  8
St
  6
DOT
 62
   127
 10
97.129817
 20
-40.771345
 11
96.22982
 21
-40.771345
  0
LINE
  8
St
  6
DOT
 62
   127
 10
105.463163
 20
-21.604317
 11
104.563157
 21
-21.604317
  0
LINE
  8
St
  6
DOT
 62
   127
 10
99.696485
 20
-21.604317
 11
98.79649
 21
-21.604317
  0
LINE
  8
St
  6
DOT
 62
   127
 10
105.463163
 20
-14.937645
 11
104.563157
 21
-14.937645
  0
LINE
  8
St
  6
DOT
 62
   127
 10
99.696485
 20
-14.937645
 11
98.79649
 21
-14.937645
  0
LINE
  8
St
  6
CONTINUOUS
 62
   127
 10
105.463157
 20
-24.937645
 11
105.463157
 21
-11.604317
  0
LINE
  8
St
  6
CONTINUOUS
 62
   127
 10
98.79648
 20
-14.937645
 11
98.79648
 21
-21.604317
  0
LINE
  8
St
  6
CONTINUOUS
 62
   127
 10
107.12982
 20
-40.604608
 11
106.296485
 21
-40.604608
  0
LINE
  8
St
  6
CONTINUOUS
 62
   127
 10
106.296485
 20
-48.60461
 11
106.296485
 21
-40.604608
  0
LINE
  8
St
  6
CONTINUOUS
 62
   127
 10
107.12982
 20
-48.60461
 11
106.296485
 21
-48.60461
  0
LINE
  8
St
  6
CONTINUOUS
 62
   127
 10
107.12982
 20
-48.60461
 11
107.12982
 21
-40.604608
  0
LINE
  8
St
  6
DOT
 62
   127
 10
107.12982
 20
-47.104608
 11
106.296485
 21
-47.104608
  0
LINE
  8
St
  6
DOT
 62
   127
 10
107.12982
 20
-42.104608
 11
106.296485
 21
-42.104608
  0
LINE
  8
St
  6
CONTINUOUS
 62
   127
 10
107.12982
 20
-14.270907
 11
106.296485
 21
-14.270907
  0
LINE
  8
St
  6
CONTINUOUS
 62
   127
 10
106.296485
 20
-22.270907
 11
106.296485
 21
-14.270907
  0
LINE
  8
St
  6
CONTINUOUS
 62
   127
 10
107.12982
 20
-22.270907
 11
106.296485
 21
-22.270907
  0
LINE
  8
St
  6
CONTINUOUS
 62
   127
 10
107.12982
 20
-22.270907
 11
107.12982
 21
-14.270907
  0
LINE
  8
St
  6
DOT
 62
   127
 10
107.12982
 20
-20.770907
 11
106.296485
 21
-20.770907
  0
LINE
  8
St
  6
DOT
 62
   127
 10
107.12982
 20
-15.770907
 11
106.296485
 21
-15.770907
  0
LINE
  8
St
  6
CONTINUOUS
 62
   127
 10
98.79649
 20
-14.270907
 11
97.963153
 21
-14.270907
  0
LINE
  8
St
  6
CONTINUOUS
 62
   127
 10
97.963153
 20
-22.270907
 11
97.963153
 21
-14.270907
  0
LINE
  8
St
  6
CONTINUOUS
 62
   127
 10
98.79649
 20
-22.270907
 11
97.963153
 21
-22.270907
  0
LINE
  8
St
  6
CONTINUOUS
 62
   127
 10
98.79649
 20
-22.270907
 11
98.79649
 21
-14.270907
  0
LINE
  8
St
  6
DOT
 62
   127
 10
98.79649
 20
-20.770907
 11
97.963153
 21
-20.770907
  0
LINE
  8
St
  6
DOT
 62
   127
 10
98.79649
 20
-15.770907
 11
97.963153
 21
-15.770907
  0
LINE
  8
St
  6
CONTINUOUS
 62
   127
 10
97.961652
 20
-14.604242
 11
97.46165
 21
-14.604242
  0
LINE
  8
St
  6
CONTINUOUS
 62
   127
 10
97.46165
 20
-21.937575
 11
97.46165
 21
-14.604242
  0
LINE
  8
St
  6
CONTINUOUS
 62
   127
 10
97.961652
 20
-21.937575
 11
97.46165
 21
-21.937575
  0
LINE
  8
St
  6
CONTINUOUS
 62
   127
 10
97.961652
 20
-21.937575
 11
97.961652
 21
-14.604242
  0
LINE
  8
St
  6
DOT
 62
   127
 10
97.961652
 20
-16.520907
 11
97.46165
 21
-16.520907
  0
LINE
  8
St
  6
DOT
 62
   127
 10
97.961652
 20
-20.020905
 11
97.46165
 21
-20.020905
  0
LINE
  8
St
  6
DASHDOTX2
 62
   127
 10
121.129825
 20
-18.270907
 11
94.161645
 21
-18.270907
  0
LINE
  8
St
  6
DASHDOTX2
 62
   127
 10
121.129825
 20
-44.604608
 11
94.161645
 21
-44.604608
  0
LINE
  8
St
  6
CONTINUOUS
 62
   127
 10
95.532198
 20
-47.871275
 11
95.296485
 21
-47.635573
  0
LINE
  8
St
  6
CONTINUOUS
 62
   127
 10
95.296485
 20
-41.573643
 11
95.532198
 21
-41.33794
  0
LINE
  8
St
  6
CONTINUOUS
 62
   127
 10
95.532198
 20
-43.124823
 11
95.296485
 21
-42.889127
  0
LINE
  8
St
  6
CONTINUOUS
 62
   127
 10
95.532198
 20
-46.104605
 11
95.296485
 21
-45.868905
  0
LINE
  8
St
  6
CONTINUOUS
 62
   127
 10
95.532198
 20
-43.124823
 11
95.296485
 21
-43.360535
  0
LINE
  8
St
  6
CONTINUOUS
 62
   127
 10
95.532198
 20
-46.104605
 11
95.296485
 21
-45.868905
  0
LINE
  8
St
  6
CONTINUOUS
 62
   127
 10
95.532198
 20
-46.104605
 11
95.296485
 21
-46.340308
  0
LINE
  8
St
  6
CONTINUOUS
 62
   127
 10
95.129817
 20
-42.187943
 11
94.656393
 21
-42.187943
  0
LINE
  8
St
  6
CONTINUOUS
 62
   127
 10
95.296485
 20
-42.021275
 11
95.296485
 21
-41.573643
  0
LINE
  8
St
  6
CONTINUOUS
 62
   127
 10
95.129817
 20
-47.021275
 11
94.656393
 21
-47.021275
  0
LINE
  8
St
  6
CONTINUOUS
 62
   127
 10
95.296485
 20
-47.187943
 11
95.296485
 21
-47.635573
  0
LINE
  8
St
  6
CONTINUOUS
 62
   127
 10
95.296485
 20
-47.187943
 11
95.296485
 21
-42.021275
  0
LINE
  8
St
  6
CONTINUOUS
 62
   127
 10
97.963153
 20
-41.573643
 11
97.72745
 21
-41.33794
  0
LINE
  8
St
  6
CONTINUOUS
 62
   127
 10
95.532198
 20
-41.33794
 11
97.72745
 21
-41.33794
  0
LINE
  8
St
  6
CONTINUOUS
 62
   127
 10
95.532198
 20
-47.871275
 11
97.72745
 21
-47.871275
  0
LINE
  8
St
  6
CONTINUOUS
 62
   127
 10
97.963153
 20
-47.635573
 11
97.72745
 21
-47.871275
  0
LINE
  8
St
  6
CONTINUOUS
 62
   127
 10
97.963153
 20
-41.573643
 11
97.963153
 21
-47.635573
  0
LINE
  8
St
  6
CONTINUOUS
 62
   127
 10
97.72745
 20
-43.124823
 11
97.963162
 21
-42.889127
  0
LINE
  8
St
  6
CONTINUOUS
 62
   127
 10
97.72745
 20
-46.104605
 11
97.963162
 21
-45.868905
  0
LINE
  8
St
  6
CONTINUOUS
 62
   127
 10
97.72745
 20
-43.124823
 11
97.963162
 21
-43.360535
  0
LINE
  8
St
  6
CONTINUOUS
 62
   127
 10
97.72745
 20
-46.104605
 11
97.963162
 21
-45.868905
  0
LINE
  8
St
  6
CONTINUOUS
 62
   127
 10
97.72745
 20
-46.104605
 11
97.963162
 21
-46.340308
  0
LINE
  8
St
  6
CONTINUOUS
 62
   127
 10
95.532198
 20
-43.124823
 11
97.72745
 21
-43.124823
  0
LINE
  8
St
  6
CONTINUOUS
 62
   127
 10
95.532198
 20
-46.104605
 11
97.72745
 21
-46.104605
  0
LINE
  8
St
  6
DASHDOTX2
 62
   127
 10
92.796485
 20
-44.604608
 11
97.963153
 21
-44.604608
  0
LINE
  8
St
  6
CONTINUOUS
 62
   127
 10
95.032195
 20
-21.537575
 11
94.796485
 21
-21.301872
  0
LINE
  8
St
  6
CONTINUOUS
 62
   127
 10
94.796485
 20
-15.239942
 11
95.032195
 21
-15.00424
  0
LINE
  8
St
  6
CONTINUOUS
 62
   127
 10
95.032195
 20
-16.791122
 11
94.796485
 21
-16.555428
  0
LINE
  8
St
  6
CONTINUOUS
 62
   127
 10
95.032195
 20
-19.770905
 11
94.796485
 21
-19.535205
  0
LINE
  8
St
  6
CONTINUOUS
 62
   127
 10
95.032195
 20
-16.791122
 11
94.796485
 21
-17.026835
  0
LINE
  8
St
  6
CONTINUOUS
 62
   127
 10
95.032195
 20
-19.770905
 11
94.796485
 21
-19.535205
  0
LINE
  8
St
  6
CONTINUOUS
 62
   127
 10
95.032195
 20
-19.770905
 11
94.796485
 21
-20.006607
  0
LINE
  8
St
  6
CONTINUOUS
 62
   127
 10
94.629817
 20
-15.854242
 11
94.15639
 21
-15.854242
  0
LINE
  8
St
  6
CONTINUOUS
 62
   127
 10
94.796485
 20
-15.687575
 11
94.796485
 21
-15.239942
  0
LINE
  8
St
  6
CONTINUOUS
 62
   127
 10
94.629817
 20
-20.687575
 11
94.15639
 21
-20.687575
  0
LINE
  8
St
  6
CONTINUOUS
 62
   127
 10
94.796485
 20
-20.854242
 11
94.796485
 21
-21.301872
  0
LINE
  8
St
  6
CONTINUOUS
 62
   127
 10
94.796485
 20
-20.854242
 11
94.796485
 21
-15.687575
  0
LINE
  8
St
  6
CONTINUOUS
 62
   127
 10
97.463153
 20
-15.239942
 11
97.227448
 21
-15.00424
  0
LINE
  8
St
  6
CONTINUOUS
 62
   127
 10
95.032195
 20
-15.00424
 11
97.227448
 21
-15.00424
  0
LINE
  8
St
  6
CONTINUOUS
 62
   127
 10
95.032195
 20
-21.537575
 11
97.227448
 21
-21.537575
  0
LINE
  8
St
  6
CONTINUOUS
 62
   127
 10
97.463153
 20
-21.301872
 11
97.227448
 21
-21.537575
  0
LINE
  8
St
  6
CONTINUOUS
 62
   127
 10
97.463153
 20
-15.239942
 11
97.463153
 21
-21.301872
  0
LINE
  8
St
  6
CONTINUOUS
 62
   127
 10
97.227448
 20
-16.791122
 11
97.46316
 21
-16.555428
  0
LINE
  8
St
  6
CONTINUOUS
 62
   127
 10
97.227448
 20
-19.770905
 11
97.46316
 21
-19.535205
  0
LINE
  8
St
  6
CONTINUOUS
 62
   127
 10
97.227448
 20
-16.791122
 11
97.46316
 21
-17.026835
  0
LINE
  8
St
  6
CONTINUOUS
 62
   127
 10
97.227448
 20
-19.770905
 11
97.46316
 21
-19.535205
  0
LINE
  8
St
  6
CONTINUOUS
 62
   127
 10
97.227448
 20
-19.770905
 11
97.46316
 21
-20.006607
  0
LINE
  8
St
  6
CONTINUOUS
 62
   127
 10
95.032195
 20
-16.791122
 11
97.227448
 21
-16.791122
  0
LINE
  8
St
  6
CONTINUOUS
 62
   127
 10
95.032195
 20
-19.770905
 11
97.227448
 21
-19.770905
  0
LINE
  8
St
  6
DASHDOTX2
 62
   127
 10
92.296485
 20
-18.270907
 11
97.463153
 21
-18.270907
  0
LINE
  8
St
  6
CONTINUOUS
 62
   127
 10
100.463153
 20
-51.77127
 11
100.463153
 21
-49.10461
  0
LINE
  8
St
  6
CONTINUOUS
 62
   127
 10
100.463153
 20
-40.104602
 11
100.463153
 21
-37.437943
  0
LINE
  8
St
  6
CONTINUOUS
 62
   127
 10
106.296498
 20
-14.43771
 11
105.963105
 21
-14.10431
  0
LINE
  8
St
  6
CONTINUOUS
 62
   127
 10
106.296498
 20
-14.43771
 11
106.296498
 21
-12.104252
  0
LINE
  8
St
  6
CONTINUOUS
 62
   127
 10
106.296498
 20
-12.104252
 11
105.963105
 21
-12.437645
  0
LINE
  8
St
  6
CONTINUOUS
 62
   127
 10
106.296498
 20
-24.437705
 11
105.963105
 21
-24.10431
  0
LINE
  8
St
  6
CONTINUOUS
 62
   127
 10
106.296498
 20
-22.104245
 11
106.296498
 21
-24.437705
  0
LINE
  8
St
  6
CONTINUOUS
 62
   127
 10
106.296498
 20
-22.104245
 11
105.963105
 21
-22.437645
  0
LINE
  8
St
  6
DASHDOT
 62
   127
 10
106.296498
 20
-23.270982
 11
103.12977
 21
-23.270982
  0
LINE
  8
St
  6
DASHDOT
 62
   127
 10
106.296498
 20
-13.270978
 11
103.12977
 21
-13.270978
  0
LINE
  8
St
  6
DOT
 62
   127
 10
97.963145
 20
-41.10461
 11
97.963145
 21
-48.104615
  0
LINE
  8
St
  6
DOT
 62
   127
 10
106.296485
 20
-46.937938
 11
97.963145
 21
-46.937938
  0
LINE
  8
St
  6
DOT
 62
   127
 10
106.296485
 20
-42.271263
 11
97.963145
 21
-42.271263
  0
LINE
  8
St
  6
CONTINUOUS
 62
   127
 10
100.463153
 20
-52.104608
 11
97.129817
 21
-52.104608
  0
LINE
  8
St
  6
CONTINUOUS
 62
   127
 10
100.463153
 20
-52.104608
 11
100.463153
 21
-37.104608
  0
LINE
  8
St
  6
CONTINUOUS
 62
   127
 10
100.463153
 20
-37.104608
 11
97.129817
 21
-37.104608
  0
LINE
  8
St
  6
CONTINUOUS
 62
   127
 10
97.129817
 20
-52.104608
 11
97.129817
 21
-37.104608
  0
LINE
  8
St
  6
CONTINUOUS
 62
   127
 10
106.296485
 20
-38.60461
 11
106.296485
 21
-50.604608
  0
LINE
  8
St
  6
CONTINUOUS
 62
   127
 10
106.296485
 20
-50.604608
 11
100.463153
 21
-50.604608
  0
LINE
  8
St
  6
CONTINUOUS
 62
   127
 10
106.296485
 20
-38.60461
 11
100.463153
 21
-38.60461
  0
LINE
  8
St
  6
DOT
 62
   127
 10
100.463153
 20
-37.854608
 11
97.129817
 21
-37.854608
  0
LINE
  8
St
  6
DOT
 62
   127
 10
100.463153
 20
-39.687943
 11
97.129817
 21
-39.687943
  0
LINE
  8
St
  6
DOT
 62
   127
 10
100.463153
 20
-49.521275
 11
97.129817
 21
-49.521275
  0
LINE
  8
St
  6
DOT
 62
   127
 10
100.463153
 20
-51.354605
 11
97.129817
 21
-51.354605
  0
LINE
  8
St
  6
DASHDOTX2
 62
   127
 10
101.129823
 20
-38.771273
 11
96.463148
 21
-38.771273
  0
LINE
  8
St
  6
DASHDOTX2
 62
   127
 10
101.129823
 20
-50.43794
 11
96.463148
 21
-50.43794
  0
LINE
  8
St
  6
DOTX2
 62
   127
 10
106.296485
 20
-40.43794
 11
100.463153
 21
-40.43794
  0
LINE
  8
St
  6
DOTX2
 62
   127
 10
106.296485
 20
-48.771273
 11
100.463153
 21
-48.771273
  0
LINE
  8
St
  6
CONTINUOUS
 62
   127
 10
100.463153
 20
-37.937945
 11
95.698855
 21
-37.937945
  0
LINE
  8
St
  6
CONTINUOUS
 62
   127
 10
100.463153
 20
-39.368898
 11
95.698855
 21
-39.368898
  0
LINE
  8
St
  6
CONTINUOUS
 62
   127
 10
100.463153
 20
-39.6046
 11
95.698855
 21
-39.6046
  0
LINE
  8
St
  6
CONTINUOUS
 62
   127
 10
100.463153
 20
-38.173647
 11
95.463153
 21
-38.173647
  0
LINE
  8
St
  6
DASHDOT
 62
   127
 10
102.129817
 20
-38.771273
 11
95.463153
 21
-38.771273
  0
LINE
  8
St
  6
CONTINUOUS
 62
   127
 10
100.463153
 20
-49.604612
 11
95.698855
 21
-49.604612
  0
LINE
  8
St
  6
CONTINUOUS
 62
   127
 10
100.463153
 20
-51.271267
 11
95.698855
 21
-51.271267
  0
LINE
  8
St
  6
CONTINUOUS
 62
   127
 10
95.698855
 20
-49.604612
 11
95.698855
 21
-51.271267
  0
LINE
  8
St
  6
CONTINUOUS
 62
   127
 10
100.463153
 20
-51.035565
 11
95.463153
 21
-51.035565
  0
LINE
  8
St
  6
CONTINUOUS
 62
   127
 10
100.463153
 20
-49.840315
 11
95.463153
 21
-49.840315
  0
LINE
  8
St
  6
CONTINUOUS
 62
   127
 10
95.463153
 20
-49.840315
 11
95.463153
 21
-51.035565
  0
LINE
  8
St
  6
DASHDOT
 62
   127
 10
102.129817
 20
-50.43794
 11
95.463153
 21
-50.43794
  0
LINE
  8
St
  6
DOT
 62
   127
 10
108.296487
 20
-15.937575
 11
108.296487
 21
-20.60424
  0
LINE
  8
St
  6
DOT
 62
   127
 10
108.296487
 20
-15.937575
 11
107.296487
 21
-15.937575
  0
LINE
  8
St
  6
DOT
 62
   127
 10
108.296487
 20
-20.60424
 11
107.296487
 21
-20.60424
  0
LINE
  8
St
  6
DOT
 62
   127
 10
108.296487
 20
-16.604242
 11
125.488723
 21
-16.604242
  0
LINE
  8
St
  6
DOT
 62
   127
 10
108.296487
 20
-19.937572
 11
125.488723
 21
-19.937572
  0
LINE
  8
St
  6
DOT
 62
   127
 10
108.296487
 20
-42.271275
 11
108.296487
 21
-46.93794
  0
LINE
  8
St
  6
DOT
 62
   127
 10
108.296487
 20
-42.271275
 11
107.296487
 21
-42.271275
  0
LINE
  8
St
  6
DOT
 62
   127
 10
108.296487
 20
-46.93794
 11
107.296487
 21
-46.93794
  0
LINE
  8
St
  6
DOT
 62
   127
 10
108.296487
 20
-42.937945
 11
125.488723
 21
-42.937945
  0
LINE
  8
St
  6
DOT
 62
   127
 10
108.296487
 20
-46.271273
 11
125.488723
 21
-46.271273
  0
LINE
  8
St
  6
CONTINUOUS
 62
   127
 10
108.296487
 20
-42.304598
 11
97.963153
 21
-42.304598
  0
LINE
  8
St
  6
CONTINUOUS
 62
   127
 10
97.963153
 20
-46.904602
 11
108.296487
 21
-46.904602
  0
LINE
  8
St
  6
CONTINUOUS
 62
   127
 10
108.296487
 20
-42.304598
 11
108.296487
 21
-46.904602
  0
LINE
  8
St
  6
CONTINUOUS
 62
   127
 10
124.296487
 20
-45.937938
 11
124.296487
 21
-43.27127
  0
LINE
  8
St
  6
CONTINUOUS
 62
   127
 10
123.963145
 20
-46.271273
 11
123.963145
 21
-42.937935
  0
LINE
  8
St
  6
CONTINUOUS
 62
   127
 10
123.963145
 20
-46.271273
 11
124.296487
 21
-45.937938
  0
LINE
  8
St
  6
CONTINUOUS
 62
   127
 10
123.963145
 20
-42.937935
 11
124.296487
 21
-43.27127
  0
LINE
  8
St
  6
CONTINUOUS
 62
   127
 10
115.96315
 20
-46.271277
 11
115.96315
 21
-42.93794
  0
LINE
  8
St
  6
CONTINUOUS
 62
   127
 10
123.963145
 20
-42.937935
 11
108.296487
 21
-42.937935
  0
LINE
  8
St
  6
CONTINUOUS
 62
   127
 10
123.963145
 20
-46.271273
 11
108.296487
 21
-46.271273
  0
LINE
  8
St
  6
CONTINUOUS
 62
   127
 10
124.21314
 20
-46.021275
 11
115.96315
 21
-46.021275
  0
LINE
  8
St
  6
CONTINUOUS
 62
   127
 10
124.21314
 20
-43.187932
 11
115.96315
 21
-43.187932
  0
LINE
  8
St
  6
CONTINUOUS
 62
   127
 10
94.494988
 20
-16.604235
 11
97.961652
 21
-16.604235
  0
LINE
  8
St
  6
CONTINUOUS
 62
   127
 10
94.24499
 20
-16.854233
 11
97.961652
 21
-16.854233
  0
LINE
  8
St
  6
CONTINUOUS
 62
   127
 10
94.161645
 20
-19.604238
 11
94.161645
 21
-16.93757
  0
LINE
  8
St
  6
CONTINUOUS
 62
   127
 10
94.494988
 20
-19.937572
 11
94.494988
 21
-16.604235
  0
LINE
  8
St
  6
CONTINUOUS
 62
   127
 10
94.24499
 20
-19.687575
 11
97.961652
 21
-19.687575
  0
LINE
  8
St
  6
CONTINUOUS
 62
   127
 10
94.494988
 20
-19.937572
 11
97.961652
 21
-19.937572
  0
LINE
  8
St
  6
CONTINUOUS
 62
   127
 10
94.494988
 20
-19.937572
 11
94.161645
 21
-19.604238
  0
LINE
  8
St
  6
CONTINUOUS
 62
   127
 10
94.494988
 20
-16.604235
 11
94.161645
 21
-16.93757
  0
LINE
  8
St
  6
CONTINUOUS
 62
   127
 10
97.963153
 20
-15.970897
 11
97.963153
 21
-20.570903
  0
LINE
  8
St
  6
CONTINUOUS
 62
   127
 10
108.296487
 20
-15.970897
 11
97.963153
 21
-15.970897
  0
LINE
  8
St
  6
CONTINUOUS
 62
   127
 10
97.963153
 20
-20.570903
 11
108.296487
 21
-20.570903
  0
LINE
  8
St
  6
CONTINUOUS
 62
   127
 10
108.296487
 20
-15.970897
 11
108.296487
 21
-20.570903
  0
LINE
  8
St
  6
CONTINUOUS
 62
   127
 10
124.296487
 20
-19.604238
 11
124.296487
 21
-16.93757
  0
LINE
  8
St
  6
CONTINUOUS
 62
   127
 10
123.963145
 20
-19.937572
 11
123.963145
 21
-16.604235
  0
LINE
  8
St
  6
CONTINUOUS
 62
   127
 10
123.963145
 20
-19.937572
 11
124.296487
 21
-19.604238
  0
LINE
  8
St
  6
CONTINUOUS
 62
   127
 10
123.963145
 20
-16.604235
 11
124.296487
 21
-16.93757
  0
LINE
  8
St
  6
CONTINUOUS
 62
   127
 10
115.96315
 20
-19.937575
 11
115.96315
 21
-16.60424
  0
LINE
  8
St
  6
CONTINUOUS
 62
   127
 10
123.963145
 20
-16.604235
 11
108.296487
 21
-16.604235
  0
LINE
  8
St
  6
CONTINUOUS
 62
   127
 10
123.963145
 20
-19.937572
 11
108.296487
 21
-19.937572
  0
LINE
  8
St
  6
CONTINUOUS
 62
   127
 10
124.21314
 20
-19.687575
 11
115.96315
 21
-19.687575
  0
LINE
  8
St
  6
CONTINUOUS
 62
   127
 10
124.21314
 20
-16.854233
 11
115.96315
 21
-16.854233
  0
LINE
  8
St
  6
CONTINUOUS
 62
   127
 10
97.129817
 20
-48.746277
 11
96.129815
 21
-48.746277
  0
LINE
  8
St
  6
DOT
 62
   127
 10
97.963145
 20
-48.104615
 11
96.129815
 21
-48.104615
  0
LINE
  8
St
  6
CONTINUOUS
 62
   127
 10
97.129817
 20
-40.462945
 11
96.129815
 21
-40.462945
  0
LINE
  8
St
  6
CONTINUOUS
 62
   127
 10
96.129815
 20
-48.746277
 11
96.129815
 21
-40.462945
  0
LINE
  8
St
  6
DOT
 62
   127
 10
97.963145
 20
-41.10461
 11
96.129815
 21
-41.10461
  0
CIRCLE
  8
St
  6
CONTINUOUS
 62
   127
 10
121.129825
 20
-18.270907
 40
4.666665
  0
ARC
  8
St
  6
CONTINUOUS
 62
   127
 10
109.513693
 20
-16.827491
 40
1.049784
 50
180.005493
 51
207.28394
  0
ARC
  8
St
  6
CONTINUOUS
 62
   127
 10
112.48792
 20
-18.270907
 40
4.024023
 50
166.170291
 51
193.840696
  0
ARC
  8
St
  6
CONTINUOUS
 62
   127
 10
109.513693
 20
-19.714273
 40
1.049784
 50
152.727031
 51
180.005478
  0
ARC
  8
St
  6
CONTINUOUS
 62
   127
 10
111.797241
 20
-24.270927
 40
0.833333
 50
11.539879
 51
168.468345
  0
ARC
  8
St
  6
CONTINUOUS
 62
   127
 10
112.797244
 20
-23.937576
 40
0.166667
 50
270.001373
 51
360.002747
  0
ARC
  8
St
  6
CONTINUOUS
 62
   127
 10
110.797238
 20
-23.937576
 40
0.166667
 50
180.005493
 51
270.001373
  0
ARC
  8
St
  6
CONTINUOUS
 62
   127
 10
111.797241
 20
-12.270887
 40
0.833333
 50
191.542626
 51
348.465599
  0
ARC
  8
St
  6
CONTINUOUS
 62
   127
 10
112.797244
 20
-12.604238
 40
0.166667
 50
0.002747
 51
90.00412
  0
ARC
  8
St
  6
CONTINUOUS
 62
   127
 10
110.797238
 20
-12.604238
 40
0.166667
 50
90.00412
 51
180.005493
  0
ARC
  8
St
  6
CONTINUOUS
 62
   127
 10
121.125879
 20
-18.270907
 40
5.083333
 50
209.441337
 51
510.564141
  0
ARC
  8
St
  6
CONTINUOUS
 62
   127
 10
116.844139
 20
-20.687577
 40
0.166667
 50
90.00412
 51
209.441337
  0
ARC
  8
St
  6
CONTINUOUS
 62
   127
 10
116.844139
 20
-15.854242
 40
0.166667
 50
150.564126
 51
270.001358
  0
CIRCLE
  8
St
  6
CONTINUOUS
 62
   127
 10
121.129825
 20
-44.604608
 40
4.666665
  0
ARC
  8
St
  6
CONTINUOUS
 62
   127
 10
109.513693
 20
-43.161192
 40
1.049784
 50
180.005493
 51
207.28394
  0
ARC
  8
St
  6
CONTINUOUS
 62
   127
 10
112.48792
 20
-44.604607
 40
4.024023
 50
166.170291
 51
193.840696
  0
ARC
  8
St
  6
CONTINUOUS
 62
   127
 10
109.513693
 20
-46.047973
 40
1.049784
 50
152.727031
 51
180.005478
  0
ARC
  8
St
  6
CONTINUOUS
 62
   127
 10
111.797241
 20
-50.604627
 40
0.833333
 50
11.539879
 51
168.468345
  0
ARC
  8
St
  6
CONTINUOUS
 62
   127
 10
112.797244
 20
-50.271276
 40
0.166667
 50
270.001373
 51
360.002747
  0
ARC
  8
St
  6
CONTINUOUS
 62
   127
 10
110.797238
 20
-50.271276
 40
0.166667
 50
180.005493
 51
270.001373
  0
ARC
  8
St
  6
CONTINUOUS
 62
   127
 10
111.797241
 20
-38.604588
 40
0.833333
 50
191.542626
 51
348.465599
  0
ARC
  8
St
  6
CONTINUOUS
 62
   127
 10
112.797244
 20
-38.937939
 40
0.166667
 50
0.002747
 51
90.00412
  0
ARC
  8
St
  6
CONTINUOUS
 62
   127
 10
110.797238
 20
-38.937939
 40
0.166667
 50
90.00412
 51
180.005493
  0
ARC
  8
St
  6
CONTINUOUS
 62
   127
 10
121.125879
 20
-44.604607
 40
5.083333
 50
209.441337
 51
510.564141
  0
ARC
  8
St
  6
CONTINUOUS
 62
   127
 10
116.844139
 20
-47.021278
 40
0.166667
 50
90.00412
 51
209.441337
  0
ARC
  8
St
  6
CONTINUOUS
 62
   127
 10
116.844139
 20
-42.187945
 40
0.166667
 50
150.564126
 51
270.001358
  0
ARC
  8
St
  6
CONTINUOUS
 62
   127
 10
95.296481
 20
-44.604607
 40
2.5
 50
104.839429
 51
255.166064
  0
ARC
  8
St
  6
CONTINUOUS
 62
   127
 10
95.129814
 20
-42.021274
 40
0.166667
 50
270.001373
 51
360.002747
  0
ARC
  8
St
  6
CONTINUOUS
 62
   127
 10
95.129814
 20
-47.187941
 40
0.166667
 50
0.002747
 51
90.00412
  0
ARC
  8
St
  6
CONTINUOUS
 62
   127
 10
94.79648
 20
-18.270907
 40
2.5
 50
104.839429
 51
255.166064
  0
ARC
  8
St
  6
CONTINUOUS
 62
   127
 10
94.629812
 20
-15.687573
 40
0.166667
 50
270.001373
 51
360.002747
  0
ARC
  8
St
  6
CONTINUOUS
 62
   127
 10
94.629812
 20
-20.85424
 40
0.166667
 50
0.002747
 51
90.00412
  0
ARC
  8
St
  6
CONTINUOUS
 10
92.129815
 20
-51.271339
 40
1.666667
 50
180.0
 51
270.0
  0
LINE
  8
St
  6
CONTINUOUS
 62
   127
 10
95.46315
 20
-52.938008
 11
92.12982
 21
-52.938008
  0
ARC
  8
St
  6
CONTINUOUS
 10
95.463146
 20
-51.271339
 40
1.666667
 50
270.0
 51
360.0
  0
LINE
  8
St
  6
CONTINUOUS
 62
   127
 10
90.463153
 20
-37.938015
 11
90.463153
 21
-51.27134
  0
ARC
  8
St
  6
CONTINUOUS
 10
92.129815
 20
-37.938013
 40
1.666667
 50
90.0
 51
180.0
  0
LINE
  8
St
  6
CONTINUOUS
 62
   127
 10
95.46315
 20
-36.271347
 11
92.12982
 21
-36.271347
  0
LINE
  8
St
  6
CONTINUOUS
 62
   127
 10
97.129817
 20
-37.938015
 11
97.129817
 21
-51.27134
  0
ARC
  8
St
  6
CONTINUOUS
 10
95.463146
 20
-37.938013
 40
1.666667
 50
0.0
 51
90.0
  0
ARC
  8
St
  6
CONTINUOUS
 10
95.463149
 20
-37.938008
 40
0.766667
 50
0.0
 51
90.0
  0
LINE
  8
St
  6
CONTINUOUS
 62
   127
 10
95.463153
 20
-37.171342
 11
92.129817
 21
-37.171342
  0
ARC
  8
St
  6
CONTINUOUS
 10
92.129812
 20
-37.938008
 40
0.766667
 50
90.0
 51
180.0
  0
LINE
  8
St
  6
CONTINUOUS
 62
   127
 10
91.36315
 20
-37.93801
 11
91.36315
 21
-51.271338
  0
ARC
  8
St
  6
CONTINUOUS
 10
92.129812
 20
-51.271337
 40
0.766667
 50
180.0
 51
270.0
  0
LINE
  8
St
  6
CONTINUOUS
 62
   127
 10
95.463153
 20
-52.038005
 11
92.129817
 21
-52.038005
  0
LINE
  8
St
  6
CONTINUOUS
 62
   127
 10
96.22982
 20
-37.93801
 11
96.22982
 21
-51.271338
  0
ARC
  8
St
  6
CONTINUOUS
 10
95.463149
 20
-51.271337
 40
0.766667
 50
270.0
 51
360.0
  0
ARC
  8
St
  6
CONTINUOUS
 10
103.796491
 20
-24.937649
 40
1.666667
 50
-90.0
 51
0.0
  0
LINE
  8
St
  6
CONTINUOUS
 62
   127
 10
103.796495
 20
-26.604317
 11
100.463157
 21
-26.604317
  0
ARC
  8
St
  6
CONTINUOUS
 10
100.463152
 20
-24.937649
 40
1.666667
 50
180.0
 51
270.0
  0
LINE
  8
St
  6
CONTINUOUS
 62
   127
 10
98.79649
 20
-11.604313
 11
98.79649
 21
-24.93765
  0
ARC
  8
St
  6
CONTINUOUS
 10
100.463152
 20
-11.60431
 40
1.666667
 50
90.0
 51
180.0
  0
LINE
  8
St
  6
CONTINUOUS
 62
   127
 10
103.796495
 20
-9.937645
 11
100.463157
 21
-9.937645
  0
LINE
  8
St
  6
CONTINUOUS
 62
   127
 10
105.463163
 20
-11.604313
 11
105.463163
 21
-24.93765
  0
ARC
  8
St
  6
CONTINUOUS
 10
103.796491
 20
-11.60431
 40
1.666667
 50
0.0
 51
90.0
  0
ARC
  8
St
  6
CONTINUOUS
 10
103.796486
 20
-11.604308
 40
0.766667
 50
0.0
 51
90.0
  0
LINE
  8
St
  6
CONTINUOUS
 62
   127
 10
103.79649
 20
-10.837643
 11
100.463153
 21
-10.837643
  0
ARC
  8
St
  6
CONTINUOUS
 10
100.463147
 20
-11.604308
 40
0.766667
 50
90.0
 51
180.0
  0
LINE
  8
St
  6
CONTINUOUS
 62
   127
 10
104.563157
 20
-11.60431
 11
104.563157
 21
-24.937655
  0
ARC
  8
St
  6
CONTINUOUS
 10
103.796486
 20
-24.937654
 40
0.766667
 50
-90.0
 51
0.0
  0
LINE
  8
St
  6
CONTINUOUS
 62
   127
 10
103.79649
 20
-25.704323
 11
100.463153
 21
-25.704323
  0
LINE
  8
St
  6
CONTINUOUS
 62
   127
 10
99.696485
 20
-11.60431
 11
99.696485
 21
-24.937655
  0
ARC
  8
St
  6
CONTINUOUS
 10
100.463147
 20
-24.937654
 40
0.766667
 50
180.0
 51
270.0
  0
LINE
  8
St
  6
DASHDOT
 10
90.463153
 20
-31.437828
 11
105.463157
 21
-31.437828
  0
LINE
  8
St
  6
DOT
 62
   127
 10
105.46316
 20
-37.93801
 11
105.46316
 21
-51.271338
  0
ARC
  8
St
  6
DOT
 10
103.796494
 20
-37.938004
 40
1.666667
 50
0.0
 51
90.0
  0
LINE
  8
St
  6
DOT
 62
   127
 10
103.796498
 20
-36.271338
 11
100.46316
 21
-36.271338
  0
ARC
  8
St
  6
DOT
 10
100.463155
 20
-37.938004
 40
1.666667
 50
90.0
 51
180.0
  0
LINE
  8
St
  6
DOT
 62
   127
 10
98.796493
 20
-51.271342
 11
98.796493
 21
-37.938005
  0
ARC
  8
St
  6
DOT
 10
100.463155
 20
-51.271344
 40
1.666667
 50
180.0
 51
270.0
  0
LINE
  8
St
  6
DOT
 62
   127
 10
103.796498
 20
-52.93801
 11
100.46316
 21
-52.93801
  0
ARC
  8
St
  6
DOT
 10
103.796494
 20
-51.271344
 40
1.666667
 50
-90.0
 51
0.0
  0
ARC
  8
St
  6
DOT
 10
103.796489
 20
-51.271346
 40
0.766667
 50
270.0
 51
360.0
  0
LINE
  8
St
  6
DOT
 62
   127
 10
103.796493
 20
-52.038012
 11
100.463155
 21
-52.038012
  0
ARC
  8
St
  6
DOT
 10
100.46315
 20
-51.271346
 40
0.766667
 50
180.0
 51
270.0
  0
LINE
  8
St
  6
DOT
 62
   127
 10
104.56316
 20
-51.271345
 11
104.56316
 21
-37.938
  0
ARC
  8
St
  6
DOT
 10
103.796489
 20
-37.937999
 40
0.766667
 50
0.0
 51
90.0
  0
LINE
  8
St
  6
DOT
 62
   127
 10
103.796493
 20
-37.171332
 11
100.463155
 21
-37.171332
  0
LINE
  8
St
  6
DOT
 62
   127
 10
99.696487
 20
-51.271345
 11
99.696487
 21
-37.938
  0
ARC
  8
St
  6
DOT
 10
100.46315
 20
-37.937999
 40
0.766667
 50
90.0
 51
180.0
  0
LINE
  8
St
  6
DOT
 62
   127
 10
97.129823
 20
-24.937645
 11
97.129823
 21
-11.604317
  0
ARC
  8
St
  6
DOT
 10
95.463156
 20
-24.937649
 40
1.666667
 50
-90.0
 51
0.0
  0
LINE
  8
St
  6
DOT
 62
   127
 10
95.46316
 20
-26.604317
 11
92.129823
 21
-26.604317
  0
ARC
  8
St
  6
DOT
 10
92.129817
 20
-24.937649
 40
1.666667
 50
180.0
 51
270.0
  0
LINE
  8
St
  6
DOT
 62
   127
 10
90.463155
 20
-11.604313
 11
90.463155
 21
-24.93765
  0
ARC
  8
St
  6
DOT
 10
92.129817
 20
-11.60431
 40
1.666667
 50
90.0
 51
180.0
  0
LINE
  8
St
  6
DOT
 62
   127
 10
95.46316
 20
-9.937645
 11
92.129823
 21
-9.937645
  0
ARC
  8
St
  6
DOT
 10
95.463156
 20
-11.60431
 40
1.666667
 50
0.0
 51
90.0
  0
ARC
  8
St
  6
DOT
 10
95.463151
 20
-11.604308
 40
0.766667
 50
0.0
 51
90.0
  0
LINE
  8
St
  6
DOT
 62
   127
 10
95.463155
 20
-10.837643
 11
92.129817
 21
-10.837643
  0
ARC
  8
St
  6
DOT
 10
92.129812
 20
-11.604308
 40
0.766667
 50
90.0
 51
180.0
  0
LINE
  8
St
  6
DOT
 62
   127
 10
96.229823
 20
-11.60431
 11
96.229823
 21
-24.937655
  0
ARC
  8
St
  6
DOT
 10
95.463151
 20
-24.937654
 40
0.766667
 50
-90.0
 51
0.0
  0
LINE
  8
St
  6
DOT
 62
   127
 10
95.463155
 20
-25.704323
 11
92.129817
 21
-25.704323
  0
LINE
  8
St
  6
DOT
 62
   127
 10
91.36315
 20
-11.60431
 11
91.36315
 21
-24.937655
  0
ARC
  8
St
  6
DOT
 10
92.129812
 20
-24.937654
 40
0.766667
 50
180.0
 51
270.0
  0
LINE
  8
St
  6
DOT
 10
90.463153
 20
-37.854608
 11
90.463153
 21
-24.93765
  0
LINE
  8
St
  6
DOT
 10
97.129817
 20
-37.854608
 11
97.129817
 21
-24.942645
  0
LINE
  8
St
  6
DOT
 10
105.463157
 20
-24.937645
 11
105.463157
 21
-37.933928
  0
LINE
  8
St
  6
DOT
 10
98.79649
 20
-24.937645
 11
98.79649
 21
-37.938005
  0
ENDBLK
  0
BLOCK
  2
*GRP_0146
 70
    65
 10
0.0
 20
0.0
  0
LINE
  8
補助線
  6
BYBLOCK
 62
     0
 10
120.629825
 20
-44.604608
 11
121.629825
 21
-44.604608
  0
LINE
  8
補助線
  6
BYBLOCK
 62
     0
 10
121.129825
 20
-45.104608
 11
121.129825
 21
-44.104608
  0
ENDBLK
  0
BLOCK
  2
*GRP_0147
 70
    65
 10
0.0
 20
0.0
  0
LINE
  8
補助線
  6
BYBLOCK
 62
     0
 10
120.629825
 20
-18.270907
 11
121.629825
 21
-18.270907
  0
LINE
  8
補助線
  6
BYBLOCK
 62
     0
 10
121.129825
 20
-18.770907
 11
121.129825
 21
-17.770907
  0
ENDBLK
  0
BLOCK
  2
M8横横
 70
    64
 10
-129.398
 20
116.440225
  0
LINE
  8
ボルト／ビス
 10
-135.89319
 20
121.440225
 11
-135.39319
 21
121.940225
  0
LINE
  8
ボルト／ビス
 10
-123.40281
 20
121.940225
 11
-122.90281
 21
121.440225
  0
POLYLINE
  8
ボルト／ビス
 66
     1
  0
VERTEX
  8
ボルト／ビス
 10
-129.898
 20
121.940225
  0
VERTEX
  8
ボルト／ビス
 10
-129.398
 20
121.440225
  0
VERTEX
  8
ボルト／ビス
 10
-128.898
 20
121.940225
  0
SEQEND
  0
LINE
  8
ボルト／ビス
 10
-135.89319
 20
116.440225
 11
-122.90281
 21
116.440225
  0
LINE
  8
ボルト／ビス
 10
-129.398
 20
116.440225
 11
-129.398
 21
121.440225
  0
LINE
  8
ボルト／ビス
 10
-135.39319
 20
121.940225
 11
-123.40281
 21
121.940225
  0
LINE
  8
ボルト／ビス
 10
-122.90281
 20
116.440225
 11
-122.90281
 21
121.440225
  0
LINE
  8
ボルト／ビス
 10
-135.89319
 20
116.440225
 11
-135.89319
 21
121.440225
  0
ENDBLK
  0
BLOCK
  2
M8横
 70
    64
 10
-88.370132
 20
140.837665
  0
LINE
  8
ボルト／ビス
 10
-95.870132
 20
140.837665
 11
-80.870132
 21
140.837665
  0
LINE
  8
ボルト／ビス
 10
-80.870132
 20
145.837665
 11
-81.370132
 21
146.337665
  0
POLYLINE
  8
ボルト／ビス
 66
     1
  0
VERTEX
  8
ボルト／ビス
 10
-84.120132
 20
146.337665
  0
VERTEX
  8
ボルト／ビス
 10
-84.620132
 20
145.837665
  0
VERTEX
  8
ボルト／ビス
 10
-85.120132
 20
146.337665
  0
SEQEND
  0
POLYLINE
  8
ボルト／ビス
 66
     1
  0
VERTEX
  8
ボルト／ビス
 10
-91.620132
 20
146.337665
  0
VERTEX
  8
ボルト／ビス
 10
-92.120132
 20
145.837665
  0
VERTEX
  8
ボルト／ビス
 10
-92.620132
 20
146.337665
  0
SEQEND
  0
LINE
  8
ボルト／ビス
 10
-95.370132
 20
146.337665
 11
-95.870132
 21
145.837665
  0
LINE
  8
ボルト／ビス
 10
-95.870132
 20
140.837665
 11
-95.870132
 21
145.837665
  0
LINE
  8
ボルト／ビス
 10
-80.870132
 20
140.837665
 11
-80.870132
 21
145.837665
  0
LINE
  8
ボルト／ビス
 10
-95.370132
 20
146.337665
 11
-81.370132
 21
146.337665
  0
LINE
  8
ボルト／ビス
 10
-84.620132
 20
140.837665
 11
-84.620132
 21
145.837665
  0
LINE
  8
ボルト／ビス
 10
-92.120132
 20
140.837665
 11
-92.120132
 21
145.837665
  0
ENDBLK
  0
ENDSEC
  0
SECTION
  2
ENTITIES
  0
POLYLINE
  8
通り芯
  6
CONTINUOUS
 66
     1
 70
     1
  0
VERTEX
  8
通り芯
 10
-210.0
 20
-148.5
  0
VERTEX
  8
通り芯
 10
210.0
 20
-148.5
  0
VERTEX
  8
通り芯
 10
210.0
 20
148.5
  0
VERTEX
  8
通り芯
 10
-210.0
 20
148.5
  0
SEQEND
  0
ARC
  8
通り芯
  6
CONTINUOUS
 62
    15
 10
-127.463143
 20
-59.270898
 40
1.0
 50
180.0
 51
270.0
  0
LINE
  8
通り芯
  6
CONTINUOUS
 62
    15
 10
-128.463145
 20
-60.270897
 11
-128.463145
 21
-53.270897
  0
LINE
  8
通り芯
  6
CONTINUOUS
 62
    15
 10
-128.463145
 20
-53.270897
 11
-127.463145
 21
-53.270897
  0
LINE
  8
通り芯
  6
CONTINUOUS
 62
    15
 10
-127.463145
 20
-59.270897
 11
-127.463145
 21
-53.270897
  0
LINE
  8
通り芯
  6
CONTINUOUS
 62
    15
 10
-124.963145
 20
-59.270897
 11
-124.963145
 21
-60.270897
  0
LINE
  8
通り芯
  6
CONTINUOUS
 62
    15
 10
-123.62981
 20
-59.270897
 11
-123.62981
 21
-60.270897
  0
LINE
  8
通り芯
  6
CONTINUOUS
 62
    15
 10
-123.62981
 20
-59.520897
 11
-124.963145
 21
-59.520897
  0
LINE
  8
通り芯
  6
CONTINUOUS
 62
    15
 10
-123.62981
 20
-59.770897
 11
-124.963145
 21
-59.770897
  0
LINE
  8
通り芯
  6
CONTINUOUS
 62
    15
 10
-123.62981
 20
-60.020897
 11
-124.963145
 21
-60.020897
  0
ARC
  8
通り芯
  6
CONTINUOUS
 62
    15
 10
-116.963158
 20
-59.270898
 40
1.0
 50
270.0
 51
360.0
  0
LINE
  8
通り芯
  6
CONTINUOUS
 62
    15
 10
-116.96316
 20
-47.104233
 11
-115.96316
 21
-47.104233
  0
LINE
  8
通り芯
  6
CONTINUOUS
 62
    15
 10
-116.96316
 20
-45.437565
 11
-115.96316
 21
-45.437565
  0
LINE
  8
通り芯
  6
CONTINUOUS
 62
    15
 10
-116.71316
 20
-45.437565
 11
-116.71316
 21
-47.104233
  0
LINE
  8
通り芯
  6
CONTINUOUS
 62
    15
 10
-116.46316
 20
-45.437565
 11
-116.46316
 21
-47.104233
  0
LINE
  8
通り芯
  6
CONTINUOUS
 62
    15
 10
-116.21316
 20
-45.437565
 11
-116.21316
 21
-47.104233
  0
LINE
  8
通り芯
  6
CONTINUOUS
 62
    15
 10
-116.96316
 20
-53.770897
 11
-115.96316
 21
-53.770897
  0
LINE
  8
通り芯
  6
CONTINUOUS
 62
    15
 10
-116.96316
 20
-52.104233
 11
-115.96316
 21
-52.104233
  0
LINE
  8
通り芯
  6
CONTINUOUS
 62
    15
 10
-116.71316
 20
-52.104233
 11
-116.71316
 21
-53.770897
  0
LINE
  8
通り芯
  6
CONTINUOUS
 62
    15
 10
-116.46316
 20
-52.104233
 11
-116.46316
 21
-53.770897
  0
LINE
  8
通り芯
  6
CONTINUOUS
 62
    15
 10
-116.21316
 20
-52.104233
 11
-116.21316
 21
-53.770897
  0
LINE
  8
通り芯
  6
CONTINUOUS
 62
    15
 10
-127.463145
 20
-59.270897
 11
-116.96316
 21
-59.270897
  0
LINE
  8
通り芯
  6
CONTINUOUS
 62
    15
 10
-128.463145
 20
-60.270897
 11
-115.96316
 21
-60.270897
  0
LINE
  8
通り芯
  6
CONTINUOUS
 62
    15
 10
-124.963145
 20
-59.270897
 11
-124.963145
 21
-60.270897
  0
LINE
  8
通り芯
  6
CONTINUOUS
 62
    15
 10
-123.62981
 20
-59.270897
 11
-123.62981
 21
-60.270897
  0
LINE
  8
通り芯
  6
CONTINUOUS
 62
    15
 10
-123.62981
 20
-59.520897
 11
-124.963145
 21
-59.520897
  0
LINE
  8
通り芯
  6
CONTINUOUS
 62
    15
 10
-123.62981
 20
-59.770897
 11
-124.963145
 21
-59.770897
  0
LINE
  8
通り芯
  6
CONTINUOUS
 62
    15
 10
-123.62981
 20
-60.020897
 11
-124.963145
 21
-60.020897
  0
LINE
  8
通り芯
  6
CONTINUOUS
 62
    15
 10
-116.96316
 20
-59.270897
 11
-116.96316
 21
-28.437565
  0
LINE
  8
通り芯
  6
CONTINUOUS
 62
    15
 10
-116.96316
 20
-28.437565
 11
-115.96316
 21
-28.437565
  0
LINE
  8
通り芯
  6
CONTINUOUS
 62
    15
 10
-115.96316
 20
-60.270897
 11
-115.96316
 21
-28.437565
  0
LINE
  8
通り芯
  6
CONTINUOUS
 62
    15
 10
-116.96316
 20
-30.187565
 11
-115.96316
 21
-30.187565
  0
LINE
  8
通り芯
  6
CONTINUOUS
 62
    15
 10
-116.96316
 20
-29.020897
 11
-115.96316
 21
-29.020897
  0
LINE
  8
通り芯
  6
CONTINUOUS
 62
    15
 10
-116.71316
 20
-29.020897
 11
-116.71316
 21
-30.187565
  0
LINE
  8
通り芯
  6
CONTINUOUS
 62
    15
 10
-116.46316
 20
-29.020897
 11
-116.46316
 21
-30.187565
  0
LINE
  8
通り芯
  6
CONTINUOUS
 62
    15
 10
-116.21316
 20
-29.020897
 11
-116.21316
 21
-30.187565
  0
LINE
  8
通り芯
  6
CONTINUOUS
 62
    15
 10
-116.96316
 20
-55.270897
 11
-115.96316
 21
-55.270897
  0
LINE
  8
通り芯
  6
CONTINUOUS
 62
    15
 10
-116.96316
 20
-56.604233
 11
-115.96316
 21
-56.604233
  0
LINE
  8
通り芯
  6
CONTINUOUS
 62
    15
 10
-116.71316
 20
-55.270897
 11
-116.71316
 21
-56.604233
  0
LINE
  8
通り芯
  6
CONTINUOUS
 62
    15
 10
-116.46316
 20
-55.270897
 11
-116.46316
 21
-56.604233
  0
LINE
  8
通り芯
  6
CONTINUOUS
 62
    15
 10
-116.21316
 20
-55.270897
 11
-116.21316
 21
-56.604233
  0
ARC
  8
通り芯
  6
CONTINUOUS
 62
    15
 10
-122.763153
 20
-4.770897
 40
1.0
 50
90.0
 51
180.0
  0
LINE
  8
通り芯
  6
CONTINUOUS
 62
    15
 10
-123.763155
 20
-10.770897
 11
-122.763155
 21
-10.770897
  0
LINE
  8
通り芯
  6
CONTINUOUS
 62
    15
 10
-123.763155
 20
-3.770897
 11
-123.763155
 21
-10.770897
  0
LINE
  8
通り芯
  6
CONTINUOUS
 62
    15
 10
-116.96316
 20
-4.770897
 11
-116.96316
 21
-20.437562
  0
ARC
  8
通り芯
  6
CONTINUOUS
 62
    15
 10
-116.963158
 20
-4.770897
 40
1.0
 50
0.0
 51
90.0
  0
LINE
  8
通り芯
  6
CONTINUOUS
 62
    15
 10
-116.96316
 20
-11.937562
 11
-115.96316
 21
-11.937562
  0
LINE
  8
通り芯
  6
CONTINUOUS
 62
    15
 10
-116.96316
 20
-10.270897
 11
-115.96316
 21
-10.270897
  0
LINE
  8
通り芯
  6
CONTINUOUS
 62
    15
 10
-116.71316
 20
-10.270897
 11
-116.71316
 21
-11.937562
  0
LINE
  8
通り芯
  6
CONTINUOUS
 62
    15
 10
-116.46316
 20
-10.270897
 11
-116.46316
 21
-11.937562
  0
LINE
  8
通り芯
  6
CONTINUOUS
 62
    15
 10
-116.21316
 20
-10.270897
 11
-116.21316
 21
-11.937562
  0
LINE
  8
通り芯
  6
CONTINUOUS
 62
    15
 10
-116.96316
 20
-18.60423
 11
-115.96316
 21
-18.60423
  0
LINE
  8
通り芯
  6
CONTINUOUS
 62
    15
 10
-116.96316
 20
-16.937562
 11
-115.96316
 21
-16.937562
  0
LINE
  8
通り芯
  6
CONTINUOUS
 62
    15
 10
-116.71316
 20
-16.937562
 11
-116.71316
 21
-18.60423
  0
LINE
  8
通り芯
  6
CONTINUOUS
 62
    15
 10
-116.46316
 20
-16.937562
 11
-116.46316
 21
-18.60423
  0
LINE
  8
通り芯
  6
CONTINUOUS
 62
    15
 10
-116.21316
 20
-16.937562
 11
-116.21316
 21
-18.60423
  0
LINE
  8
通り芯
  6
CONTINUOUS
 62
    15
 10
-122.763155
 20
-4.770897
 11
-116.96316
 21
-4.770897
  0
LINE
  8
通り芯
  6
CONTINUOUS
 62
    15
 10
-123.763155
 20
-3.770897
 11
-115.963158
 21
-3.770897
  0
LINE
  8
通り芯
  6
CONTINUOUS
 62
    15
 10
-122.763155
 20
-4.770897
 11
-122.763155
 21
-20.437562
  0
LINE
  8
通り芯
  6
CONTINUOUS
 62
    15
 10
-115.96316
 20
-20.437562
 11
-122.763155
 21
-20.437562
  0
LINE
  8
通り芯
  6
CONTINUOUS
 10
-115.963158
 20
-3.770897
 11
-115.96316
 21
-20.437562
  0
ARC
  8
通り芯
  6
CONTINUOUS
 10
0.0
 20
-76.995332
 40
137.881648
 50
90.0
 51
142.436986
  0
ARC
  8
通り芯
  6
CONTINUOUS
 10
0.0
 20
-76.995332
 40
136.806155
 50
90.0
 51
142.619326
  0
ARC
  8
通り芯
  6
CONTINUOUS
 10
-0.0
 20
-76.995332
 40
137.881648
 50
37.563014
 51
90.0
  0
ARC
  8
通り芯
  6
CONTINUOUS
 10
-0.0
 20
-76.995332
 40
136.806155
 50
37.380674
 51
90.0
  0
INSERT
  2
*GRP_0002
  8
補助線
  6
CONTINUOUS
 10
0.0
 20
0.0
  0
INSERT
  2
*GRP_0003
  8
補助線
  6
CONTINUOUS
 10
0.0
 20
0.0
  0
INSERT
  2
*GRP_0140
  8
型材
  6
DOT
 10
0.0
 20
0.0
  0
INSERT
  2
*GRP_0141
  8
型材
  6
DOT
 10
0.0
 20
0.0
  0
INSERT
  2
*GRP_0001
  8
型材断面
  6
CONTINUOUS
 10
0.0
 20
0.0
  0
INSERT
  2
*GRP_0004
  8
型材断面
  6
CONTINUOUS
 62
    47
 10
0.0
 20
0.0
  0
INSERT
  2
*GRP_0005
  8
型材断面
  6
CONTINUOUS
 62
    47
 10
0.0
 20
0.0
  0
INSERT
  2
*GRP_0006
  8
型材断面
  6
CONTINUOUS
 62
    47
 10
0.0
 20
0.0
  0
LINE
  8
型材断面
  6
CONTINUOUS
 62
    47
 10
108.796485
 20
-54.298678
 11
108.296487
 21
-54.0209
  0
LINE
  8
型材断面
  6
CONTINUOUS
 62
    47
 10
108.796485
 20
-55.743125
 11
108.296487
 21
-56.0209
  0
LINE
  8
型材断面
  6
CONTINUOUS
 62
    47
 10
108.671485
 20
-55.812568
 11
108.671485
 21
-54.229233
  0
LINE
  8
型材断面
  6
CONTINUOUS
 62
    47
 10
108.546485
 20
-55.882013
 11
108.546485
 21
-54.159788
  0
LINE
  8
型材断面
  6
CONTINUOUS
 62
    47
 10
108.421485
 20
-55.951458
 11
108.421485
 21
-54.090343
  0
LINE
  8
型材断面
  6
CONTINUOUS
 62
    47
 10
115.46316
 20
-32.215107
 11
114.96316
 21
-31.937327
  0
LINE
  8
型材断面
  6
CONTINUOUS
 62
    47
 10
115.46316
 20
-33.659552
 11
114.96316
 21
-33.937327
  0
LINE
  8
型材断面
  6
CONTINUOUS
 62
    47
 10
115.33816
 20
-33.728995
 11
115.33816
 21
-32.145662
  0
LINE
  8
型材断面
  6
CONTINUOUS
 62
    47
 10
115.21316
 20
-33.79844
 11
115.21316
 21
-32.076217
  0
LINE
  8
型材断面
  6
CONTINUOUS
 62
    47
 10
115.08816
 20
-33.867882
 11
115.08816
 21
-32.006772
  0
LINE
  8
型材断面
  6
CONTINUOUS
 62
    47
 10
115.46316
 20
-28.103758
 11
115.46316
 21
-27.603758
  0
ARC
  8
型材断面
  6
CONTINUOUS
 62
    47
 10
114.963157
 20
-36.270907
 40
0.5
 50
270.0
 51
360.0
  0
LINE
  8
型材断面
  6
CONTINUOUS
 62
    47
 10
115.46316
 20
-27.603758
 11
115.46316
 21
-36.770905
  0
LINE
  8
型材断面
  6
CONTINUOUS
 62
    47
 10
115.46316
 20
-36.770905
 11
108.796485
 21
-36.770905
  0
LINE
  8
型材断面
  6
CONTINUOUS
 62
    47
 10
114.96316
 20
-36.270905
 11
114.96316
 21
-27.603758
  0
LINE
  8
型材断面
  6
CONTINUOUS
 62
    47
 10
114.96316
 20
-27.603758
 11
115.46316
 21
-27.603758
  0
ARC
  8
型材断面
  6
CONTINUOUS
 62
    47
 10
108.796485
 20
-36.770905
 40
0.5
 50
90.0
 51
180.0
  0
LINE
  8
型材断面
  6
CONTINUOUS
 62
    47
 10
114.96316
 20
-36.270905
 11
108.296485
 21
-36.270905
  0
LINE
  8
型材断面
  6
CONTINUOUS
 62
    47
 10
108.796485
 20
-60.270897
 11
108.796485
 21
-36.770905
  0
LINE
  8
型材断面
  6
CONTINUOUS
 62
    47
 10
108.296485
 20
-60.270897
 11
108.296485
 21
-36.270905
  0
LINE
  8
型材断面
  6
CONTINUOUS
 10
108.796485
 20
-40.10424
 11
108.296485
 21
-40.10424
  0
LINE
  8
型材断面
  6
CONTINUOUS
 62
    47
 10
108.671485
 20
-40.10424
 11
108.671485
 21
-49.10424
  0
LINE
  8
型材断面
  6
CONTINUOUS
 62
    47
 10
108.546485
 20
-40.10424
 11
108.546485
 21
-49.10424
  0
LINE
  8
型材断面
  6
CONTINUOUS
 62
    47
 10
108.421485
 20
-40.10424
 11
108.421485
 21
-49.10424
  0
LINE
  8
型材断面
  6
CONTINUOUS
 10
108.296485
 20
-49.10424
 11
108.796485
 21
-49.10424
  0
INSERT
  2
*GRP_0007
  8
型材断面
  6
CONTINUOUS
 62
    63
 10
0.0
 20
0.0
  0
ARC
  8
型材断面
  6
CONTINUOUS
 10
132.020887
 20
-11.270902
 40
0.231865
 50
270.0
 51
270.0
  0
LINE
  8
型材断面
  6
CONTINUOUS
 62
    47
 10
124.263155
 20
-27.104238
 11
123.763155
 21
-27.382013
  0
LINE
  8
型材断面
  6
CONTINUOUS
 62
    47
 10
124.263155
 20
-29.104238
 11
123.763155
 21
-28.826458
  0
LINE
  8
型材断面
  6
CONTINUOUS
 62
    47
 10
124.138155
 20
-27.17368
 11
124.138155
 21
-29.034793
  0
LINE
  8
型材断面
  6
CONTINUOUS
 62
    47
 10
124.013155
 20
-27.243125
 11
124.013155
 21
-28.965348
  0
LINE
  8
型材断面
  6
CONTINUOUS
 62
    47
 10
123.888155
 20
-27.31257
 11
123.888155
 21
-28.895903
  0
INSERT
  2
*GRP_0008
  8
型材断面
  6
CONTINUOUS
 62
    47
 10
0.0
 20
0.0
  0
LINE
  8
型材断面
  6
CONTINUOUS
 62
    47
 10
108.796485
 20
-14.437572
 11
109.296485
 21
-14.437572
  0
LINE
  8
型材断面
  6
CONTINUOUS
 62
    47
 10
108.796485
 20
-22.10424
 11
109.296485
 21
-22.10424
  0
LINE
  8
型材断面
  6
CONTINUOUS
 62
    47
 10
109.171485
 20
-22.10424
 11
109.171485
 21
-14.437572
  0
LINE
  8
型材断面
  6
CONTINUOUS
 62
    47
 10
109.046485
 20
-22.10424
 11
109.046485
 21
-14.437572
  0
LINE
  8
型材断面
  6
CONTINUOUS
 62
    47
 10
108.921485
 20
-22.10424
 11
108.921485
 21
-14.437572
  0
LINE
  8
型材断面
  6
CONTINUOUS
 62
    47
 10
109.296485
 20
-8.715352
 11
108.796485
 21
-8.437572
  0
LINE
  8
型材断面
  6
CONTINUOUS
 62
    47
 10
109.296485
 20
-10.159797
 11
108.796485
 21
-10.437572
  0
LINE
  8
型材断面
  6
CONTINUOUS
 62
    47
 10
109.171485
 20
-8.645907
 11
109.171485
 21
-10.22924
  0
LINE
  8
型材断面
  6
CONTINUOUS
 62
    47
 10
109.046485
 20
-8.576462
 11
109.046485
 21
-10.298685
  0
LINE
  8
型材断面
  6
CONTINUOUS
 62
    47
 10
108.921485
 20
-8.507017
 11
108.921485
 21
-10.36813
  0
LINE
  8
型材断面
  6
CONTINUOUS
 62
    47
 10
123.263155
 20
-28.68757
 11
123.763155
 21
-28.68757
  0
LINE
  8
型材断面
  6
CONTINUOUS
 62
    47
 10
123.263155
 20
-27.520903
 11
123.763155
 21
-27.520903
  0
LINE
  8
型材断面
  6
CONTINUOUS
 62
    47
 10
123.388155
 20
-27.520903
 11
123.388155
 21
-28.68757
  0
LINE
  8
型材断面
  6
CONTINUOUS
 62
    47
 10
123.638155
 20
-27.520903
 11
123.638155
 21
-28.68757
  0
LINE
  8
型材断面
  6
CONTINUOUS
 62
    47
 10
123.513155
 20
-27.520903
 11
123.513155
 21
-28.68757
  0
LINE
  8
型材断面
  6
DASHDOT
 62
    47
 10
124.263155
 20
-28.104238
 11
122.04911
 21
-28.104238
  0
LINE
  8
型材断面
  6
DASHDOT
 62
    47
 10
108.004277
 20
-9.437572
 11
110.12982
 21
-9.437572
  0
INSERT
  2
*GRP_0009
  8
型材断面
  6
CONTINUOUS
 62
    63
 10
0.0
 20
0.0
  0
LINE
  8
型材断面
  6
CONTINUOUS
 62
    63
 10
113.296485
 20
-37.270905
 11
113.296485
 21
-38.60424
  0
LINE
  8
型材断面
  6
CONTINUOUS
 62
    63
 10
112.546485
 20
-50.60424
 11
112.546485
 21
-51.937575
  0
LINE
  8
型材断面
  6
CONTINUOUS
 62
    63
 10
114.046485
 20
-50.60424
 11
114.046485
 21
-51.937575
  0
LINE
  8
型材断面
  6
CONTINUOUS
 62
    63
 10
111.62982
 20
-37.270905
 11
112.463153
 21
-38.370905
  0
LINE
  8
型材断面
  6
CONTINUOUS
 62
    63
 10
114.12982
 20
-38.370905
 11
112.463153
 21
-38.370905
  0
LINE
  8
型材断面
  6
CONTINUOUS
 62
    63
 10
114.963153
 20
-37.270905
 11
114.12982
 21
-38.370905
  0
LINE
  8
型材断面
  6
CONTINUOUS
 62
    63
 10
112.296485
 20
-38.150905
 11
114.296485
 21
-38.150905
  0
LINE
  8
型材断面
  6
CONTINUOUS
 62
    63
 10
118.129825
 20
-30.033127
 11
118.129825
 21
-28.103758
  0
LINE
  8
型材断面
  6
CONTINUOUS
 62
    63
 10
116.46316
 20
-32.937327
 11
115.46316
 21
-32.937327
  0
LINE
  8
型材断面
  6
CONTINUOUS
 62
    63
 10
124.296478
 20
-59.270897
 11
124.296478
 21
-60.270897
  0
LINE
  8
型材断面
  6
CONTINUOUS
 62
    63
 10
114.796485
 20
-37.490905
 11
111.796485
 21
-37.490905
  0
LINE
  8
型材断面
  6
CONTINUOUS
 62
    63
 10
114.62982
 20
-37.710905
 11
111.963153
 21
-37.710905
  0
LINE
  8
型材断面
  6
CONTINUOUS
 62
    63
 10
114.463153
 20
-37.930905
 11
112.12982
 21
-37.930905
  0
LINE
  8
型材断面
  6
CONTINUOUS
 62
    63
 10
114.046485
 20
-50.937572
 11
112.546485
 21
-50.937572
  0
LINE
  8
型材断面
  6
CONTINUOUS
 62
    63
 10
114.046485
 20
-51.270907
 11
112.546485
 21
-51.270907
  0
LINE
  8
型材断面
  6
CONTINUOUS
 62
    63
 10
114.046485
 20
-51.604242
 11
112.546485
 21
-51.604242
  0
LINE
  8
型材断面
  6
CONTINUOUS
 62
    63
 10
110.12982
 20
-8.85424
 11
109.296485
 21
-8.85424
  0
LINE
  8
型材断面
  6
CONTINUOUS
 62
    63
 10
110.12982
 20
-10.020907
 11
109.296485
 21
-10.020907
  0
LINE
  8
型材断面
  6
CONTINUOUS
 62
    63
 10
109.921485
 20
-10.020907
 11
109.921485
 21
-8.85424
  0
LINE
  8
型材断面
  6
CONTINUOUS
 62
    63
 10
109.713153
 20
-10.020907
 11
109.713153
 21
-8.85424
  0
LINE
  8
型材断面
  6
CONTINUOUS
 62
    63
 10
109.50482
 20
-10.020907
 11
109.50482
 21
-8.85424
  0
LINE
  8
型材断面
  6
CONTINUOUS
 62
    63
 10
113.296485
 20
-25.604238
 11
113.296485
 21
-23.604235
  0
LINE
  8
型材断面
  6
CONTINUOUS
 62
    63
 10
114.213153
 20
-24.504237
 11
114.963153
 21
-25.604238
  0
LINE
  8
型材断面
  6
CONTINUOUS
 62
    63
 10
112.37982
 20
-24.504237
 11
111.62982
 21
-25.604238
  0
LINE
  8
型材断面
  6
CONTINUOUS
 62
    63
 10
114.213153
 20
-24.504237
 11
112.37982
 21
-24.504237
  0
LINE
  8
型材断面
  6
CONTINUOUS
 62
    63
 10
112.512995
 20
-12.270907
 11
111.079995
 21
-12.270907
  0
LINE
  8
型材断面
  6
CONTINUOUS
 62
    63
 10
112.596485
 20
-12.270907
 11
112.596485
 21
-10.937572
  0
LINE
  8
型材断面
  6
CONTINUOUS
 62
    63
 10
113.996485
 20
-12.270907
 11
113.996485
 21
-10.937572
  0
LINE
  8
型材断面
  6
CONTINUOUS
 62
    63
 10
113.996485
 20
-12.062572
 11
112.596485
 21
-12.062572
  0
LINE
  8
型材断面
  6
CONTINUOUS
 62
    63
 10
113.996485
 20
-11.85424
 11
112.596485
 21
-11.85424
  0
LINE
  8
型材断面
  6
CONTINUOUS
 62
    63
 10
113.996485
 20
-11.645907
 11
112.596485
 21
-11.645907
  0
LINE
  8
型材断面
  6
CONTINUOUS
 62
    63
 10
113.996485
 20
-11.437572
 11
112.596485
 21
-11.437572
  0
LINE
  8
型材断面
  6
CONTINUOUS
 62
    63
 10
113.996485
 20
-11.22924
 11
112.596485
 21
-11.22924
  0
LINE
  8
型材断面
  6
CONTINUOUS
 62
    63
 10
114.363153
 20
-24.724237
 11
112.22982
 21
-24.724237
  0
LINE
  8
型材断面
  6
CONTINUOUS
 62
    63
 10
114.513153
 20
-24.944237
 11
112.07982
 21
-24.944237
  0
LINE
  8
型材断面
  6
CONTINUOUS
 62
    63
 10
114.663153
 20
-25.164238
 11
111.92982
 21
-25.164238
  0
LINE
  8
型材断面
  6
CONTINUOUS
 62
    63
 10
114.813153
 20
-25.384238
 11
111.77982
 21
-25.384238
  0
LINE
  8
型材断面
  6
CONTINUOUS
 62
    47
 10
108.296485
 20
-60.270897
 11
108.796485
 21
-60.270897
  0
INSERT
  2
*GRP_0010
  8
型材断面
  6
CONTINUOUS
 10
0.0
 20
0.0
  0
LINE
  8
型材断面
  6
DASHDOT
 10
109.296485
 20
-3.770903
 11
109.296485
 21
19.855023
  0
INSERT
  2
*GRP_0011
  8
型材断面
  6
CONTINUOUS
 10
0.0
 20
0.0
  0
INSERT
  2
*GRP_0012
  8
型材断面
  6
CONTINUOUS
 10
0.0
 20
0.0
  0
INSERT
  2
*GRP_0013
  8
型材断面
  6
CONTINUOUS
 62
    47
 10
0.0
 20
0.0
  0
LINE
  8
型材断面
  6
CONTINUOUS
 62
    47
 10
-125.296478
 20
-60.770897
 11
-125.0187
 21
-60.270897
  0
LINE
  8
型材断面
  6
CONTINUOUS
 62
    47
 10
-123.574255
 20
-60.270897
 11
-123.296478
 21
-60.770897
  0
LINE
  8
型材断面
  6
CONTINUOUS
 62
    47
 10
-123.50481
 20
-60.395897
 11
-125.088145
 21
-60.395897
  0
LINE
  8
型材断面
  6
CONTINUOUS
 62
    47
 10
-123.435365
 20
-60.520897
 11
-125.15759
 21
-60.520897
  0
LINE
  8
型材断面
  6
CONTINUOUS
 62
    47
 10
-123.365923
 20
-60.645897
 11
-125.227033
 21
-60.645897
  0
LINE
  8
型材断面
  6
DASHDOT
 62
    47
 10
-114.96316
 20
-29.604233
 11
-117.177203
 21
-29.604233
  0
LINE
  8
型材断面
  6
CONTINUOUS
 62
    47
 10
-115.46316
 20
-30.937565
 11
-115.96316
 21
-30.937565
  0
LINE
  8
型材断面
  6
CONTINUOUS
 62
    47
 10
-115.46316
 20
-30.937565
 11
-115.96316
 21
-30.937565
  0
LINE
  8
型材断面
  6
CONTINUOUS
 62
    47
 10
-115.46316
 20
-47.270897
 11
-115.96316
 21
-47.270897
  0
LINE
  8
型材断面
  6
CONTINUOUS
 62
    47
 10
-115.46316
 20
-45.270897
 11
-115.96316
 21
-45.270897
  0
LINE
  8
型材断面
  6
CONTINUOUS
 62
    47
 10
-115.83816
 20
-45.270897
 11
-115.83816
 21
-47.270897
  0
LINE
  8
型材断面
  6
CONTINUOUS
 62
    47
 10
-115.71316
 20
-45.270897
 11
-115.71316
 21
-47.270897
  0
LINE
  8
型材断面
  6
CONTINUOUS
 62
    47
 10
-115.58816
 20
-45.270897
 11
-115.58816
 21
-47.270897
  0
LINE
  8
型材断面
  6
CONTINUOUS
 62
    47
 10
-115.46316
 20
-53.937565
 11
-115.96316
 21
-53.937565
  0
LINE
  8
型材断面
  6
CONTINUOUS
 62
    47
 10
-115.46316
 20
-51.937565
 11
-115.96316
 21
-51.937565
  0
LINE
  8
型材断面
  6
CONTINUOUS
 62
    47
 10
-115.83816
 20
-51.937565
 11
-115.83816
 21
-53.937565
  0
LINE
  8
型材断面
  6
CONTINUOUS
 62
    47
 10
-115.71316
 20
-51.937565
 11
-115.71316
 21
-53.937565
  0
LINE
  8
型材断面
  6
CONTINUOUS
 62
    47
 10
-115.58816
 20
-51.937565
 11
-115.58816
 21
-53.937565
  0
LINE
  8
型材断面
  6
CONTINUOUS
 62
    47
 10
-115.96316
 20
-30.937565
 11
-115.46316
 21
-30.937565
  0
LINE
  8
型材断面
  6
CONTINUOUS
 62
    47
 10
-115.46316
 20
-60.270897
 11
-115.46316
 21
-30.937565
  0
LINE
  8
型材断面
  6
CONTINUOUS
 62
    47
 10
-115.46316
 20
-55.104233
 11
-115.96316
 21
-55.104233
  0
LINE
  8
型材断面
  6
CONTINUOUS
 62
    47
 10
-115.46316
 20
-56.770897
 11
-115.96316
 21
-56.770897
  0
LINE
  8
型材断面
  6
CONTINUOUS
 62
    47
 10
-115.83816
 20
-55.104233
 11
-115.83816
 21
-56.770897
  0
LINE
  8
型材断面
  6
CONTINUOUS
 62
    47
 10
-115.71316
 20
-55.104233
 11
-115.71316
 21
-56.770897
  0
LINE
  8
型材断面
  6
CONTINUOUS
 62
    47
 10
-115.58816
 20
-55.104233
 11
-115.58816
 21
-56.770897
  0
INSERT
  2
*GRP_0014
  8
型材断面
  6
CONTINUOUS
 10
0.0
 20
0.0
  0
LINE
  8
型材断面
  6
DASHDOT
 10
-109.296487
 20
-3.270897
 11
-109.296487
 21
-63.471558
  0
LINE
  8
型材断面
  6
CONTINUOUS
 62
    47
 10
-124.263155
 20
-27.104233
 11
-123.763155
 21
-27.382007
  0
LINE
  8
型材断面
  6
CONTINUOUS
 62
    47
 10
-124.263155
 20
-29.104233
 11
-123.763155
 21
-28.826452
  0
LINE
  8
型材断面
  6
CONTINUOUS
 62
    47
 10
-124.138155
 20
-27.173675
 11
-124.138155
 21
-29.034788
  0
LINE
  8
型材断面
  6
CONTINUOUS
 62
    47
 10
-124.013155
 20
-27.24312
 11
-124.013155
 21
-28.965343
  0
LINE
  8
型材断面
  6
CONTINUOUS
 62
    47
 10
-123.888155
 20
-27.312565
 11
-123.888155
 21
-28.895897
  0
ARC
  8
型材断面
  6
CONTINUOUS
 62
    47
 10
-123.263151
 20
-26.104234
 40
0.5
 50
90.0
 51
180.0
  0
LINE
  8
型材断面
  6
CONTINUOUS
 62
    47
 10
-123.263155
 20
-26.104233
 11
-123.263155
 21
-30.437565
  0
LINE
  8
型材断面
  6
CONTINUOUS
 62
    47
 10
-123.763155
 20
-30.437565
 11
-123.263155
 21
-30.437565
  0
LINE
  8
型材断面
  6
CONTINUOUS
 62
    47
 10
-123.763155
 20
-28.687565
 11
-123.263155
 21
-28.687565
  0
LINE
  8
型材断面
  6
CONTINUOUS
 62
    47
 10
-123.763155
 20
-27.520897
 11
-123.263155
 21
-27.520897
  0
LINE
  8
型材断面
  6
CONTINUOUS
 62
    47
 10
-123.638155
 20
-27.520897
 11
-123.638155
 21
-28.687565
  0
LINE
  8
型材断面
  6
CONTINUOUS
 62
    47
 10
-123.513155
 20
-27.520897
 11
-123.513155
 21
-28.687565
  0
LINE
  8
型材断面
  6
CONTINUOUS
 62
    47
 10
-123.388155
 20
-27.520897
 11
-123.388155
 21
-28.687565
  0
LINE
  8
型材断面
  6
CONTINUOUS
 62
    47
 10
-122.39035
 20
-28.104233
 11
-124.97995
 21
-28.104233
  0
LINE
  8
型材断面
  6
CONTINUOUS
 62
    47
 10
-115.963158
 20
-25.604233
 11
-115.963158
 21
-3.770897
  0
ARC
  8
型材断面
  6
CONTINUOUS
 62
    47
 10
-115.963155
 20
-25.604234
 40
0.5
 50
270.0
 51
360.0
  0
LINE
  8
型材断面
  6
CONTINUOUS
 62
    47
 10
-115.463158
 20
-26.104233
 11
-115.463158
 21
-3.770897
  0
LINE
  8
型材断面
  6
CONTINUOUS
 62
    47
 10
-115.963158
 20
-10.10423
 11
-115.463158
 21
-10.10423
  0
LINE
  8
型材断面
  6
CONTINUOUS
 62
    47
 10
-115.963158
 20
-12.10423
 11
-115.463158
 21
-12.10423
  0
LINE
  8
型材断面
  6
CONTINUOUS
 62
    47
 10
-115.838158
 20
-10.10423
 11
-115.838158
 21
-12.10423
  0
LINE
  8
型材断面
  6
CONTINUOUS
 62
    47
 10
-115.713158
 20
-10.10423
 11
-115.713158
 21
-12.10423
  0
LINE
  8
型材断面
  6
CONTINUOUS
 62
    47
 10
-115.588158
 20
-10.10423
 11
-115.588158
 21
-12.10423
  0
LINE
  8
型材断面
  6
CONTINUOUS
 62
    47
 10
-115.963158
 20
-16.770897
 11
-115.463158
 21
-16.770897
  0
LINE
  8
型材断面
  6
CONTINUOUS
 62
    47
 10
-115.963158
 20
-18.770897
 11
-115.463158
 21
-18.770897
  0
LINE
  8
型材断面
  6
CONTINUOUS
 62
    47
 10
-115.838158
 20
-16.770897
 11
-115.838158
 21
-18.770897
  0
LINE
  8
型材断面
  6
CONTINUOUS
 62
    47
 10
-115.713158
 20
-16.770897
 11
-115.713158
 21
-18.770897
  0
LINE
  8
型材断面
  6
CONTINUOUS
 62
    47
 10
-115.588158
 20
-16.770897
 11
-115.588158
 21
-18.770897
  0
LINE
  8
型材断面
  6
CONTINUOUS
 62
    47
 10
-123.763155
 20
-25.604233
 11
-115.963158
 21
-25.604233
  0
LINE
  8
型材断面
  6
CONTINUOUS
 62
    47
 10
-123.263155
 20
-26.104233
 11
-115.463158
 21
-26.104233
  0
LINE
  8
型材断面
  6
CONTINUOUS
 62
    47
 10
-115.963158
 20
-3.770897
 11
-115.463158
 21
-3.770897
  0
INSERT
  2
*GRP_0015
  8
型材断面
  6
CONTINUOUS
 10
0.0
 20
0.0
  0
INSERT
  2
*GRP_0016
  8
型材断面
  6
CONTINUOUS
 10
0.0
 20
0.0
  0
INSERT
  2
*GRP_0056
  8
型材断面
  6
CONTINUOUS
 10
0.0
 20
0.0
  0
LINE
  8
型材断面
  6
CONTINUOUS
 10
-134.951595
 20
-81.63602
 11
-134.951595
 21
-81.63602
  0
LINE
  8
型材断面
  6
CONTINUOUS
 10
-101.796487
 20
-81.882383
 11
-122.092165
 21
-102.17806
  0
LINE
  8
型材断面
  6
CONTINUOUS
 10
-101.796487
 20
-84.239405
 11
-119.735142
 21
-102.17806
  0
LINE
  8
型材断面
  6
CONTINUOUS
 10
-101.796487
 20
-86.59643
 11
-117.378118
 21
-102.17806
  0
LINE
  8
型材断面
  6
CONTINUOUS
 10
-151.796525
 20
-84.10423
 11
-101.796487
 21
-77.437565
  0
LINE
  8
型材断面
  6
CONTINUOUS
 10
-151.785765
 20
-91.852463
 11
-142.843843
 21
-82.91054
  0
LINE
  8
型材断面
  6
CONTINUOUS
 10
-151.785765
 20
-94.209485
 11
-140.124202
 21
-82.547922
  0
LINE
  8
型材断面
  6
CONTINUOUS
 10
-151.785765
 20
-96.56651
 11
-137.40456
 21
-82.185305
  0
LINE
  8
型材断面
  6
CONTINUOUS
 62
    47
 10
-151.796525
 20
-102.17806
 11
-151.796525
 21
-84.10423
  0
LINE
  8
型材断面
  6
CONTINUOUS
 62
    47
 10
-155.129857
 20
-102.17806
 11
-155.129857
 21
-84.10423
  0
ARC
  8
型材断面
  6
CONTINUOUS
 10
-151.796523
 20
-84.104231
 40
3.333333
 50
97.594638
 51
180.0
  0
LINE
  8
型材断面
  6
CONTINUOUS
 10
-137.029568
 20
-78.772473
 11
-152.237068
 21
-80.800137
  0
ARC
  8
型材断面
  6
CONTINUOUS
 10
-136.589021
 20
-82.076566
 40
3.333333
 50
7.59463
 51
97.594638
  0
LINE
  8
型材断面
  6
CONTINUOUS
 10
-139.608348
 20
-81.638882
 11
-139.608348
 21
-81.638882
  0
POLYLINE
  8
型材断面
  6
CONTINUOUS
 66
     1
  0
VERTEX
  8
型材断面
 10
-140.644523
 20
-67.864805
  0
VERTEX
  8
型材断面
 10
-143.582925
 20
-73.845063
  0
VERTEX
  8
型材断面
 10
-143.582925
 20
-79.646252
  0
SEQEND
  0
LINE
  8
型材断面
  6
CONTINUOUS
 10
-95.463152
 20
-60.770897
 11
-95.463152
 21
-102.17806
  0
LINE
  8
型材断面
  6
CONTINUOUS
 10
-95.796487
 20
-60.770897
 11
-95.796487
 21
-102.17806
  0
LINE
  8
型材断面
  6
CONTINUOUS
 10
-91.796487
 20
-60.770897
 11
-91.796487
 21
-102.17806
  0
LINE
  8
型材断面
  6
CONTINUOUS
 10
-92.12982
 20
-60.770897
 11
-92.12982
 21
-102.17806
  0
LINE
  8
型材断面
  6
CONTINUOUS
 10
-101.796487
 20
-102.17806
 11
-101.796487
 21
-60.770897
  0
INSERT
  2
*GRP_0069
  8
型材断面
  6
CONTINUOUS
 10
0.0
 20
0.0
  0
LINE
  8
型材断面
  6
CONTINUOUS
 10
101.796513
 20
-84.23941
 11
119.735167
 21
-102.178065
  0
LINE
  8
型材断面
  6
CONTINUOUS
 10
101.796513
 20
-86.596435
 11
117.378142
 21
-102.178065
  0
LINE
  8
型材断面
  6
CONTINUOUS
 62
    47
 10
151.79655
 20
-102.178065
 11
151.79655
 21
-84.104235
  0
LINE
  8
型材断面
  6
CONTINUOUS
 10
95.463177
 20
-60.770903
 11
95.463177
 21
-102.178065
  0
LINE
  8
型材断面
  6
CONTINUOUS
 10
95.796513
 20
-60.770903
 11
95.796513
 21
-102.178065
  0
LINE
  8
型材断面
  6
CONTINUOUS
 10
91.796513
 20
-60.770903
 11
91.796513
 21
-102.178065
  0
LINE
  8
型材断面
  6
CONTINUOUS
 10
92.129845
 20
-60.770903
 11
92.129845
 21
-102.178065
  0
LINE
  8
型材断面
  6
CONTINUOUS
 10
101.796513
 20
-102.178065
 11
101.796513
 21
-60.770903
  0
LINE
  8
型材断面
  6
CONTINUOUS
 62
    47
 10
155.129858
 20
-102.17806
 11
155.129858
 21
-84.10423
  0
POLYLINE
  8
型材断面
  6
CONTINUOUS
 66
     1
  0
VERTEX
  8
型材断面
 10
-48.614555
 20
11.628728
  0
VERTEX
  8
型材断面
 10
-53.629478
 20
11.628728
  0
VERTEX
  8
型材断面
 10
-53.629478
 20
-17.123492
  0
VERTEX
  8
型材断面
 10
-49.450375
 20
-17.123492
  0
SEQEND
  0
ARC
  8
型材断面
  6
CONTINUOUS
 10
151.796523
 20
-84.104231
 40
3.333333
 50
0.0
 51
90.0
  0
LINE
  8
型材断面
  6
CONTINUOUS
 10
151.796525
 20
-80.770897
 11
101.796487
 21
-80.770897
  0
LINE
  8
型材断面
  6
CONTINUOUS
 10
151.796525
 20
-84.104233
 11
101.796487
 21
-84.104233
  0
LINE
  8
型材断面
  6
CONTINUOUS
 10
122.09219
 20
-102.178065
 11
104.018357
 21
-84.104233
  0
LINE
  8
型材断面
  6
CONTINUOUS
 10
151.78579
 20
-96.566515
 11
139.323508
 21
-84.104233
  0
LINE
  8
型材断面
  6
CONTINUOUS
 10
151.78579
 20
-94.20949
 11
141.680532
 21
-84.104233
  0
LINE
  8
型材断面
  6
CONTINUOUS
 10
151.78579
 20
-91.852467
 11
144.037555
 21
-84.104233
  0
ARC
  8
型材断面
  6
CONTINUOUS
 62
    47
 10
-128.963146
 20
-39.162765
 40
0.520066
 50
90.0
 51
270.0
  0
ARC
  8
型材断面
  6
CONTINUOUS
 62
    47
 10
-128.963146
 20
-39.682831
 40
0.520066
 50
150.0
 51
270.0
  0
ARC
  8
型材断面
  6
CONTINUOUS
 62
    47
 10
-128.963146
 20
-40.202897
 40
0.520066
 50
150.0
 51
270.0
  0
ARC
  8
型材断面
  6
CONTINUOUS
 62
    47
 10
-128.963146
 20
-44.249333
 40
0.520066
 50
90.0
 51
270.0
  0
ARC
  8
型材断面
  6
CONTINUOUS
 62
    47
 10
-128.963146
 20
-44.769398
 40
0.520066
 50
150.0
 51
270.0
  0
ARC
  8
型材断面
  6
CONTINUOUS
 62
    47
 10
-128.963146
 20
-45.289464
 40
0.520066
 50
150.0
 51
270.0
  0
INSERT
  2
*GRP_0082
  8
型材断面
  6
CONTINUOUS
 62
    47
 10
0.0
 20
0.0
  0
INSERT
  2
*GRP_0083
  8
型材断面
  6
CONTINUOUS
 62
    47
 10
0.0
 20
0.0
  0
ARC
  8
型材断面
  6
CONTINUOUS
 62
    47
 10
-128.963146
 20
-23.553065
 40
0.520066
 50
90.0
 51
270.0
  0
ARC
  8
型材断面
  6
CONTINUOUS
 62
    47
 10
-128.963146
 20
-24.073131
 40
0.520066
 50
150.0
 51
270.0
  0
ARC
  8
型材断面
  6
CONTINUOUS
 62
    47
 10
-128.963146
 20
-24.593197
 40
0.520066
 50
150.0
 51
270.0
  0
ARC
  8
型材断面
  6
CONTINUOUS
 62
    47
 10
-128.963146
 20
-17.21244
 40
0.520066
 50
90.0
 51
270.0
  0
ARC
  8
型材断面
  6
CONTINUOUS
 62
    47
 10
-128.963146
 20
-17.732505
 40
0.520066
 50
150.0
 51
270.0
  0
ARC
  8
型材断面
  6
CONTINUOUS
 62
    47
 10
-128.963146
 20
-18.252571
 40
0.520066
 50
150.0
 51
270.0
  0
LINE
  8
型材断面
  6
CONTINUOUS
 62
    47
 10
-136.763152
 20
-25.104238
 11
-136.763152
 21
-26.104238
  0
LINE
  8
型材断面
  6
CONTINUOUS
 62
    47
 10
-132.763152
 20
-25.104238
 11
-132.763152
 21
-26.104238
  0
LINE
  8
型材断面
  6
CONTINUOUS
 62
    47
 10
-136.763152
 20
-25.354238
 11
-132.763152
 21
-25.354238
  0
LINE
  8
型材断面
  6
CONTINUOUS
 62
    47
 10
-136.763152
 20
-25.604238
 11
-132.763152
 21
-25.604238
  0
LINE
  8
型材断面
  6
CONTINUOUS
 62
    47
 10
-136.763152
 20
-25.854238
 11
-132.763152
 21
-25.854238
  0
LINE
  8
型材断面
  6
CONTINUOUS
 62
    47
 10
-136.763152
 20
-36.164487
 11
-136.763152
 21
-37.164487
  0
LINE
  8
型材断面
  6
CONTINUOUS
 62
    47
 10
-132.763152
 20
-36.164487
 11
-132.763152
 21
-37.164487
  0
LINE
  8
型材断面
  6
CONTINUOUS
 62
    47
 10
-136.763152
 20
-36.414487
 11
-132.763152
 21
-36.414487
  0
LINE
  8
型材断面
  6
CONTINUOUS
 62
    47
 10
-136.763152
 20
-36.664487
 11
-132.763152
 21
-36.664487
  0
LINE
  8
型材断面
  6
CONTINUOUS
 62
    47
 10
-136.763152
 20
-36.914487
 11
-132.763152
 21
-36.914487
  0
LINE
  8
型材断面
  6
CONTINUOUS
 10
-26.185663
 20
-45.359908
 11
-26.685663
 21
-45.359908
  0
LINE
  8
型材断面
  6
CONTINUOUS
 10
-26.685663
 20
-45.359908
 11
-26.685663
 21
-47.526575
  0
LINE
  8
型材断面
  6
CONTINUOUS
 10
-38.685663
 20
-38.693242
 11
-36.185663
 21
-38.693242
  0
LINE
  8
型材断面
  6
CONTINUOUS
 10
-38.10233
 20
-38.693242
 11
-38.10233
 21
-39.693242
  0
LINE
  8
型材断面
  6
CONTINUOUS
 10
-38.685663
 20
-39.693242
 11
-36.185663
 21
-39.693242
  0
LINE
  8
型材断面
  6
CONTINUOUS
 10
-29.118995
 20
-34.693242
 11
-29.118995
 21
-35.193242
  0
LINE
  8
型材断面
  6
CONTINUOUS
 10
-35.685663
 20
-35.193242
 11
-29.118995
 21
-35.193242
  0
LINE
  8
型材断面
  6
CONTINUOUS
 10
-38.685663
 20
-39.693242
 11
-34.78566
 21
-39.693242
  0
LINE
  8
型材断面
  6
CONTINUOUS
 10
-26.685663
 20
-47.026575
 11
-29.118995
 21
-47.026575
  0
LINE
  8
型材断面
  6
CONTINUOUS
 10
-19.247632
 20
-45.293242
 11
-28.785663
 21
-45.293242
  0
LINE
  8
型材断面
  6
CONTINUOUS
 10
-19.247632
 20
-40.626575
 11
-28.785663
 21
-40.626575
  0
LINE
  8
型材断面
  6
CONTINUOUS
 10
-28.785663
 20
-45.293242
 11
-28.785663
 21
-40.626575
  0
LINE
  8
型材断面
  6
DOT
 10
-19.247632
 20
-41.126575
 11
-28.785663
 21
-41.126575
  0
LINE
  8
型材断面
  6
DOT
 10
-19.247632
 20
-44.793242
 11
-28.785663
 21
-44.793242
  0
LINE
  8
型材断面
  6
CONTINUOUS
 10
0.0
 20
4.829097
 11
-100.696485
 21
4.829097
  0
LINE
  8
型材断面
  6
CONTINUOUS
 10
0.0
 20
4.329097
 11
-100.696485
 21
4.329097
  0
LINE
  8
型材断面
  6
CONTINUOUS
 10
0.0
 20
-8.50423
 11
108.629817
 21
-8.50423
  0
LINE
  8
型材断面
  6
CONTINUOUS
 10
0.0
 20
-5.837562
 11
108.629817
 21
-5.837562
  0
LINE
  8
型材断面
  6
CONTINUOUS
 10
0.0
 20
4.829097
 11
100.696485
 21
4.829097
  0
LINE
  8
型材断面
  6
CONTINUOUS
 10
0.0
 20
4.329097
 11
100.696485
 21
4.329097
  0
LINE
  8
型材断面
  6
CONTINUOUS
 10
108.629817
 20
-8.50423
 11
108.629817
 21
-3.770897
  0
LINE
  8
型材断面
  6
CONTINUOUS
 10
0.0
 20
-8.50423
 11
-108.129822
 21
-8.50423
  0
LINE
  8
型材断面
  6
CONTINUOUS
 10
-108.129822
 20
-3.770897
 11
-108.129822
 21
-8.50423
  0
LINE
  8
型材断面
  6
CONTINUOUS
 10
0.0
 20
-5.837562
 11
-108.129822
 21
-5.837562
  0
LINE
  8
型材断面
  6
CONTINUOUS
 10
108.129823
 20
-3.770897
 11
108.129823
 21
-8.50423
  0
LINE
  8
型材断面
  6
CONTINUOUS
 10
-36.185663
 20
-35.193242
 11
-36.185663
 21
-38.693242
  0
LINE
  8
型材断面
  6
CONTINUOUS
 10
-35.685663
 20
-34.693242
 11
-29.118995
 21
-34.693242
  0
ARC
  8
型材断面
  6
CONTINUOUS
 10
-35.685663
 20
-35.193242
 40
0.5
 50
-270.0
 51
-180.0
  0
LINE
  8
型材断面
  6
CONTINUOUS
 10
-35.685663
 20
-35.193242
 11
-35.685663
 21
-38.693242
  0
ARC
  8
型材断面
  6
CONTINUOUS
 10
-36.185663
 20
-38.693242
 40
0.5
 50
-90.0
 51
0.0
  0
LINE
  8
型材断面
  6
CONTINUOUS
 10
-34.78566
 20
-42.793242
 11
-34.78566
 21
-39.693242
  0
LINE
  8
型材断面
  6
CONTINUOUS
 10
-34.28566
 20
-43.293242
 11
-29.618995
 21
-43.293242
  0
ARC
  8
型材断面
  6
CONTINUOUS
 10
-34.28566
 20
-42.793242
 40
0.5
 50
180.0
 51
270.0
  0
LINE
  8
型材断面
  6
CONTINUOUS
 10
-38.685663
 20
-39.193242
 11
-34.78566
 21
-39.193242
  0
LINE
  8
型材断面
  6
CONTINUOUS
 10
-34.28566
 20
-42.793242
 11
-34.28566
 21
-39.693242
  0
ARC
  8
型材断面
  6
CONTINUOUS
 10
-34.78566
 20
-39.693242
 40
0.5
 50
0.0
 51
90.0
  0
LINE
  8
型材断面
  6
CONTINUOUS
 10
-29.618995
 20
-47.026575
 11
-29.618995
 21
-43.293242
  0
ARC
  8
型材断面
  6
CONTINUOUS
 10
-29.118995
 20
-47.026575
 40
0.5
 50
180.0
 51
270.0
  0
LINE
  8
型材断面
  6
CONTINUOUS
 10
-26.685663
 20
-47.526575
 11
-38.685663
 21
-47.526575
  0
LINE
  8
型材断面
  6
CONTINUOUS
 10
-29.618995
 20
-42.793242
 11
-34.28566
 21
-42.793242
  0
ARC
  8
型材断面
  6
CONTINUOUS
 10
-29.618995
 20
-43.293242
 40
0.5
 50
0.0
 51
90.0
  0
LINE
  8
型材断面
  6
CONTINUOUS
 10
-29.118995
 20
-47.026575
 11
-29.118995
 21
-43.293242
  0
LINE
  8
型材断面
  6
CONTINUOUS
 10
-26.185663
 20
-45.359908
 11
-26.185663
 21
-47.526575
  0
LINE
  8
型材断面
  6
CONTINUOUS
 10
-26.685663
 20
-48.026575
 11
-38.685663
 21
-48.026575
  0
ARC
  8
型材断面
  6
CONTINUOUS
 10
-26.685663
 20
-47.526575
 40
0.5
 50
-90.0
 51
0.0
  0
LINE
  8
型材断面
  6
CONTINUOUS
 10
-51.185663
 20
-45.359908
 11
-50.685663
 21
-45.359908
  0
LINE
  8
型材断面
  6
CONTINUOUS
 10
-50.685663
 20
-45.359908
 11
-50.685663
 21
-47.526575
  0
LINE
  8
型材断面
  6
CONTINUOUS
 10
-38.685663
 20
-38.693242
 11
-41.185663
 21
-38.693242
  0
LINE
  8
型材断面
  6
CONTINUOUS
 10
-39.268995
 20
-38.693242
 11
-39.268995
 21
-39.693242
  0
LINE
  8
型材断面
  6
CONTINUOUS
 10
-38.685663
 20
-39.693242
 11
-41.185663
 21
-39.693242
  0
LINE
  8
型材断面
  6
CONTINUOUS
 10
-48.25233
 20
-34.693242
 11
-48.25233
 21
-35.193242
  0
LINE
  8
型材断面
  6
CONTINUOUS
 10
-41.685663
 20
-35.193242
 11
-48.25233
 21
-35.193242
  0
LINE
  8
型材断面
  6
CONTINUOUS
 10
-38.685663
 20
-39.693242
 11
-42.585665
 21
-39.693242
  0
LINE
  8
型材断面
  6
CONTINUOUS
 10
-50.685663
 20
-47.026575
 11
-48.25233
 21
-47.026575
  0
LINE
  8
型材断面
  6
CONTINUOUS
 10
-58.123693
 20
-45.293242
 11
-48.585663
 21
-45.293242
  0
LINE
  8
型材断面
  6
CONTINUOUS
 10
-58.123693
 20
-40.626575
 11
-48.585663
 21
-40.626575
  0
LINE
  8
型材断面
  6
CONTINUOUS
 10
-48.585663
 20
-45.293242
 11
-48.585663
 21
-40.626575
  0
LINE
  8
型材断面
  6
DOT
 10
-58.123693
 20
-41.126575
 11
-48.585663
 21
-41.126575
  0
LINE
  8
型材断面
  6
DOT
 10
-58.123693
 20
-44.793242
 11
-48.585663
 21
-44.793242
  0
LINE
  8
型材断面
  6
CONTINUOUS
 10
-41.185663
 20
-35.193242
 11
-41.185663
 21
-38.693242
  0
LINE
  8
型材断面
  6
CONTINUOUS
 10
-41.685663
 20
-34.693242
 11
-48.25233
 21
-34.693242
  0
ARC
  8
型材断面
  6
CONTINUOUS
 10
-41.685663
 20
-35.193242
 40
0.5
 50
0.0
 51
90.0
  0
LINE
  8
型材断面
  6
CONTINUOUS
 10
-41.685663
 20
-35.193242
 11
-41.685663
 21
-38.693242
  0
ARC
  8
型材断面
  6
CONTINUOUS
 10
-41.185663
 20
-38.693242
 40
0.5
 50
180.0
 51
270.0
  0
LINE
  8
型材断面
  6
CONTINUOUS
 10
-42.585665
 20
-42.793242
 11
-42.585665
 21
-39.693242
  0
LINE
  8
型材断面
  6
CONTINUOUS
 10
-43.085665
 20
-43.293242
 11
-47.75233
 21
-43.293242
  0
ARC
  8
型材断面
  6
CONTINUOUS
 10
-43.085665
 20
-42.793242
 40
0.5
 50
270.0
 51
360.0
  0
LINE
  8
型材断面
  6
CONTINUOUS
 10
-38.685663
 20
-39.193242
 11
-42.585665
 21
-39.193242
  0
LINE
  8
型材断面
  6
CONTINUOUS
 10
-43.085665
 20
-42.793242
 11
-43.085665
 21
-39.693242
  0
ARC
  8
型材断面
  6
CONTINUOUS
 10
-42.585665
 20
-39.693242
 40
0.5
 50
90.0
 51
180.0
  0
LINE
  8
型材断面
  6
CONTINUOUS
 10
-47.75233
 20
-47.026575
 11
-47.75233
 21
-43.293242
  0
ARC
  8
型材断面
  6
CONTINUOUS
 10
-48.25233
 20
-47.026575
 40
0.5
 50
270.0
 51
360.0
  0
LINE
  8
型材断面
  6
CONTINUOUS
 10
-50.685663
 20
-47.526575
 11
-38.685663
 21
-47.526575
  0
LINE
  8
型材断面
  6
CONTINUOUS
 10
-47.75233
 20
-42.793242
 11
-43.085665
 21
-42.793242
  0
ARC
  8
型材断面
  6
CONTINUOUS
 10
-47.75233
 20
-43.293242
 40
0.5
 50
90.0
 51
180.0
  0
LINE
  8
型材断面
  6
CONTINUOUS
 10
-48.25233
 20
-47.026575
 11
-48.25233
 21
-43.293242
  0
LINE
  8
型材断面
  6
CONTINUOUS
 10
-51.185663
 20
-45.359908
 11
-51.185663
 21
-47.526575
  0
LINE
  8
型材断面
  6
CONTINUOUS
 10
-50.685663
 20
-48.026575
 11
-38.685663
 21
-48.026575
  0
ARC
  8
型材断面
  6
CONTINUOUS
 10
-50.685663
 20
-47.526575
 40
0.5
 50
180.0
 51
270.0
  0
LINE
  8
型材断面
  6
CONTINUOUS
 10
-5.0
 20
-5.770903
 11
-4.5
 21
-5.770903
  0
LINE
  8
型材断面
  6
CONTINUOUS
 10
4.5
 20
-5.770903
 11
5.0
 21
-5.770903
  0
LINE
  8
型材断面
  6
CONTINUOUS
 10
5.0
 20
-3.270897
 11
100.696485
 21
-3.270897
  0
LINE
  8
型材断面
  6
CONTINUOUS
 10
-5.0
 20
-3.270897
 11
-100.696485
 21
-3.270897
  0
LINE
  8
型材断面
  6
CONTINUOUS
 10
-4.5
 20
-2.10423
 11
4.5
 21
-2.10423
  0
ARC
  8
型材断面
  6
CONTINUOUS
 10
-4.5
 20
-2.10423
 40
0.5
 50
90.0
 51
180.0
  0
LINE
  8
型材断面
  6
CONTINUOUS
 10
-4.5
 20
-1.60423
 11
4.5
 21
-1.60423
  0
ARC
  8
型材断面
  6
CONTINUOUS
 10
4.5
 20
-2.10423
 40
0.5
 50
0.0
 51
90.0
  0
LINE
  8
型材断面
  6
CONTINUOUS
 10
-4.5
 20
-5.770903
 11
-4.5
 21
-2.10423
  0
LINE
  8
型材断面
  6
CONTINUOUS
 10
-5.0
 20
-5.770903
 11
-5.0
 21
-2.10423
  0
LINE
  8
型材断面
  6
CONTINUOUS
 10
5.0
 20
-5.770903
 11
5.0
 21
-2.10423
  0
LINE
  8
型材断面
  6
CONTINUOUS
 10
4.5
 20
-5.770903
 11
4.5
 21
-2.10423
  0
INSERT
  2
*GRP_0017
  8
ガラス
  6
CONTINUOUS
 10
0.0
 20
0.0
  0
INSERT
  2
*GRP_0018
  8
ガラス
  6
CONTINUOUS
 10
0.0
 20
0.0
  0
LINE
  8
ガラス
  6
CONTINUOUS
 10
-19.247632
 20
-39.626575
 11
-31.952327
 21
-39.626575
  0
LINE
  8
ガラス
  6
CONTINUOUS
 10
-19.247632
 20
-37.359908
 11
-31.952327
 21
-37.359908
  0
LINE
  8
ガラス
  6
CONTINUOUS
 10
-31.952327
 20
-37.359908
 11
-31.952327
 21
-39.626575
  0
LINE
  8
ガラス
  6
CONTINUOUS
 10
-19.247632
 20
-37.526575
 11
-31.952327
 21
-37.526575
  0
LINE
  8
ガラス
  6
CONTINUOUS
 10
-19.247632
 20
-39.459908
 11
-31.952327
 21
-39.459908
  0
LINE
  8
ガラス
  6
CONTINUOUS
 10
-58.123693
 20
-39.626575
 11
-45.418998
 21
-39.626575
  0
LINE
  8
ガラス
  6
CONTINUOUS
 10
-58.123693
 20
-37.359908
 11
-45.418998
 21
-37.359908
  0
LINE
  8
ガラス
  6
CONTINUOUS
 10
-45.418998
 20
-37.359908
 11
-45.418998
 21
-39.626575
  0
LINE
  8
ガラス
  6
CONTINUOUS
 10
-58.123693
 20
-37.526575
 11
-45.418998
 21
-37.526575
  0
LINE
  8
ガラス
  6
CONTINUOUS
 10
-58.123693
 20
-39.459908
 11
-45.418998
 21
-39.459908
  0
LINE
  8
ガラス
  6
CONTINUOUS
 10
-105.963152
 20
-0.60423
 11
-105.963152
 21
1.662437
  0
LINE
  8
ガラス
  6
CONTINUOUS
 10
105.963153
 20
-0.604235
 11
105.963153
 21
1.662433
  0
LINE
  8
ガラス
  6
CONTINUOUS
 10
-105.963152
 20
-0.437562
 11
105.963153
 21
-0.437562
  0
LINE
  8
ガラス
  6
CONTINUOUS
 10
-105.963152
 20
-0.60423
 11
105.963153
 21
-0.60423
  0
LINE
  8
ガラス
  6
CONTINUOUS
 10
-105.963152
 20
1.662437
 11
105.963153
 21
1.662437
  0
LINE
  8
ガラス
  6
CONTINUOUS
 10
-105.963152
 20
1.49577
 11
105.963153
 21
1.49577
  0
INSERT
  2
*GRP_0125
  8
ガラス
  6
CONTINUOUS
 10
0.0
 20
0.0
  0
INSERT
  2
*GRP_0126
  8
ガラス
  6
CONTINUOUS
 10
0.0
 20
0.0
  0
INSERT
  2
*GRP_0127
  8
ガラス
  6
CONTINUOUS
 10
0.0
 20
0.0
  0
INSERT
  2
*GRP_0128
  8
ガラス
  6
CONTINUOUS
 10
0.0
 20
0.0
  0
INSERT
  2
*GRP_0129
  8
ガラス
  6
CONTINUOUS
 10
0.0
 20
0.0
  0
INSERT
  2
*GRP_0130
  8
ガラス
  6
CONTINUOUS
 10
0.0
 20
0.0
  0
INSERT
  2
*GRP_0131
  8
ガラス
  6
CONTINUOUS
 10
0.0
 20
0.0
  0
INSERT
  2
*GRP_0132
  8
ガラス
  6
CONTINUOUS
 10
0.0
 20
0.0
  0
INSERT
  2
*GRP_0133
  8
ガラス
  6
CONTINUOUS
 10
0.0
 20
0.0
  0
INSERT
  2
*GRP_0134
  8
ガラス
  6
CONTINUOUS
 10
0.0
 20
0.0
  0
INSERT
  2
*GRP_0135
  8
ガラス
  6
CONTINUOUS
 10
0.0
 20
0.0
  0
INSERT
  2
*GRP_0136
  8
ガラス
  6
CONTINUOUS
 10
0.0
 20
0.0
  0
INSERT
  2
*GRP_0137
  8
ガラス
  6
CONTINUOUS
 10
0.0
 20
0.0
  0
INSERT
  2
*GRP_0138
  8
ガラス
  6
CONTINUOUS
 10
0.0
 20
0.0
  0
INSERT
  2
*GRP_0019
  8
ゴム等
  6
CONTINUOUS
 10
0.0
 20
0.0
  0
INSERT
  2
*GRP_0020
  8
ゴム等
  6
CONTINUOUS
 10
0.0
 20
0.0
  0
LINE
  8
ゴム等
  6
CONTINUOUS
 10
-117.294733
 20
-46.270897
 11
-114.174335
 21
-46.270897
  0
LINE
  8
ゴム等
  6
CONTINUOUS
 10
-117.294733
 20
-52.937565
 11
-114.174335
 21
-52.937565
  0
LINE
  8
ゴム等
  6
CONTINUOUS
 10
-124.296478
 20
-60.520897
 11
-124.296478
 21
-58.780037
  0
LINE
  8
ゴム等
  6
CONTINUOUS
 10
-115.46316
 20
-55.937565
 11
-117.357193
 21
-55.937565
  0
INSERT
  2
*GRP_0091
  8
ゴム等
  6
CONTINUOUS
 10
0.0
 20
0.0
  0
LINE
  8
ゴム等
  6
CONTINUOUS
 10
-23.785663
 20
-39.626575
 11
-23.785663
 21
-40.626575
  0
INSERT
  2
*GRP_0092
  8
ゴム等
  6
CONTINUOUS
 10
0.0
 20
0.0
  0
INSERT
  2
*HAT_0007
  8
ゴム等
 10
0.0
 20
0.0
  0
INSERT
  2
*GRP_0096
  8
ゴム等
  6
CONTINUOUS
 10
0.0
 20
0.0
  0
LINE
  8
ゴム等
  6
CONTINUOUS
 10
-53.585663
 20
-39.626575
 11
-53.585663
 21
-40.626575
  0
INSERT
  2
*GRP_0097
  8
ゴム等
  6
CONTINUOUS
 10
0.0
 20
0.0
  0
INSERT
  2
*HAT_0008
  8
ゴム等
 10
0.0
 20
0.0
  0
INSERT
  2
*GRP_0120
  8
ゴム等
  6
CONTINUOUS
 10
0.0
 20
0.0
  0
INSERT
  2
*GRP_0121
  8
ゴム等
  6
CONTINUOUS
 10
0.0
 20
0.0
  0
INSERT
  2
*GRP_0122
  8
ゴム等
  6
CONTINUOUS
 10
0.0
 20
0.0
  0
INSERT
  2
*GRP_0123
  8
ゴム等
  6
CONTINUOUS
 10
0.0
 20
0.0
  0
LINE
  8
ゴム等
  6
CONTINUOUS
 10
-3.333332
 20
-1.60423
 11
-3.333332
 21
-0.60423
  0
LINE
  8
ゴム等
  6
CONTINUOUS
 10
3.333332
 20
-1.60423
 11
3.333332
 21
-0.60423
  0
INSERT
  2
*HAT_0009
  8
ゴム等
 10
0.0
 20
0.0
  0
INSERT
  2
*GRP_0021
  8
ボルト／ビス
  6
CONTINUOUS
 10
0.0
 20
0.0
  0
INSERT
  2
*GRP_0022
  8
ボルト／ビス
  6
CONTINUOUS
 10
0.0
 20
0.0
  0
INSERT
  2
*GRP_0023
  8
ボルト／ビス
  6
CONTINUOUS
 10
0.0
 20
0.0
  0
INSERT
  2
*GRP_0024
  8
ボルト／ビス
  6
CONTINUOUS
 10
0.0
 20
0.0
  0
INSERT
  2
*GRP_0025
  8
ボルト／ビス
  6
CONTINUOUS
 10
0.0
 20
0.0
  0
INSERT
  2
*GRP_0026
  8
ボルト／ビス
  6
CONTINUOUS
 10
0.0
 20
0.0
  0
CIRCLE
  8
ボルト／ビス
  6
CONTINUOUS
 10
121.12982
 20
-44.60424
 40
3.833333
  0
CIRCLE
  8
ボルト／ビス
  6
CONTINUOUS
 10
121.129825
 20
-18.270907
 40
3.833333
  0
INSERT
  2
*GRP_0027
  8
ボルト／ビス
  6
CONTINUOUS
 10
0.0
 20
0.0
  0
INSERT
  2
*GRP_0028
  8
ボルト／ビス
  6
CONTINUOUS
 10
0.0
 20
0.0
  0
INSERT
  2
*GRP_0029
  8
ボルト／ビス
  6
CONTINUOUS
 10
0.0
 20
0.0
  0
INSERT
  2
*GRP_0030
  8
ボルト／ビス
  6
CONTINUOUS
 10
0.0
 20
0.0
  0
INSERT
  2
*GRP_0031
  8
ボルト／ビス
  6
CONTINUOUS
 10
0.0
 20
0.0
  0
INSERT
  2
*GRP_0032
  8
ボルト／ビス
  6
CONTINUOUS
 10
0.0
 20
0.0
  0
INSERT
  2
*GRP_0033
  8
ボルト／ビス
  6
CONTINUOUS
 10
0.0
 20
0.0
  0
INSERT
  2
*GRP_0034
  8
ボルト／ビス
  6
CONTINUOUS
 10
0.0
 20
0.0
  0
INSERT
  2
*GRP_0035
  8
ボルト／ビス
  6
CONTINUOUS
 10
0.0
 20
0.0
  0
INSERT
  2
*GRP_0036
  8
ボルト／ビス
  6
CONTINUOUS
 10
0.0
 20
0.0
  0
INSERT
  2
*GRP_0061
  8
ボルト／ビス
  6
CONTINUOUS
 62
    64
 10
0.0
 20
0.0
  0
INSERT
  2
*GRP_0070
  8
ボルト／ビス
  6
CONTINUOUS
 62
    64
 10
0.0
 20
0.0
  0
INSERT
  2
*GRP_0084
  8
ボルト／ビス
  6
CONTINUOUS
 62
    64
 10
0.0
 20
0.0
  0
INSERT
  2
*GRP_0085
  8
ボルト／ビス
  6
CONTINUOUS
 62
    64
 10
0.0
 20
0.0
  0
INSERT
  2
*GRP_0090
  8
ボルト／ビス
  6
CONTINUOUS
 10
0.0
 20
0.0
  0
INSERT
  2
*GRP_0093
  8
ボルト／ビス
  6
DOT
 62
    64
 10
0.0
 20
0.0
  0
INSERT
  2
*GRP_0098
  8
ボルト／ビス
  6
DOT
 62
    64
 10
0.0
 20
0.0
  0
INSERT
  2
*GRP_0101
  8
ボルト／ビス
  6
CONTINUOUS
 62
    64
 10
0.0
 20
0.0
  0
INSERT
  2
*GRP_0105
  8
ボルト／ビス
  6
CONTINUOUS
 62
    64
 10
0.0
 20
0.0
  0
INSERT
  2
*GRP_0106
  8
ボルト／ビス
  6
CONTINUOUS
 62
    64
 10
0.0
 20
0.0
  0
INSERT
  2
*GRP_0107
  8
ボルト／ビス
  6
CONTINUOUS
 10
0.0
 20
0.0
  0
INSERT
  2
*GRP_0108
  8
ボルト／ビス
  6
CONTINUOUS
 10
0.0
 20
0.0
  0
INSERT
  2
*GRP_0111
  8
ボルト／ビス
  6
CONTINUOUS
 10
0.0
 20
0.0
  0
INSERT
  2
*GRP_0112
  8
ボルト／ビス
  6
CONTINUOUS
 10
0.0
 20
0.0
  0
INSERT
  2
*GRP_0117
  8
ボルト／ビス
  6
CONTINUOUS
 10
0.0
 20
0.0
  0
INSERT
  2
*GRP_0118
  8
ボルト／ビス
  6
CONTINUOUS
 10
0.0
 20
0.0
  0
INSERT
  2
*GRP_0119
  8
ボルト／ビス
  6
CONTINUOUS
 10
0.0
 20
0.0
  0
INSERT
  2
*GRP_0124
  8
ボルト／ビス
  6
CONTINUOUS
 62
    64
 10
0.0
 20
0.0
  0
TEXT
  7
TextStyle03
  8
文字
  6
CONTINUOUS
 10
-183.65
 20
-83.85
  1
規格水切
 40
3.0
 72
     5
 11
-170.525
 21
-83.85
  0
TEXT
  7
TextStyle03
  8
文字
  6
CONTINUOUS
 10
-46.275
 20
9.95
  1
断
 40
3.0
 72
     5
 11
-43.275
 21
9.95
  0
TEXT
  7
TextStyle03
  8
文字
  6
CONTINUOUS
 10
-46.95
 20
-18.3
  1
断
 40
3.0
 72
     5
 11
-43.95
 21
-18.3
  0
TEXT
  7
TextStyle03
  8
文字
  6
CONTINUOUS
 10
5.075
 20
-17.025
  1
H.L面
 40
3.0
 72
     5
 11
13.1375
 21
-17.025
  0
TEXT
  7
TextStyle03
  8
文字
  6
CONTINUOUS
 10
-43.325
 20
-63.9
  1
断面図
 40
3.0
 72
     5
 11
-33.575
 21
-63.9
  0
TEXT
  7
TextStyle03
  8
文字
  6
CONTINUOUS
 10
-84.375
 20
-54.575
  1
ジョイントアングル
 40
3.0
 72
     5
 11
-54.375
 21
-54.575
  0
TEXT
  7
TextStyle03
  8
文字
  6
CONTINUOUS
 10
-42.9
 20
-11.675
  1
ジョイントアングル
 40
3.0
 72
     5
 11
-12.9
 21
-11.675
  0
TEXT
  7
TextStyle03
  8
文字
  6
CONTINUOUS
 10
27.325
 20
109.1
  1
ＮＳコード：ＮＳＤＳ
 40
5.0
 72
     5
 11
82.95
 21
109.1
  0
TEXT
  7
TextStyle03
  8
文字
  6
CONTINUOUS
 10
-16.875
 20
-52.8
  1
※中桟使用は1600・2000・Ｌ型タイプのみ
 40
3.0
 72
     5
 11
46.875
 21
-52.8
  0
TEXT
  7
TextStyle03
  8
文字
  6
CONTINUOUS
 10
167.2
 20
-96.0
  1
排水パイプ
 40
3.0
 72
     5
 11
183.7
 21
-96.0
  0
TEXT
  7
TextStyle03
  8
文字
  6
CONTINUOUS
 10
167.2
 20
-99.375
  1
(オプション)
 40
3.0
 72
     5
 11
187.2625
 21
-99.375
  0
TEXT
  7
TextStyle03
  8
文字
  6
CONTINUOUS
 10
167.2
 20
-102.75
  1
□10×10×1 L=60
 40
3.0
 72
     5
 11
194.0125
 21
-102.75
  0
TEXT
  7
TextStyle03
  8
文字
  6
CONTINUOUS
 10
27.125
 20
127.6
  1
シリーズ：ＳＴＤ
 40
5.0
 72
     5
 11
71.5
 21
127.6
  0
TEXT
  7
TextStyle03
  8
文字
  6
CONTINUOUS
 10
27.125
 20
121.975
  1
　　　　　（上下可動）
 40
5.0
 72
     5
 11
88.375
 21
121.975
  0
TEXT
  7
TextStyle03
  8
文字
  6
CONTINUOUS
 10
27.125
 20
116.35
  1
図面名　：全体納まり断面図
 40
5.0
 72
     5
 11
99.625
 21
116.35
  0
TEXT
  7
TextStyle03
  8
文字
  6
CONTINUOUS
 10
47.425
 20
-31.35
  1
バランスステー
 40
3.0
 72
     5
 11
70.675
 21
-31.35
  0
INSERT
  2
*DIM_0037
  8
寸法
  6
CONTINUOUS
 10
0.0
 20
0.0
  0
INSERT
  2
*DIM_0038
  8
寸法
  6
CONTINUOUS
 10
0.0
 20
0.0
  0
INSERT
  2
*DIM_0039
  8
寸法
  6
CONTINUOUS
 10
0.0
 20
0.0
  0
INSERT
  2
*DIM_0040
  8
寸法
  6
CONTINUOUS
 10
0.0
 20
0.0
  0
INSERT
  2
*DIM_0041
  8
寸法
  6
CONTINUOUS
 10
0.0
 20
0.0
  0
INSERT
  2
*DIM_0042
  8
寸法
  6
CONTINUOUS
 10
0.0
 20
0.0
  0
INSERT
  2
*DIM_0043
  8
寸法
  6
CONTINUOUS
 10
0.0
 20
0.0
  0
INSERT
  2
*DIM_0044
  8
寸法
  6
CONTINUOUS
 10
0.0
 20
0.0
  0
INSERT
  2
*DIM_0045
  8
寸法
  6
CONTINUOUS
 10
0.0
 20
0.0
  0
INSERT
  2
*DIM_0046
  8
寸法
  6
CONTINUOUS
 10
0.0
 20
0.0
  0
INSERT
  2
*DIM_0047
  8
寸法
  6
CONTINUOUS
 10
0.0
 20
0.0
  0
INSERT
  2
*DIM_0048
  8
寸法
  6
CONTINUOUS
 10
0.0
 20
0.0
  0
INSERT
  2
*DIM_0049
  8
寸法
  6
CONTINUOUS
 10
0.0
 20
0.0
  0
INSERT
  2
*DIM_0062
  8
寸法
  6
CONTINUOUS
 10
0.0
 20
0.0
  0
INSERT
  2
*DIM_0063
  8
寸法
  6
CONTINUOUS
 10
0.0
 20
0.0
  0
INSERT
  2
*DIM_0064
  8
寸法
  6
CONTINUOUS
 10
0.0
 20
0.0
  0
INSERT
  2
*DIM_0065
  8
寸法
  6
CONTINUOUS
 10
0.0
 20
0.0
  0
INSERT
  2
*GRP_0066
  8
寸法
  6
CONTINUOUS
 10
0.0
 20
0.0
  0
INSERT
  2
*DIM_0067
  8
寸法
  6
CONTINUOUS
 10
0.0
 20
0.0
  0
INSERT
  2
*DIM_0068
  8
寸法
  6
CONTINUOUS
 10
0.0
 20
0.0
  0
INSERT
  2
*DIM_0074
  8
寸法
  6
CONTINUOUS
 10
0.0
 20
0.0
  0
INSERT
  2
*DIM_0075
  8
寸法
  6
CONTINUOUS
 10
0.0
 20
0.0
  0
INSERT
  2
*DIM_0076
  8
寸法
  6
CONTINUOUS
 10
0.0
 20
0.0
  0
INSERT
  2
*DIM_0077
  8
寸法
  6
CONTINUOUS
 10
0.0
 20
0.0
  0
INSERT
  2
*DIM_0078
  8
寸法
  6
CONTINUOUS
 10
0.0
 20
0.0
  0
INSERT
  2
*DIM_0079
  8
寸法
  6
CONTINUOUS
 10
0.0
 20
0.0
  0
INSERT
  2
*DIM_0080
  8
寸法
  6
CONTINUOUS
 10
0.0
 20
0.0
  0
INSERT
  2
*DIM_0081
  8
寸法
  6
CONTINUOUS
 10
0.0
 20
0.0
  0
INSERT
  2
*DIM_0086
  8
寸法
  6
CONTINUOUS
 10
0.0
 20
0.0
  0
INSERT
  2
*DIM_0087
  8
寸法
  6
CONTINUOUS
 10
0.0
 20
0.0
  0
INSERT
  2
*DIM_0088
  8
寸法
  6
CONTINUOUS
 10
0.0
 20
0.0
  0
INSERT
  2
*DIM_0089
  8
寸法
  6
CONTINUOUS
 10
0.0
 20
0.0
  0
INSERT
  2
*DIM_0094
  8
寸法
  6
CONTINUOUS
 10
0.0
 20
0.0
  0
INSERT
  2
*DIM_0095
  8
寸法
  6
CONTINUOUS
 10
0.0
 20
0.0
  0
INSERT
  2
*GRP_0099
  8
寸法
  6
CONTINUOUS
 10
0.0
 20
0.0
  0
INSERT
  2
*GRP_0100
  8
寸法
  6
CONTINUOUS
 10
0.0
 20
0.0
  0
INSERT
  2
*GRP_0102
  8
寸法
  6
CONTINUOUS
 10
0.0
 20
0.0
  0
INSERT
  2
*GRP_0103
  8
寸法
  6
CONTINUOUS
 10
0.0
 20
0.0
  0
POLYLINE
  8
寸法
  6
CONTINUOUS
 66
     1
  0
VERTEX
  8
寸法
 10
157.877988
 20
-91.648705
  0
VERTEX
  8
寸法
 10
164.135568
 20
-97.906285
  0
VERTEX
  8
寸法
 10
166.735117
 20
-97.906285
  0
SEQEND
  0
INSERT
  2
*GRP_0143
  8
寸法
  6
CONTINUOUS
 10
0.0
 20
0.0
  0
INSERT
  2
*GRP_0144
  8
寸法
  6
CONTINUOUS
 10
0.0
 20
0.0
  0
INSERT
  2
*HAT_0010
  8
ﾊｯﾁﾝｸﾞ
 10
0.0
 20
0.0
  0
INSERT
  2
*HAT_0011
  8
ﾊｯﾁﾝｸﾞ
 10
0.0
 20
0.0
  0
INSERT
  2
*GRP_0050
  8
別途部材
  6
CONTINUOUS
 10
0.0
 20
0.0
  0
INSERT
  2
*GRP_0051
  8
別途部材
  6
CONTINUOUS
 10
0.0
 20
0.0
  0
LINE
  8
別途部材
  6
CONTINUOUS
 62
    15
 10
-129.963145
 20
-2.938047
 11
-128.88483
 21
-2.938047
  0
ARC
  8
別途部材
  6
CONTINUOUS
 62
    15
 10
-124.155567
 20
4.39211
 40
1.668651
 50
90.001373
 51
158.200992
  0
LINE
  8
別途部材
  6
CONTINUOUS
 62
    15
 10
-125.963152
 20
7.061953
 11
-109.296485
 21
7.061953
  0
LINE
  8
別途部材
  6
CONTINUOUS
 62
    15
 10
-124.155567
 20
6.060757
 11
-108.70883
 21
6.060757
  0
LINE
  8
別途部材
  6
CONTINUOUS
 62
    15
 10
-125.963152
 20
7.061953
 11
-129.963145
 21
-2.938047
  0
LINE
  8
別途部材
  6
CONTINUOUS
 62
    15
 10
-125.704882
 20
5.011825
 11
-128.88483
 21
-2.938047
  0
LINE
  8
別途部材
  6
CONTINUOUS
 62
    15
 10
129.963145
 20
-2.938047
 11
128.88483
 21
-2.938047
  0
ARC
  8
別途部材
  6
CONTINUOUS
 62
    15
 10
124.155567
 20
4.39211
 40
1.668651
 50
21.799008
 51
89.998627
  0
LINE
  8
別途部材
  6
CONTINUOUS
 62
    15
 10
125.963153
 20
7.061953
 11
109.296485
 21
7.061953
  0
LINE
  8
別途部材
  6
CONTINUOUS
 62
    15
 10
124.155567
 20
6.060757
 11
108.70883
 21
6.060757
  0
LINE
  8
別途部材
  6
CONTINUOUS
 62
    15
 10
125.963153
 20
7.061953
 11
129.963145
 21
-2.938047
  0
LINE
  8
別途部材
  6
CONTINUOUS
 62
    15
 10
125.704882
 20
5.011825
 11
128.88483
 21
-2.938047
  0
INSERT
  2
*GRP_0109
  8
別途部材
  6
CONTINUOUS
 10
0.0
 20
0.0
  0
INSERT
  2
*GRP_0110
  8
別途部材
  6
CONTINUOUS
 10
0.0
 20
0.0
  0
INSERT
  2
*GRP_0113
  8
別途部材
  6
CONTINUOUS
 10
0.0
 20
0.0
  0
INSERT
  2
*GRP_0114
  8
別途部材
  6
CONTINUOUS
 10
0.0
 20
0.0
  0
INSERT
  2
*GRP_0115
  8
別途部材
  6
CONTINUOUS
 10
0.0
 20
0.0
  0
INSERT
  2
*GRP_0116
  8
別途部材
  6
CONTINUOUS
 10
0.0
 20
0.0
  0
INSERT
  2
*GRP_0139
  8
別途部材
  6
CONTINUOUS
 10
0.0
 20
0.0
  0
ARC
  8
St
  6
CONTINUOUS
 10
132.252752
 20
-11.270902
 40
0.231865
 50
270.0
 51
270.0
  0
LINE
  8
St
  6
CONTINUOUS
 62
    47
 10
108.296485
 20
-59.604233
 11
108.796485
 21
-59.604233
  0
LINE
  8
St
  6
CONTINUOUS
 62
    47
 10
108.796485
 20
-59.745652
 11
108.655065
 21
-59.604233
  0
LINE
  8
St
  6
CONTINUOUS
 62
    47
 10
108.796485
 20
-59.887075
 11
108.513643
 21
-59.604233
  0
LINE
  8
St
  6
CONTINUOUS
 62
    47
 10
108.796485
 20
-60.028495
 11
108.372222
 21
-59.604233
  0
LINE
  8
St
  6
CONTINUOUS
 62
    47
 10
108.796485
 20
-60.169917
 11
108.296485
 21
-59.669917
  0
LINE
  8
St
  6
CONTINUOUS
 62
    47
 10
108.756045
 20
-60.270897
 11
108.296485
 21
-59.811337
  0
LINE
  8
St
  6
CONTINUOUS
 62
    47
 10
108.614625
 20
-60.270897
 11
108.296485
 21
-59.952758
  0
LINE
  8
St
  6
CONTINUOUS
 62
    47
 10
108.473202
 20
-60.270897
 11
108.296485
 21
-60.094182
  0
LINE
  8
St
  6
CONTINUOUS
 62
    47
 10
108.331783
 20
-60.270897
 11
108.296485
 21
-60.235603
  0
INSERT
  2
*GRP_0052
  8
St
  6
CONTINUOUS
 62
   127
 10
0.0
 20
0.0
  0
INSERT
  2
*HAT_0012
  8
St
 10
0.0
 20
0.0
  0
ARC
  8
St
  6
CONTINUOUS
 10
-121.402243
 20
-60.270898
 40
0.364701
 50
0.0
 51
180.0
  0
ARC
  8
St
  6
CONTINUOUS
 10
-121.766943
 20
-60.270898
 40
0.364701
 50
60.0
 51
180.0
  0
ARC
  8
St
  6
CONTINUOUS
 10
-125.704822
 20
-60.270898
 40
0.364701
 50
0.0
 51
180.0
  0
ARC
  8
St
  6
CONTINUOUS
 10
-126.069523
 20
-60.270898
 40
0.364701
 50
60.0
 51
180.0
  0
ARC
  8
St
  6
CONTINUOUS
 10
-117.383951
 20
-60.270898
 40
0.364701
 50
0.0
 51
180.0
  0
ARC
  8
St
  6
CONTINUOUS
 10
-117.748652
 20
-60.270898
 40
0.364701
 50
60.0
 51
180.0
  0
ARC
  8
St
  6
CONTINUOUS
 10
-123.763153
 20
-4.770897
 40
0.364701
 50
270.0
 51
450.0
  0
ARC
  8
St
  6
CONTINUOUS
 10
-123.763153
 20
-5.135598
 40
0.364701
 50
270.0
 51
390.0
  0
ARC
  8
St
  6
CONTINUOUS
 10
-123.763153
 20
-6.699707
 40
0.364701
 50
270.0
 51
450.0
  0
ARC
  8
St
  6
CONTINUOUS
 10
-123.763153
 20
-7.064408
 40
0.364701
 50
270.0
 51
390.0
  0
ARC
  8
St
  6
CONTINUOUS
 10
-121.402242
 20
-3.770897
 40
0.364701
 50
180.0
 51
360.0
  0
ARC
  8
St
  6
CONTINUOUS
 10
-121.766943
 20
-3.770897
 40
0.364701
 50
180.0
 51
300.0
  0
ARC
  8
St
  6
CONTINUOUS
 10
-117.227544
 20
-3.770897
 40
0.364701
 50
180.0
 51
360.0
  0
ARC
  8
St
  6
CONTINUOUS
 10
-117.592245
 20
-3.770897
 40
0.364701
 50
180.0
 51
300.0
  0
INSERT
  2
*GRP_0053
  8
St
  6
CONTINUOUS
 62
   127
 10
0.0
 20
0.0
  0
INSERT
  2
*HAT_0013
  8
St
 10
0.0
 20
0.0
  0
SPLINE
  5
1400028
100
AcDbEntity
  8
St
100
AcDbSpline
  6
CONTINUOUS
 70
     0
 71
     3
 74
     6
 44
0.0
 11
-120.403708
 21
-73.864185
 11
-120.23766
 21
-74.83848
 11
-118.406178
 21
-74.955447
 11
-118.275068
 21
-75.97816
 11
-119.401703
 21
-75.43647
 11
-119.49449
 21
-74.855435
  0
SPLINE
  5
1400029
100
AcDbEntity
  8
St
100
AcDbSpline
  6
CONTINUOUS
 70
     0
 71
     3
 74
     6
 44
0.0
 11
-110.819132
 21
-64.213135
 11
-109.898643
 21
-64.334918
 11
-109.607768
 21
-66.090277
 11
-108.690492
 21
-66.327113
 11
-108.95986
 21
-65.290945
 11
-109.754508
 21
-65.08878
  0
LINE
  8
St
  6
CONTINUOUS
 10
-118.275068
 20
-75.97816
 11
-108.690492
 21
-66.327113
  0
LINE
  8
St
  6
CONTINUOUS
 10
-120.403708
 20
-73.864185
 11
-110.819132
 21
-64.213135
  0
SPLINE
  5
1400030
100
AcDbEntity
  8
St
100
AcDbSpline
  6
CONTINUOUS
 70
     0
 71
     3
 74
     6
 44
0.0
 11
-119.963152
 21
-72.68606
 11
-119.17725
 21
-72.271962
 11
-117.678965
 21
-73.00253
 11
-116.963152
 21
-72.68606
 11
-117.716112
 21
-72.395788
 11
-118.694333
 21
-72.519613
  0
LINE
  8
St
  6
CONTINUOUS
 10
-116.963152
 20
-72.68606
 11
-116.963152
 21
-87.891108
  0
LINE
  8
St
  6
CONTINUOUS
 10
-119.963152
 20
-72.68606
 11
-119.963152
 21
-87.891108
  0
LINE
  8
St
  6
DASHDOT
 10
-118.463152
 20
-72.68606
 11
-118.463152
 21
-87.891108
  0
INSERT
  2
*GRP_0060
  8
St
  6
CONTINUOUS
 62
   127
 10
0.0
 20
0.0
  0
LINE
  8
St
  6
CONTINUOUS
 10
-28.618995
 20
-47.026575
 11
-28.618995
 21
-41.793242
  0
LINE
  8
St
  6
CONTINUOUS
 10
-22.452327
 20
-41.293242
 11
-22.452327
 21
-41.793242
  0
LINE
  8
St
  6
CONTINUOUS
 10
-28.618995
 20
-41.793242
 11
-22.452327
 21
-41.793242
  0
LINE
  8
St
  6
CONTINUOUS
 10
-29.118995
 20
-47.026575
 11
-28.618995
 21
-47.026575
  0
LINE
  8
St
  6
CONTINUOUS
 10
-28.618995
 20
-41.293242
 11
-22.452327
 21
-41.293242
  0
LINE
  8
St
  6
CONTINUOUS
 10
-29.118995
 20
-47.026575
 11
-29.118995
 21
-41.793242
  0
ARC
  8
St
  6
CONTINUOUS
 10
-28.618995
 20
-41.793242
 40
0.5
 50
90.0
 51
180.0
  0
LINE
  8
St
  6
DOT
 10
-108.796485
 20
-0.670897
 11
-108.796485
 21
-3.270897
  0
LINE
  8
St
  6
DOT
 10
-108.796485
 20
-3.270897
 11
-109.296485
 21
-3.270897
  0
LINE
  8
St
  6
DOT
 10
-109.296485
 20
-3.270897
 11
-109.296485
 21
-0.670897
  0
ARC
  8
St
  6
DOT
 10
-108.796485
 20
-0.670897
 40
0.5
 50
90.0
 51
180.0
  0
LINE
  8
St
  6
DOT
 10
-108.796485
 20
-0.170897
 11
-99.296485
 21
-0.170897
  0
LINE
  8
St
  6
DOT
 10
-108.796485
 20
-0.670897
 11
-99.296485
 21
-0.670897
  0
LINE
  8
St
  6
DOT
 10
-99.296485
 20
-0.170897
 11
-99.296485
 21
-0.670897
  0
LINE
  8
St
  6
CONTINUOUS
 10
-48.75233
 20
-47.026575
 11
-48.75233
 21
-41.793242
  0
LINE
  8
St
  6
CONTINUOUS
 10
-54.918998
 20
-41.293242
 11
-54.918998
 21
-41.793242
  0
LINE
  8
St
  6
CONTINUOUS
 10
-48.75233
 20
-41.793242
 11
-54.918998
 21
-41.793242
  0
LINE
  8
St
  6
CONTINUOUS
 10
-48.25233
 20
-47.026575
 11
-48.75233
 21
-47.026575
  0
LINE
  8
St
  6
CONTINUOUS
 10
-48.75233
 20
-41.293242
 11
-54.918998
 21
-41.293242
  0
LINE
  8
St
  6
CONTINUOUS
 10
-48.25233
 20
-47.026575
 11
-48.25233
 21
-41.793242
  0
ARC
  8
St
  6
CONTINUOUS
 10
-48.75233
 20
-41.793242
 40
0.5
 50
0.0
 51
90.0
  0
LINE
  8
St
  6
DOT
 10
-4.416668
 20
-7.504235
 11
4.416668
 21
-7.504235
  0
LINE
  8
St
  6
DOT
 10
-4.416668
 20
-5.837562
 11
-4.416668
 21
-7.504235
  0
LINE
  8
St
  6
DOT
 10
4.416668
 20
-5.837562
 11
4.416668
 21
-7.504235
  0
LINE
  8
St
  6
CONTINUOUS
 10
-38.685663
 20
-40.193242
 11
-42.502333
 21
-40.193242
  0
LINE
  8
St
  6
CONTINUOUS
 10
-38.685663
 20
-42.793242
 11
-42.502333
 21
-42.793242
  0
LINE
  8
St
  6
CONTINUOUS
 10
-42.502333
 20
-39.693242
 11
-42.502333
 21
-42.793242
  0
LINE
  8
St
  6
CONTINUOUS
 10
-38.685663
 20
-39.693242
 11
-42.502333
 21
-39.693242
  0
LINE
  8
St
  6
CONTINUOUS
 10
-38.685663
 20
-40.193242
 11
-34.868992
 21
-40.193242
  0
LINE
  8
St
  6
CONTINUOUS
 10
-38.685663
 20
-42.793242
 11
-34.868992
 21
-42.793242
  0
LINE
  8
St
  6
CONTINUOUS
 10
-34.868992
 20
-39.693242
 11
-34.868992
 21
-42.793242
  0
LINE
  8
St
  6
CONTINUOUS
 10
-38.685663
 20
-39.693242
 11
-34.868992
 21
-39.693242
  0
LINE
  8
St
  6
DOT
 10
108.796485
 20
-0.670897
 11
108.796485
 21
-3.270897
  0
LINE
  8
St
  6
DOT
 10
108.796485
 20
-3.270897
 11
109.296485
 21
-3.270897
  0
LINE
  8
St
  6
DOT
 10
109.296485
 20
-3.270897
 11
109.296485
 21
-0.670897
  0
ARC
  8
St
  6
DOT
 10
108.796485
 20
-0.670897
 40
0.5
 50
0.0
 51
90.0
  0
LINE
  8
St
  6
DOT
 10
108.796485
 20
-0.170897
 11
99.296485
 21
-0.170897
  0
LINE
  8
St
  6
DOT
 10
108.796485
 20
-0.670897
 11
99.296485
 21
-0.670897
  0
LINE
  8
St
  6
DOT
 10
99.296485
 20
-0.170897
 11
99.296485
 21
-0.670897
  0
INSERT
  2
*GRP_0104
  8
St
  6
CONTINUOUS
 10
0.0
 20
0.0
  0
LINE
  8
St
  6
CONTINUOUS
 10
4.416668
 20
-2.270897
 11
-4.416668
 21
-2.270897
  0
LINE
  8
St
  6
CONTINUOUS
 10
4.416668
 20
-2.770897
 11
-4.416668
 21
-2.770897
  0
LINE
  8
St
  6
CONTINUOUS
 10
4.416668
 20
-5.837562
 11
4.416668
 21
-2.270897
  0
LINE
  8
St
  6
CONTINUOUS
 10
-4.416668
 20
-5.837562
 11
-4.416668
 21
-2.270897
  0
INSERT
  2
*GRP_0142
  8
St
  6
DOT
 10
0.0
 20
0.0
  0
INSERT
  2
*GRP_0145
  8
St
  6
CONTINUOUS
 10
0.0
 20
0.0
  0
LINE
  8
St
  6
DOT
 10
98.79649
 20
-12.60424
 11
62.044572
 21
-12.60424
  0
LINE
  8
St
  6
DOT
 10
98.79649
 20
-23.937575
 11
62.044572
 21
-23.937575
  0
LINE
  8
St
  6
DOT
 10
90.463153
 20
-38.93794
 11
62.044572
 21
-38.93794
  0
LINE
  8
St
  6
DOT
 10
90.463153
 20
-50.271275
 11
62.044572
 21
-50.271275
  0
LINE
  8
その他部品等
  6
CONTINUOUS
 10
-128.963145
 20
-60.770897
 11
-128.963145
 21
-65.770897
  0
LINE
  8
その他部品等
  6
CONTINUOUS
 10
-126.008307
 20
-60.770897
 11
-126.008307
 21
-65.36888
  0
LINE
  8
その他部品等
  6
CONTINUOUS
 10
-123.796475
 20
-65.06795
 11
-126.008307
 21
-60.770897
  0
LINE
  8
その他部品等
  6
CONTINUOUS
 10
-161.129847
 20
-90.21534
 11
-155.129857
 21
-90.21534
  0
LINE
  8
その他部品等
  6
CONTINUOUS
 10
-155.129857
 20
-87.187168
 11
-160.029845
 21
-87.187168
  0
LINE
  8
その他部品等
  6
CONTINUOUS
 10
-155.129857
 20
-84.5205
 11
-160.029845
 21
-84.5205
  0
LINE
  8
その他部品等
  6
CONTINUOUS
 10
-160.029845
 20
-86.048675
 11
-160.029845
 21
-84.5205
  0
LINE
  8
その他部品等
  6
CONTINUOUS
 10
-160.029845
 20
-84.5205
 11
-155.129857
 21
-87.187168
  0
INSERT
  2
*HAT_0014
  8
その他部品等
 10
0.0
 20
0.0
  0
INSERT
  2
*HAT_0015
  8
その他部品等
 10
0.0
 20
0.0
  0
LINE
  8
その他部品等
  6
CONTINUOUS
 10
128.96317
 20
-60.770903
 11
128.96317
 21
-65.770903
  0
LINE
  8
その他部品等
  6
CONTINUOUS
 10
126.008332
 20
-60.770903
 11
126.008332
 21
-65.368885
  0
LINE
  8
その他部品等
  6
CONTINUOUS
 10
123.7965
 20
-65.067955
 11
126.008332
 21
-60.770903
  0
LINE
  8
その他部品等
  6
CONTINUOUS
 10
161.129873
 20
-90.215345
 11
155.129882
 21
-90.215345
  0
LINE
  8
その他部品等
  6
CONTINUOUS
 10
155.129882
 20
-87.187173
 11
160.02987
 21
-87.187173
  0
LINE
  8
その他部品等
  6
CONTINUOUS
 10
155.129882
 20
-84.520505
 11
160.02987
 21
-84.520505
  0
LINE
  8
その他部品等
  6
CONTINUOUS
 10
160.02987
 20
-86.04868
 11
160.02987
 21
-84.520505
  0
LINE
  8
その他部品等
  6
CONTINUOUS
 10
160.02987
 20
-84.520505
 11
155.129882
 21
-87.187173
  0
INSERT
  2
*HAT_0016
  8
その他部品等
 10
0.0
 20
0.0
  0
INSERT
  2
*HAT_0017
  8
その他部品等
 10
0.0
 20
0.0
  0
ENDSEC
  0
EOF
