  0
SECTION
  2
HEADER
  9
$EXTMIN
 10
-210.0
 20
-148.5
  9
$EXTMAX
 10
210.0
 20
148.5
  9
$PDMODE
 70
    32
  9
$PDSIZE
 40
1.5
  9
$LTSCALE
 40
10.0
  0
ENDSEC
  0
SECTION
  2
TABLES
  0
TABLE
  2
LTYPE
 70
    15
  0
LTYPE
  2
CONTINUOUS
 70
    64
  3
実線
 72
    65
 73
     0
 40
0.0
  0
LTYPE
  2
DASHED
 70
    64
  3
破線A
 72
    65
 73
     2
 40
0.6
 49
0.4
 49
-0.2
  0
LTYPE
  2
DASHEDX2
 70
    64
  3
破線B
 72
    65
 73
     2
 40
1.3
 49
0.9
 49
-0.4
  0
LTYPE
  2
DASHDOT
 70
    64
  3
１点鎖線A
 72
    65
 73
     4
 40
0.5375
 49
0.375
 49
-0.05
 49
0.0625
 49
-0.05
  0
LTYPE
  2
DASHDOTX2
 70
    64
  3
１点鎖線B
 72
    65
 73
     4
 40
1.075
 49
0.75
 49
-0.1
 49
0.125
 49
-0.1
  0
LTYPE
  2
DIVIDE2
 70
    64
  3
２点鎖線A
 72
    65
 73
     6
 40
0.5125
 49
0.3
 49
-0.0375
 49
0.05
 49
-0.0375
 49
0.05
 49
-0.0375
  0
LTYPE
  2
DIVIDE
 70
    64
  3
２点鎖線B
 72
    65
 73
     6
 40
1.05
 49
0.55
 49
-0.1
 49
0.1
 49
-0.1
 49
0.1
 49
-0.1
  0
LTYPE
  2
DOT
 70
    64
  3
点線A
 72
    65
 73
     2
 40
0.1125
 49
0.0625
 49
-0.05
  0
LTYPE
  2
DOTX2
 70
    64
  3
点線B
 72
    65
 73
     2
 40
0.275
 49
0.15
 49
-0.125
  0
LTYPE
  2
CONTINUOUS
 70
    64
  3
実線
 72
    65
 73
     0
 40
0.0
  0
LTYPE
  2
CONTINUOUS
 70
    64
  3
実線
 72
    65
 73
     0
 40
0.0
  0
LTYPE
  2
CONTINUOUS
 70
    64
  3
実線
 72
    65
 73
     0
 40
0.0
  0
LTYPE
  2
CONTINUOUS
 70
    64
  3
実線
 72
    65
 73
     0
 40
0.0
  0
LTYPE
  2
CONTINUOUS
 70
    64
  3
実線
 72
    65
 73
     0
 40
0.0
  0
LTYPE
  2
CONTINUOUS
 70
    64
  3
実線
 72
    65
 73
     0
 40
0.0
  0
ENDTAB
  0
TABLE
  2
LAYER
 70
    34
  0
LAYER
  2
通り芯
 70
     0
 62
    15
  6
CONTINUOUS
  0
LAYER
  2
補助線
 70
     0
 62
    16
  6
DOT
  0
LAYER
  2
躯体
 70
     0
 62
    31
  6
CONTINUOUS
  0
LAYER
  2
型材
 70
     0
 62
    32
  6
CONTINUOUS
  0
LAYER
  2
型材断面
 70
     0
 62
    47
  6
CONTINUOUS
  0
LAYER
  2
ガラス
 70
     0
 62
    48
  6
CONTINUOUS
  0
LAYER
  2
ゴム等
 70
     0
 62
    63
  6
CONTINUOUS
  0
LAYER
  2
ボルト／ビス
 70
     0
 62
    64
  6
CONTINUOUS
  0
LAYER
  2
文字
 70
     0
 62
    79
  6
CONTINUOUS
  0
LAYER
  2
寸法
 70
     0
 62
    80
  6
CONTINUOUS
  0
LAYER
  2
ﾊｯﾁﾝｸﾞ
 70
     0
 62
    95
  6
CONTINUOUS
  0
LAYER
  2
別途部材
 70
     0
 62
    96
  6
CONTINUOUS
  0
LAYER
  2
曲げ物
 70
     0
 62
   111
  6
CONTINUOUS
  0
LAYER
  2
鉄骨等
 70
     0
 62
   112
  6
CONTINUOUS
  0
LAYER
  2
St
 70
     0
 62
   127
  6
CONTINUOUS
  0
LAYER
  2
その他部品等
 70
     0
 62
   128
  6
CONTINUOUS
  0
LAYER
  2
ｶﾞｽｹｯﾄ
 70
     0
 62
   143
  6
CONTINUOUS
  0
LAYER
  2
ｽｹｯﾁ
 70
     0
 62
    14
  6
CONTINUOUS
  0
LAYER
  2
0
 70
     0
 62
    17
  6
CONTINUOUS
  0
LAYER
  2
1
 70
     0
 62
    30
  6
CONTINUOUS
  0
LAYER
  2
4
 70
     0
 62
    33
  6
CONTINUOUS
  0
LAYER
  2
ﾚｲﾔ3
 70
     0
 62
    46
  6
CONTINUOUS
  0
LAYER
  2
外形線
 70
     0
 62
    49
  6
CONTINUOUS
  0
LAYER
  2
部品
 70
     0
 62
    14
  6
CONTINUOUS
  0
LAYER
  2
サッシ芯
 70
     0
 62
    17
  6
DASHDOTX2
  0
LAYER
  2
寸法線
 70
     0
 62
    62
  6
CONTINUOUS
  0
LAYER
  2
姿図外形線
 70
     0
 62
    65
  6
CONTINUOUS
  0
LAYER
  2
姿補助線
 70
     0
 62
    30
  6
CONTINUOUS
  0
LAYER
  2
透視線
 70
     0
 62
    78
  6
DOT
  0
LAYER
  2
用紙
 70
     0
 62
    81
  6
CONTINUOUS
  0
LAYER
  2
実線図枠
 70
     0
 62
    94
  6
CONTINUOUS
  0
LAYER
  2
補助図枠
 70
     0
 62
    97
  6
CONTINUOUS
  0
LAYER
  2
建具記号
 70
     0
 62
   110
  6
CONTINUOUS
  0
LAYER
  2
補助文字
 70
     0
 62
   113
  6
CONTINUOUS
  0
ENDTAB
  0
TABLE
  2
STYLE
 70
    10
  0
STYLE
  2
STANDARD
 70
     0
 40
1.0
 41
1.0
 42
1.0
 50
0.0
 71
     0
  3
TXT
  4
BIGFONT
  0
STYLE
  2
TATE
 70
     4
 40
1.0
 41
1.0
 42
1.0
 50
0.0
 71
     0
  3
TXT
  4
BIGFONT
  0
STYLE
  2
TextStyle03
 70
     0
 40
1.0
 41
1.0
 42
1.0
 50
0.0
 71
     0
  3
MONOTXT
  4
BIGFONT
  0
STYLE
  2
TextStyle04
 70
     0
 40
1.0
 41
1.0
 42
1.0
 50
0.0
 71
     0
  3
MONOTXT
  4
BIGFONT
  0
STYLE
  2
TextStyle05
 70
     0
 40
1.0
 41
1.0
 42
1.0
 50
0.0
 71
     0
  3
MONOTXT
  4
BIGFONT
  0
STYLE
  2
TextStyle06
 70
     0
 40
1.0
 41
1.0
 42
1.0
 50
0.0
 71
     0
  3
MONOTXT
  4
BIGFONT
  0
STYLE
  2
TextStyle07
 70
     0
 40
1.0
 41
1.0
 42
1.0
 50
0.0
 71
     0
  3
MONOTXT
  4
BIGFONT
  0
STYLE
  2
TextStyle08
 70
     0
 40
1.0
 41
1.0
 42
1.0
 50
0.0
 71
     0
  3
MONOTXT
  4
BIGFONT
  0
STYLE
  2
TextStyle09
 70
     0
 40
1.0
 41
1.0
 42
1.0
 50
0.0
 71
     0
  3
MONOTXT
  4
BIGFONT
  0
STYLE
  2
TextStyle10
 70
     0
 40
1.0
 41
1.0
 42
1.0
 50
0.0
 71
     0
  3
MONOTXT
  4
BIGFONT
  0
ENDTAB
  0
ENDSEC
  0
SECTION
  2
BLOCKS
  0
BLOCK
  2
*GRP_0001
 70
    65
 10
0.0
 20
0.0
  0
LINE
  8
型材断面
  6
CONTINUOUS
 10
195.0
 20
133.5
 11
195.0
 21
-133.5
  0
LINE
  8
型材断面
  6
CONTINUOUS
 10
195.0
 20
-133.5
 11
-185.0
 21
-133.5
  0
LINE
  8
型材断面
  6
CONTINUOUS
 10
-185.0
 20
-133.5
 11
-185.0
 21
133.5
  0
LINE
  8
型材断面
  6
CONTINUOUS
 10
195.0
 20
133.5
 11
-185.0
 21
133.5
  0
LINE
  8
型材断面
  6
CONTINUOUS
 10
145.0
 20
-133.5
 11
145.0
 21
-118.5
  0
LINE
  8
型材断面
  6
CONTINUOUS
 10
195.0
 20
-118.5
 11
145.0
 21
-118.5
  0
ENDBLK
  0
BLOCK
  2
*GRP_0002
 70
    65
 10
0.0
 20
0.0
  0
INSERT
  2
*GRP_0019
  8
補助線
  6
CONTINUOUS
 10
0.0
 20
0.0
  0
LINE
  8
ボルト／ビス
  6
CONTINUOUS
 10
-84.935405
 20
10.371595
 11
-84.685405
 21
10.515933
  0
LINE
  8
ボルト／ビス
  6
CONTINUOUS
 10
-84.935405
 20
10.371595
 11
-85.185405
 21
10.515933
  0
LINE
  8
ボルト／ビス
  6
CONTINUOUS
 10
-84.685405
 20
10.804608
 11
-84.935405
 21
10.948945
  0
LINE
  8
ボルト／ビス
  6
CONTINUOUS
 10
-85.185405
 20
10.804608
 11
-84.935405
 21
10.948945
  0
CIRCLE
  8
ボルト／ビス
  6
CONTINUOUS
 10
-84.935405
 20
10.66027
 40
0.25
  0
LINE
  8
ボルト／ビス
  6
CONTINUOUS
 10
-85.185405
 20
10.515933
 11
-85.185405
 21
10.804608
  0
LINE
  8
ボルト／ビス
  6
CONTINUOUS
 10
-84.685405
 20
10.804608
 11
-84.685405
 21
10.515933
  0
ENDBLK
  0
BLOCK
  2
*GRP_0003
 70
    65
 10
0.0
 20
0.0
  0
INSERT
  2
*GRP_0020
  8
補助線
  6
CONTINUOUS
 10
0.0
 20
0.0
  0
LINE
  8
ボルト／ビス
  6
CONTINUOUS
 10
-69.935405
 20
10.371595
 11
-69.685405
 21
10.515933
  0
LINE
  8
ボルト／ビス
  6
CONTINUOUS
 10
-69.935405
 20
10.371595
 11
-70.185405
 21
10.515933
  0
LINE
  8
ボルト／ビス
  6
CONTINUOUS
 10
-69.685405
 20
10.804608
 11
-69.935405
 21
10.948945
  0
LINE
  8
ボルト／ビス
  6
CONTINUOUS
 10
-70.185405
 20
10.804608
 11
-69.935405
 21
10.948945
  0
CIRCLE
  8
ボルト／ビス
  6
CONTINUOUS
 10
-69.935405
 20
10.66027
 40
0.25
  0
LINE
  8
ボルト／ビス
  6
CONTINUOUS
 10
-70.185405
 20
10.515933
 11
-70.185405
 21
10.804608
  0
LINE
  8
ボルト／ビス
  6
CONTINUOUS
 10
-69.685405
 20
10.804608
 11
-69.685405
 21
10.515933
  0
ENDBLK
  0
BLOCK
  2
*GRP_0004
 70
    65
 10
0.0
 20
0.0
  0
INSERT
  2
*GRP_0021
  8
補助線
  6
CONTINUOUS
 10
0.0
 20
0.0
  0
LINE
  8
ボルト／ビス
  6
CONTINUOUS
 10
-93.72408
 20
19.16027
 11
-93.579742
 21
19.41027
  0
LINE
  8
ボルト／ビス
  6
CONTINUOUS
 10
-93.72408
 20
19.16027
 11
-93.579742
 21
18.91027
  0
LINE
  8
ボルト／ビス
  6
CONTINUOUS
 10
-93.291068
 20
19.41027
 11
-93.14673
 21
19.16027
  0
LINE
  8
ボルト／ビス
  6
CONTINUOUS
 10
-93.291068
 20
18.91027
 11
-93.14673
 21
19.16027
  0
CIRCLE
  8
ボルト／ビス
  6
CONTINUOUS
 10
-93.435405
 20
19.16027
 40
0.25
  0
LINE
  8
ボルト／ビス
  6
CONTINUOUS
 10
-93.579742
 20
18.91027
 11
-93.291068
 21
18.91027
  0
LINE
  8
ボルト／ビス
  6
CONTINUOUS
 10
-93.291068
 20
19.41027
 11
-93.579742
 21
19.41027
  0
ENDBLK
  0
BLOCK
  2
*GRP_0005
 70
    65
 10
0.0
 20
0.0
  0
INSERT
  2
*GRP_0022
  8
補助線
  6
CONTINUOUS
 10
0.0
 20
0.0
  0
LINE
  8
ボルト／ビス
  6
CONTINUOUS
 10
-93.72408
 20
34.16027
 11
-93.579742
 21
34.41027
  0
LINE
  8
ボルト／ビス
  6
CONTINUOUS
 10
-93.72408
 20
34.16027
 11
-93.579742
 21
33.91027
  0
LINE
  8
ボルト／ビス
  6
CONTINUOUS
 10
-93.291068
 20
34.41027
 11
-93.14673
 21
34.16027
  0
LINE
  8
ボルト／ビス
  6
CONTINUOUS
 10
-93.291068
 20
33.91027
 11
-93.14673
 21
34.16027
  0
CIRCLE
  8
ボルト／ビス
  6
CONTINUOUS
 10
-93.435405
 20
34.16027
 40
0.25
  0
LINE
  8
ボルト／ビス
  6
CONTINUOUS
 10
-93.579742
 20
33.91027
 11
-93.291068
 21
33.91027
  0
LINE
  8
ボルト／ビス
  6
CONTINUOUS
 10
-93.291068
 20
34.41027
 11
-93.579742
 21
34.41027
  0
ENDBLK
  0
BLOCK
  2
*GRP_0006
 70
    65
 10
0.0
 20
0.0
  0
INSERT
  2
*GRP_0023
  8
補助線
  6
CONTINUOUS
 10
0.0
 20
0.0
  0
LINE
  8
ボルト／ビス
  6
CONTINUOUS
 10
-54.935405
 20
10.371595
 11
-55.185405
 21
10.515933
  0
LINE
  8
ボルト／ビス
  6
CONTINUOUS
 10
-54.935405
 20
10.371595
 11
-54.685405
 21
10.515933
  0
LINE
  8
ボルト／ビス
  6
CONTINUOUS
 10
-55.185405
 20
10.804608
 11
-54.935405
 21
10.948945
  0
LINE
  8
ボルト／ビス
  6
CONTINUOUS
 10
-54.685405
 20
10.804608
 11
-54.935405
 21
10.948945
  0
CIRCLE
  8
ボルト／ビス
  6
CONTINUOUS
 10
-54.935405
 20
10.66027
 40
0.25
  0
LINE
  8
ボルト／ビス
  6
CONTINUOUS
 10
-54.685405
 20
10.515933
 11
-54.685405
 21
10.804608
  0
LINE
  8
ボルト／ビス
  6
CONTINUOUS
 10
-55.185405
 20
10.804608
 11
-55.185405
 21
10.515933
  0
ENDBLK
  0
BLOCK
  2
*GRP_0007
 70
    65
 10
0.0
 20
0.0
  0
INSERT
  2
*GRP_0024
  8
補助線
  6
CONTINUOUS
 10
0.0
 20
0.0
  0
LINE
  8
ボルト／ビス
  6
CONTINUOUS
 10
-46.14673
 20
19.16027
 11
-46.291068
 21
19.41027
  0
LINE
  8
ボルト／ビス
  6
CONTINUOUS
 10
-46.14673
 20
19.16027
 11
-46.291068
 21
18.91027
  0
LINE
  8
ボルト／ビス
  6
CONTINUOUS
 10
-46.579742
 20
19.41027
 11
-46.72408
 21
19.16027
  0
LINE
  8
ボルト／ビス
  6
CONTINUOUS
 10
-46.579742
 20
18.91027
 11
-46.72408
 21
19.16027
  0
CIRCLE
  8
ボルト／ビス
  6
CONTINUOUS
 10
-46.435405
 20
19.16027
 40
0.25
  0
LINE
  8
ボルト／ビス
  6
CONTINUOUS
 10
-46.291068
 20
18.91027
 11
-46.579742
 21
18.91027
  0
LINE
  8
ボルト／ビス
  6
CONTINUOUS
 10
-46.579742
 20
19.41027
 11
-46.291068
 21
19.41027
  0
ENDBLK
  0
BLOCK
  2
*GRP_0008
 70
    65
 10
0.0
 20
0.0
  0
INSERT
  2
*GRP_0025
  8
補助線
  6
CONTINUOUS
 10
0.0
 20
0.0
  0
LINE
  8
ボルト／ビス
  6
CONTINUOUS
 10
-46.14673
 20
34.16027
 11
-46.291068
 21
34.41027
  0
LINE
  8
ボルト／ビス
  6
CONTINUOUS
 10
-46.14673
 20
34.16027
 11
-46.291068
 21
33.91027
  0
LINE
  8
ボルト／ビス
  6
CONTINUOUS
 10
-46.579742
 20
34.41027
 11
-46.72408
 21
34.16027
  0
LINE
  8
ボルト／ビス
  6
CONTINUOUS
 10
-46.579742
 20
33.91027
 11
-46.72408
 21
34.16027
  0
CIRCLE
  8
ボルト／ビス
  6
CONTINUOUS
 10
-46.435405
 20
34.16027
 40
0.25
  0
LINE
  8
ボルト／ビス
  6
CONTINUOUS
 10
-46.291068
 20
33.91027
 11
-46.579742
 21
33.91027
  0
LINE
  8
ボルト／ビス
  6
CONTINUOUS
 10
-46.579742
 20
34.41027
 11
-46.291068
 21
34.41027
  0
ENDBLK
  0
BLOCK
  2
*GRP_0009
 70
    65
 10
0.0
 20
0.0
  0
INSERT
  2
*GRP_0026
  8
補助線
  6
CONTINUOUS
 10
0.0
 20
0.0
  0
LINE
  8
ボルト／ビス
  6
CONTINUOUS
 10
-84.935405
 20
57.948945
 11
-84.685405
 21
57.804608
  0
LINE
  8
ボルト／ビス
  6
CONTINUOUS
 10
-84.935405
 20
57.948945
 11
-85.185405
 21
57.804608
  0
LINE
  8
ボルト／ビス
  6
CONTINUOUS
 10
-84.685405
 20
57.515933
 11
-84.935405
 21
57.371595
  0
LINE
  8
ボルト／ビス
  6
CONTINUOUS
 10
-85.185405
 20
57.515933
 11
-84.935405
 21
57.371595
  0
CIRCLE
  8
ボルト／ビス
  6
CONTINUOUS
 10
-84.935405
 20
57.66027
 40
0.25
  0
LINE
  8
ボルト／ビス
  6
CONTINUOUS
 10
-85.185405
 20
57.804608
 11
-85.185405
 21
57.515933
  0
LINE
  8
ボルト／ビス
  6
CONTINUOUS
 10
-84.685405
 20
57.515933
 11
-84.685405
 21
57.804608
  0
ENDBLK
  0
BLOCK
  2
*GRP_0010
 70
    65
 10
0.0
 20
0.0
  0
INSERT
  2
*GRP_0027
  8
補助線
  6
CONTINUOUS
 10
0.0
 20
0.0
  0
LINE
  8
ボルト／ビス
  6
CONTINUOUS
 10
-69.935405
 20
57.948945
 11
-69.685405
 21
57.804608
  0
LINE
  8
ボルト／ビス
  6
CONTINUOUS
 10
-69.935405
 20
57.948945
 11
-70.185405
 21
57.804608
  0
LINE
  8
ボルト／ビス
  6
CONTINUOUS
 10
-69.685405
 20
57.515933
 11
-69.935405
 21
57.371595
  0
LINE
  8
ボルト／ビス
  6
CONTINUOUS
 10
-70.185405
 20
57.515933
 11
-69.935405
 21
57.371595
  0
CIRCLE
  8
ボルト／ビス
  6
CONTINUOUS
 10
-69.935405
 20
57.66027
 40
0.25
  0
LINE
  8
ボルト／ビス
  6
CONTINUOUS
 10
-70.185405
 20
57.804608
 11
-70.185405
 21
57.515933
  0
LINE
  8
ボルト／ビス
  6
CONTINUOUS
 10
-69.685405
 20
57.515933
 11
-69.685405
 21
57.804608
  0
ENDBLK
  0
BLOCK
  2
*GRP_0011
 70
    65
 10
0.0
 20
0.0
  0
INSERT
  2
*GRP_0028
  8
補助線
  6
CONTINUOUS
 10
0.0
 20
0.0
  0
LINE
  8
ボルト／ビス
  6
CONTINUOUS
 10
-93.72408
 20
49.16027
 11
-93.579742
 21
48.91027
  0
LINE
  8
ボルト／ビス
  6
CONTINUOUS
 10
-93.72408
 20
49.16027
 11
-93.579742
 21
49.41027
  0
LINE
  8
ボルト／ビス
  6
CONTINUOUS
 10
-93.291068
 20
48.91027
 11
-93.14673
 21
49.16027
  0
LINE
  8
ボルト／ビス
  6
CONTINUOUS
 10
-93.291068
 20
49.41027
 11
-93.14673
 21
49.16027
  0
CIRCLE
  8
ボルト／ビス
  6
CONTINUOUS
 10
-93.435405
 20
49.16027
 40
0.25
  0
LINE
  8
ボルト／ビス
  6
CONTINUOUS
 10
-93.579742
 20
49.41027
 11
-93.291068
 21
49.41027
  0
LINE
  8
ボルト／ビス
  6
CONTINUOUS
 10
-93.291068
 20
48.91027
 11
-93.579742
 21
48.91027
  0
ENDBLK
  0
BLOCK
  2
*GRP_0012
 70
    65
 10
0.0
 20
0.0
  0
INSERT
  2
*GRP_0029
  8
補助線
  6
CONTINUOUS
 10
0.0
 20
0.0
  0
LINE
  8
ボルト／ビス
  6
CONTINUOUS
 10
-54.935405
 20
57.948945
 11
-55.185405
 21
57.804608
  0
LINE
  8
ボルト／ビス
  6
CONTINUOUS
 10
-54.935405
 20
57.948945
 11
-54.685405
 21
57.804608
  0
LINE
  8
ボルト／ビス
  6
CONTINUOUS
 10
-55.185405
 20
57.515933
 11
-54.935405
 21
57.371595
  0
LINE
  8
ボルト／ビス
  6
CONTINUOUS
 10
-54.685405
 20
57.515933
 11
-54.935405
 21
57.371595
  0
CIRCLE
  8
ボルト／ビス
  6
CONTINUOUS
 10
-54.935405
 20
57.66027
 40
0.25
  0
LINE
  8
ボルト／ビス
  6
CONTINUOUS
 10
-54.685405
 20
57.804608
 11
-54.685405
 21
57.515933
  0
LINE
  8
ボルト／ビス
  6
CONTINUOUS
 10
-55.185405
 20
57.515933
 11
-55.185405
 21
57.804608
  0
ENDBLK
  0
BLOCK
  2
*GRP_0013
 70
    65
 10
0.0
 20
0.0
  0
INSERT
  2
*GRP_0030
  8
補助線
  6
CONTINUOUS
 10
0.0
 20
0.0
  0
LINE
  8
ボルト／ビス
  6
CONTINUOUS
 10
-46.14673
 20
49.16027
 11
-46.291068
 21
48.91027
  0
LINE
  8
ボルト／ビス
  6
CONTINUOUS
 10
-46.14673
 20
49.16027
 11
-46.291068
 21
49.41027
  0
LINE
  8
ボルト／ビス
  6
CONTINUOUS
 10
-46.579742
 20
48.91027
 11
-46.72408
 21
49.16027
  0
LINE
  8
ボルト／ビス
  6
CONTINUOUS
 10
-46.579742
 20
49.41027
 11
-46.72408
 21
49.16027
  0
CIRCLE
  8
ボルト／ビス
  6
CONTINUOUS
 10
-46.435405
 20
49.16027
 40
0.25
  0
LINE
  8
ボルト／ビス
  6
CONTINUOUS
 10
-46.291068
 20
49.41027
 11
-46.579742
 21
49.41027
  0
LINE
  8
ボルト／ビス
  6
CONTINUOUS
 10
-46.579742
 20
48.91027
 11
-46.291068
 21
48.91027
  0
ENDBLK
  0
BLOCK
  2
*DIM_0014
 70
    65
 10
0.0
 20
0.0
  0
LINE
  8
寸法
  6
BYBLOCK
 62
     0
 10
-68.935405
 20
-39.779985
 11
-25.043632
 21
-39.779985
  0
LINE
  8
寸法
  6
BYBLOCK
 62
     0
 10
-25.043632
 20
-52.279985
 11
-25.043632
 21
-39.779985
  0
POINT
  8
寸法
 62
     0
 10
-25.043632
 20
-52.279985
  0
POINT
  8
寸法
 62
     0
 10
-25.043632
 20
-39.779985
  0
TEXT
  7
TextStyle03
  8
寸法
  6
CONTINUOUS
 62
     0
 10
-25.45
 20
-48.4875
  1
250
 40
3.0
 50
90.0
 72
     5
 11
-25.45
 21
-43.6125
  0
ENDBLK
  0
BLOCK
  2
*GRP_0015
 70
    65
 10
0.0
 20
0.0
  0
POLYLINE
  8
寸法
  6
CONTINUOUS
 62
     0
 66
     1
  0
VERTEX
  8
寸法
 10
-49.53765
 20
24.156562
  0
VERTEX
  8
寸法
 10
-45.856455
 20
20.475367
  0
VERTEX
  8
寸法
 10
-23.013878
 20
20.475367
  0
SEQEND
  0
ENDBLK
  0
BLOCK
  2
*DIM_0016
 70
    65
 10
0.0
 20
0.0
  0
LINE
  8
寸法
  6
BYBLOCK
 62
     0
 10
-84.935405
 20
57.66027
 11
-84.935405
 21
75.599285
  0
LINE
  8
寸法
  6
BYBLOCK
 62
     0
 10
-54.935405
 20
57.66027
 11
-54.935405
 21
75.599285
  0
LINE
  8
寸法
  6
BYBLOCK
 62
     0
 10
-84.935405
 20
75.599285
 11
-54.935405
 21
75.599285
  0
POINT
  8
寸法
 62
     0
 10
-84.935405
 20
75.599285
  0
POINT
  8
寸法
 62
     0
 10
-54.935405
 20
75.599285
  0
TEXT
  7
TextStyle03
  8
寸法
  6
CONTINUOUS
 62
     0
 10
-72.4125
 20
75.95
  1
600
 40
3.0
 72
     5
 11
-67.5375
 21
75.95
  0
ENDBLK
  0
BLOCK
  2
*DIM_0017
 70
    65
 10
0.0
 20
0.0
  0
LINE
  8
寸法
  6
BYBLOCK
 62
     0
 10
-93.435405
 20
56.66027
 11
-116.343648
 21
56.66027
  0
LINE
  8
寸法
  6
BYBLOCK
 62
     0
 10
-93.435405
 20
34.16027
 11
-116.343648
 21
34.16027
  0
LINE
  8
寸法
  6
BYBLOCK
 62
     0
 10
-116.343648
 20
56.66027
 11
-116.343648
 21
34.16027
  0
POINT
  8
寸法
 62
     0
 10
-116.343648
 20
56.66027
  0
POINT
  8
寸法
 62
     0
 10
-116.343648
 20
34.16027
  0
TEXT
  7
TextStyle03
  8
寸法
  6
CONTINUOUS
 62
     0
 10
-116.75
 20
42.9375
  1
450
 40
3.0
 50
90.0
 72
     5
 11
-116.75
 21
47.8125
  0
ENDBLK
  0
BLOCK
  2
*DIM_0018
 70
    65
 10
0.0
 20
0.0
  0
LINE
  8
寸法
  6
BYBLOCK
 62
     0
 10
-93.435405
 20
11.66027
 11
-116.343648
 21
11.66027
  0
LINE
  8
寸法
  6
BYBLOCK
 62
     0
 10
-116.343648
 20
34.16027
 11
-116.343648
 21
11.66027
  0
POINT
  8
寸法
 62
     0
 10
-116.343648
 20
11.66027
  0
TEXT
  7
TextStyle03
  8
寸法
  6
CONTINUOUS
 62
     0
 10
-116.75
 20
20.4375
  1
450
 40
3.0
 50
90.0
 72
     5
 11
-116.75
 21
25.3125
  0
ENDBLK
  0
BLOCK
  2
*GRP_0019
 70
    65
 10
0.0
 20
0.0
  0
LINE
  8
補助線
  6
BYBLOCK
 62
     0
 10
-85.060405
 20
10.66027
 11
-84.810405
 21
10.66027
  0
LINE
  8
補助線
  6
BYBLOCK
 62
     0
 10
-84.935405
 20
10.53527
 11
-84.935405
 21
10.78527
  0
ENDBLK
  0
BLOCK
  2
*GRP_0020
 70
    65
 10
0.0
 20
0.0
  0
LINE
  8
補助線
  6
BYBLOCK
 62
     0
 10
-70.060405
 20
10.66027
 11
-69.810405
 21
10.66027
  0
LINE
  8
補助線
  6
BYBLOCK
 62
     0
 10
-69.935405
 20
10.53527
 11
-69.935405
 21
10.78527
  0
ENDBLK
  0
BLOCK
  2
*GRP_0021
 70
    65
 10
0.0
 20
0.0
  0
LINE
  8
補助線
  6
BYBLOCK
 62
     0
 10
-93.435405
 20
19.03527
 11
-93.435405
 21
19.28527
  0
LINE
  8
補助線
  6
BYBLOCK
 62
     0
 10
-93.560405
 20
19.16027
 11
-93.310405
 21
19.16027
  0
ENDBLK
  0
BLOCK
  2
*GRP_0022
 70
    65
 10
0.0
 20
0.0
  0
LINE
  8
補助線
  6
BYBLOCK
 62
     0
 10
-93.435405
 20
34.03527
 11
-93.435405
 21
34.28527
  0
LINE
  8
補助線
  6
BYBLOCK
 62
     0
 10
-93.560405
 20
34.16027
 11
-93.310405
 21
34.16027
  0
ENDBLK
  0
BLOCK
  2
*GRP_0023
 70
    65
 10
0.0
 20
0.0
  0
LINE
  8
補助線
  6
BYBLOCK
 62
     0
 10
-54.810405
 20
10.66027
 11
-55.060405
 21
10.66027
  0
LINE
  8
補助線
  6
BYBLOCK
 62
     0
 10
-54.935405
 20
10.53527
 11
-54.935405
 21
10.78527
  0
ENDBLK
  0
BLOCK
  2
*GRP_0024
 70
    65
 10
0.0
 20
0.0
  0
LINE
  8
補助線
  6
BYBLOCK
 62
     0
 10
-46.435405
 20
19.03527
 11
-46.435405
 21
19.28527
  0
LINE
  8
補助線
  6
BYBLOCK
 62
     0
 10
-46.310405
 20
19.16027
 11
-46.560405
 21
19.16027
  0
ENDBLK
  0
BLOCK
  2
*GRP_0025
 70
    65
 10
0.0
 20
0.0
  0
LINE
  8
補助線
  6
BYBLOCK
 62
     0
 10
-46.435405
 20
34.03527
 11
-46.435405
 21
34.28527
  0
LINE
  8
補助線
  6
BYBLOCK
 62
     0
 10
-46.310405
 20
34.16027
 11
-46.560405
 21
34.16027
  0
ENDBLK
  0
BLOCK
  2
*GRP_0026
 70
    65
 10
0.0
 20
0.0
  0
LINE
  8
補助線
  6
BYBLOCK
 62
     0
 10
-85.060405
 20
57.66027
 11
-84.810405
 21
57.66027
  0
LINE
  8
補助線
  6
BYBLOCK
 62
     0
 10
-84.935405
 20
57.78527
 11
-84.935405
 21
57.53527
  0
ENDBLK
  0
BLOCK
  2
*GRP_0027
 70
    65
 10
0.0
 20
0.0
  0
LINE
  8
補助線
  6
BYBLOCK
 62
     0
 10
-70.060405
 20
57.66027
 11
-69.810405
 21
57.66027
  0
LINE
  8
補助線
  6
BYBLOCK
 62
     0
 10
-69.935405
 20
57.78527
 11
-69.935405
 21
57.53527
  0
ENDBLK
  0
BLOCK
  2
*GRP_0028
 70
    65
 10
0.0
 20
0.0
  0
LINE
  8
補助線
  6
BYBLOCK
 62
     0
 10
-93.435405
 20
49.28527
 11
-93.435405
 21
49.03527
  0
LINE
  8
補助線
  6
BYBLOCK
 62
     0
 10
-93.560405
 20
49.16027
 11
-93.310405
 21
49.16027
  0
ENDBLK
  0
BLOCK
  2
*GRP_0029
 70
    65
 10
0.0
 20
0.0
  0
LINE
  8
補助線
  6
BYBLOCK
 62
     0
 10
-54.810405
 20
57.66027
 11
-55.060405
 21
57.66027
  0
LINE
  8
補助線
  6
BYBLOCK
 62
     0
 10
-54.935405
 20
57.78527
 11
-54.935405
 21
57.53527
  0
ENDBLK
  0
BLOCK
  2
*GRP_0030
 70
    65
 10
0.0
 20
0.0
  0
LINE
  8
補助線
  6
BYBLOCK
 62
     0
 10
-46.435405
 20
49.28527
 11
-46.435405
 21
49.03527
  0
LINE
  8
補助線
  6
BYBLOCK
 62
     0
 10
-46.310405
 20
49.16027
 11
-46.560405
 21
49.16027
  0
ENDBLK
  0
BLOCK
  2
*DIM_0031
 70
    65
 10
0.0
 20
0.0
  0
LINE
  8
寸法
  6
CONTINUOUS
 62
     0
 10
-43.935405
 20
-52.279985
 11
-25.043632
 21
-52.279985
  0
LINE
  8
寸法
  6
CONTINUOUS
 62
     0
 10
-43.485405
 20
-62.454912
 11
-25.043632
 21
-62.454912
  0
LINE
  8
寸法
  6
CONTINUOUS
 62
     0
 10
-25.043632
 20
-52.279985
 11
-25.043632
 21
-62.454912
  0
POINT
  8
寸法
 62
     0
 10
-25.043632
 20
-52.279985
  0
POINT
  8
寸法
 62
     0
 10
-25.043632
 20
-62.454912
  0
TEXT
  7
TextStyle03
  8
寸法
  6
CONTINUOUS
 62
     0
 10
-25.425
 20
-61.5
  1
203.5
 40
3.0
 50
90.0
 72
     5
 11
-25.425
 21
-53.25
  0
ENDBLK
  0
BLOCK
  2
*DIM_0032
 70
    65
 10
0.0
 20
0.0
  0
LINE
  8
寸法
  6
BYBLOCK
 62
     0
 10
-46.435405
 20
56.66027
 11
-30.345905
 21
56.66027
  0
LINE
  8
寸法
  6
BYBLOCK
 62
     0
 10
-38.411528
 20
50.81027
 11
-30.345905
 21
50.81027
  0
LINE
  8
寸法
  6
BYBLOCK
 62
     0
 10
-30.345905
 20
56.66027
 11
-30.345905
 21
50.81027
  0
POINT
  8
寸法
 62
     0
 10
-30.345905
 20
56.66027
  0
POINT
  8
寸法
 62
     0
 10
-30.345905
 20
50.81027
  0
TEXT
  7
TextStyle03
  8
寸法
  6
CONTINUOUS
 62
     0
 10
-30.725
 20
51.2625
  1
117
 40
3.0
 50
90.0
 72
     5
 11
-30.725
 21
56.1375
  0
ENDBLK
  0
BLOCK
  2
*DIM_0033
 70
    65
 10
0.0
 20
0.0
  0
LINE
  8
寸法
  6
BYBLOCK
 62
     0
 10
-46.435405
 20
11.66027
 11
-30.345905
 21
11.66027
  0
LINE
  8
寸法
  6
BYBLOCK
 62
     0
 10
-38.411528
 20
17.51027
 11
-30.345905
 21
17.51027
  0
LINE
  8
寸法
  6
BYBLOCK
 62
     0
 10
-30.345905
 20
11.66027
 11
-30.345905
 21
17.51027
  0
POINT
  8
寸法
 62
     0
 10
-30.345905
 20
11.66027
  0
POINT
  8
寸法
 62
     0
 10
-30.345905
 20
17.51027
  0
TEXT
  7
TextStyle03
  8
寸法
  6
CONTINUOUS
 62
     0
 10
-30.725
 20
12.1375
  1
117
 40
3.0
 50
90.0
 72
     5
 11
-30.725
 21
17.0125
  0
ENDBLK
  0
BLOCK
  2
*DIM_0034
 70
    65
 10
0.0
 20
0.0
  0
LINE
  8
寸法
  6
BYBLOCK
 62
     0
 10
-92.435405
 20
-20.114937
 11
-47.435405
 21
-20.114937
  0
POINT
  8
寸法
 62
     0
 10
-92.435405
 20
-20.114937
  0
POINT
  8
寸法
 62
     0
 10
-47.435405
 20
-20.114937
  0
TEXT
  7
TextStyle03
  8
寸法
  6
CONTINUOUS
 62
     0
 10
-80.825
 20
-19.75
  1
呼称寸法　900
 40
3.0
 72
     5
 11
-59.075
 21
-19.75
  0
ENDBLK
  0
BLOCK
  2
*DIM_0035
 70
    65
 10
0.0
 20
0.0
  0
LINE
  8
寸法
  6
BYBLOCK
 62
     0
 10
-44.015405
 20
-57.01395
 11
-44.015405
 21
-20.114937
  0
LINE
  8
寸法
  6
BYBLOCK
 62
     0
 10
-47.435405
 20
-20.114937
 11
-44.015405
 21
-20.114937
  0
POINT
  8
寸法
 62
     0
 10
-44.015405
 20
-20.114937
  0
TEXT
  7
TextStyle03
  8
寸法
  6
CONTINUOUS
 62
     0
 10
-42.28125
 20
-19.75
  1
68.4
 40
3.0
 72
     5
 11
-35.71875
 21
-19.75
  0
ENDBLK
  0
BLOCK
  2
*DIM_0036
 70
    65
 10
0.0
 20
0.0
  0
LINE
  8
寸法
  6
BYBLOCK
 62
     0
 10
-95.855405
 20
-57.01395
 11
-95.855405
 21
-20.114937
  0
LINE
  8
寸法
  6
BYBLOCK
 62
     0
 10
-92.435405
 20
-20.114937
 11
-95.855405
 21
-20.114937
  0
POINT
  8
寸法
 62
     0
 10
-92.435405
 20
-20.114937
  0
POINT
  8
寸法
 62
     0
 10
-95.855405
 20
-20.114937
  0
TEXT
  7
TextStyle03
  8
寸法
  6
CONTINUOUS
 62
     0
 10
-104.18125
 20
-19.75
  1
68.4
 40
3.0
 72
     5
 11
-97.61875
 21
-19.75
  0
ENDBLK
  0
BLOCK
  2
*GRP_0037
 70
    65
 10
0.0
 20
0.0
  0
LINE
  8
補助線
  6
BYBLOCK
 62
    64
 10
95.139732
 20
-59.973793
 11
95.363118
 21
-60.086032
  0
LINE
  8
補助線
  6
BYBLOCK
 62
    64
 10
95.307545
 20
-59.91822
 11
95.195305
 21
-60.141605
  0
LINE
  8
補助線
  6
BYBLOCK
 62
    64
 10
80.485373
 20
-52.611072
 11
80.26198
 21
-52.498833
  0
LINE
  8
補助線
  6
BYBLOCK
 62
    64
 10
80.429793
 20
-52.443255
 11
80.317557
 21
-52.666645
  0
LINE
  8
補助線
  6
BYBLOCK
 62
    64
 10
65.607582
 20
-45.136182
 11
65.384193
 21
-45.02395
  0
LINE
  8
補助線
  6
BYBLOCK
 62
    64
 10
65.552005
 20
-44.96837
 11
65.43977
 21
-45.19176
  0
LINE
  8
型材断面
  6
CONTINUOUS
 10
96.259388
 20
-59.137438
 11
96.592845
 21
-60.144315
  0
LINE
  8
型材断面
  6
CONTINUOUS
 10
96.592845
 20
-60.144315
 11
96.1439
 21
-61.037875
  0
LINE
  8
型材断面
  6
CONTINUOUS
 10
96.1439
 20
-61.037875
 11
95.137023
 21
-61.371332
  0
LINE
  8
型材断面
  6
CONTINUOUS
 10
65.610282
 20
-43.738642
 11
64.60341
 21
-44.072108
  0
LINE
  8
型材断面
  6
CONTINUOUS
 10
64.60341
 20
-44.072108
 11
64.154463
 21
-44.96567
  0
LINE
  8
型材断面
  6
CONTINUOUS
 10
64.154463
 20
-44.96567
 11
64.48793
 21
-45.972545
  0
LINE
  8
型材断面
  6
CONTINUOUS
 10
96.259388
 20
-59.137438
 11
65.610398
 21
-43.738602
  0
LINE
  8
型材断面
  6
CONTINUOUS
 10
95.137023
 20
-61.371332
 11
64.487895
 21
-45.972437
  0
LINE
  8
ボルト／ビス
  6
CONTINUOUS
 62
    64
 10
95.458783
 20
-59.617195
 11
95.712528
 21
-60.003132
  0
LINE
  8
ボルト／ビス
  6
CONTINUOUS
 62
    64
 10
95.458783
 20
-59.617195
 11
94.997682
 21
-59.643977
  0
LINE
  8
ボルト／ビス
  6
CONTINUOUS
 62
    64
 10
95.044067
 20
-60.44263
 11
95.505168
 21
-60.415848
  0
LINE
  8
ボルト／ビス
  6
CONTINUOUS
 62
    64
 10
95.044067
 20
-60.44263
 11
94.790323
 21
-60.056693
  0
CIRCLE
  8
ボルト／ビス
  6
CONTINUOUS
 62
    64
 10
95.251425
 20
-60.029912
 40
0.4
  0
LINE
  8
ボルト／ビス
  6
CONTINUOUS
 62
    64
 10
94.997682
 20
-59.643977
 11
94.790323
 21
-60.056693
  0
LINE
  8
ボルト／ビス
  6
CONTINUOUS
 62
    64
 10
95.712528
 20
-60.003132
 11
95.505168
 21
-60.415848
  0
LINE
  8
ボルト／ビス
  6
CONTINUOUS
 62
    64
 10
80.581035
 20
-52.142235
 11
80.11993
 21
-52.169013
  0
LINE
  8
ボルト／ビス
  6
CONTINUOUS
 62
    64
 10
80.581035
 20
-52.142235
 11
80.83478
 21
-52.52817
  0
LINE
  8
ボルト／ビス
  6
CONTINUOUS
 62
    64
 10
80.166315
 20
-52.967667
 11
79.912572
 21
-52.581733
  0
LINE
  8
ボルト／ビス
  6
CONTINUOUS
 62
    64
 10
80.166315
 20
-52.967667
 11
80.627418
 21
-52.940888
  0
CIRCLE
  8
ボルト／ビス
  6
CONTINUOUS
 62
    64
 10
80.373673
 20
-52.554953
 40
0.4
  0
LINE
  8
ボルト／ビス
  6
CONTINUOUS
 62
    64
 10
80.83478
 20
-52.52817
 11
80.627418
 21
-52.940888
  0
LINE
  8
ボルト／ビス
  6
CONTINUOUS
 62
    64
 10
80.11993
 20
-52.169013
 11
79.912572
 21
-52.581733
  0
LINE
  8
ボルト／ビス
  6
CONTINUOUS
 62
    64
 10
65.703245
 20
-44.667345
 11
65.24214
 21
-44.694128
  0
LINE
  8
ボルト／ビス
  6
CONTINUOUS
 62
    64
 10
65.703245
 20
-44.667345
 11
65.956987
 21
-45.053283
  0
LINE
  8
ボルト／ビス
  6
CONTINUOUS
 62
    64
 10
65.288528
 20
-45.492782
 11
65.034785
 21
-45.106845
  0
LINE
  8
ボルト／ビス
  6
CONTINUOUS
 62
    64
 10
65.288528
 20
-45.492782
 11
65.749635
 21
-45.466
  0
CIRCLE
  8
ボルト／ビス
  6
CONTINUOUS
 62
    64
 10
65.49589
 20
-45.080065
 40
0.4
  0
LINE
  8
ボルト／ビス
  6
CONTINUOUS
 62
    64
 10
65.956987
 20
-45.053283
 11
65.749635
 21
-45.466
  0
LINE
  8
ボルト／ビス
  6
CONTINUOUS
 62
    64
 10
65.24214
 20
-44.694128
 11
65.034785
 21
-45.106845
  0
ENDBLK
  0
BLOCK
  2
*GRP_0038
 70
    65
 10
0.0
 20
0.0
  0
LINE
  8
補助線
  6
BYBLOCK
 62
    64
 10
65.607618
 20
-59.973793
 11
65.384232
 21
-60.086032
  0
LINE
  8
補助線
  6
BYBLOCK
 62
    64
 10
65.439805
 20
-59.91822
 11
65.552045
 21
-60.141605
  0
LINE
  8
補助線
  6
BYBLOCK
 62
    64
 10
80.261977
 20
-52.611072
 11
80.48537
 21
-52.498833
  0
LINE
  8
補助線
  6
BYBLOCK
 62
    64
 10
80.317557
 20
-52.443255
 11
80.429793
 21
-52.666645
  0
LINE
  8
補助線
  6
BYBLOCK
 62
    64
 10
95.139768
 20
-45.136182
 11
95.363157
 21
-45.02395
  0
LINE
  8
補助線
  6
BYBLOCK
 62
    64
 10
95.195345
 20
-44.96837
 11
95.30758
 21
-45.19176
  0
LINE
  8
型材断面
  6
CONTINUOUS
 10
64.487962
 20
-59.137438
 11
64.154505
 21
-60.144315
  0
LINE
  8
型材断面
  6
CONTINUOUS
 10
64.154505
 20
-60.144315
 11
64.60345
 21
-61.037875
  0
LINE
  8
型材断面
  6
CONTINUOUS
 10
64.60345
 20
-61.037875
 11
65.610327
 21
-61.371332
  0
LINE
  8
型材断面
  6
CONTINUOUS
 10
95.137068
 20
-43.738642
 11
96.14394
 21
-44.072108
  0
LINE
  8
型材断面
  6
CONTINUOUS
 10
96.14394
 20
-44.072108
 11
96.592887
 21
-44.96567
  0
LINE
  8
型材断面
  6
CONTINUOUS
 10
96.592887
 20
-44.96567
 11
96.25942
 21
-45.972545
  0
LINE
  8
型材断面
  6
CONTINUOUS
 10
64.487962
 20
-59.137438
 11
95.136953
 21
-43.738602
  0
LINE
  8
型材断面
  6
CONTINUOUS
 10
65.610327
 20
-61.371332
 11
96.259455
 21
-45.972437
  0
LINE
  8
ボルト／ビス
  6
CONTINUOUS
 62
    64
 10
65.288567
 20
-59.617195
 11
65.034822
 21
-60.003132
  0
LINE
  8
ボルト／ビス
  6
CONTINUOUS
 62
    64
 10
65.288567
 20
-59.617195
 11
65.749668
 21
-59.643977
  0
LINE
  8
ボルト／ビス
  6
CONTINUOUS
 62
    64
 10
65.703283
 20
-60.44263
 11
65.242182
 21
-60.415848
  0
LINE
  8
ボルト／ビス
  6
CONTINUOUS
 62
    64
 10
65.703283
 20
-60.44263
 11
65.957028
 21
-60.056693
  0
CIRCLE
  8
ボルト／ビス
  6
CONTINUOUS
 62
    64
 10
65.495925
 20
-60.029912
 40
0.4
  0
LINE
  8
ボルト／ビス
  6
CONTINUOUS
 62
    64
 10
65.749668
 20
-59.643977
 11
65.957028
 21
-60.056693
  0
LINE
  8
ボルト／ビス
  6
CONTINUOUS
 62
    64
 10
65.034822
 20
-60.003132
 11
65.242182
 21
-60.415848
  0
LINE
  8
ボルト／ビス
  6
CONTINUOUS
 62
    64
 10
80.166315
 20
-52.142235
 11
80.62742
 21
-52.169013
  0
LINE
  8
ボルト／ビス
  6
CONTINUOUS
 62
    64
 10
80.166315
 20
-52.142235
 11
79.91257
 21
-52.52817
  0
LINE
  8
ボルト／ビス
  6
CONTINUOUS
 62
    64
 10
80.581035
 20
-52.967667
 11
80.834778
 21
-52.581733
  0
LINE
  8
ボルト／ビス
  6
CONTINUOUS
 62
    64
 10
80.581035
 20
-52.967667
 11
80.119932
 21
-52.940888
  0
CIRCLE
  8
ボルト／ビス
  6
CONTINUOUS
 62
    64
 10
80.373677
 20
-52.554953
 40
0.4
  0
LINE
  8
ボルト／ビス
  6
CONTINUOUS
 62
    64
 10
79.91257
 20
-52.52817
 11
80.119932
 21
-52.940888
  0
LINE
  8
ボルト／ビス
  6
CONTINUOUS
 62
    64
 10
80.62742
 20
-52.169013
 11
80.834778
 21
-52.581733
  0
LINE
  8
ボルト／ビス
  6
CONTINUOUS
 62
    64
 10
95.044105
 20
-44.667345
 11
95.50521
 21
-44.694128
  0
LINE
  8
ボルト／ビス
  6
CONTINUOUS
 62
    64
 10
95.044105
 20
-44.667345
 11
94.790363
 21
-45.053283
  0
LINE
  8
ボルト／ビス
  6
CONTINUOUS
 62
    64
 10
95.458822
 20
-45.492782
 11
95.712565
 21
-45.106845
  0
LINE
  8
ボルト／ビス
  6
CONTINUOUS
 62
    64
 10
95.458822
 20
-45.492782
 11
94.997715
 21
-45.466
  0
CIRCLE
  8
ボルト／ビス
  6
CONTINUOUS
 62
    64
 10
95.25146
 20
-45.080065
 40
0.4
  0
LINE
  8
ボルト／ビス
  6
CONTINUOUS
 62
    64
 10
94.790363
 20
-45.053283
 11
94.997715
 21
-45.466
  0
LINE
  8
ボルト／ビス
  6
CONTINUOUS
 62
    64
 10
95.50521
 20
-44.694128
 11
95.712565
 21
-45.106845
  0
ENDBLK
  0
BLOCK
  2
*DIM_0039
 70
    65
 10
0.0
 20
0.0
  0
LINE
  8
寸法
  6
BYBLOCK
 62
     0
 10
170.304785
 20
74.557477
 11
179.967098
 21
74.557477
  0
LINE
  8
寸法
  6
BYBLOCK
 62
     0
 10
170.304785
 20
30.557477
 11
179.967098
 21
30.557477
  0
LINE
  8
寸法
  6
BYBLOCK
 62
     0
 10
179.967098
 20
74.557477
 11
179.967098
 21
30.557477
  0
POINT
  8
寸法
 62
     0
 10
179.967098
 20
74.557477
  0
POINT
  8
寸法
 62
     0
 10
179.967098
 20
30.557477
  0
TEXT
  7
TextStyle03
  8
寸法
  6
CONTINUOUS
 62
     0
 10
179.575
 20
50.1125
  1
880
 40
3.0
 50
90.0
 72
     5
 11
179.575
 21
54.9875
  0
ENDBLK
  0
BLOCK
  2
*DIM_0040
 70
    65
 10
0.0
 20
0.0
  0
LINE
  8
寸法
  6
BYBLOCK
 62
     0
 10
123.304785
 20
77.557477
 11
123.304785
 21
85.30483
  0
LINE
  8
寸法
  6
BYBLOCK
 62
     0
 10
167.304785
 20
77.557477
 11
167.304785
 21
85.30483
  0
LINE
  8
寸法
  6
BYBLOCK
 62
     0
 10
123.304785
 20
85.30483
 11
167.304785
 21
85.30483
  0
POINT
  8
寸法
 62
     0
 10
123.304785
 20
85.30483
  0
POINT
  8
寸法
 62
     0
 10
167.304785
 20
85.30483
  0
TEXT
  7
TextStyle03
  8
寸法
  6
CONTINUOUS
 62
     0
 10
142.8625
 20
85.675
  1
880
 40
3.0
 72
     5
 11
147.7375
 21
85.675
  0
ENDBLK
  0
BLOCK
  2
*GRP_0042
 70
    65
 10
0.0
 20
0.0
  0
LINE
  8
ボルト／ビス
  6
CONTINUOUS
 10
-93.435405
 20
-52.279987
 11
-93.435405
 21
-51.579987
  0
LINE
  8
ボルト／ビス
  6
CONTINUOUS
 10
-93.985405
 20
-52.279987
 11
-93.985405
 21
-52.179987
  0
LINE
  8
ボルト／ビス
  6
CONTINUOUS
 10
-93.985405
 20
-52.179987
 11
-92.885405
 21
-52.179987
  0
LINE
  8
ボルト／ビス
  6
CONTINUOUS
 10
-92.885405
 20
-52.179987
 11
-92.885405
 21
-52.279987
  0
LINE
  8
ボルト／ビス
  6
CONTINUOUS
 10
-93.985405
 20
-52.279987
 11
-92.885405
 21
-52.279987
  0
LINE
  8
ボルト／ビス
  6
CONTINUOUS
 10
-93.885405
 20
-52.129987
 11
-93.885405
 21
-52.179987
  0
LINE
  8
ボルト／ビス
  6
CONTINUOUS
 10
-93.885405
 20
-52.129987
 11
-92.985405
 21
-52.129987
  0
LINE
  8
ボルト／ビス
  6
CONTINUOUS
 10
-92.985405
 20
-52.129987
 11
-92.985405
 21
-52.179987
  0
LINE
  8
ボルト／ビス
  6
CONTINUOUS
 62
    64
 10
-93.675968
 20
-51.829987
 11
-93.72408
 21
-51.8475
  0
ARC
  8
ボルト／ビス
  6
CONTINUOUS
 62
    64
 10
-93.651912
 20
-51.987455
 40
0.157468
 50
62.721967
 51
90.0
  0
ARC
  8
ボルト／ビス
  6
CONTINUOUS
 62
    64
 10
-93.435406
 20
-52.433591
 40
0.603603
 50
76.165002
 51
103.834985
  0
LINE
  8
ボルト／ビス
  6
CONTINUOUS
 62
    64
 10
-93.194842
 20
-51.829987
 11
-93.14673
 21
-51.8475
  0
ARC
  8
ボルト／ビス
  6
CONTINUOUS
 62
    64
 10
-93.2189
 20
-51.987455
 40
0.157468
 50
90.0
 51
117.278033
  0
LINE
  8
ボルト／ビス
  6
CONTINUOUS
 62
    64
 10
-93.675968
 20
-51.829987
 11
-93.194842
 21
-51.829987
  0
LINE
  8
ボルト／ビス
  6
CONTINUOUS
 62
    64
 10
-93.14673
 20
-51.8475
 11
-93.14673
 21
-52.029987
  0
LINE
  8
ボルト／ビス
  6
CONTINUOUS
 62
    64
 10
-93.291068
 20
-51.8475
 11
-93.291068
 21
-52.029987
  0
LINE
  8
ボルト／ビス
  6
CONTINUOUS
 62
    64
 10
-93.72408
 20
-51.8475
 11
-93.72408
 21
-52.029987
  0
LINE
  8
ボルト／ビス
  6
CONTINUOUS
 62
    64
 10
-93.579742
 20
-51.8475
 11
-93.579742
 21
-52.029987
  0
LINE
  8
ボルト／ビス
  6
CONTINUOUS
 10
-93.72408
 20
-52.029987
 11
-93.14673
 21
-52.029987
  0
LINE
  8
ボルト／ビス
  6
CONTINUOUS
 10
-93.735405
 20
-52.029987
 11
-93.735405
 21
-52.129987
  0
LINE
  8
ボルト／ビス
  6
CONTINUOUS
 10
-93.735405
 20
-52.029987
 11
-93.135405
 21
-52.029987
  0
LINE
  8
ボルト／ビス
  6
CONTINUOUS
 10
-93.135405
 20
-52.029987
 11
-93.135405
 21
-52.129987
  0
ENDBLK
  0
BLOCK
  2
*GRP_0043
 70
    65
 10
0.0
 20
0.0
  0
LINE
  8
ボルト／ビス
  6
CONTINUOUS
 10
-46.435405
 20
-52.279987
 11
-46.435405
 21
-51.579987
  0
LINE
  8
ボルト／ビス
  6
CONTINUOUS
 10
-46.985405
 20
-52.279987
 11
-46.985405
 21
-52.179987
  0
LINE
  8
ボルト／ビス
  6
CONTINUOUS
 10
-46.985405
 20
-52.179987
 11
-45.885405
 21
-52.179987
  0
LINE
  8
ボルト／ビス
  6
CONTINUOUS
 10
-45.885405
 20
-52.179987
 11
-45.885405
 21
-52.279987
  0
LINE
  8
ボルト／ビス
  6
CONTINUOUS
 10
-46.985405
 20
-52.279987
 11
-45.885405
 21
-52.279987
  0
LINE
  8
ボルト／ビス
  6
CONTINUOUS
 10
-46.885405
 20
-52.129987
 11
-46.885405
 21
-52.179987
  0
LINE
  8
ボルト／ビス
  6
CONTINUOUS
 10
-46.885405
 20
-52.129987
 11
-45.985405
 21
-52.129987
  0
LINE
  8
ボルト／ビス
  6
CONTINUOUS
 10
-45.985405
 20
-52.129987
 11
-45.985405
 21
-52.179987
  0
LINE
  8
ボルト／ビス
  6
CONTINUOUS
 62
    64
 10
-46.675968
 20
-51.829987
 11
-46.72408
 21
-51.8475
  0
ARC
  8
ボルト／ビス
  6
CONTINUOUS
 62
    64
 10
-46.651911
 20
-51.987455
 40
0.157468
 50
62.721967
 51
90.0
  0
ARC
  8
ボルト／ビス
  6
CONTINUOUS
 62
    64
 10
-46.435405
 20
-52.433591
 40
0.603603
 50
76.165002
 51
103.834985
  0
LINE
  8
ボルト／ビス
  6
CONTINUOUS
 62
    64
 10
-46.194842
 20
-51.829987
 11
-46.14673
 21
-51.8475
  0
ARC
  8
ボルト／ビス
  6
CONTINUOUS
 62
    64
 10
-46.218899
 20
-51.987455
 40
0.157468
 50
90.0
 51
117.278033
  0
LINE
  8
ボルト／ビス
  6
CONTINUOUS
 62
    64
 10
-46.675968
 20
-51.829987
 11
-46.194842
 21
-51.829987
  0
LINE
  8
ボルト／ビス
  6
CONTINUOUS
 62
    64
 10
-46.14673
 20
-51.8475
 11
-46.14673
 21
-52.029987
  0
LINE
  8
ボルト／ビス
  6
CONTINUOUS
 62
    64
 10
-46.291068
 20
-51.8475
 11
-46.291068
 21
-52.029987
  0
LINE
  8
ボルト／ビス
  6
CONTINUOUS
 62
    64
 10
-46.72408
 20
-51.8475
 11
-46.72408
 21
-52.029987
  0
LINE
  8
ボルト／ビス
  6
CONTINUOUS
 62
    64
 10
-46.579742
 20
-51.8475
 11
-46.579742
 21
-52.029987
  0
LINE
  8
ボルト／ビス
  6
CONTINUOUS
 10
-46.72408
 20
-52.029987
 11
-46.14673
 21
-52.029987
  0
LINE
  8
ボルト／ビス
  6
CONTINUOUS
 10
-46.735405
 20
-52.029987
 11
-46.735405
 21
-52.129987
  0
LINE
  8
ボルト／ビス
  6
CONTINUOUS
 10
-46.735405
 20
-52.029987
 11
-46.135405
 21
-52.029987
  0
LINE
  8
ボルト／ビス
  6
CONTINUOUS
 10
-46.135405
 20
-52.029987
 11
-46.135405
 21
-52.129987
  0
ENDBLK
  0
BLOCK
  2
*GRP_0044
 70
    65
 10
0.0
 20
0.0
  0
LINE
  8
ボルト／ビス
  6
CONTINUOUS
 10
51.251423
 20
-52.279987
 11
51.251423
 21
-51.579987
  0
LINE
  8
ボルト／ビス
  6
CONTINUOUS
 10
50.701423
 20
-52.279987
 11
50.701423
 21
-52.179987
  0
LINE
  8
ボルト／ビス
  6
CONTINUOUS
 10
50.701423
 20
-52.179987
 11
51.801423
 21
-52.179987
  0
LINE
  8
ボルト／ビス
  6
CONTINUOUS
 10
51.801423
 20
-52.179987
 11
51.801423
 21
-52.279987
  0
LINE
  8
ボルト／ビス
  6
CONTINUOUS
 10
50.701423
 20
-52.279987
 11
51.801423
 21
-52.279987
  0
LINE
  8
ボルト／ビス
  6
CONTINUOUS
 10
50.801423
 20
-52.129987
 11
50.801423
 21
-52.179987
  0
LINE
  8
ボルト／ビス
  6
CONTINUOUS
 10
50.801423
 20
-52.129987
 11
51.701423
 21
-52.129987
  0
LINE
  8
ボルト／ビス
  6
CONTINUOUS
 10
51.701423
 20
-52.129987
 11
51.701423
 21
-52.179987
  0
LINE
  8
ボルト／ビス
  6
CONTINUOUS
 62
    64
 10
51.01086
 20
-51.829987
 11
50.962747
 21
-51.8475
  0
ARC
  8
ボルト／ビス
  6
CONTINUOUS
 62
    64
 10
51.034916
 20
-51.987454
 40
0.157468
 50
62.721967
 51
90.0
  0
ARC
  8
ボルト／ビス
  6
CONTINUOUS
 62
    64
 10
51.251422
 20
-52.43359
 40
0.603603
 50
76.165002
 51
103.834985
  0
LINE
  8
ボルト／ビス
  6
CONTINUOUS
 62
    64
 10
51.491985
 20
-51.829987
 11
51.540098
 21
-51.8475
  0
ARC
  8
ボルト／ビス
  6
CONTINUOUS
 62
    64
 10
51.467929
 20
-51.987454
 40
0.157468
 50
90.0
 51
117.278033
  0
LINE
  8
ボルト／ビス
  6
CONTINUOUS
 62
    64
 10
51.01086
 20
-51.829987
 11
51.491985
 21
-51.829987
  0
LINE
  8
ボルト／ビス
  6
CONTINUOUS
 62
    64
 10
51.540098
 20
-51.8475
 11
51.540098
 21
-52.029987
  0
LINE
  8
ボルト／ビス
  6
CONTINUOUS
 62
    64
 10
51.39576
 20
-51.8475
 11
51.39576
 21
-52.029987
  0
LINE
  8
ボルト／ビス
  6
CONTINUOUS
 62
    64
 10
50.962747
 20
-51.8475
 11
50.962747
 21
-52.029987
  0
LINE
  8
ボルト／ビス
  6
CONTINUOUS
 62
    64
 10
51.107085
 20
-51.8475
 11
51.107085
 21
-52.029987
  0
LINE
  8
ボルト／ビス
  6
CONTINUOUS
 10
50.962747
 20
-52.029987
 11
51.540098
 21
-52.029987
  0
LINE
  8
ボルト／ビス
  6
CONTINUOUS
 10
50.951423
 20
-52.029987
 11
50.951423
 21
-52.129987
  0
LINE
  8
ボルト／ビス
  6
CONTINUOUS
 10
50.951423
 20
-52.029987
 11
51.551423
 21
-52.029987
  0
LINE
  8
ボルト／ビス
  6
CONTINUOUS
 10
51.551423
 20
-52.029987
 11
51.551423
 21
-52.129987
  0
ENDBLK
  0
BLOCK
  2
*GRP_0045
 70
    65
 10
0.0
 20
0.0
  0
LINE
  8
ボルト／ビス
  6
CONTINUOUS
 10
98.251423
 20
-52.279987
 11
98.251423
 21
-51.579987
  0
LINE
  8
ボルト／ビス
  6
CONTINUOUS
 10
97.701423
 20
-52.279987
 11
97.701423
 21
-52.179987
  0
LINE
  8
ボルト／ビス
  6
CONTINUOUS
 10
97.701423
 20
-52.179987
 11
98.801423
 21
-52.179987
  0
LINE
  8
ボルト／ビス
  6
CONTINUOUS
 10
98.801423
 20
-52.179987
 11
98.801423
 21
-52.279987
  0
LINE
  8
ボルト／ビス
  6
CONTINUOUS
 10
97.701423
 20
-52.279987
 11
98.801423
 21
-52.279987
  0
LINE
  8
ボルト／ビス
  6
CONTINUOUS
 10
97.801423
 20
-52.129987
 11
97.801423
 21
-52.179987
  0
LINE
  8
ボルト／ビス
  6
CONTINUOUS
 10
97.801423
 20
-52.129987
 11
98.701423
 21
-52.129987
  0
LINE
  8
ボルト／ビス
  6
CONTINUOUS
 10
98.701423
 20
-52.129987
 11
98.701423
 21
-52.179987
  0
LINE
  8
ボルト／ビス
  6
CONTINUOUS
 62
    64
 10
98.01086
 20
-51.829987
 11
97.962747
 21
-51.8475
  0
ARC
  8
ボルト／ビス
  6
CONTINUOUS
 62
    64
 10
98.034916
 20
-51.987454
 40
0.157468
 50
62.721967
 51
90.0
  0
ARC
  8
ボルト／ビス
  6
CONTINUOUS
 62
    64
 10
98.251422
 20
-52.43359
 40
0.603603
 50
76.165002
 51
103.834985
  0
LINE
  8
ボルト／ビス
  6
CONTINUOUS
 62
    64
 10
98.491985
 20
-51.829987
 11
98.540098
 21
-51.8475
  0
ARC
  8
ボルト／ビス
  6
CONTINUOUS
 62
    64
 10
98.467929
 20
-51.987454
 40
0.157468
 50
90.0
 51
117.278033
  0
LINE
  8
ボルト／ビス
  6
CONTINUOUS
 62
    64
 10
98.01086
 20
-51.829987
 11
98.491985
 21
-51.829987
  0
LINE
  8
ボルト／ビス
  6
CONTINUOUS
 62
    64
 10
98.540098
 20
-51.8475
 11
98.540098
 21
-52.029987
  0
LINE
  8
ボルト／ビス
  6
CONTINUOUS
 62
    64
 10
98.39576
 20
-51.8475
 11
98.39576
 21
-52.029987
  0
LINE
  8
ボルト／ビス
  6
CONTINUOUS
 62
    64
 10
97.962747
 20
-51.8475
 11
97.962747
 21
-52.029987
  0
LINE
  8
ボルト／ビス
  6
CONTINUOUS
 62
    64
 10
98.107085
 20
-51.8475
 11
98.107085
 21
-52.029987
  0
LINE
  8
ボルト／ビス
  6
CONTINUOUS
 10
97.962747
 20
-52.029987
 11
98.540098
 21
-52.029987
  0
LINE
  8
ボルト／ビス
  6
CONTINUOUS
 10
97.951423
 20
-52.029987
 11
97.951423
 21
-52.129987
  0
LINE
  8
ボルト／ビス
  6
CONTINUOUS
 10
97.951423
 20
-52.029987
 11
98.551423
 21
-52.029987
  0
LINE
  8
ボルト／ビス
  6
CONTINUOUS
 10
98.551423
 20
-52.029987
 11
98.551423
 21
-52.129987
  0
ENDBLK
  0
BLOCK
  2
*GRP_0046
 70
    65
 10
0.0
 20
0.0
  0
LINE
  8
型材断面
  6
DOT
 62
    47
 10
50.156423
 20
-46.254912
 11
51.326423
 21
-46.254912
  0
LINE
  8
型材断面
  6
DOT
 10
50.006423
 20
-43.504912
 11
50.006423
 21
-42.829912
  0
LINE
  8
型材断面
  6
DOT
 62
    47
 10
48.831423
 20
-47.51395
 11
48.831423
 21
-47.01395
  0
LINE
  8
型材断面
  6
DOT
 62
    47
 10
48.831423
 20
-47.01395
 11
50.006423
 21
-46.86395
  0
LINE
  8
型材断面
  6
DOT
 62
    47
 10
50.006423
 20
-46.254912
 11
50.006423
 21
-46.86395
  0
LINE
  8
型材断面
  6
DOT
 62
    47
 10
49.301423
 20
-46.254912
 11
49.301423
 21
-43.504912
  0
LINE
  8
型材断面
  6
DOT
 10
50.006423
 20
-46.86395
 11
74.751423
 21
-46.86395
  0
LINE
  8
型材断面
  6
DOT
 10
48.831423
 20
-47.01395
 11
74.751423
 21
-47.01395
  0
LINE
  8
型材断面
  6
DOT
 62
    47
 10
49.301423
 20
-46.254912
 11
74.751423
 21
-46.254912
  0
LINE
  8
型材断面
  6
DOT
 62
    47
 10
48.831423
 20
-47.51395
 11
74.751423
 21
-47.51395
  0
LINE
  8
型材断面
  6
DOT
 10
49.301423
 20
-43.504912
 11
74.751423
 21
-43.504912
  0
LINE
  8
型材断面
  6
DOT
 10
50.006423
 20
-42.829912
 11
74.751423
 21
-42.829912
  0
LINE
  8
型材断面
  6
DOT
 62
    47
 10
99.346422
 20
-46.254912
 11
98.176423
 21
-46.254912
  0
LINE
  8
型材断面
  6
DOT
 10
99.496422
 20
-43.504912
 11
99.496422
 21
-42.829912
  0
LINE
  8
型材断面
  6
DOT
 62
    47
 10
100.671422
 20
-47.51395
 11
100.671422
 21
-47.01395
  0
LINE
  8
型材断面
  6
DOT
 62
    47
 10
100.671422
 20
-47.01395
 11
99.496422
 21
-46.86395
  0
LINE
  8
型材断面
  6
DOT
 62
    47
 10
99.496422
 20
-46.254912
 11
99.496422
 21
-46.86395
  0
LINE
  8
型材断面
  6
DOT
 62
    47
 10
100.201423
 20
-46.254912
 11
100.201423
 21
-43.504912
  0
LINE
  8
型材断面
  6
DOT
 10
99.496422
 20
-46.86395
 11
74.751423
 21
-46.86395
  0
LINE
  8
型材断面
  6
DOT
 10
100.671422
 20
-47.01395
 11
74.751423
 21
-47.01395
  0
LINE
  8
型材断面
  6
DOT
 62
    47
 10
100.201423
 20
-46.254912
 11
74.751423
 21
-46.254912
  0
LINE
  8
型材断面
  6
DOT
 62
    47
 10
100.671422
 20
-47.51395
 11
74.751423
 21
-47.51395
  0
LINE
  8
型材断面
  6
DOT
 10
100.201423
 20
-43.504912
 11
74.751423
 21
-43.504912
  0
LINE
  8
型材断面
  6
DOT
 10
99.496422
 20
-42.829912
 11
74.751423
 21
-42.829912
  0
LINE
  8
別途部材
  6
DOT
 62
    96
 10
49.751423
 20
-41.279985
 11
49.151423
 21
-42.779985
  0
LINE
  8
別途部材
  6
DOT
 62
    96
 10
49.751423
 20
-41.279985
 11
74.751423
 21
-41.279985
  0
LINE
  8
別途部材
  6
DOT
 10
49.151423
 20
-42.779985
 11
74.751423
 21
-42.779985
  0
LINE
  8
別途部材
  6
DOT
 62
    96
 10
99.751423
 20
-41.279985
 11
100.351423
 21
-42.779985
  0
LINE
  8
別途部材
  6
DOT
 62
    96
 10
99.751423
 20
-41.279985
 11
74.751423
 21
-41.279985
  0
LINE
  8
別途部材
  6
DOT
 10
100.351423
 20
-42.779985
 11
74.751423
 21
-42.779985
  0
ARC
  8
別途部材
  6
DOT
 10
74.751424
 20
-55.279986
 40
26.5
 50
31.890792
 51
148.109208
  0
INSERT
  2
*GRP_0047
  8
別途部材
  6
DOT
 10
0.0
 20
0.0
  0
INSERT
  2
*GRP_0048
  8
別途部材
  6
DOT
 10
0.0
 20
0.0
  0
ENDBLK
  0
BLOCK
  2
*GRP_0047
 70
    65
 10
0.0
 20
0.0
  0
LINE
  8
ボルト／ビス
  6
DOT
 10
51.251423
 20
-41.279987
 11
51.251423
 21
-40.579987
  0
LINE
  8
ボルト／ビス
  6
DOT
 10
50.701423
 20
-41.279987
 11
50.701423
 21
-41.179987
  0
LINE
  8
ボルト／ビス
  6
DOT
 10
50.701423
 20
-41.179987
 11
51.801423
 21
-41.179987
  0
LINE
  8
ボルト／ビス
  6
DOT
 10
51.801423
 20
-41.179987
 11
51.801423
 21
-41.279987
  0
LINE
  8
ボルト／ビス
  6
DOT
 10
50.701423
 20
-41.279987
 11
51.801423
 21
-41.279987
  0
LINE
  8
ボルト／ビス
  6
DOT
 10
50.801423
 20
-41.129987
 11
50.801423
 21
-41.179987
  0
LINE
  8
ボルト／ビス
  6
DOT
 10
50.801423
 20
-41.129987
 11
51.701423
 21
-41.129987
  0
LINE
  8
ボルト／ビス
  6
DOT
 10
51.701423
 20
-41.129987
 11
51.701423
 21
-41.179987
  0
LINE
  8
ボルト／ビス
  6
DOT
 62
    64
 10
51.01086
 20
-40.829987
 11
50.962747
 21
-40.8475
  0
ARC
  8
ボルト／ビス
  6
DOT
 62
    64
 10
51.034916
 20
-40.987455
 40
0.157468
 50
62.721967
 51
90.0
  0
ARC
  8
ボルト／ビス
  6
DOT
 62
    64
 10
51.251422
 20
-41.433591
 40
0.603603
 50
76.165002
 51
103.834985
  0
LINE
  8
ボルト／ビス
  6
DOT
 62
    64
 10
51.491985
 20
-40.829987
 11
51.540098
 21
-40.8475
  0
ARC
  8
ボルト／ビス
  6
DOT
 62
    64
 10
51.467929
 20
-40.987455
 40
0.157468
 50
90.0
 51
117.278033
  0
LINE
  8
ボルト／ビス
  6
DOT
 62
    64
 10
51.01086
 20
-40.829987
 11
51.491985
 21
-40.829987
  0
LINE
  8
ボルト／ビス
  6
DOT
 62
    64
 10
51.540098
 20
-40.8475
 11
51.540098
 21
-41.029987
  0
LINE
  8
ボルト／ビス
  6
DOT
 62
    64
 10
51.39576
 20
-40.8475
 11
51.39576
 21
-41.029987
  0
LINE
  8
ボルト／ビス
  6
DOT
 62
    64
 10
50.962747
 20
-40.8475
 11
50.962747
 21
-41.029987
  0
LINE
  8
ボルト／ビス
  6
DOT
 62
    64
 10
51.107085
 20
-40.8475
 11
51.107085
 21
-41.029987
  0
LINE
  8
ボルト／ビス
  6
DOT
 10
50.962747
 20
-41.029987
 11
51.540098
 21
-41.029987
  0
LINE
  8
ボルト／ビス
  6
DOT
 10
50.951423
 20
-41.029987
 11
50.951423
 21
-41.129987
  0
LINE
  8
ボルト／ビス
  6
DOT
 10
50.951423
 20
-41.029987
 11
51.551423
 21
-41.029987
  0
LINE
  8
ボルト／ビス
  6
DOT
 10
51.551423
 20
-41.029987
 11
51.551423
 21
-41.129987
  0
ENDBLK
  0
BLOCK
  2
*GRP_0048
 70
    65
 10
0.0
 20
0.0
  0
LINE
  8
ボルト／ビス
  6
DOT
 10
98.251423
 20
-41.279987
 11
98.251423
 21
-40.579987
  0
LINE
  8
ボルト／ビス
  6
DOT
 10
97.701423
 20
-41.279987
 11
97.701423
 21
-41.179987
  0
LINE
  8
ボルト／ビス
  6
DOT
 10
97.701423
 20
-41.179987
 11
98.801423
 21
-41.179987
  0
LINE
  8
ボルト／ビス
  6
DOT
 10
98.801423
 20
-41.179987
 11
98.801423
 21
-41.279987
  0
LINE
  8
ボルト／ビス
  6
DOT
 10
97.701423
 20
-41.279987
 11
98.801423
 21
-41.279987
  0
LINE
  8
ボルト／ビス
  6
DOT
 10
97.801423
 20
-41.129987
 11
97.801423
 21
-41.179987
  0
LINE
  8
ボルト／ビス
  6
DOT
 10
97.801423
 20
-41.129987
 11
98.701423
 21
-41.129987
  0
LINE
  8
ボルト／ビス
  6
DOT
 10
98.701423
 20
-41.129987
 11
98.701423
 21
-41.179987
  0
LINE
  8
ボルト／ビス
  6
DOT
 62
    64
 10
98.01086
 20
-40.829987
 11
97.962747
 21
-40.8475
  0
ARC
  8
ボルト／ビス
  6
DOT
 62
    64
 10
98.034916
 20
-40.987455
 40
0.157468
 50
62.721967
 51
90.0
  0
ARC
  8
ボルト／ビス
  6
DOT
 62
    64
 10
98.251422
 20
-41.433591
 40
0.603603
 50
76.165002
 51
103.834985
  0
LINE
  8
ボルト／ビス
  6
DOT
 62
    64
 10
98.491985
 20
-40.829987
 11
98.540098
 21
-40.8475
  0
ARC
  8
ボルト／ビス
  6
DOT
 62
    64
 10
98.467929
 20
-40.987455
 40
0.157468
 50
90.0
 51
117.278033
  0
LINE
  8
ボルト／ビス
  6
DOT
 62
    64
 10
98.01086
 20
-40.829987
 11
98.491985
 21
-40.829987
  0
LINE
  8
ボルト／ビス
  6
DOT
 62
    64
 10
98.540098
 20
-40.8475
 11
98.540098
 21
-41.029987
  0
LINE
  8
ボルト／ビス
  6
DOT
 62
    64
 10
98.39576
 20
-40.8475
 11
98.39576
 21
-41.029987
  0
LINE
  8
ボルト／ビス
  6
DOT
 62
    64
 10
97.962747
 20
-40.8475
 11
97.962747
 21
-41.029987
  0
LINE
  8
ボルト／ビス
  6
DOT
 62
    64
 10
98.107085
 20
-40.8475
 11
98.107085
 21
-41.029987
  0
LINE
  8
ボルト／ビス
  6
DOT
 10
97.962747
 20
-41.029987
 11
98.540098
 21
-41.029987
  0
LINE
  8
ボルト／ビス
  6
DOT
 10
97.951423
 20
-41.029987
 11
97.951423
 21
-41.129987
  0
LINE
  8
ボルト／ビス
  6
DOT
 10
97.951423
 20
-41.029987
 11
98.551423
 21
-41.029987
  0
LINE
  8
ボルト／ビス
  6
DOT
 10
98.551423
 20
-41.029987
 11
98.551423
 21
-41.129987
  0
ENDBLK
  0
BLOCK
  2
*DIM_0049
 70
    65
 10
0.0
 20
0.0
  0
LINE
  8
寸法
  6
BYBLOCK
 62
     0
 10
103.671422
 20
-58.51395
 11
110.453125
 21
-58.51395
  0
LINE
  8
寸法
  6
BYBLOCK
 62
     0
 10
103.671422
 20
-47.51395
 11
110.453125
 21
-47.51395
  0
LINE
  8
寸法
  6
BYBLOCK
 62
     0
 10
110.453125
 20
-58.51395
 11
110.453125
 21
-47.51395
  0
POINT
  8
寸法
 62
     0
 10
110.453125
 20
-58.51395
  0
POINT
  8
寸法
 62
     0
 10
110.453125
 20
-47.51395
  0
TEXT
  7
TextStyle03
  8
寸法
  6
CONTINUOUS
 62
     0
 10
115.775
 20
-62.6125
  1
上昇高さ220
 40
3.0
 50
90.0
 72
     5
 11
115.775
 21
-44.2375
  0
ENDBLK
  0
ENDSEC
  0
SECTION
  2
ENTITIES
  0
POLYLINE
  8
通り芯
  6
CONTINUOUS
 66
     1
 70
     1
  0
VERTEX
  8
通り芯
 10
-210.0
 20
-148.5
  0
VERTEX
  8
通り芯
 10
210.0
 20
-148.5
  0
VERTEX
  8
通り芯
 10
210.0
 20
148.5
  0
VERTEX
  8
通り芯
 10
-210.0
 20
148.5
  0
SEQEND
  0
INSERT
  2
*GRP_0001
  8
型材断面
  6
CONTINUOUS
 10
0.0
 20
0.0
  0
LINE
  8
型材断面
  6
DASHDOT
 10
-69.935405
 20
-67.794
 11
-69.935405
 21
56.66027
  0
LINE
  8
型材断面
  6
DASHDOT
 10
-92.435405
 20
-67.794
 11
-92.435405
 21
56.66027
  0
LINE
  8
型材断面
  6
DASHDOT
 10
-47.435405
 20
-67.794
 11
-47.435405
 21
56.66027
  0
LINE
  8
型材断面
  6
DASHDOT
 10
-92.435405
 20
56.66027
 11
-47.435405
 21
56.66027
  0
LINE
  8
型材断面
  6
DASHDOT
 10
-92.435405
 20
34.16027
 11
-47.435405
 21
34.16027
  0
LINE
  8
型材断面
  6
DASHDOT
 10
-92.435405
 20
11.66027
 11
-47.435405
 21
11.66027
  0
LINE
  8
型材断面
  6
DOT
 10
-51.53765
 20
56.66027
 11
-51.53765
 21
11.66027
  0
LINE
  8
型材断面
  6
DOT
 10
-49.53765
 20
56.66027
 11
-49.53765
 21
11.66027
  0
LINE
  8
型材断面
  6
CONTINUOUS
 10
-69.935405
 20
64.684145
 11
-72.17885
 21
68.569905
  0
LINE
  8
型材断面
  6
CONTINUOUS
 10
-69.935405
 20
64.684145
 11
-67.69196
 21
68.569905
  0
LINE
  8
型材断面
  6
CONTINUOUS
 10
-67.69196
 20
68.569905
 11
-72.17885
 21
68.569905
  0
LINE
  8
型材断面
  6
CONTINUOUS
 10
-69.935405
 20
3.636395
 11
-72.17885
 21
-0.249365
  0
LINE
  8
型材断面
  6
CONTINUOUS
 10
-69.935405
 20
3.636395
 11
-67.69196
 21
-0.249365
  0
LINE
  8
型材断面
  6
CONTINUOUS
 10
-67.69196
 20
-0.249365
 11
-72.17885
 21
-0.249365
  0
LINE
  8
型材断面
  6
CONTINUOUS
 10
-39.41153
 20
34.16027
 11
-35.52577
 21
36.403715
  0
LINE
  8
型材断面
  6
CONTINUOUS
 10
-39.41153
 20
34.16027
 11
-35.52577
 21
31.916825
  0
LINE
  8
型材断面
  6
CONTINUOUS
 10
-35.52577
 20
31.916825
 11
-35.52577
 21
36.403715
  0
LINE
  8
型材断面
  6
CONTINUOUS
 10
-100.45928
 20
34.16027
 11
-104.34504
 21
36.403715
  0
LINE
  8
型材断面
  6
CONTINUOUS
 10
-100.45928
 20
34.16027
 11
-104.34504
 21
31.916825
  0
LINE
  8
型材断面
  6
CONTINUOUS
 10
-104.34504
 20
31.916825
 11
-104.34504
 21
36.403715
  0
LINE
  8
型材断面
  6
CONTINUOUS
 10
-7.342083
 20
5.196457
 11
-9.585527
 21
1.310698
  0
LINE
  8
型材断面
  6
CONTINUOUS
 10
-7.342083
 20
5.196457
 11
-5.098638
 21
1.310698
  0
LINE
  8
型材断面
  6
CONTINUOUS
 10
-5.098638
 20
1.310698
 11
-9.585527
 21
1.310698
  0
LINE
  8
型材断面
  6
CONTINUOUS
 10
-7.342083
 20
-2.49309
 11
-6.447998
 21
-6.37885
  0
LINE
  8
型材断面
  6
CONTINUOUS
 10
-7.342083
 20
-2.49309
 11
-8.236168
 21
-6.37885
  0
LINE
  8
型材断面
  6
CONTINUOUS
 10
-8.236168
 20
-6.37885
 11
-6.447998
 21
-6.37885
  0
LINE
  8
型材断面
  6
CONTINUOUS
 10
-16.375962
 20
-0.097195
 11
36.280717
 21
-0.097195
  0
LINE
  8
型材断面
  6
CONTINUOUS
 10
-16.375962
 20
-11.297188
 11
36.280717
 21
-11.297188
  0
LINE
  8
型材断面
  6
CONTINUOUS
 10
-16.375962
 20
-18.137133
 11
36.280717
 21
-18.137133
  0
LINE
  8
型材断面
  6
DASHDOT
 10
-92.435405
 20
-53.829912
 11
-92.435405
 21
-62.86001
  0
LINE
  8
型材断面
  6
CONTINUOUS
 62
    47
 10
-94.530405
 20
-57.254912
 11
-93.360405
 21
-57.254912
  0
LINE
  8
型材断面
  6
CONTINUOUS
 10
-94.680405
 20
-54.504912
 11
-94.680405
 21
-53.829912
  0
LINE
  8
型材断面
  6
CONTINUOUS
 62
    47
 10
-95.855405
 20
-58.51395
 11
-95.855405
 21
-58.01395
  0
LINE
  8
型材断面
  6
CONTINUOUS
 62
    47
 10
-95.855405
 20
-58.01395
 11
-94.680405
 21
-57.86395
  0
LINE
  8
型材断面
  6
CONTINUOUS
 62
    47
 10
-94.680405
 20
-57.254912
 11
-94.680405
 21
-57.86395
  0
LINE
  8
型材断面
  6
CONTINUOUS
 62
    47
 10
-95.385405
 20
-57.254912
 11
-95.385405
 21
-54.504912
  0
LINE
  8
型材断面
  6
CONTINUOUS
 62
    47
 10
-94.535405
 20
-63.204912
 11
-94.535405
 21
-62.454912
  0
LINE
  8
型材断面
  6
CONTINUOUS
 62
    47
 10
-95.385405
 20
-62.454912
 11
-95.385405
 21
-58.51395
  0
LINE
  8
型材断面
  6
CONTINUOUS
 62
    47
 10
-94.535405
 20
-63.204912
 11
-69.935405
 21
-63.204912
  0
LINE
  8
型材断面
  6
CONTINUOUS
 62
    47
 10
-95.385405
 20
-62.454912
 11
-69.935405
 21
-62.454912
  0
LINE
  8
型材断面
  6
CONTINUOUS
 10
-94.680405
 20
-57.86395
 11
-69.935405
 21
-57.86395
  0
LINE
  8
型材断面
  6
CONTINUOUS
 10
-95.855405
 20
-58.01395
 11
-69.935405
 21
-58.01395
  0
LINE
  8
型材断面
  6
CONTINUOUS
 62
    47
 10
-95.385405
 20
-57.254912
 11
-69.935405
 21
-57.254912
  0
LINE
  8
型材断面
  6
CONTINUOUS
 62
    47
 10
-95.855405
 20
-58.51395
 11
-69.935405
 21
-58.51395
  0
LINE
  8
型材断面
  6
CONTINUOUS
 10
-95.385405
 20
-54.504912
 11
-69.935405
 21
-54.504912
  0
LINE
  8
型材断面
  6
CONTINUOUS
 10
-94.680405
 20
-53.829912
 11
-69.935405
 21
-53.829912
  0
LINE
  8
型材断面
  6
DASHDOT
 10
-47.435405
 20
-53.829912
 11
-47.435405
 21
-62.86001
  0
LINE
  8
型材断面
  6
CONTINUOUS
 62
    47
 10
-45.340405
 20
-57.254912
 11
-46.510405
 21
-57.254912
  0
LINE
  8
型材断面
  6
CONTINUOUS
 10
-45.190405
 20
-54.504912
 11
-45.190405
 21
-53.829912
  0
LINE
  8
型材断面
  6
CONTINUOUS
 62
    47
 10
-44.015405
 20
-58.51395
 11
-44.015405
 21
-58.01395
  0
LINE
  8
型材断面
  6
CONTINUOUS
 62
    47
 10
-44.015405
 20
-58.01395
 11
-45.190405
 21
-57.86395
  0
LINE
  8
型材断面
  6
CONTINUOUS
 62
    47
 10
-45.190405
 20
-57.254912
 11
-45.190405
 21
-57.86395
  0
LINE
  8
型材断面
  6
CONTINUOUS
 62
    47
 10
-44.485405
 20
-57.254912
 11
-44.485405
 21
-54.504912
  0
LINE
  8
型材断面
  6
CONTINUOUS
 62
    47
 10
-45.335405
 20
-63.204912
 11
-45.335405
 21
-62.454912
  0
LINE
  8
型材断面
  6
CONTINUOUS
 62
    47
 10
-44.485405
 20
-62.454912
 11
-44.485405
 21
-58.51395
  0
LINE
  8
型材断面
  6
CONTINUOUS
 62
    47
 10
-45.335405
 20
-63.204912
 11
-69.935405
 21
-63.204912
  0
LINE
  8
型材断面
  6
CONTINUOUS
 62
    47
 10
-44.485405
 20
-62.454912
 11
-69.935405
 21
-62.454912
  0
LINE
  8
型材断面
  6
CONTINUOUS
 10
-45.190405
 20
-57.86395
 11
-69.935405
 21
-57.86395
  0
LINE
  8
型材断面
  6
CONTINUOUS
 10
-44.015405
 20
-58.01395
 11
-69.935405
 21
-58.01395
  0
LINE
  8
型材断面
  6
CONTINUOUS
 62
    47
 10
-44.485405
 20
-57.254912
 11
-69.935405
 21
-57.254912
  0
LINE
  8
型材断面
  6
CONTINUOUS
 62
    47
 10
-44.015405
 20
-58.51395
 11
-69.935405
 21
-58.51395
  0
LINE
  8
型材断面
  6
CONTINUOUS
 10
-44.485405
 20
-54.504912
 11
-69.935405
 21
-54.504912
  0
LINE
  8
型材断面
  6
CONTINUOUS
 10
-45.190405
 20
-53.829912
 11
-69.935405
 21
-53.829912
  0
LINE
  8
型材断面
  6
CONTINUOUS
 10
-44.015405
 20
34.16027
 11
-44.015405
 21
8.24027
  0
LINE
  8
型材断面
  6
CONTINUOUS
 10
-44.335405
 20
8.56027
 11
-44.015405
 21
8.24027
  0
LINE
  8
型材断面
  6
CONTINUOUS
 10
-69.935405
 20
8.24027
 11
-44.015405
 21
8.24027
  0
LINE
  8
型材断面
  6
CONTINUOUS
 10
-44.015405
 20
34.16027
 11
-44.015405
 21
60.08027
  0
LINE
  8
型材断面
  6
CONTINUOUS
 10
-44.335405
 20
59.76027
 11
-44.015405
 21
60.08027
  0
LINE
  8
型材断面
  6
CONTINUOUS
 10
-69.935405
 20
60.08027
 11
-44.015405
 21
60.08027
  0
LINE
  8
型材断面
  6
CONTINUOUS
 10
-95.855405
 20
34.16027
 11
-95.855405
 21
60.08027
  0
LINE
  8
型材断面
  6
CONTINUOUS
 10
-95.535405
 20
59.76027
 11
-95.855405
 21
60.08027
  0
LINE
  8
型材断面
  6
CONTINUOUS
 10
-69.935405
 20
60.08027
 11
-95.855405
 21
60.08027
  0
LINE
  8
型材断面
  6
CONTINUOUS
 10
-95.855405
 20
34.16027
 11
-95.855405
 21
8.24027
  0
LINE
  8
型材断面
  6
CONTINUOUS
 10
-95.535405
 20
8.56027
 11
-95.855405
 21
8.24027
  0
LINE
  8
型材断面
  6
CONTINUOUS
 10
-69.935405
 20
8.24027
 11
-95.855405
 21
8.24027
  0
LINE
  8
型材断面
  6
CONTINUOUS
 10
-39.411528
 20
50.81027
 11
-35.525767
 21
49.916185
  0
LINE
  8
型材断面
  6
CONTINUOUS
 10
-39.411528
 20
50.81027
 11
-35.525767
 21
51.704355
  0
LINE
  8
型材断面
  6
CONTINUOUS
 10
-35.525767
 20
51.704355
 11
-35.525767
 21
49.916185
  0
LINE
  8
型材断面
  6
CONTINUOUS
 10
-39.411528
 20
17.51027
 11
-35.525767
 21
18.404355
  0
LINE
  8
型材断面
  6
CONTINUOUS
 10
-39.411528
 20
17.51027
 11
-35.525767
 21
16.616185
  0
LINE
  8
型材断面
  6
CONTINUOUS
 10
-35.525767
 20
16.616185
 11
-35.525767
 21
18.404355
  0
LINE
  8
型材断面
  6
CONTINUOUS
 10
-100.459282
 20
50.81027
 11
-104.345043
 21
49.916185
  0
LINE
  8
型材断面
  6
CONTINUOUS
 10
-100.459282
 20
50.81027
 11
-104.345043
 21
51.704355
  0
LINE
  8
型材断面
  6
CONTINUOUS
 10
-104.345043
 20
51.704355
 11
-104.345043
 21
49.916185
  0
LINE
  8
型材断面
  6
CONTINUOUS
 10
-100.459282
 20
17.51027
 11
-104.345043
 21
18.404355
  0
LINE
  8
型材断面
  6
CONTINUOUS
 10
-100.459282
 20
17.51027
 11
-104.345043
 21
16.616185
  0
LINE
  8
型材断面
  6
CONTINUOUS
 10
-104.345043
 20
16.616185
 11
-104.345043
 21
18.404355
  0
LINE
  8
型材断面
  6
DASHDOT
 10
52.251423
 20
-53.829912
 11
52.251423
 21
-62.86001
  0
LINE
  8
型材断面
  6
CONTINUOUS
 62
    47
 10
50.156423
 20
-57.254912
 11
51.326423
 21
-57.254912
  0
LINE
  8
型材断面
  6
CONTINUOUS
 10
50.006423
 20
-54.504912
 11
50.006423
 21
-53.829912
  0
LINE
  8
型材断面
  6
CONTINUOUS
 62
    47
 10
48.831423
 20
-58.51395
 11
48.831423
 21
-58.01395
  0
LINE
  8
型材断面
  6
CONTINUOUS
 62
    47
 10
48.831423
 20
-58.01395
 11
50.006423
 21
-57.86395
  0
LINE
  8
型材断面
  6
CONTINUOUS
 62
    47
 10
50.006423
 20
-57.254912
 11
50.006423
 21
-57.86395
  0
LINE
  8
型材断面
  6
CONTINUOUS
 62
    47
 10
49.301423
 20
-57.254912
 11
49.301423
 21
-54.504912
  0
LINE
  8
型材断面
  6
CONTINUOUS
 62
    47
 10
50.151423
 20
-63.204912
 11
50.151423
 21
-62.454912
  0
LINE
  8
型材断面
  6
CONTINUOUS
 62
    47
 10
49.301423
 20
-62.454912
 11
49.301423
 21
-58.51395
  0
LINE
  8
型材断面
  6
CONTINUOUS
 62
    47
 10
50.151423
 20
-63.204912
 11
74.751423
 21
-63.204912
  0
LINE
  8
型材断面
  6
CONTINUOUS
 62
    47
 10
49.301423
 20
-62.454912
 11
74.751423
 21
-62.454912
  0
LINE
  8
型材断面
  6
CONTINUOUS
 10
50.006423
 20
-57.86395
 11
74.751423
 21
-57.86395
  0
LINE
  8
型材断面
  6
CONTINUOUS
 10
48.831423
 20
-58.01395
 11
74.751423
 21
-58.01395
  0
LINE
  8
型材断面
  6
CONTINUOUS
 62
    47
 10
49.301423
 20
-57.254912
 11
74.751423
 21
-57.254912
  0
LINE
  8
型材断面
  6
CONTINUOUS
 62
    47
 10
48.831423
 20
-58.51395
 11
74.751423
 21
-58.51395
  0
LINE
  8
型材断面
  6
CONTINUOUS
 10
49.301423
 20
-54.504912
 11
74.751423
 21
-54.504912
  0
LINE
  8
型材断面
  6
CONTINUOUS
 10
50.006423
 20
-53.829912
 11
74.751423
 21
-53.829912
  0
LINE
  8
型材断面
  6
DASHDOT
 10
97.251423
 20
-53.829912
 11
97.251423
 21
-62.86001
  0
LINE
  8
型材断面
  6
CONTINUOUS
 62
    47
 10
99.346422
 20
-57.254912
 11
98.176423
 21
-57.254912
  0
LINE
  8
型材断面
  6
CONTINUOUS
 10
99.496422
 20
-54.504912
 11
99.496422
 21
-53.829912
  0
LINE
  8
型材断面
  6
CONTINUOUS
 62
    47
 10
100.671422
 20
-58.51395
 11
100.671422
 21
-58.01395
  0
LINE
  8
型材断面
  6
CONTINUOUS
 62
    47
 10
100.671422
 20
-58.01395
 11
99.496422
 21
-57.86395
  0
LINE
  8
型材断面
  6
CONTINUOUS
 62
    47
 10
99.496422
 20
-57.254912
 11
99.496422
 21
-57.86395
  0
LINE
  8
型材断面
  6
CONTINUOUS
 62
    47
 10
100.201423
 20
-57.254912
 11
100.201423
 21
-54.504912
  0
LINE
  8
型材断面
  6
CONTINUOUS
 62
    47
 10
99.351423
 20
-63.204912
 11
99.351423
 21
-62.454912
  0
LINE
  8
型材断面
  6
CONTINUOUS
 62
    47
 10
100.201423
 20
-62.454912
 11
100.201423
 21
-58.51395
  0
LINE
  8
型材断面
  6
CONTINUOUS
 62
    47
 10
99.351423
 20
-63.204912
 11
74.751423
 21
-63.204912
  0
LINE
  8
型材断面
  6
CONTINUOUS
 62
    47
 10
100.201423
 20
-62.454912
 11
74.751423
 21
-62.454912
  0
LINE
  8
型材断面
  6
CONTINUOUS
 10
99.496422
 20
-57.86395
 11
74.751423
 21
-57.86395
  0
LINE
  8
型材断面
  6
CONTINUOUS
 10
100.671422
 20
-58.01395
 11
74.751423
 21
-58.01395
  0
LINE
  8
型材断面
  6
CONTINUOUS
 62
    47
 10
100.201423
 20
-57.254912
 11
74.751423
 21
-57.254912
  0
LINE
  8
型材断面
  6
CONTINUOUS
 62
    47
 10
100.671422
 20
-58.51395
 11
74.751423
 21
-58.51395
  0
LINE
  8
型材断面
  6
CONTINUOUS
 10
100.201423
 20
-54.504912
 11
74.751423
 21
-54.504912
  0
LINE
  8
型材断面
  6
CONTINUOUS
 10
99.496422
 20
-53.829912
 11
74.751423
 21
-53.829912
  0
INSERT
  2
*GRP_0037
  8
型材断面
  6
CONTINUOUS
 10
0.0
 20
0.0
  0
INSERT
  2
*GRP_0038
  8
型材断面
  6
CONTINUOUS
 10
0.0
 20
0.0
  0
POLYLINE
  8
型材断面
  6
CONTINUOUS
 66
     1
 70
     1
  0
VERTEX
  8
型材断面
 10
-60.488018
 20
-1.54907
  0
VERTEX
  8
型材断面
 10
-79.04323
 20
-1.54907
  0
VERTEX
  8
型材断面
 10
-79.04323
 20
-6.341105
  0
VERTEX
  8
型材断面
 10
-60.488018
 20
-6.341105
  0
SEQEND
  0
POLYLINE
  8
型材断面
  6
CONTINUOUS
 66
     1
 70
     1
  0
VERTEX
  8
型材断面
 10
-60.488018
 20
74.239768
  0
VERTEX
  8
型材断面
 10
-79.04323
 20
74.239768
  0
VERTEX
  8
型材断面
 10
-79.04323
 20
69.447732
  0
VERTEX
  8
型材断面
 10
-60.488018
 20
69.447732
  0
SEQEND
  0
LINE
  8
型材断面
  6
CONTINUOUS
 10
-16.375962
 20
-24.977077
 11
36.280717
 21
-24.977077
  0
LINE
  8
ガラス
  6
CONTINUOUS
 10
123.304785
 20
30.557477
 11
123.304785
 21
74.557477
  0
LINE
  8
ガラス
  6
CONTINUOUS
 10
167.304785
 20
74.557477
 11
123.304785
 21
74.557477
  0
LINE
  8
ガラス
  6
CONTINUOUS
 10
123.304785
 20
30.557477
 11
167.304785
 21
30.557477
  0
LINE
  8
ガラス
  6
CONTINUOUS
 10
167.304785
 20
74.557477
 11
167.304785
 21
30.557477
  0
INSERT
  2
*GRP_0046
  8
ガラス
  6
DOT
 10
0.0
 20
0.0
  0
CIRCLE
  8
ボルト／ビス
  6
CONTINUOUS
 10
-84.935405
 20
10.66027
 40
0.288675
  0
CIRCLE
  8
ボルト／ビス
  6
CONTINUOUS
 10
-84.935405
 20
10.66027
 40
0.455885
  0
CIRCLE
  8
ボルト／ビス
  6
CONTINUOUS
 10
-69.935405
 20
10.66027
 40
0.288675
  0
CIRCLE
  8
ボルト／ビス
  6
CONTINUOUS
 10
-69.935405
 20
10.66027
 40
0.455885
  0
CIRCLE
  8
ボルト／ビス
  6
CONTINUOUS
 10
-93.435405
 20
19.16027
 40
0.288675
  0
CIRCLE
  8
ボルト／ビス
  6
CONTINUOUS
 10
-93.435405
 20
19.16027
 40
0.455885
  0
CIRCLE
  8
ボルト／ビス
  6
CONTINUOUS
 10
-93.435405
 20
34.16027
 40
0.288675
  0
CIRCLE
  8
ボルト／ビス
  6
CONTINUOUS
 10
-93.435405
 20
34.16027
 40
0.455885
  0
CIRCLE
  8
ボルト／ビス
  6
CONTINUOUS
 10
-54.935405
 20
10.66027
 40
0.288675
  0
CIRCLE
  8
ボルト／ビス
  6
CONTINUOUS
 10
-54.935405
 20
10.66027
 40
0.455885
  0
CIRCLE
  8
ボルト／ビス
  6
CONTINUOUS
 10
-46.435405
 20
19.16027
 40
0.288675
  0
CIRCLE
  8
ボルト／ビス
  6
CONTINUOUS
 10
-46.435405
 20
19.16027
 40
0.455885
  0
CIRCLE
  8
ボルト／ビス
  6
CONTINUOUS
 10
-46.435405
 20
34.16027
 40
0.288675
  0
CIRCLE
  8
ボルト／ビス
  6
CONTINUOUS
 10
-46.435405
 20
34.16027
 40
0.455885
  0
CIRCLE
  8
ボルト／ビス
  6
CONTINUOUS
 10
-84.935405
 20
57.66027
 40
0.288675
  0
CIRCLE
  8
ボルト／ビス
  6
CONTINUOUS
 10
-84.935405
 20
57.66027
 40
0.455885
  0
CIRCLE
  8
ボルト／ビス
  6
CONTINUOUS
 10
-69.935405
 20
57.66027
 40
0.288675
  0
CIRCLE
  8
ボルト／ビス
  6
CONTINUOUS
 10
-69.935405
 20
57.66027
 40
0.455885
  0
CIRCLE
  8
ボルト／ビス
  6
CONTINUOUS
 10
-93.435405
 20
49.16027
 40
0.288675
  0
CIRCLE
  8
ボルト／ビス
  6
CONTINUOUS
 10
-93.435405
 20
49.16027
 40
0.455885
  0
CIRCLE
  8
ボルト／ビス
  6
CONTINUOUS
 10
-54.935405
 20
57.66027
 40
0.288675
  0
CIRCLE
  8
ボルト／ビス
  6
CONTINUOUS
 10
-54.935405
 20
57.66027
 40
0.455885
  0
CIRCLE
  8
ボルト／ビス
  6
CONTINUOUS
 10
-46.435405
 20
49.16027
 40
0.288675
  0
CIRCLE
  8
ボルト／ビス
  6
CONTINUOUS
 10
-46.435405
 20
49.16027
 40
0.455885
  0
INSERT
  2
*GRP_0002
  8
文字
  6
CONTINUOUS
 10
0.0
 20
0.0
  0
INSERT
  2
*GRP_0003
  8
文字
  6
CONTINUOUS
 10
0.0
 20
0.0
  0
INSERT
  2
*GRP_0004
  8
文字
  6
CONTINUOUS
 10
0.0
 20
0.0
  0
INSERT
  2
*GRP_0005
  8
文字
  6
CONTINUOUS
 10
0.0
 20
0.0
  0
INSERT
  2
*GRP_0006
  8
文字
  6
CONTINUOUS
 10
0.0
 20
0.0
  0
INSERT
  2
*GRP_0007
  8
文字
  6
CONTINUOUS
 10
0.0
 20
0.0
  0
INSERT
  2
*GRP_0008
  8
文字
  6
CONTINUOUS
 10
0.0
 20
0.0
  0
INSERT
  2
*GRP_0009
  8
文字
  6
CONTINUOUS
 10
0.0
 20
0.0
  0
INSERT
  2
*GRP_0010
  8
文字
  6
CONTINUOUS
 10
0.0
 20
0.0
  0
INSERT
  2
*GRP_0011
  8
文字
  6
CONTINUOUS
 10
0.0
 20
0.0
  0
INSERT
  2
*GRP_0012
  8
文字
  6
CONTINUOUS
 10
0.0
 20
0.0
  0
INSERT
  2
*GRP_0013
  8
文字
  6
CONTINUOUS
 10
0.0
 20
0.0
  0
TEXT
  7
TextStyle03
  8
文字
  6
CONTINUOUS
 10
-22.275
 20
19.025
  1
ﾊﾞﾗﾝｽｽﾃｰ
 40
3.0
 72
     5
 11
-8.9625
 21
19.025
  0
TEXT
  7
TextStyle03
  8
文字
  6
CONTINUOUS
 10
-98.85
 20
79.85
  1
アンカーピッチ
 40
3.0
 72
     5
 11
-75.6
 21
79.85
  0
TEXT
  7
TextStyle03
  8
文字
  6
CONTINUOUS
 10
-122.5
 20
1.75
  1
アンカーピッチ
 40
3.0
 50
90.0
 72
     5
 11
-122.5
 21
25.0
  0
TEXT
  7
TextStyle03
  8
文字
  6
CONTINUOUS
 10
-3.075
 20
1.625
  1
は排水穴位置を示す
 40
3.0
 72
     5
 11
26.925
 21
1.625
  0
TEXT
  7
TextStyle03
  8
文字
  6
CONTINUOUS
 10
-3.075
 20
-6.225
  1
はケーシング位置を示す
 40
3.0
 72
     5
 11
33.675
 21
-6.225
  0
TEXT
  7
TextStyle03
  8
文字
  6
CONTINUOUS
 10
-3.075
 20
-9.6
  1
４ヶ所中1ヶ所に設定
 40
3.0
 72
     5
 11
28.6125
 21
-9.6
  0
TEXT
  7
TextStyle03
  8
文字
  6
CONTINUOUS
 10
-8.675
 20
-16.75
  1
アンカー数量　６ヶ所
 40
3.0
 72
     5
 11
24.7
 21
-16.75
  0
TEXT
  7
TextStyle03
  8
文字
  6
CONTINUOUS
 10
-78.075
 20
-5.35
  1
可動装置側
 40
3.0
 72
     5
 11
-61.575
 21
-5.35
  0
TEXT
  7
TextStyle03
  8
文字
  6
CONTINUOUS
 10
-78.075
 20
70.425
  1
可動装置側
 40
3.0
 72
     5
 11
-61.575
 21
70.425
  0
TEXT
  7
TextStyle03
  8
文字
  6
CONTINUOUS
 10
73.225
 20
104.725
  1
ＮＳコード：ＮＳＤＳ
 40
5.0
 72
     5
 11
128.85
 21
104.725
  0
TEXT
  7
TextStyle03
  8
文字
  6
CONTINUOUS
 10
146.1
 20
38.8
  1
網入り6.8t
 40
3.0
 72
     5
 11
162.7875
 21
38.8
  0
TEXT
  7
TextStyle03
  8
文字
  6
CONTINUOUS
 10
152.725
 20
33.55
  1
×１枚
 40
3.0
 72
     5
 11
162.475
 21
33.55
  0
TEXT
  7
TextStyle03
  8
文字
  6
CONTINUOUS
 10
-8.725
 20
-23.575
  1
アームユニット数　２ヶ所
 40
3.0
 72
     5
 11
31.4
 21
-23.575
  0
TEXT
  7
TextStyle03
  8
文字
  6
CONTINUOUS
 10
73.575
 20
124.75
  1
シリーズ：ＳＴＤ
 40
5.0
 72
     5
 11
117.95
 21
124.75
  0
TEXT
  7
TextStyle03
  8
文字
  6
CONTINUOUS
 10
73.575
 20
119.125
  1
　　　　　（上下可動）900×900タイプ
 40
5.0
 72
     5
 11
174.2
 21
119.125
  0
TEXT
  7
TextStyle03
  8
文字
  6
CONTINUOUS
 10
73.575
 20
113.5
  1
図面名　：外観姿図
 40
5.0
 72
     5
 11
123.575
 21
113.5
  0
TEXT
  7
TextStyle03
  8
文字
  6
CONTINUOUS
 10
73.575
 20
107.875
  1
　　　　　　
 40
5.0
 72
     5
 11
106.7
 21
107.875
  0
INSERT
  2
*DIM_0014
  8
寸法
  6
CONTINUOUS
 10
0.0
 20
0.0
  0
INSERT
  2
*GRP_0015
  8
寸法
  6
CONTINUOUS
 10
0.0
 20
0.0
  0
INSERT
  2
*DIM_0016
  8
寸法
  6
CONTINUOUS
 10
0.0
 20
0.0
  0
INSERT
  2
*DIM_0017
  8
寸法
  6
CONTINUOUS
 10
0.0
 20
0.0
  0
INSERT
  2
*DIM_0018
  8
寸法
  6
CONTINUOUS
 10
0.0
 20
0.0
  0
INSERT
  2
*DIM_0031
  8
寸法
  6
CONTINUOUS
 10
0.0
 20
0.0
  0
INSERT
  2
*DIM_0032
  8
寸法
  6
CONTINUOUS
 10
0.0
 20
0.0
  0
INSERT
  2
*DIM_0033
  8
寸法
  6
CONTINUOUS
 10
0.0
 20
0.0
  0
INSERT
  2
*DIM_0034
  8
寸法
  6
CONTINUOUS
 10
0.0
 20
0.0
  0
INSERT
  2
*DIM_0035
  8
寸法
  6
CONTINUOUS
 10
0.0
 20
0.0
  0
INSERT
  2
*DIM_0036
  8
寸法
  6
CONTINUOUS
 10
0.0
 20
0.0
  0
CIRCLE
  8
寸法
  6
CONTINUOUS
 10
-111.453763
 20
34.16027
 40
1.73792
  0
INSERT
  2
*DIM_0039
  8
寸法
  6
CONTINUOUS
 10
0.0
 20
0.0
  0
INSERT
  2
*DIM_0040
  8
寸法
  6
CONTINUOUS
 10
0.0
 20
0.0
  0
INSERT
  2
*DIM_0049
  8
寸法
  6
CONTINUOUS
 10
0.0
 20
0.0
  0
LINE
  8
別途部材
  6
CONTINUOUS
 10
-95.535405
 20
8.56027
 11
-94.935405
 21
9.16027
  0
LINE
  8
別途部材
  6
CONTINUOUS
 10
-92.435405
 20
11.66027
 11
-80.34652
 21
23.749155
  0
LINE
  8
別途部材
  6
CONTINUOUS
 62
    96
 10
-94.935405
 20
-52.279985
 11
-95.535405
 21
-53.779985
  0
LINE
  8
別途部材
  6
CONTINUOUS
 62
    96
 10
-94.935405
 20
-52.279985
 11
-69.935405
 21
-52.279985
  0
LINE
  8
別途部材
  6
CONTINUOUS
 10
-95.535405
 20
-53.779985
 11
-69.935405
 21
-53.779985
  0
LINE
  8
別途部材
  6
CONTINUOUS
 62
    96
 10
-44.935405
 20
-52.279985
 11
-44.335405
 21
-53.779985
  0
LINE
  8
別途部材
  6
CONTINUOUS
 62
    96
 10
-44.935405
 20
-52.279985
 11
-69.935405
 21
-52.279985
  0
LINE
  8
別途部材
  6
CONTINUOUS
 10
-44.335405
 20
-53.779985
 11
-69.935405
 21
-53.779985
  0
ARC
  8
別途部材
  6
CONTINUOUS
 10
-69.935404
 20
-66.279985
 40
26.5
 50
31.890792
 51
148.109208
  0
LINE
  8
別途部材
  6
CONTINUOUS
 10
-94.935405
 20
9.16027
 11
-69.935405
 21
9.16027
  0
LINE
  8
別途部材
  6
CONTINUOUS
 10
-95.535405
 20
8.56027
 11
-69.935405
 21
8.56027
  0
LINE
  8
別途部材
  6
CONTINUOUS
 10
-95.535405
 20
8.56027
 11
-95.535405
 21
34.16027
  0
LINE
  8
別途部材
  6
CONTINUOUS
 10
-94.935405
 20
9.16027
 11
-94.935405
 21
34.16027
  0
LINE
  8
別途部材
  6
CONTINUOUS
 10
-44.335405
 20
8.56027
 11
-44.935405
 21
9.16027
  0
LINE
  8
別途部材
  6
CONTINUOUS
 10
-47.435405
 20
11.66027
 11
-59.52429
 21
23.749155
  0
LINE
  8
別途部材
  6
CONTINUOUS
 10
-44.935405
 20
9.16027
 11
-69.935405
 21
9.16027
  0
LINE
  8
別途部材
  6
CONTINUOUS
 10
-44.335405
 20
8.56027
 11
-69.935405
 21
8.56027
  0
LINE
  8
別途部材
  6
CONTINUOUS
 10
-44.335405
 20
8.56027
 11
-44.335405
 21
34.16027
  0
LINE
  8
別途部材
  6
CONTINUOUS
 10
-44.935405
 20
9.16027
 11
-44.935405
 21
34.16027
  0
LINE
  8
別途部材
  6
CONTINUOUS
 10
-95.535405
 20
59.76027
 11
-94.935405
 21
59.16027
  0
LINE
  8
別途部材
  6
CONTINUOUS
 10
-92.435405
 20
56.66027
 11
-80.34652
 21
44.571385
  0
LINE
  8
別途部材
  6
CONTINUOUS
 10
-94.935405
 20
59.16027
 11
-69.935405
 21
59.16027
  0
LINE
  8
別途部材
  6
CONTINUOUS
 10
-95.535405
 20
59.76027
 11
-69.935405
 21
59.76027
  0
LINE
  8
別途部材
  6
CONTINUOUS
 10
-95.535405
 20
59.76027
 11
-95.535405
 21
34.16027
  0
LINE
  8
別途部材
  6
CONTINUOUS
 10
-94.935405
 20
59.16027
 11
-94.935405
 21
34.16027
  0
LINE
  8
別途部材
  6
CONTINUOUS
 10
-44.335405
 20
59.76027
 11
-44.935405
 21
59.16027
  0
LINE
  8
別途部材
  6
CONTINUOUS
 10
-47.435405
 20
56.66027
 11
-59.52429
 21
44.571385
  0
LINE
  8
別途部材
  6
CONTINUOUS
 10
-44.935405
 20
59.16027
 11
-69.935405
 21
59.16027
  0
LINE
  8
別途部材
  6
CONTINUOUS
 10
-44.335405
 20
59.76027
 11
-69.935405
 21
59.76027
  0
LINE
  8
別途部材
  6
CONTINUOUS
 10
-44.335405
 20
59.76027
 11
-44.335405
 21
34.16027
  0
LINE
  8
別途部材
  6
CONTINUOUS
 10
-44.935405
 20
59.16027
 11
-44.935405
 21
34.16027
  0
LINE
  8
別途部材
  6
CONTINUOUS
 62
    96
 10
49.751423
 20
-52.279985
 11
49.151423
 21
-53.779985
  0
LINE
  8
別途部材
  6
CONTINUOUS
 62
    96
 10
49.751423
 20
-52.279985
 11
74.751423
 21
-52.279985
  0
LINE
  8
別途部材
  6
CONTINUOUS
 10
49.151423
 20
-53.779985
 11
74.751423
 21
-53.779985
  0
LINE
  8
別途部材
  6
CONTINUOUS
 62
    96
 10
99.751423
 20
-52.279985
 11
100.351423
 21
-53.779985
  0
LINE
  8
別途部材
  6
CONTINUOUS
 62
    96
 10
99.751423
 20
-52.279985
 11
74.751423
 21
-52.279985
  0
LINE
  8
別途部材
  6
CONTINUOUS
 10
100.351423
 20
-53.779985
 11
74.751423
 21
-53.779985
  0
ARC
  8
別途部材
  6
CONTINUOUS
 10
74.751424
 20
-66.279985
 40
26.5
 50
31.890792
 51
148.109208
  0
INSERT
  2
*GRP_0042
  8
別途部材
  6
DOT
 10
0.0
 20
0.0
  0
INSERT
  2
*GRP_0043
  8
別途部材
  6
DOT
 10
0.0
 20
0.0
  0
INSERT
  2
*GRP_0044
  8
別途部材
  6
DOT
 10
0.0
 20
0.0
  0
INSERT
  2
*GRP_0045
  8
別途部材
  6
DOT
 10
0.0
 20
0.0
  0
ENDSEC
  0
EOF
