  0
SECTION
  2
HEADER
  9
$EXTMIN
 10
-210.0
 20
-148.5
  9
$EXTMAX
 10
210.0
 20
148.5
  9
$PDMODE
 70
    32
  9
$PDSIZE
 40
1.5
  9
$LTSCALE
 40
10.0
  0
ENDSEC
  0
SECTION
  2
TABLES
  0
TABLE
  2
LTYPE
 70
    15
  0
LTYPE
  2
CONTINUOUS
 70
    64
  3
実線
 72
    65
 73
     0
 40
0.0
  0
LTYPE
  2
DASHED
 70
    64
  3
破線A
 72
    65
 73
     2
 40
0.6
 49
0.4
 49
-0.2
  0
LTYPE
  2
DASHEDX2
 70
    64
  3
破線B
 72
    65
 73
     2
 40
1.3
 49
0.9
 49
-0.4
  0
LTYPE
  2
DASHDOT
 70
    64
  3
１点鎖線A
 72
    65
 73
     4
 40
0.5375
 49
0.375
 49
-0.05
 49
0.0625
 49
-0.05
  0
LTYPE
  2
DASHDOTX2
 70
    64
  3
１点鎖線B
 72
    65
 73
     4
 40
1.075
 49
0.75
 49
-0.1
 49
0.125
 49
-0.1
  0
LTYPE
  2
DIVIDE2
 70
    64
  3
２点鎖線A
 72
    65
 73
     6
 40
0.5125
 49
0.3
 49
-0.0375
 49
0.05
 49
-0.0375
 49
0.05
 49
-0.0375
  0
LTYPE
  2
DIVIDE
 70
    64
  3
２点鎖線B
 72
    65
 73
     6
 40
1.05
 49
0.55
 49
-0.1
 49
0.1
 49
-0.1
 49
0.1
 49
-0.1
  0
LTYPE
  2
DOT
 70
    64
  3
点線A
 72
    65
 73
     2
 40
0.1125
 49
0.0625
 49
-0.05
  0
LTYPE
  2
DOTX2
 70
    64
  3
点線B
 72
    65
 73
     2
 40
0.275
 49
0.15
 49
-0.125
  0
LTYPE
  2
CONTINUOUS
 70
    64
  3
実線
 72
    65
 73
     0
 40
0.0
  0
LTYPE
  2
CONTINUOUS
 70
    64
  3
実線
 72
    65
 73
     0
 40
0.0
  0
LTYPE
  2
CONTINUOUS
 70
    64
  3
実線
 72
    65
 73
     0
 40
0.0
  0
LTYPE
  2
CONTINUOUS
 70
    64
  3
実線
 72
    65
 73
     0
 40
0.0
  0
LTYPE
  2
CONTINUOUS
 70
    64
  3
実線
 72
    65
 73
     0
 40
0.0
  0
LTYPE
  2
CONTINUOUS
 70
    64
  3
実線
 72
    65
 73
     0
 40
0.0
  0
ENDTAB
  0
TABLE
  2
LAYER
 70
    34
  0
LAYER
  2
通り芯
 70
     0
 62
    15
  6
CONTINUOUS
  0
LAYER
  2
補助線
 70
     0
 62
    16
  6
DOT
  0
LAYER
  2
躯体
 70
     0
 62
    31
  6
CONTINUOUS
  0
LAYER
  2
型材
 70
     0
 62
    32
  6
CONTINUOUS
  0
LAYER
  2
型材断面
 70
     0
 62
    47
  6
CONTINUOUS
  0
LAYER
  2
ガラス
 70
     0
 62
    48
  6
CONTINUOUS
  0
LAYER
  2
ゴム等
 70
     0
 62
    63
  6
CONTINUOUS
  0
LAYER
  2
ボルト／ビス
 70
     0
 62
    64
  6
CONTINUOUS
  0
LAYER
  2
文字
 70
     0
 62
    79
  6
CONTINUOUS
  0
LAYER
  2
寸法
 70
     0
 62
    80
  6
CONTINUOUS
  0
LAYER
  2
ﾊｯﾁﾝｸﾞ
 70
     0
 62
    95
  6
CONTINUOUS
  0
LAYER
  2
別途部材
 70
     0
 62
    96
  6
CONTINUOUS
  0
LAYER
  2
曲げ物
 70
     0
 62
   111
  6
CONTINUOUS
  0
LAYER
  2
鉄骨等
 70
     0
 62
   112
  6
CONTINUOUS
  0
LAYER
  2
St
 70
     0
 62
   127
  6
CONTINUOUS
  0
LAYER
  2
その他部品等
 70
     0
 62
   128
  6
CONTINUOUS
  0
LAYER
  2
ｶﾞｽｹｯﾄ
 70
     0
 62
   143
  6
CONTINUOUS
  0
LAYER
  2
ｽｹｯﾁ
 70
     0
 62
    14
  6
CONTINUOUS
  0
LAYER
  2
0
 70
     0
 62
    17
  6
CONTINUOUS
  0
LAYER
  2
1
 70
     0
 62
    30
  6
CONTINUOUS
  0
LAYER
  2
4
 70
     0
 62
    33
  6
CONTINUOUS
  0
LAYER
  2
ﾚｲﾔ3
 70
     0
 62
    46
  6
CONTINUOUS
  0
LAYER
  2
外形線
 70
     0
 62
    49
  6
CONTINUOUS
  0
LAYER
  2
部品
 70
     0
 62
    14
  6
CONTINUOUS
  0
LAYER
  2
サッシ芯
 70
     0
 62
    17
  6
DASHDOTX2
  0
LAYER
  2
寸法線
 70
     0
 62
    62
  6
CONTINUOUS
  0
LAYER
  2
姿図外形線
 70
     0
 62
    65
  6
CONTINUOUS
  0
LAYER
  2
姿補助線
 70
     0
 62
    30
  6
CONTINUOUS
  0
LAYER
  2
透視線
 70
     0
 62
    78
  6
DOT
  0
LAYER
  2
用紙
 70
     0
 62
    81
  6
CONTINUOUS
  0
LAYER
  2
実線図枠
 70
     0
 62
    94
  6
CONTINUOUS
  0
LAYER
  2
補助図枠
 70
     0
 62
    97
  6
CONTINUOUS
  0
LAYER
  2
建具記号
 70
     0
 62
   110
  6
CONTINUOUS
  0
LAYER
  2
補助文字
 70
     0
 62
   113
  6
CONTINUOUS
  0
ENDTAB
  0
TABLE
  2
STYLE
 70
    10
  0
STYLE
  2
STANDARD
 70
     0
 40
1.0
 41
1.0
 42
1.0
 50
0.0
 71
     0
  3
TXT
  4
BIGFONT
  0
STYLE
  2
TATE
 70
     4
 40
1.0
 41
1.0
 42
1.0
 50
0.0
 71
     0
  3
TXT
  4
BIGFONT
  0
STYLE
  2
TextStyle03
 70
     0
 40
1.0
 41
1.0
 42
1.0
 50
0.0
 71
     0
  3
MONOTXT
  4
BIGFONT
  0
STYLE
  2
TextStyle04
 70
     0
 40
1.0
 41
1.0
 42
1.0
 50
0.0
 71
     0
  3
MONOTXT
  4
BIGFONT
  0
STYLE
  2
TextStyle05
 70
     0
 40
1.0
 41
1.0
 42
1.0
 50
0.0
 71
     0
  3
MONOTXT
  4
BIGFONT
  0
STYLE
  2
TextStyle06
 70
     0
 40
1.0
 41
1.0
 42
1.0
 50
0.0
 71
     0
  3
MONOTXT
  4
BIGFONT
  0
STYLE
  2
TextStyle07
 70
     0
 40
1.0
 41
1.0
 42
1.0
 50
0.0
 71
     0
  3
MONOTXT
  4
BIGFONT
  0
STYLE
  2
TextStyle08
 70
     0
 40
1.0
 41
1.0
 42
1.0
 50
0.0
 71
     0
  3
MONOTXT
  4
BIGFONT
  0
STYLE
  2
TextStyle09
 70
     0
 40
1.0
 41
1.0
 42
1.0
 50
0.0
 71
     0
  3
MONOTXT
  4
BIGFONT
  0
STYLE
  2
TextStyle10
 70
     0
 40
1.0
 41
1.0
 42
1.0
 50
0.0
 71
     0
  3
MONOTXT
  4
BIGFONT
  0
ENDTAB
  0
ENDSEC
  0
SECTION
  2
BLOCKS
  0
BLOCK
  2
*GRP_0001
 70
    65
 10
0.0
 20
0.0
  0
LINE
  8
型材断面
  6
CONTINUOUS
 10
195.0
 20
133.5
 11
195.0
 21
-133.5
  0
LINE
  8
型材断面
  6
CONTINUOUS
 10
195.0
 20
-133.5
 11
-185.0
 21
-133.5
  0
LINE
  8
型材断面
  6
CONTINUOUS
 10
-185.0
 20
-133.5
 11
-185.0
 21
133.5
  0
LINE
  8
型材断面
  6
CONTINUOUS
 10
195.0
 20
133.5
 11
-185.0
 21
133.5
  0
LINE
  8
型材断面
  6
CONTINUOUS
 10
145.0
 20
-133.5
 11
145.0
 21
-118.5
  0
LINE
  8
型材断面
  6
CONTINUOUS
 10
195.0
 20
-118.5
 11
145.0
 21
-118.5
  0
ENDBLK
  0
BLOCK
  2
*GRP_0002
 70
    65
 10
0.0
 20
0.0
  0
POLYLINE
  8
寸法
  6
BYBLOCK
 62
     0
 66
     1
  0
VERTEX
  8
寸法
 10
-47.6251
 20
9.258137
  0
VERTEX
  8
寸法
 10
-41.208597
 20
2.841635
  0
VERTEX
  8
寸法
 10
-35.30147
 20
2.841635
  0
SEQEND
  0
ENDBLK
  0
BLOCK
  2
*DIM_0003
 70
    65
 10
0.0
 20
0.0
  0
LINE
  8
寸法
  6
CONTINUOUS
 10
-35.658375
 20
-92.406337
 11
-19.991043
 21
-92.406337
  0
LINE
  8
寸法
  6
CONTINUOUS
 10
-37.103695
 20
-80.96609
 11
-19.991043
 21
-80.96609
  0
LINE
  8
寸法
  6
CONTINUOUS
 10
-19.991043
 20
-92.406337
 11
-19.991043
 21
-80.96609
  0
POINT
  8
寸法
 10
-19.991043
 20
-92.406337
  0
POINT
  8
寸法
 10
-19.991043
 20
-80.96609
  0
TEXT
  7
TextStyle03
  8
寸法
  6
CONTINUOUS
 10
-20.375
 20
-90.825
  1
228.8
 40
3.0
 50
90.0
 72
     5
 11
-20.375
 21
-82.575
  0
ENDBLK
  0
BLOCK
  2
*DIM_0004
 70
    65
 10
0.0
 20
0.0
  0
LINE
  8
寸法
  6
CONTINUOUS
 10
-40.96576
 20
-85.700055
 11
-40.96576
 21
-44.812283
  0
LINE
  8
寸法
  6
CONTINUOUS
 10
-44.38576
 20
-44.812283
 11
-40.96576
 21
-44.812283
  0
POINT
  8
寸法
 10
-44.38576
 20
-44.812283
  0
POINT
  8
寸法
 10
-40.96576
 20
-44.812283
  0
TEXT
  7
TextStyle03
  8
寸法
  6
CONTINUOUS
 10
-39.23125
 20
-44.45
  1
68.4
 40
3.0
 72
     5
 11
-32.66875
 21
-44.45
  0
ENDBLK
  0
BLOCK
  2
*DIM_0005
 70
    65
 10
0.0
 20
0.0
  0
LINE
  8
寸法
  6
CONTINUOUS
 10
-137.80576
 20
-85.700055
 11
-137.80576
 21
-44.812283
  0
LINE
  8
寸法
  6
CONTINUOUS
 10
-134.38576
 20
-44.812283
 11
-137.80576
 21
-44.812283
  0
POINT
  8
寸法
 10
-134.38576
 20
-44.812283
  0
POINT
  8
寸法
 10
-137.80576
 20
-44.812283
  0
TEXT
  7
TextStyle03
  8
寸法
  6
CONTINUOUS
 10
-146.13125
 20
-44.45
  1
68.4
 40
3.0
 72
     5
 11
-139.56875
 21
-44.45
  0
ENDBLK
  0
BLOCK
  2
*DIM_0006
 70
    65
 10
0.0
 20
0.0
  0
LINE
  8
寸法
  6
CONTINUOUS
 10
-159.64076
 20
67.974165
 11
-170.571515
 21
67.974165
  0
LINE
  8
寸法
  6
CONTINUOUS
 10
-159.640762
 20
32.974165
 11
-170.571518
 21
32.974165
  0
LINE
  8
寸法
  6
CONTINUOUS
 10
-170.571515
 20
67.974165
 11
-170.571518
 21
32.974165
  0
POINT
  8
寸法
 10
-170.571515
 20
67.974165
  0
POINT
  8
寸法
 10
-170.571518
 20
32.974165
  0
TEXT
  7
TextStyle03
  8
寸法
  6
CONTINUOUS
 10
-170.95
 20
48.0125
  1
700
 40
3.0
 50
90.0
 72
     5
 11
-170.95
 21
52.8875
  0
ENDBLK
  0
BLOCK
  2
*DIM_0007
 70
    65
 10
0.0
 20
0.0
  0
LINE
  8
寸法
  6
CONTINUOUS
 10
-159.640762
 20
32.974165
 11
-170.571518
 21
32.974165
  0
LINE
  8
寸法
  6
CONTINUOUS
 10
-159.640765
 20
-2.025835
 11
-170.57152
 21
-2.025835
  0
LINE
  8
寸法
  6
CONTINUOUS
 10
-170.571518
 20
32.974165
 11
-170.57152
 21
-2.025835
  0
POINT
  8
寸法
 10
-170.57152
 20
-2.025835
  0
TEXT
  7
TextStyle03
  8
寸法
  6
CONTINUOUS
 10
-170.95
 20
13.0125
  1
700
 40
3.0
 50
90.0
 72
     5
 11
-170.95
 21
17.8875
  0
ENDBLK
  0
BLOCK
  2
*GRP_0008
 70
    65
 10
0.0
 20
0.0
  0
POLYLINE
  8
寸法
  6
BYBLOCK
 62
     0
 66
     1
  0
VERTEX
  8
寸法
 10
-131.14641
 20
59.28018
  0
VERTEX
  8
寸法
 10
-137.562907
 20
65.696685
  0
VERTEX
  8
寸法
 10
-143.470035
 20
65.696688
  0
SEQEND
  0
ENDBLK
  0
BLOCK
  2
*DIM_0009
 70
    65
 10
0.0
 20
0.0
  0
LINE
  8
寸法
  6
CONTINUOUS
 10
-124.38576
 20
103.229165
 11
-124.38576
 21
114.15992
  0
LINE
  8
寸法
  6
CONTINUOUS
 10
-89.38576
 20
103.229165
 11
-89.38576
 21
114.15992
  0
LINE
  8
寸法
  6
CONTINUOUS
 10
-124.38576
 20
114.15992
 11
-89.38576
 21
114.15992
  0
POINT
  8
寸法
 10
-124.38576
 20
114.15992
  0
POINT
  8
寸法
 10
-89.38576
 20
114.15992
  0
TEXT
  7
TextStyle03
  8
寸法
  6
CONTINUOUS
 10
-109.3375
 20
114.525
  1
700
 40
3.0
 72
     5
 11
-104.4625
 21
114.525
  0
ENDBLK
  0
BLOCK
  2
*DIM_0010
 70
    65
 10
0.0
 20
0.0
  0
LINE
  8
寸法
  6
CONTINUOUS
 10
-89.38576
 20
103.229165
 11
-89.38576
 21
114.15992
  0
LINE
  8
寸法
  6
CONTINUOUS
 10
-54.38576
 20
103.229165
 11
-54.38576
 21
114.15992
  0
LINE
  8
寸法
  6
CONTINUOUS
 10
-89.38576
 20
114.15992
 11
-54.38576
 21
114.15992
  0
POINT
  8
寸法
 10
-54.38576
 20
114.15992
  0
TEXT
  7
TextStyle03
  8
寸法
  6
CONTINUOUS
 10
-74.3375
 20
114.525
  1
700
 40
3.0
 72
     5
 11
-69.4625
 21
114.525
  0
ENDBLK
  0
BLOCK
  2
*DIM_0011
 70
    65
 10
0.0
 20
0.0
  0
LINE
  8
寸法
  6
CONTINUOUS
 10
-43.385757
 20
77.974165
 11
-27.296257
 21
77.974165
  0
LINE
  8
寸法
  6
CONTINUOUS
 10
-35.36188
 20
72.124165
 11
-27.296257
 21
72.124165
  0
LINE
  8
寸法
  6
CONTINUOUS
 10
-27.296257
 20
77.974165
 11
-27.296257
 21
72.124165
  0
POINT
  8
寸法
 10
-27.296257
 20
77.974165
  0
POINT
  8
寸法
 10
-27.296257
 20
72.124165
  0
TEXT
  7
TextStyle03
  8
寸法
  6
CONTINUOUS
 10
-27.675
 20
72.5875
  1
117
 40
3.0
 50
90.0
 72
     5
 11
-27.675
 21
77.4625
  0
ENDBLK
  0
BLOCK
  2
*DIM_0012
 70
    65
 10
0.0
 20
0.0
  0
LINE
  8
寸法
  6
CONTINUOUS
 10
-43.385757
 20
-12.025835
 11
-27.296257
 21
-12.025835
  0
LINE
  8
寸法
  6
CONTINUOUS
 10
-35.36188
 20
-6.175835
 11
-27.296257
 21
-6.175835
  0
LINE
  8
寸法
  6
CONTINUOUS
 10
-27.296257
 20
-12.025835
 11
-27.296257
 21
-6.175835
  0
POINT
  8
寸法
 10
-27.296257
 20
-12.025835
  0
POINT
  8
寸法
 10
-27.296257
 20
-6.175835
  0
TEXT
  7
TextStyle03
  8
寸法
  6
CONTINUOUS
 10
-27.675
 20
-11.5625
  1
117
 40
3.0
 50
90.0
 72
     5
 11
-27.675
 21
-6.6875
  0
ENDBLK
  0
BLOCK
  2
*DIM_0013
 70
    65
 10
0.0
 20
0.0
  0
LINE
  8
寸法
  6
CONTINUOUS
 10
-134.38576
 20
-44.812283
 11
-44.38576
 21
-44.812283
  0
POINT
  8
寸法
 10
-134.38576
 20
-44.812283
  0
POINT
  8
寸法
 10
-44.38576
 20
-44.812283
  0
TEXT
  7
TextStyle03
  8
寸法
  6
CONTINUOUS
 10
-101.11875
 20
-44.45
  1
呼称寸法　1800
 40
3.0
 72
     5
 11
-77.68125
 21
-44.45
  0
ENDBLK
  0
BLOCK
  2
*DIM_0014
 70
    65
 10
0.0
 20
0.0
  0
LINE
  8
寸法
  6
CONTINUOUS
 10
-36.88576
 20
-80.96609
 11
-19.991043
 21
-80.96609
  0
LINE
  8
寸法
  6
CONTINUOUS
 10
-84.38576
 20
-58.46609
 11
-19.991043
 21
-58.46609
  0
LINE
  8
寸法
  6
CONTINUOUS
 10
-19.991043
 20
-80.96609
 11
-19.991043
 21
-58.46609
  0
POINT
  8
寸法
 10
-19.991043
 20
-80.96609
  0
POINT
  8
寸法
 10
-19.991043
 20
-58.46609
  0
TEXT
  7
TextStyle03
  8
寸法
  6
CONTINUOUS
 10
-20.375
 20
-72.1625
  1
450
 40
3.0
 50
90.0
 72
     5
 11
-20.375
 21
-67.2875
  0
ENDBLK
  0
BLOCK
  2
*GRP_0015
 70
    65
 10
0.0
 20
0.0
  0
LINE
  8
補助線
  6
BYBLOCK
 62
    64
 10
144.861463
 20
-88.626115
 11
145.035153
 21
-88.80592
  0
LINE
  8
補助線
  6
BYBLOCK
 62
    64
 10
145.03821
 20
-88.629173
 11
144.858405
 21
-88.802862
  0
LINE
  8
補助線
  6
BYBLOCK
 62
    64
 10
133.466967
 20
-76.83097
 11
133.29327
 21
-76.651163
  0
LINE
  8
補助線
  6
BYBLOCK
 62
    64
 10
133.470017
 20
-76.654217
 11
133.290215
 21
-76.827915
  0
LINE
  8
補助線
  6
BYBLOCK
 62
    64
 10
121.898715
 20
-64.856073
 11
121.725017
 21
-64.676272
  0
LINE
  8
補助線
  6
BYBLOCK
 62
    64
 10
121.901767
 20
-64.679325
 11
121.721965
 21
-64.853023
  0
LINE
  8
型材断面
  6
CONTINUOUS
 10
146.194722
 20
-88.207143
 11
146.176397
 21
-89.267642
  0
LINE
  8
型材断面
  6
CONTINUOUS
 10
146.176397
 20
-89.267642
 11
145.457183
 21
-89.962432
  0
LINE
  8
型材断面
  6
CONTINUOUS
 10
145.457183
 20
-89.962432
 11
144.396682
 21
-89.944107
  0
LINE
  8
型材断面
  6
CONTINUOUS
 10
122.363487
 20
-63.538077
 11
121.302988
 21
-63.519762
  0
LINE
  8
型材断面
  6
CONTINUOUS
 10
121.302988
 20
-63.519762
 11
120.58377
 21
-64.214552
  0
LINE
  8
型材断面
  6
CONTINUOUS
 10
120.58377
 20
-64.214552
 11
120.565455
 21
-65.275053
  0
LINE
  8
型材断面
  6
CONTINUOUS
 10
146.194722
 20
-88.207143
 11
122.363608
 21
-63.53808
  0
LINE
  8
型材断面
  6
CONTINUOUS
 10
144.396682
 20
-89.944107
 11
120.565458
 21
-65.274942
  0
LINE
  8
ボルト／ビス
  6
CONTINUOUS
 62
    64
 10
145.280497
 20
-88.395107
 11
145.392317
 21
-88.84325
  0
LINE
  8
ボルト／ビス
  6
CONTINUOUS
 62
    64
 10
145.280497
 20
-88.395107
 11
144.83649
 21
-88.26788
  0
LINE
  8
ボルト／ビス
  6
CONTINUOUS
 62
    64
 10
144.616117
 20
-89.036928
 11
145.060125
 21
-89.164155
  0
LINE
  8
ボルト／ビス
  6
CONTINUOUS
 62
    64
 10
144.616117
 20
-89.036928
 11
144.504298
 21
-88.588785
  0
CIRCLE
  8
ボルト／ビス
  6
CONTINUOUS
 62
    64
 10
144.948308
 20
-88.716017
 40
0.4
  0
LINE
  8
ボルト／ビス
  6
CONTINUOUS
 62
    64
 10
144.83649
 20
-88.26788
 11
144.504298
 21
-88.588785
  0
LINE
  8
ボルト／ビス
  6
CONTINUOUS
 62
    64
 10
145.392317
 20
-88.84325
 11
145.060125
 21
-89.164155
  0
LINE
  8
ボルト／ビス
  6
CONTINUOUS
 62
    64
 10
133.71231
 20
-76.42016
 11
133.268297
 21
-76.292925
  0
LINE
  8
ボルト／ビス
  6
CONTINUOUS
 62
    64
 10
133.71231
 20
-76.42016
 11
133.82413
 21
-76.868297
  0
LINE
  8
ボルト／ビス
  6
CONTINUOUS
 62
    64
 10
133.047925
 20
-77.061972
 11
132.936108
 21
-76.613832
  0
LINE
  8
ボルト／ビス
  6
CONTINUOUS
 62
    64
 10
133.047925
 20
-77.061972
 11
133.491935
 21
-77.189205
  0
CIRCLE
  8
ボルト／ビス
  6
CONTINUOUS
 62
    64
 10
133.380115
 20
-76.741065
 40
0.4
  0
LINE
  8
ボルト／ビス
  6
CONTINUOUS
 62
    64
 10
133.82413
 20
-76.868297
 11
133.491935
 21
-77.189205
  0
LINE
  8
ボルト／ビス
  6
CONTINUOUS
 62
    64
 10
133.268297
 20
-76.292925
 11
132.936108
 21
-76.613832
  0
LINE
  8
ボルト／ビス
  6
CONTINUOUS
 62
    64
 10
122.144058
 20
-64.445262
 11
121.700045
 21
-64.318033
  0
LINE
  8
ボルト／ビス
  6
CONTINUOUS
 62
    64
 10
122.144058
 20
-64.445262
 11
122.255875
 21
-64.893402
  0
LINE
  8
ボルト／ビス
  6
CONTINUOUS
 62
    64
 10
121.479675
 20
-65.087082
 11
121.367857
 21
-64.63894
  0
LINE
  8
ボルト／ビス
  6
CONTINUOUS
 62
    64
 10
121.479675
 20
-65.087082
 11
121.92369
 21
-65.214312
  0
CIRCLE
  8
ボルト／ビス
  6
CONTINUOUS
 62
    64
 10
121.811867
 20
-64.766172
 40
0.4
  0
LINE
  8
ボルト／ビス
  6
CONTINUOUS
 62
    64
 10
122.255875
 20
-64.893402
 11
121.92369
 21
-65.214312
  0
LINE
  8
ボルト／ビス
  6
CONTINUOUS
 62
    64
 10
121.700045
 20
-64.318033
 11
121.367857
 21
-64.63894
  0
ENDBLK
  0
BLOCK
  2
*GRP_0016
 70
    65
 10
0.0
 20
0.0
  0
LINE
  8
補助線
  6
BYBLOCK
 62
    64
 10
121.898773
 20
-88.626115
 11
121.725082
 21
-88.80592
  0
LINE
  8
補助線
  6
BYBLOCK
 62
    64
 10
121.722025
 20
-88.629173
 11
121.90183
 21
-88.802862
  0
LINE
  8
補助線
  6
BYBLOCK
 62
    64
 10
133.293268
 20
-76.83097
 11
133.466965
 21
-76.651163
  0
LINE
  8
補助線
  6
BYBLOCK
 62
    64
 10
133.290217
 20
-76.654217
 11
133.47002
 21
-76.827915
  0
LINE
  8
補助線
  6
BYBLOCK
 62
    64
 10
144.86152
 20
-64.856073
 11
145.035217
 21
-64.676272
  0
LINE
  8
補助線
  6
BYBLOCK
 62
    64
 10
144.858468
 20
-64.679325
 11
145.03827
 21
-64.853023
  0
LINE
  8
型材断面
  6
CONTINUOUS
 10
120.565512
 20
-88.207143
 11
120.583837
 21
-89.267642
  0
LINE
  8
型材断面
  6
CONTINUOUS
 10
120.583837
 20
-89.267642
 11
121.303053
 21
-89.962432
  0
LINE
  8
型材断面
  6
CONTINUOUS
 10
121.303053
 20
-89.962432
 11
122.363552
 21
-89.944107
  0
LINE
  8
型材断面
  6
CONTINUOUS
 10
144.396747
 20
-63.538077
 11
145.457248
 21
-63.519762
  0
LINE
  8
型材断面
  6
CONTINUOUS
 10
145.457248
 20
-63.519762
 11
146.176465
 21
-64.214552
  0
LINE
  8
型材断面
  6
CONTINUOUS
 10
146.176465
 20
-64.214552
 11
146.19478
 21
-65.275053
  0
LINE
  8
型材断面
  6
CONTINUOUS
 10
120.565512
 20
-88.207143
 11
144.396628
 21
-63.53808
  0
LINE
  8
型材断面
  6
CONTINUOUS
 10
122.363552
 20
-89.944107
 11
146.194778
 21
-65.274942
  0
LINE
  8
ボルト／ビス
  6
CONTINUOUS
 62
    64
 10
121.479738
 20
-88.395107
 11
121.367917
 21
-88.84325
  0
LINE
  8
ボルト／ビス
  6
CONTINUOUS
 62
    64
 10
121.479738
 20
-88.395107
 11
121.923745
 21
-88.26788
  0
LINE
  8
ボルト／ビス
  6
CONTINUOUS
 62
    64
 10
122.144117
 20
-89.036928
 11
121.70011
 21
-89.164155
  0
LINE
  8
ボルト／ビス
  6
CONTINUOUS
 62
    64
 10
122.144117
 20
-89.036928
 11
122.255938
 21
-88.588785
  0
CIRCLE
  8
ボルト／ビス
  6
CONTINUOUS
 62
    64
 10
121.811927
 20
-88.716017
 40
0.4
  0
LINE
  8
ボルト／ビス
  6
CONTINUOUS
 62
    64
 10
121.923745
 20
-88.26788
 11
122.255938
 21
-88.588785
  0
LINE
  8
ボルト／ビス
  6
CONTINUOUS
 62
    64
 10
121.367917
 20
-88.84325
 11
121.70011
 21
-89.164155
  0
LINE
  8
ボルト／ビス
  6
CONTINUOUS
 62
    64
 10
133.047925
 20
-76.42016
 11
133.491937
 21
-76.292925
  0
LINE
  8
ボルト／ビス
  6
CONTINUOUS
 62
    64
 10
133.047925
 20
-76.42016
 11
132.936105
 21
-76.868297
  0
LINE
  8
ボルト／ビス
  6
CONTINUOUS
 62
    64
 10
133.71231
 20
-77.061972
 11
133.824128
 21
-76.613832
  0
LINE
  8
ボルト／ビス
  6
CONTINUOUS
 62
    64
 10
133.71231
 20
-77.061972
 11
133.2683
 21
-77.189205
  0
CIRCLE
  8
ボルト／ビス
  6
CONTINUOUS
 62
    64
 10
133.38012
 20
-76.741065
 40
0.4
  0
LINE
  8
ボルト／ビス
  6
CONTINUOUS
 62
    64
 10
132.936105
 20
-76.868297
 11
133.2683
 21
-77.189205
  0
LINE
  8
ボルト／ビス
  6
CONTINUOUS
 62
    64
 10
133.491937
 20
-76.292925
 11
133.824128
 21
-76.613832
  0
LINE
  8
ボルト／ビス
  6
CONTINUOUS
 62
    64
 10
144.616178
 20
-64.445262
 11
145.06019
 21
-64.318033
  0
LINE
  8
ボルト／ビス
  6
CONTINUOUS
 62
    64
 10
144.616178
 20
-64.445262
 11
144.50436
 21
-64.893402
  0
LINE
  8
ボルト／ビス
  6
CONTINUOUS
 62
    64
 10
145.28056
 20
-65.087082
 11
145.392377
 21
-64.63894
  0
LINE
  8
ボルト／ビス
  6
CONTINUOUS
 62
    64
 10
145.28056
 20
-65.087082
 11
144.836545
 21
-65.214312
  0
CIRCLE
  8
ボルト／ビス
  6
CONTINUOUS
 62
    64
 10
144.948367
 20
-64.766172
 40
0.4
  0
LINE
  8
ボルト／ビス
  6
CONTINUOUS
 62
    64
 10
144.50436
 20
-64.893402
 11
144.836545
 21
-65.214312
  0
LINE
  8
ボルト／ビス
  6
CONTINUOUS
 62
    64
 10
145.06019
 20
-64.318033
 11
145.392377
 21
-64.63894
  0
ENDBLK
  0
BLOCK
  2
*GRP_0017
 70
    65
 10
0.0
 20
0.0
  0
LINE
  8
補助線
  6
BYBLOCK
 62
    64
 10
69.005272
 20
-88.626115
 11
68.831582
 21
-88.80592
  0
LINE
  8
補助線
  6
BYBLOCK
 62
    64
 10
68.828525
 20
-88.629173
 11
69.00833
 21
-88.802862
  0
LINE
  8
補助線
  6
BYBLOCK
 62
    64
 10
80.399768
 20
-76.83097
 11
80.573465
 21
-76.651163
  0
LINE
  8
補助線
  6
BYBLOCK
 62
    64
 10
80.396717
 20
-76.654217
 11
80.57652
 21
-76.827915
  0
LINE
  8
補助線
  6
BYBLOCK
 62
    64
 10
91.96802
 20
-64.856073
 11
92.141718
 21
-64.676272
  0
LINE
  8
補助線
  6
BYBLOCK
 62
    64
 10
91.964968
 20
-64.679325
 11
92.14477
 21
-64.853023
  0
LINE
  8
型材断面
  6
CONTINUOUS
 10
67.672012
 20
-88.207143
 11
67.690337
 21
-89.267642
  0
LINE
  8
型材断面
  6
CONTINUOUS
 10
67.690337
 20
-89.267642
 11
68.409553
 21
-89.962432
  0
LINE
  8
型材断面
  6
CONTINUOUS
 10
68.409553
 20
-89.962432
 11
69.470053
 21
-89.944107
  0
LINE
  8
型材断面
  6
CONTINUOUS
 10
91.503248
 20
-63.538077
 11
92.563747
 21
-63.519762
  0
LINE
  8
型材断面
  6
CONTINUOUS
 10
92.563747
 20
-63.519762
 11
93.282965
 21
-64.214552
  0
LINE
  8
型材断面
  6
CONTINUOUS
 10
93.282965
 20
-64.214552
 11
93.30128
 21
-65.275053
  0
LINE
  8
型材断面
  6
CONTINUOUS
 10
67.672012
 20
-88.207143
 11
91.503127
 21
-63.53808
  0
LINE
  8
型材断面
  6
CONTINUOUS
 10
69.470053
 20
-89.944107
 11
93.301277
 21
-65.274942
  0
LINE
  8
ボルト／ビス
  6
CONTINUOUS
 62
    64
 10
68.586238
 20
-88.395107
 11
68.474417
 21
-88.84325
  0
LINE
  8
ボルト／ビス
  6
CONTINUOUS
 62
    64
 10
68.586238
 20
-88.395107
 11
69.030245
 21
-88.26788
  0
LINE
  8
ボルト／ビス
  6
CONTINUOUS
 62
    64
 10
69.250618
 20
-89.036928
 11
68.80661
 21
-89.164155
  0
LINE
  8
ボルト／ビス
  6
CONTINUOUS
 62
    64
 10
69.250618
 20
-89.036928
 11
69.362437
 21
-88.588785
  0
CIRCLE
  8
ボルト／ビス
  6
CONTINUOUS
 62
    64
 10
68.918427
 20
-88.716017
 40
0.4
  0
LINE
  8
ボルト／ビス
  6
CONTINUOUS
 62
    64
 10
69.030245
 20
-88.26788
 11
69.362437
 21
-88.588785
  0
LINE
  8
ボルト／ビス
  6
CONTINUOUS
 62
    64
 10
68.474417
 20
-88.84325
 11
68.80661
 21
-89.164155
  0
LINE
  8
ボルト／ビス
  6
CONTINUOUS
 62
    64
 10
80.154425
 20
-76.42016
 11
80.598438
 21
-76.292925
  0
LINE
  8
ボルト／ビス
  6
CONTINUOUS
 62
    64
 10
80.154425
 20
-76.42016
 11
80.042605
 21
-76.868297
  0
LINE
  8
ボルト／ビス
  6
CONTINUOUS
 62
    64
 10
80.81881
 20
-77.061972
 11
80.930628
 21
-76.613832
  0
LINE
  8
ボルト／ビス
  6
CONTINUOUS
 62
    64
 10
80.81881
 20
-77.061972
 11
80.3748
 21
-77.189205
  0
CIRCLE
  8
ボルト／ビス
  6
CONTINUOUS
 62
    64
 10
80.48662
 20
-76.741065
 40
0.4
  0
LINE
  8
ボルト／ビス
  6
CONTINUOUS
 62
    64
 10
80.042605
 20
-76.868297
 11
80.3748
 21
-77.189205
  0
LINE
  8
ボルト／ビス
  6
CONTINUOUS
 62
    64
 10
80.598438
 20
-76.292925
 11
80.930628
 21
-76.613832
  0
LINE
  8
ボルト／ビス
  6
CONTINUOUS
 62
    64
 10
91.722677
 20
-64.445262
 11
92.16669
 21
-64.318033
  0
LINE
  8
ボルト／ビス
  6
CONTINUOUS
 62
    64
 10
91.722677
 20
-64.445262
 11
91.61086
 21
-64.893402
  0
LINE
  8
ボルト／ビス
  6
CONTINUOUS
 62
    64
 10
92.38706
 20
-65.087082
 11
92.498877
 21
-64.63894
  0
LINE
  8
ボルト／ビス
  6
CONTINUOUS
 62
    64
 10
92.38706
 20
-65.087082
 11
91.943045
 21
-65.214312
  0
CIRCLE
  8
ボルト／ビス
  6
CONTINUOUS
 62
    64
 10
92.054868
 20
-64.766172
 40
0.4
  0
LINE
  8
ボルト／ビス
  6
CONTINUOUS
 62
    64
 10
91.61086
 20
-64.893402
 11
91.943045
 21
-65.214312
  0
LINE
  8
ボルト／ビス
  6
CONTINUOUS
 62
    64
 10
92.16669
 20
-64.318033
 11
92.498877
 21
-64.63894
  0
ENDBLK
  0
BLOCK
  2
*GRP_0018
 70
    65
 10
0.0
 20
0.0
  0
LINE
  8
補助線
  6
BYBLOCK
 62
    64
 10
91.967963
 20
-88.626115
 11
92.141653
 21
-88.80592
  0
LINE
  8
補助線
  6
BYBLOCK
 62
    64
 10
92.14471
 20
-88.629173
 11
91.964905
 21
-88.802862
  0
LINE
  8
補助線
  6
BYBLOCK
 62
    64
 10
80.573467
 20
-76.83097
 11
80.39977
 21
-76.651163
  0
LINE
  8
補助線
  6
BYBLOCK
 62
    64
 10
80.576518
 20
-76.654217
 11
80.396715
 21
-76.827915
  0
LINE
  8
補助線
  6
BYBLOCK
 62
    64
 10
69.005215
 20
-64.856073
 11
68.831517
 21
-64.676272
  0
LINE
  8
補助線
  6
BYBLOCK
 62
    64
 10
69.008267
 20
-64.679325
 11
68.828465
 21
-64.853023
  0
LINE
  8
型材断面
  6
CONTINUOUS
 10
93.301223
 20
-88.207143
 11
93.282898
 21
-89.267642
  0
LINE
  8
型材断面
  6
CONTINUOUS
 10
93.282898
 20
-89.267642
 11
92.563682
 21
-89.962432
  0
LINE
  8
型材断面
  6
CONTINUOUS
 10
92.563682
 20
-89.962432
 11
91.503183
 21
-89.944107
  0
LINE
  8
型材断面
  6
CONTINUOUS
 10
69.469988
 20
-63.538077
 11
68.409488
 21
-63.519762
  0
LINE
  8
型材断面
  6
CONTINUOUS
 10
68.409488
 20
-63.519762
 11
67.69027
 21
-64.214552
  0
LINE
  8
型材断面
  6
CONTINUOUS
 10
67.69027
 20
-64.214552
 11
67.671955
 21
-65.275053
  0
LINE
  8
型材断面
  6
CONTINUOUS
 10
93.301223
 20
-88.207143
 11
69.470108
 21
-63.53808
  0
LINE
  8
型材断面
  6
CONTINUOUS
 10
91.503183
 20
-89.944107
 11
67.671957
 21
-65.274942
  0
LINE
  8
ボルト／ビス
  6
CONTINUOUS
 62
    64
 10
92.386997
 20
-88.395107
 11
92.498818
 21
-88.84325
  0
LINE
  8
ボルト／ビス
  6
CONTINUOUS
 62
    64
 10
92.386997
 20
-88.395107
 11
91.94299
 21
-88.26788
  0
LINE
  8
ボルト／ビス
  6
CONTINUOUS
 62
    64
 10
91.722617
 20
-89.036928
 11
92.166625
 21
-89.164155
  0
LINE
  8
ボルト／ビス
  6
CONTINUOUS
 62
    64
 10
91.722617
 20
-89.036928
 11
91.610798
 21
-88.588785
  0
CIRCLE
  8
ボルト／ビス
  6
CONTINUOUS
 62
    64
 10
92.054808
 20
-88.716017
 40
0.4
  0
LINE
  8
ボルト／ビス
  6
CONTINUOUS
 62
    64
 10
91.94299
 20
-88.26788
 11
91.610798
 21
-88.588785
  0
LINE
  8
ボルト／ビス
  6
CONTINUOUS
 62
    64
 10
92.498818
 20
-88.84325
 11
92.166625
 21
-89.164155
  0
LINE
  8
ボルト／ビス
  6
CONTINUOUS
 62
    64
 10
80.81881
 20
-76.42016
 11
80.374798
 21
-76.292925
  0
LINE
  8
ボルト／ビス
  6
CONTINUOUS
 62
    64
 10
80.81881
 20
-76.42016
 11
80.93063
 21
-76.868297
  0
LINE
  8
ボルト／ビス
  6
CONTINUOUS
 62
    64
 10
80.154425
 20
-77.061972
 11
80.042607
 21
-76.613832
  0
LINE
  8
ボルト／ビス
  6
CONTINUOUS
 62
    64
 10
80.154425
 20
-77.061972
 11
80.598435
 21
-77.189205
  0
CIRCLE
  8
ボルト／ビス
  6
CONTINUOUS
 62
    64
 10
80.486615
 20
-76.741065
 40
0.4
  0
LINE
  8
ボルト／ビス
  6
CONTINUOUS
 62
    64
 10
80.93063
 20
-76.868297
 11
80.598435
 21
-77.189205
  0
LINE
  8
ボルト／ビス
  6
CONTINUOUS
 62
    64
 10
80.374798
 20
-76.292925
 11
80.042607
 21
-76.613832
  0
LINE
  8
ボルト／ビス
  6
CONTINUOUS
 62
    64
 10
69.250557
 20
-64.445262
 11
68.806545
 21
-64.318033
  0
LINE
  8
ボルト／ビス
  6
CONTINUOUS
 62
    64
 10
69.250557
 20
-64.445262
 11
69.362375
 21
-64.893402
  0
LINE
  8
ボルト／ビス
  6
CONTINUOUS
 62
    64
 10
68.586175
 20
-65.087082
 11
68.474358
 21
-64.63894
  0
LINE
  8
ボルト／ビス
  6
CONTINUOUS
 62
    64
 10
68.586175
 20
-65.087082
 11
69.03019
 21
-65.214312
  0
CIRCLE
  8
ボルト／ビス
  6
CONTINUOUS
 62
    64
 10
68.918368
 20
-64.766172
 40
0.4
  0
LINE
  8
ボルト／ビス
  6
CONTINUOUS
 62
    64
 10
69.362375
 20
-64.893402
 11
69.03019
 21
-65.214312
  0
LINE
  8
ボルト／ビス
  6
CONTINUOUS
 62
    64
 10
68.806545
 20
-64.318033
 11
68.474358
 21
-64.63894
  0
ENDBLK
  0
BLOCK
  2
*DIM_0019
 70
    65
 10
0.0
 20
0.0
  0
LINE
  8
寸法
  6
CONTINUOUS
 10
142.954112
 20
24.692915
 11
160.010855
 21
24.692915
  0
LINE
  8
寸法
  6
CONTINUOUS
 10
142.954112
 20
68.182915
 11
160.010855
 21
68.182915
  0
LINE
  8
寸法
  6
CONTINUOUS
 10
160.010855
 20
24.692915
 11
160.010855
 21
68.182915
  0
POINT
  8
寸法
 10
160.010855
 20
24.692915
  0
POINT
  8
寸法
 10
160.010855
 20
68.182915
  0
TEXT
  7
TextStyle03
  8
寸法
  6
CONTINUOUS
 10
159.625
 20
42.3
  1
869.8
 40
3.0
 50
90.0
 72
     5
 11
159.625
 21
50.55
  0
ENDBLK
  0
BLOCK
  2
*DIM_0020
 70
    65
 10
0.0
 20
0.0
  0
LINE
  8
寸法
  6
CONTINUOUS
 10
138.0134
 20
70.70468
 11
138.0134
 21
88.643693
  0
LINE
  8
寸法
  6
CONTINUOUS
 10
49.0134
 20
70.70468
 11
49.0134
 21
88.643693
  0
LINE
  8
寸法
  6
CONTINUOUS
 10
138.0134
 20
88.643693
 11
49.0134
 21
88.643693
  0
POINT
  8
寸法
 10
138.0134
 20
88.643693
  0
POINT
  8
寸法
 10
49.0134
 20
88.643693
  0
TEXT
  7
TextStyle03
  8
寸法
  6
CONTINUOUS
 10
90.21875
 20
89.0
  1
1780
 40
3.0
 72
     5
 11
96.78125
 21
89.0
  0
ENDBLK
  0
BLOCK
  2
*GRP_0021
 70
    65
 10
0.0
 20
0.0
  0
LINE
  8
ボルト／ビス
  6
CONTINUOUS
 10
-135.38576
 20
-80.966093
 11
-135.38576
 21
-80.266093
  0
LINE
  8
ボルト／ビス
  6
CONTINUOUS
 10
-135.93576
 20
-80.966093
 11
-135.93576
 21
-80.866093
  0
LINE
  8
ボルト／ビス
  6
CONTINUOUS
 10
-135.93576
 20
-80.866093
 11
-134.83576
 21
-80.866093
  0
LINE
  8
ボルト／ビス
  6
CONTINUOUS
 10
-134.83576
 20
-80.866093
 11
-134.83576
 21
-80.966093
  0
LINE
  8
ボルト／ビス
  6
CONTINUOUS
 10
-135.93576
 20
-80.966093
 11
-134.83576
 21
-80.966093
  0
LINE
  8
ボルト／ビス
  6
CONTINUOUS
 10
-135.83576
 20
-80.816093
 11
-135.83576
 21
-80.866093
  0
LINE
  8
ボルト／ビス
  6
CONTINUOUS
 10
-135.83576
 20
-80.816093
 11
-134.93576
 21
-80.816093
  0
LINE
  8
ボルト／ビス
  6
CONTINUOUS
 10
-134.93576
 20
-80.816093
 11
-134.93576
 21
-80.866093
  0
LINE
  8
ボルト／ビス
  6
CONTINUOUS
 62
    64
 10
-135.626322
 20
-80.516093
 11
-135.674435
 21
-80.533605
  0
ARC
  8
ボルト／ビス
  6
CONTINUOUS
 62
    64
 10
-135.602265
 20
-80.67356
 40
0.157468
 50
62.721967
 51
90.0
  0
ARC
  8
ボルト／ビス
  6
CONTINUOUS
 62
    64
 10
-135.385758
 20
-81.119696
 40
0.603603
 50
76.165002
 51
103.834985
  0
LINE
  8
ボルト／ビス
  6
CONTINUOUS
 62
    64
 10
-135.145197
 20
-80.516093
 11
-135.097085
 21
-80.533605
  0
ARC
  8
ボルト／ビス
  6
CONTINUOUS
 62
    64
 10
-135.169252
 20
-80.67356
 40
0.157468
 50
90.0
 51
117.278033
  0
LINE
  8
ボルト／ビス
  6
CONTINUOUS
 62
    64
 10
-135.626322
 20
-80.516093
 11
-135.145197
 21
-80.516093
  0
LINE
  8
ボルト／ビス
  6
CONTINUOUS
 62
    64
 10
-135.097085
 20
-80.533605
 11
-135.097085
 21
-80.716093
  0
LINE
  8
ボルト／ビス
  6
CONTINUOUS
 62
    64
 10
-135.241423
 20
-80.533605
 11
-135.241423
 21
-80.716093
  0
LINE
  8
ボルト／ビス
  6
CONTINUOUS
 62
    64
 10
-135.674435
 20
-80.533605
 11
-135.674435
 21
-80.716093
  0
LINE
  8
ボルト／ビス
  6
CONTINUOUS
 62
    64
 10
-135.530098
 20
-80.533605
 11
-135.530098
 21
-80.716093
  0
LINE
  8
ボルト／ビス
  6
CONTINUOUS
 10
-135.674435
 20
-80.716093
 11
-135.097085
 21
-80.716093
  0
LINE
  8
ボルト／ビス
  6
CONTINUOUS
 10
-135.68576
 20
-80.716093
 11
-135.68576
 21
-80.816093
  0
LINE
  8
ボルト／ビス
  6
CONTINUOUS
 10
-135.68576
 20
-80.716093
 11
-135.08576
 21
-80.716093
  0
LINE
  8
ボルト／ビス
  6
CONTINUOUS
 10
-135.08576
 20
-80.716093
 11
-135.08576
 21
-80.816093
  0
ENDBLK
  0
BLOCK
  2
*GRP_0022
 70
    65
 10
0.0
 20
0.0
  0
LINE
  8
ボルト／ビス
  6
CONTINUOUS
 10
-43.38576
 20
-80.966093
 11
-43.38576
 21
-80.266093
  0
LINE
  8
ボルト／ビス
  6
CONTINUOUS
 10
-43.93576
 20
-80.966093
 11
-43.93576
 21
-80.866093
  0
LINE
  8
ボルト／ビス
  6
CONTINUOUS
 10
-43.93576
 20
-80.866093
 11
-42.83576
 21
-80.866093
  0
LINE
  8
ボルト／ビス
  6
CONTINUOUS
 10
-42.83576
 20
-80.866093
 11
-42.83576
 21
-80.966093
  0
LINE
  8
ボルト／ビス
  6
CONTINUOUS
 10
-43.93576
 20
-80.966093
 11
-42.83576
 21
-80.966093
  0
LINE
  8
ボルト／ビス
  6
CONTINUOUS
 10
-43.83576
 20
-80.816093
 11
-43.83576
 21
-80.866093
  0
LINE
  8
ボルト／ビス
  6
CONTINUOUS
 10
-43.83576
 20
-80.816093
 11
-42.93576
 21
-80.816093
  0
LINE
  8
ボルト／ビス
  6
CONTINUOUS
 10
-42.93576
 20
-80.816093
 11
-42.93576
 21
-80.866093
  0
LINE
  8
ボルト／ビス
  6
CONTINUOUS
 62
    64
 10
-43.626322
 20
-80.516093
 11
-43.674435
 21
-80.533605
  0
ARC
  8
ボルト／ビス
  6
CONTINUOUS
 62
    64
 10
-43.602265
 20
-80.67356
 40
0.157468
 50
62.721967
 51
90.0
  0
ARC
  8
ボルト／ビス
  6
CONTINUOUS
 62
    64
 10
-43.385758
 20
-81.119696
 40
0.603603
 50
76.165002
 51
103.834985
  0
LINE
  8
ボルト／ビス
  6
CONTINUOUS
 62
    64
 10
-43.145197
 20
-80.516093
 11
-43.097085
 21
-80.533605
  0
ARC
  8
ボルト／ビス
  6
CONTINUOUS
 62
    64
 10
-43.169252
 20
-80.67356
 40
0.157468
 50
90.0
 51
117.278033
  0
LINE
  8
ボルト／ビス
  6
CONTINUOUS
 62
    64
 10
-43.626322
 20
-80.516093
 11
-43.145197
 21
-80.516093
  0
LINE
  8
ボルト／ビス
  6
CONTINUOUS
 62
    64
 10
-43.097085
 20
-80.533605
 11
-43.097085
 21
-80.716093
  0
LINE
  8
ボルト／ビス
  6
CONTINUOUS
 62
    64
 10
-43.241423
 20
-80.533605
 11
-43.241423
 21
-80.716093
  0
LINE
  8
ボルト／ビス
  6
CONTINUOUS
 62
    64
 10
-43.674435
 20
-80.533605
 11
-43.674435
 21
-80.716093
  0
LINE
  8
ボルト／ビス
  6
CONTINUOUS
 62
    64
 10
-43.530098
 20
-80.533605
 11
-43.530098
 21
-80.716093
  0
LINE
  8
ボルト／ビス
  6
CONTINUOUS
 10
-43.674435
 20
-80.716093
 11
-43.097085
 21
-80.716093
  0
LINE
  8
ボルト／ビス
  6
CONTINUOUS
 10
-43.68576
 20
-80.716093
 11
-43.68576
 21
-80.816093
  0
LINE
  8
ボルト／ビス
  6
CONTINUOUS
 10
-43.68576
 20
-80.716093
 11
-43.08576
 21
-80.716093
  0
LINE
  8
ボルト／ビス
  6
CONTINUOUS
 10
-43.08576
 20
-80.716093
 11
-43.08576
 21
-80.816093
  0
ENDBLK
  0
BLOCK
  2
*GRP_0023
 70
    65
 10
0.0
 20
0.0
  0
LINE
  8
ボルト／ビス
  6
CONTINUOUS
 10
60.948367
 20
-80.966093
 11
60.948367
 21
-80.266093
  0
LINE
  8
ボルト／ビス
  6
CONTINUOUS
 10
60.398367
 20
-80.966093
 11
60.398367
 21
-80.866093
  0
LINE
  8
ボルト／ビス
  6
CONTINUOUS
 10
60.398367
 20
-80.866093
 11
61.498367
 21
-80.866093
  0
LINE
  8
ボルト／ビス
  6
CONTINUOUS
 10
61.498367
 20
-80.866093
 11
61.498367
 21
-80.966093
  0
LINE
  8
ボルト／ビス
  6
CONTINUOUS
 10
60.398367
 20
-80.966093
 11
61.498367
 21
-80.966093
  0
LINE
  8
ボルト／ビス
  6
CONTINUOUS
 10
60.498367
 20
-80.816093
 11
60.498367
 21
-80.866093
  0
LINE
  8
ボルト／ビス
  6
CONTINUOUS
 10
60.498367
 20
-80.816093
 11
61.398367
 21
-80.816093
  0
LINE
  8
ボルト／ビス
  6
CONTINUOUS
 10
61.398367
 20
-80.816093
 11
61.398367
 21
-80.866093
  0
LINE
  8
ボルト／ビス
  6
CONTINUOUS
 62
    64
 10
60.707805
 20
-80.516093
 11
60.659692
 21
-80.533605
  0
ARC
  8
ボルト／ビス
  6
CONTINUOUS
 62
    64
 10
60.731862
 20
-80.673559
 40
0.157468
 50
62.721967
 51
90.0
  0
ARC
  8
ボルト／ビス
  6
CONTINUOUS
 62
    64
 10
60.948368
 20
-81.119694
 40
0.603603
 50
76.165002
 51
103.834985
  0
LINE
  8
ボルト／ビス
  6
CONTINUOUS
 62
    64
 10
61.18893
 20
-80.516093
 11
61.237042
 21
-80.533605
  0
ARC
  8
ボルト／ビス
  6
CONTINUOUS
 62
    64
 10
61.164874
 20
-80.673559
 40
0.157468
 50
90.0
 51
117.278033
  0
LINE
  8
ボルト／ビス
  6
CONTINUOUS
 62
    64
 10
60.707805
 20
-80.516093
 11
61.18893
 21
-80.516093
  0
LINE
  8
ボルト／ビス
  6
CONTINUOUS
 62
    64
 10
61.237042
 20
-80.533605
 11
61.237042
 21
-80.716093
  0
LINE
  8
ボルト／ビス
  6
CONTINUOUS
 62
    64
 10
61.092705
 20
-80.533605
 11
61.092705
 21
-80.716093
  0
LINE
  8
ボルト／ビス
  6
CONTINUOUS
 62
    64
 10
60.659692
 20
-80.533605
 11
60.659692
 21
-80.716093
  0
LINE
  8
ボルト／ビス
  6
CONTINUOUS
 62
    64
 10
60.80403
 20
-80.533605
 11
60.80403
 21
-80.716093
  0
LINE
  8
ボルト／ビス
  6
CONTINUOUS
 10
60.659692
 20
-80.716093
 11
61.237042
 21
-80.716093
  0
LINE
  8
ボルト／ビス
  6
CONTINUOUS
 10
60.648367
 20
-80.716093
 11
60.648367
 21
-80.816093
  0
LINE
  8
ボルト／ビス
  6
CONTINUOUS
 10
60.648367
 20
-80.716093
 11
61.248367
 21
-80.716093
  0
LINE
  8
ボルト／ビス
  6
CONTINUOUS
 10
61.248367
 20
-80.716093
 11
61.248367
 21
-80.816093
  0
ENDBLK
  0
BLOCK
  2
*GRP_0024
 70
    65
 10
0.0
 20
0.0
  0
LINE
  8
ボルト／ビス
  6
CONTINUOUS
 10
152.948367
 20
-80.966093
 11
152.948367
 21
-80.266093
  0
LINE
  8
ボルト／ビス
  6
CONTINUOUS
 10
152.398367
 20
-80.966093
 11
152.398367
 21
-80.866093
  0
LINE
  8
ボルト／ビス
  6
CONTINUOUS
 10
152.398367
 20
-80.866093
 11
153.498367
 21
-80.866093
  0
LINE
  8
ボルト／ビス
  6
CONTINUOUS
 10
153.498367
 20
-80.866093
 11
153.498367
 21
-80.966093
  0
LINE
  8
ボルト／ビス
  6
CONTINUOUS
 10
152.398367
 20
-80.966093
 11
153.498367
 21
-80.966093
  0
LINE
  8
ボルト／ビス
  6
CONTINUOUS
 10
152.498367
 20
-80.816093
 11
152.498367
 21
-80.866093
  0
LINE
  8
ボルト／ビス
  6
CONTINUOUS
 10
152.498367
 20
-80.816093
 11
153.398367
 21
-80.816093
  0
LINE
  8
ボルト／ビス
  6
CONTINUOUS
 10
153.398367
 20
-80.816093
 11
153.398367
 21
-80.866093
  0
LINE
  8
ボルト／ビス
  6
CONTINUOUS
 62
    64
 10
152.707805
 20
-80.516093
 11
152.659692
 21
-80.533605
  0
ARC
  8
ボルト／ビス
  6
CONTINUOUS
 62
    64
 10
152.731862
 20
-80.673559
 40
0.157468
 50
62.721967
 51
90.0
  0
ARC
  8
ボルト／ビス
  6
CONTINUOUS
 62
    64
 10
152.948368
 20
-81.119694
 40
0.603603
 50
76.165002
 51
103.834985
  0
LINE
  8
ボルト／ビス
  6
CONTINUOUS
 62
    64
 10
153.18893
 20
-80.516093
 11
153.237042
 21
-80.533605
  0
ARC
  8
ボルト／ビス
  6
CONTINUOUS
 62
    64
 10
153.164874
 20
-80.673559
 40
0.157468
 50
90.0
 51
117.278033
  0
LINE
  8
ボルト／ビス
  6
CONTINUOUS
 62
    64
 10
152.707805
 20
-80.516093
 11
153.18893
 21
-80.516093
  0
LINE
  8
ボルト／ビス
  6
CONTINUOUS
 62
    64
 10
153.237042
 20
-80.533605
 11
153.237042
 21
-80.716093
  0
LINE
  8
ボルト／ビス
  6
CONTINUOUS
 62
    64
 10
153.092705
 20
-80.533605
 11
153.092705
 21
-80.716093
  0
LINE
  8
ボルト／ビス
  6
CONTINUOUS
 62
    64
 10
152.659692
 20
-80.533605
 11
152.659692
 21
-80.716093
  0
LINE
  8
ボルト／ビス
  6
CONTINUOUS
 62
    64
 10
152.80403
 20
-80.533605
 11
152.80403
 21
-80.716093
  0
LINE
  8
ボルト／ビス
  6
CONTINUOUS
 10
152.659692
 20
-80.716093
 11
153.237042
 21
-80.716093
  0
LINE
  8
ボルト／ビス
  6
CONTINUOUS
 10
152.648367
 20
-80.716093
 11
152.648367
 21
-80.816093
  0
LINE
  8
ボルト／ビス
  6
CONTINUOUS
 10
152.648367
 20
-80.716093
 11
153.248367
 21
-80.716093
  0
LINE
  8
ボルト／ビス
  6
CONTINUOUS
 10
153.248367
 20
-80.716093
 11
153.248367
 21
-80.816093
  0
ENDBLK
  0
BLOCK
  2
*GRP_0025
 70
    65
 10
0.0
 20
0.0
  0
LINE
  8
型材断面
  6
DOT
 62
    47
 10
154.043368
 20
-66.691018
 11
152.873367
 21
-66.691018
  0
LINE
  8
型材断面
  6
DOT
 10
154.193368
 20
-63.941018
 11
154.193368
 21
-63.266017
  0
LINE
  8
型材断面
  6
DOT
 62
    47
 10
155.368368
 20
-67.950055
 11
155.368368
 21
-67.450055
  0
LINE
  8
型材断面
  6
DOT
 62
    47
 10
155.368368
 20
-67.450055
 11
154.193368
 21
-67.300055
  0
LINE
  8
型材断面
  6
DOT
 62
    47
 10
154.193368
 20
-66.691018
 11
154.193368
 21
-67.300055
  0
LINE
  8
型材断面
  6
DOT
 62
    47
 10
154.898367
 20
-66.691018
 11
154.898367
 21
-63.941018
  0
LINE
  8
型材断面
  6
DOT
 62
    47
 10
155.368368
 20
-67.950055
 11
106.948367
 21
-67.950055
  0
LINE
  8
型材断面
  6
DOT
 10
155.368368
 20
-67.450055
 11
106.948367
 21
-67.450055
  0
LINE
  8
型材断面
  6
DOT
 62
    47
 10
154.898367
 20
-66.691018
 11
106.948367
 21
-66.691018
  0
LINE
  8
型材断面
  6
DOT
 10
154.193368
 20
-67.300055
 11
106.948367
 21
-67.300055
  0
LINE
  8
型材断面
  6
DOT
 10
154.898367
 20
-63.941018
 11
106.948367
 21
-63.941018
  0
LINE
  8
型材断面
  6
DOT
 10
154.193368
 20
-63.266017
 11
106.948367
 21
-63.266017
  0
LINE
  8
型材断面
  6
DOT
 62
    47
 10
59.853368
 20
-66.691018
 11
61.023367
 21
-66.691018
  0
LINE
  8
型材断面
  6
DOT
 10
59.703368
 20
-63.941018
 11
59.703368
 21
-63.266017
  0
LINE
  8
型材断面
  6
DOT
 62
    47
 10
58.528368
 20
-67.950055
 11
58.528368
 21
-67.450055
  0
LINE
  8
型材断面
  6
DOT
 62
    47
 10
58.528368
 20
-67.450055
 11
59.703368
 21
-67.300055
  0
LINE
  8
型材断面
  6
DOT
 62
    47
 10
59.703368
 20
-66.691018
 11
59.703368
 21
-67.300055
  0
LINE
  8
型材断面
  6
DOT
 62
    47
 10
58.998367
 20
-66.691018
 11
58.998367
 21
-63.941018
  0
LINE
  8
型材断面
  6
DOT
 62
    47
 10
58.528368
 20
-67.950055
 11
106.948367
 21
-67.950055
  0
LINE
  8
型材断面
  6
DOT
 10
58.528368
 20
-67.450055
 11
106.948367
 21
-67.450055
  0
LINE
  8
型材断面
  6
DOT
 62
    47
 10
58.998367
 20
-66.691018
 11
106.948367
 21
-66.691018
  0
LINE
  8
型材断面
  6
DOT
 10
59.703368
 20
-67.300055
 11
106.948367
 21
-67.300055
  0
LINE
  8
型材断面
  6
DOT
 10
58.998367
 20
-63.941018
 11
106.948367
 21
-63.941018
  0
LINE
  8
型材断面
  6
DOT
 10
59.703368
 20
-63.266017
 11
106.948367
 21
-63.266017
  0
LINE
  8
別途部材
  6
DOT
 62
    96
 10
154.448367
 20
-61.71609
 11
155.048367
 21
-63.21609
  0
LINE
  8
別途部材
  6
DOT
 62
    96
 10
154.448367
 20
-61.71609
 11
106.948367
 21
-61.71609
  0
LINE
  8
別途部材
  6
DOT
 10
155.048367
 20
-63.21609
 11
106.948367
 21
-63.21609
  0
LINE
  8
別途部材
  6
DOT
 62
    96
 10
59.448367
 20
-61.71609
 11
58.848367
 21
-63.21609
  0
LINE
  8
別途部材
  6
DOT
 62
    96
 10
59.448367
 20
-61.71609
 11
106.948367
 21
-61.71609
  0
LINE
  8
別途部材
  6
DOT
 10
58.848367
 20
-63.21609
 11
106.948367
 21
-63.21609
  0
ARC
  8
別途部材
  6
DOT
 10
106.948368
 20
-95.46609
 40
56.25
 50
36.869898
 51
143.130102
  0
INSERT
  2
*GRP_0026
  8
別途部材
  6
DOT
 10
0.0
 20
0.0
  0
INSERT
  2
*GRP_0027
  8
別途部材
  6
DOT
 10
0.0
 20
0.0
  0
ENDBLK
  0
BLOCK
  2
*GRP_0026
 70
    65
 10
0.0
 20
0.0
  0
LINE
  8
ボルト／ビス
  6
DOT
 10
60.948367
 20
-61.716093
 11
60.948367
 21
-61.016093
  0
LINE
  8
ボルト／ビス
  6
DOT
 10
60.398367
 20
-61.716093
 11
60.398367
 21
-61.616093
  0
LINE
  8
ボルト／ビス
  6
DOT
 10
60.398367
 20
-61.616093
 11
61.498367
 21
-61.616093
  0
LINE
  8
ボルト／ビス
  6
DOT
 10
61.498367
 20
-61.616093
 11
61.498367
 21
-61.716093
  0
LINE
  8
ボルト／ビス
  6
DOT
 10
60.398367
 20
-61.716093
 11
61.498367
 21
-61.716093
  0
LINE
  8
ボルト／ビス
  6
DOT
 10
60.498367
 20
-61.566093
 11
60.498367
 21
-61.616093
  0
LINE
  8
ボルト／ビス
  6
DOT
 10
60.498367
 20
-61.566093
 11
61.398367
 21
-61.566093
  0
LINE
  8
ボルト／ビス
  6
DOT
 10
61.398367
 20
-61.566093
 11
61.398367
 21
-61.616093
  0
LINE
  8
ボルト／ビス
  6
DOT
 62
    64
 10
60.707805
 20
-61.266093
 11
60.659692
 21
-61.283605
  0
ARC
  8
ボルト／ビス
  6
DOT
 62
    64
 10
60.731862
 20
-61.423559
 40
0.157468
 50
62.721967
 51
90.0
  0
ARC
  8
ボルト／ビス
  6
DOT
 62
    64
 10
60.948368
 20
-61.869695
 40
0.603603
 50
76.165002
 51
103.834985
  0
LINE
  8
ボルト／ビス
  6
DOT
 62
    64
 10
61.18893
 20
-61.266093
 11
61.237042
 21
-61.283605
  0
ARC
  8
ボルト／ビス
  6
DOT
 62
    64
 10
61.164874
 20
-61.423559
 40
0.157468
 50
90.0
 51
117.278033
  0
LINE
  8
ボルト／ビス
  6
DOT
 62
    64
 10
60.707805
 20
-61.266093
 11
61.18893
 21
-61.266093
  0
LINE
  8
ボルト／ビス
  6
DOT
 62
    64
 10
61.237042
 20
-61.283605
 11
61.237042
 21
-61.466093
  0
LINE
  8
ボルト／ビス
  6
DOT
 62
    64
 10
61.092705
 20
-61.283605
 11
61.092705
 21
-61.466093
  0
LINE
  8
ボルト／ビス
  6
DOT
 62
    64
 10
60.659692
 20
-61.283605
 11
60.659692
 21
-61.466093
  0
LINE
  8
ボルト／ビス
  6
DOT
 62
    64
 10
60.80403
 20
-61.283605
 11
60.80403
 21
-61.466093
  0
LINE
  8
ボルト／ビス
  6
DOT
 10
60.659692
 20
-61.466093
 11
61.237042
 21
-61.466093
  0
LINE
  8
ボルト／ビス
  6
DOT
 10
60.648367
 20
-61.466093
 11
60.648367
 21
-61.566093
  0
LINE
  8
ボルト／ビス
  6
DOT
 10
60.648367
 20
-61.466093
 11
61.248367
 21
-61.466093
  0
LINE
  8
ボルト／ビス
  6
DOT
 10
61.248367
 20
-61.466093
 11
61.248367
 21
-61.566093
  0
ENDBLK
  0
BLOCK
  2
*GRP_0027
 70
    65
 10
0.0
 20
0.0
  0
LINE
  8
ボルト／ビス
  6
DOT
 10
152.948367
 20
-61.716093
 11
152.948367
 21
-61.016093
  0
LINE
  8
ボルト／ビス
  6
DOT
 10
152.398367
 20
-61.716093
 11
152.398367
 21
-61.616093
  0
LINE
  8
ボルト／ビス
  6
DOT
 10
152.398367
 20
-61.616093
 11
153.498367
 21
-61.616093
  0
LINE
  8
ボルト／ビス
  6
DOT
 10
153.498367
 20
-61.616093
 11
153.498367
 21
-61.716093
  0
LINE
  8
ボルト／ビス
  6
DOT
 10
152.398367
 20
-61.716093
 11
153.498367
 21
-61.716093
  0
LINE
  8
ボルト／ビス
  6
DOT
 10
152.498367
 20
-61.566093
 11
152.498367
 21
-61.616093
  0
LINE
  8
ボルト／ビス
  6
DOT
 10
152.498367
 20
-61.566093
 11
153.398367
 21
-61.566093
  0
LINE
  8
ボルト／ビス
  6
DOT
 10
153.398367
 20
-61.566093
 11
153.398367
 21
-61.616093
  0
LINE
  8
ボルト／ビス
  6
DOT
 62
    64
 10
152.707805
 20
-61.266093
 11
152.659692
 21
-61.283605
  0
ARC
  8
ボルト／ビス
  6
DOT
 62
    64
 10
152.731862
 20
-61.423559
 40
0.157468
 50
62.721967
 51
90.0
  0
ARC
  8
ボルト／ビス
  6
DOT
 62
    64
 10
152.948368
 20
-61.869695
 40
0.603603
 50
76.165002
 51
103.834985
  0
LINE
  8
ボルト／ビス
  6
DOT
 62
    64
 10
153.18893
 20
-61.266093
 11
153.237042
 21
-61.283605
  0
ARC
  8
ボルト／ビス
  6
DOT
 62
    64
 10
153.164874
 20
-61.423559
 40
0.157468
 50
90.0
 51
117.278033
  0
LINE
  8
ボルト／ビス
  6
DOT
 62
    64
 10
152.707805
 20
-61.266093
 11
153.18893
 21
-61.266093
  0
LINE
  8
ボルト／ビス
  6
DOT
 62
    64
 10
153.237042
 20
-61.283605
 11
153.237042
 21
-61.466093
  0
LINE
  8
ボルト／ビス
  6
DOT
 62
    64
 10
153.092705
 20
-61.283605
 11
153.092705
 21
-61.466093
  0
LINE
  8
ボルト／ビス
  6
DOT
 62
    64
 10
152.659692
 20
-61.283605
 11
152.659692
 21
-61.466093
  0
LINE
  8
ボルト／ビス
  6
DOT
 62
    64
 10
152.80403
 20
-61.283605
 11
152.80403
 21
-61.466093
  0
LINE
  8
ボルト／ビス
  6
DOT
 10
152.659692
 20
-61.466093
 11
153.237042
 21
-61.466093
  0
LINE
  8
ボルト／ビス
  6
DOT
 10
152.648367
 20
-61.466093
 11
152.648367
 21
-61.566093
  0
LINE
  8
ボルト／ビス
  6
DOT
 10
152.648367
 20
-61.466093
 11
153.248367
 21
-61.466093
  0
LINE
  8
ボルト／ビス
  6
DOT
 10
153.248367
 20
-61.466093
 11
153.248367
 21
-61.566093
  0
ENDBLK
  0
ENDSEC
  0
SECTION
  2
ENTITIES
  0
POLYLINE
  8
通り芯
  6
CONTINUOUS
 66
     1
 70
     1
  0
VERTEX
  8
通り芯
 10
-210.0
 20
-148.5
  0
VERTEX
  8
通り芯
 10
210.0
 20
-148.5
  0
VERTEX
  8
通り芯
 10
210.0
 20
148.5
  0
VERTEX
  8
通り芯
 10
-210.0
 20
148.5
  0
SEQEND
  0
INSERT
  2
*GRP_0001
  8
型材断面
  6
CONTINUOUS
 10
0.0
 20
0.0
  0
LINE
  8
型材断面
  6
CONTINUOUS
 10
-1.119228
 20
-11.256877
 11
-3.362673
 21
-15.142638
  0
LINE
  8
型材断面
  6
CONTINUOUS
 10
-1.119228
 20
-11.256877
 11
1.124217
 21
-15.142638
  0
LINE
  8
型材断面
  6
CONTINUOUS
 10
1.124217
 20
-15.142638
 11
-3.362673
 21
-15.142638
  0
LINE
  8
型材断面
  6
CONTINUOUS
 10
-1.119228
 20
-18.946425
 11
-0.225143
 21
-22.832185
  0
LINE
  8
型材断面
  6
CONTINUOUS
 10
-1.119228
 20
-18.946425
 11
-2.013313
 21
-22.832185
  0
LINE
  8
型材断面
  6
CONTINUOUS
 10
-2.013313
 20
-22.832185
 11
-0.225143
 21
-22.832185
  0
LINE
  8
型材断面
  6
CONTINUOUS
 10
-10.153107
 20
-16.55053
 11
42.503572
 21
-16.55053
  0
LINE
  8
型材断面
  6
CONTINUOUS
 10
-10.153107
 20
-27.750522
 11
42.503572
 21
-27.750522
  0
LINE
  8
型材断面
  6
CONTINUOUS
 10
-10.153107
 20
-34.590467
 11
42.503572
 21
-34.590467
  0
LINE
  8
型材断面
  6
CONTINUOUS
 10
-10.153107
 20
-41.430412
 11
42.503572
 21
-41.430412
  0
LINE
  8
型材断面
  6
CONTINUOUS
 10
-36.361882
 20
32.974165
 11
-32.476123
 21
30.73072
  0
LINE
  8
型材断面
  6
CONTINUOUS
 10
-36.361882
 20
32.974165
 11
-32.476123
 21
35.21761
  0
LINE
  8
型材断面
  6
CONTINUOUS
 10
-32.476123
 20
35.21761
 11
-32.476123
 21
30.73072
  0
LINE
  8
型材断面
  6
CONTINUOUS
 62
    47
 10
-42.29076
 20
-85.941018
 11
-43.46076
 21
-85.941018
  0
LINE
  8
型材断面
  6
CONTINUOUS
 10
-42.14076
 20
-83.191018
 11
-42.14076
 21
-82.516018
  0
LINE
  8
型材断面
  6
CONTINUOUS
 62
    47
 10
-40.96576
 20
-87.200055
 11
-40.96576
 21
-86.700055
  0
LINE
  8
型材断面
  6
CONTINUOUS
 62
    47
 10
-40.96576
 20
-86.700055
 11
-42.14076
 21
-86.550055
  0
LINE
  8
型材断面
  6
CONTINUOUS
 62
    47
 10
-42.14076
 20
-85.941018
 11
-42.14076
 21
-86.550055
  0
LINE
  8
型材断面
  6
CONTINUOUS
 62
    47
 10
-41.43576
 20
-85.941018
 11
-41.43576
 21
-83.191018
  0
LINE
  8
型材断面
  6
CONTINUOUS
 62
    47
 10
-42.28576
 20
-91.891018
 11
-42.28576
 21
-91.141018
  0
LINE
  8
型材断面
  6
CONTINUOUS
 62
    47
 10
-41.43576
 20
-91.141018
 11
-41.43576
 21
-87.200055
  0
LINE
  8
型材断面
  6
CONTINUOUS
 62
    47
 10
-42.28576
 20
-91.891018
 11
-89.38576
 21
-91.891018
  0
LINE
  8
型材断面
  6
CONTINUOUS
 62
    47
 10
-41.43576
 20
-91.141018
 11
-89.38576
 21
-91.141018
  0
LINE
  8
型材断面
  6
CONTINUOUS
 62
    47
 10
-40.96576
 20
-87.200055
 11
-89.38576
 21
-87.200055
  0
LINE
  8
型材断面
  6
CONTINUOUS
 10
-40.96576
 20
-86.700055
 11
-89.38576
 21
-86.700055
  0
LINE
  8
型材断面
  6
CONTINUOUS
 62
    47
 10
-41.43576
 20
-85.941018
 11
-89.38576
 21
-85.941018
  0
LINE
  8
型材断面
  6
CONTINUOUS
 10
-42.14076
 20
-86.550055
 11
-89.38576
 21
-86.550055
  0
LINE
  8
型材断面
  6
CONTINUOUS
 10
-41.43576
 20
-83.191018
 11
-89.38576
 21
-83.191018
  0
LINE
  8
型材断面
  6
CONTINUOUS
 10
-42.14076
 20
-82.516018
 11
-89.38576
 21
-82.516018
  0
LINE
  8
型材断面
  6
CONTINUOUS
 10
-142.409638
 20
32.974165
 11
-146.295398
 21
30.73072
  0
LINE
  8
型材断面
  6
CONTINUOUS
 10
-142.409638
 20
32.974165
 11
-146.295398
 21
35.21761
  0
LINE
  8
型材断面
  6
CONTINUOUS
 10
-146.295398
 20
35.21761
 11
-146.295398
 21
30.73072
  0
LINE
  8
型材断面
  6
DASHDOT
 10
-134.38576
 20
-82.516018
 11
-134.38576
 21
-91.546115
  0
LINE
  8
型材断面
  6
CONTINUOUS
 62
    47
 10
-136.48076
 20
-85.941018
 11
-135.31076
 21
-85.941018
  0
LINE
  8
型材断面
  6
CONTINUOUS
 10
-136.63076
 20
-83.191018
 11
-136.63076
 21
-82.516018
  0
LINE
  8
型材断面
  6
CONTINUOUS
 62
    47
 10
-137.80576
 20
-87.200055
 11
-137.80576
 21
-86.700055
  0
LINE
  8
型材断面
  6
CONTINUOUS
 62
    47
 10
-137.80576
 20
-86.700055
 11
-136.63076
 21
-86.550055
  0
LINE
  8
型材断面
  6
CONTINUOUS
 62
    47
 10
-136.63076
 20
-85.941018
 11
-136.63076
 21
-86.550055
  0
LINE
  8
型材断面
  6
CONTINUOUS
 62
    47
 10
-137.33576
 20
-85.941018
 11
-137.33576
 21
-83.191018
  0
LINE
  8
型材断面
  6
CONTINUOUS
 62
    47
 10
-136.48576
 20
-91.891018
 11
-136.48576
 21
-91.141018
  0
LINE
  8
型材断面
  6
CONTINUOUS
 62
    47
 10
-137.33576
 20
-91.141018
 11
-137.33576
 21
-87.200055
  0
LINE
  8
型材断面
  6
CONTINUOUS
 62
    47
 10
-136.48576
 20
-91.891018
 11
-89.38576
 21
-91.891018
  0
LINE
  8
型材断面
  6
CONTINUOUS
 62
    47
 10
-137.33576
 20
-91.141018
 11
-89.38576
 21
-91.141018
  0
LINE
  8
型材断面
  6
CONTINUOUS
 62
    47
 10
-137.80576
 20
-87.200055
 11
-89.38576
 21
-87.200055
  0
LINE
  8
型材断面
  6
CONTINUOUS
 10
-137.80576
 20
-86.700055
 11
-89.38576
 21
-86.700055
  0
LINE
  8
型材断面
  6
CONTINUOUS
 62
    47
 10
-137.33576
 20
-85.941018
 11
-89.38576
 21
-85.941018
  0
LINE
  8
型材断面
  6
CONTINUOUS
 10
-136.63076
 20
-86.550055
 11
-89.38576
 21
-86.550055
  0
LINE
  8
型材断面
  6
CONTINUOUS
 10
-137.33576
 20
-83.191018
 11
-89.38576
 21
-83.191018
  0
LINE
  8
型材断面
  6
CONTINUOUS
 10
-136.63076
 20
-82.516018
 11
-89.38576
 21
-82.516018
  0
LINE
  8
型材断面
  6
DASHDOT
 10
-134.38576
 20
32.974165
 11
-44.38576
 21
32.974165
  0
LINE
  8
型材断面
  6
DOT
 10
-134.38576
 20
34.849165
 11
-44.38576
 21
34.849165
  0
LINE
  8
型材断面
  6
DOT
 10
-134.38576
 20
31.099165
 11
-44.38576
 21
31.099165
  0
LINE
  8
型材断面
  6
DASHDOT
 10
-89.38576
 20
-96.480105
 11
-89.38576
 21
77.974165
  0
LINE
  8
型材断面
  6
CONTINUOUS
 10
-89.38576
 20
85.99804
 11
-91.629205
 21
89.8838
  0
LINE
  8
型材断面
  6
CONTINUOUS
 10
-89.38576
 20
85.99804
 11
-87.142315
 21
89.8838
  0
LINE
  8
型材断面
  6
CONTINUOUS
 10
-87.142315
 20
89.8838
 11
-91.629205
 21
89.8838
  0
LINE
  8
型材断面
  6
DOT
 10
-91.26076
 20
77.974165
 11
-91.26076
 21
34.849165
  0
LINE
  8
型材断面
  6
DOT
 10
-87.51076
 20
77.974165
 11
-87.51076
 21
34.849165
  0
POLYLINE
  8
型材断面
  6
CONTINUOUS
 66
     1
 70
     1
  0
VERTEX
  8
型材断面
 10
-80.0561
 20
95.580968
  0
VERTEX
  8
型材断面
 10
-98.611312
 20
95.580968
  0
VERTEX
  8
型材断面
 10
-98.611312
 20
90.788933
  0
VERTEX
  8
型材断面
 10
-80.0561
 20
90.788933
  0
SEQEND
  0
LINE
  8
型材断面
  6
DASHDOT
 10
-44.38576
 20
-96.480105
 11
-44.38576
 21
77.974165
  0
LINE
  8
型材断面
  6
CONTINUOUS
 10
-41.28576
 20
81.074165
 11
-40.96576
 21
81.394165
  0
LINE
  8
型材断面
  6
CONTINUOUS
 10
-40.96576
 20
81.394165
 11
-40.96576
 21
32.974165
  0
LINE
  8
型材断面
  6
CONTINUOUS
 10
-40.96576
 20
81.394165
 11
-89.38576
 21
81.394165
  0
LINE
  8
型材断面
  6
CONTINUOUS
 10
-36.36188
 20
72.124165
 11
-32.47612
 21
71.23008
  0
LINE
  8
型材断面
  6
CONTINUOUS
 10
-36.36188
 20
72.124165
 11
-32.47612
 21
73.01825
  0
LINE
  8
型材断面
  6
CONTINUOUS
 10
-32.47612
 20
73.01825
 11
-32.47612
 21
71.23008
  0
LINE
  8
型材断面
  6
DASHDOT
 10
-134.38576
 20
-96.480105
 11
-134.38576
 21
77.974165
  0
LINE
  8
型材断面
  6
CONTINUOUS
 10
-137.48576
 20
81.074165
 11
-137.80576
 21
81.394165
  0
LINE
  8
型材断面
  6
CONTINUOUS
 10
-137.80576
 20
81.394165
 11
-137.80576
 21
32.974165
  0
LINE
  8
型材断面
  6
CONTINUOUS
 10
-137.80576
 20
81.394165
 11
-89.38576
 21
81.394165
  0
LINE
  8
型材断面
  6
CONTINUOUS
 10
-142.40964
 20
72.124165
 11
-146.2954
 21
71.23008
  0
LINE
  8
型材断面
  6
CONTINUOUS
 10
-142.40964
 20
72.124165
 11
-146.2954
 21
73.01825
  0
LINE
  8
型材断面
  6
CONTINUOUS
 10
-146.2954
 20
73.01825
 11
-146.2954
 21
71.23008
  0
LINE
  8
型材断面
  6
DASHDOT
 10
-134.38576
 20
77.974165
 11
-44.38576
 21
77.974165
  0
LINE
  8
型材断面
  6
CONTINUOUS
 10
-89.38576
 20
-20.04971
 11
-91.629205
 21
-23.93547
  0
LINE
  8
型材断面
  6
CONTINUOUS
 10
-89.38576
 20
-20.04971
 11
-87.142315
 21
-23.93547
  0
LINE
  8
型材断面
  6
CONTINUOUS
 10
-87.142315
 20
-23.93547
 11
-91.629205
 21
-23.93547
  0
LINE
  8
型材断面
  6
DOT
 10
-91.26076
 20
-12.025835
 11
-91.26076
 21
31.099165
  0
LINE
  8
型材断面
  6
DOT
 10
-87.51076
 20
-12.025835
 11
-87.51076
 21
31.099165
  0
POLYLINE
  8
型材断面
  6
CONTINUOUS
 66
     1
 70
     1
  0
VERTEX
  8
型材断面
 10
-80.0561
 20
-25.02749
  0
VERTEX
  8
型材断面
 10
-98.611312
 20
-25.02749
  0
VERTEX
  8
型材断面
 10
-98.611312
 20
-29.819525
  0
VERTEX
  8
型材断面
 10
-80.0561
 20
-29.819525
  0
SEQEND
  0
LINE
  8
型材断面
  6
CONTINUOUS
 10
-41.28576
 20
-15.125835
 11
-40.96576
 21
-15.445835
  0
LINE
  8
型材断面
  6
CONTINUOUS
 10
-40.96576
 20
-15.445835
 11
-40.96576
 21
32.974165
  0
LINE
  8
型材断面
  6
CONTINUOUS
 10
-40.96576
 20
-15.445835
 11
-89.38576
 21
-15.445835
  0
LINE
  8
型材断面
  6
CONTINUOUS
 10
-36.36188
 20
-6.175835
 11
-32.47612
 21
-5.28175
  0
LINE
  8
型材断面
  6
CONTINUOUS
 10
-36.36188
 20
-6.175835
 11
-32.47612
 21
-7.06992
  0
LINE
  8
型材断面
  6
CONTINUOUS
 10
-32.47612
 20
-7.06992
 11
-32.47612
 21
-5.28175
  0
LINE
  8
型材断面
  6
CONTINUOUS
 10
-137.48576
 20
-15.125835
 11
-137.80576
 21
-15.445835
  0
LINE
  8
型材断面
  6
CONTINUOUS
 10
-137.80576
 20
-15.445835
 11
-137.80576
 21
32.974165
  0
LINE
  8
型材断面
  6
CONTINUOUS
 10
-137.80576
 20
-15.445835
 11
-89.38576
 21
-15.445835
  0
LINE
  8
型材断面
  6
CONTINUOUS
 10
-142.40964
 20
-6.175835
 11
-146.2954
 21
-5.28175
  0
LINE
  8
型材断面
  6
CONTINUOUS
 10
-142.40964
 20
-6.175835
 11
-146.2954
 21
-7.06992
  0
LINE
  8
型材断面
  6
CONTINUOUS
 10
-146.2954
 20
-7.06992
 11
-146.2954
 21
-5.28175
  0
LINE
  8
型材断面
  6
DASHDOT
 10
-134.38576
 20
-12.025835
 11
-44.38576
 21
-12.025835
  0
LINE
  8
型材断面
  6
DOT
 10
-49.401998
 20
77.974165
 11
-49.401998
 21
-12.025835
  0
LINE
  8
型材断面
  6
DOT
 10
-47.401998
 20
77.974165
 11
-47.401998
 21
-12.025835
  0
LINE
  8
型材断面
  6
DOT
 10
-129.369523
 20
77.974165
 11
-129.369523
 21
-12.025835
  0
LINE
  8
型材断面
  6
DOT
 10
-131.369523
 20
77.974165
 11
-131.369523
 21
-12.025835
  0
LINE
  8
型材断面
  6
CONTINUOUS
 62
    47
 10
154.043368
 20
-85.941018
 11
152.873367
 21
-85.941018
  0
LINE
  8
型材断面
  6
CONTINUOUS
 10
154.193368
 20
-83.191018
 11
154.193368
 21
-82.516018
  0
LINE
  8
型材断面
  6
CONTINUOUS
 62
    47
 10
155.368368
 20
-87.200055
 11
155.368368
 21
-86.700055
  0
LINE
  8
型材断面
  6
CONTINUOUS
 62
    47
 10
155.368368
 20
-86.700055
 11
154.193368
 21
-86.550055
  0
LINE
  8
型材断面
  6
CONTINUOUS
 62
    47
 10
154.193368
 20
-85.941018
 11
154.193368
 21
-86.550055
  0
LINE
  8
型材断面
  6
CONTINUOUS
 62
    47
 10
154.898367
 20
-85.941018
 11
154.898367
 21
-83.191018
  0
LINE
  8
型材断面
  6
CONTINUOUS
 62
    47
 10
154.048367
 20
-91.891018
 11
154.048367
 21
-91.141018
  0
LINE
  8
型材断面
  6
CONTINUOUS
 62
    47
 10
154.898367
 20
-91.141018
 11
154.898367
 21
-87.200055
  0
LINE
  8
型材断面
  6
CONTINUOUS
 62
    47
 10
154.048367
 20
-91.891018
 11
106.948367
 21
-91.891018
  0
LINE
  8
型材断面
  6
CONTINUOUS
 62
    47
 10
154.898367
 20
-91.141018
 11
106.948367
 21
-91.141018
  0
LINE
  8
型材断面
  6
CONTINUOUS
 62
    47
 10
155.368368
 20
-87.200055
 11
106.948367
 21
-87.200055
  0
LINE
  8
型材断面
  6
CONTINUOUS
 10
155.368368
 20
-86.700055
 11
106.948367
 21
-86.700055
  0
LINE
  8
型材断面
  6
CONTINUOUS
 62
    47
 10
154.898367
 20
-85.941018
 11
106.948367
 21
-85.941018
  0
LINE
  8
型材断面
  6
CONTINUOUS
 10
154.193368
 20
-86.550055
 11
106.948367
 21
-86.550055
  0
LINE
  8
型材断面
  6
CONTINUOUS
 10
154.898367
 20
-83.191018
 11
106.948367
 21
-83.191018
  0
LINE
  8
型材断面
  6
CONTINUOUS
 10
154.193368
 20
-82.516018
 11
106.948367
 21
-82.516018
  0
LINE
  8
型材断面
  6
CONTINUOUS
 62
    47
 10
59.853368
 20
-85.941018
 11
61.023367
 21
-85.941018
  0
LINE
  8
型材断面
  6
CONTINUOUS
 10
59.703368
 20
-83.191018
 11
59.703368
 21
-82.516018
  0
LINE
  8
型材断面
  6
CONTINUOUS
 62
    47
 10
58.528368
 20
-87.200055
 11
58.528368
 21
-86.700055
  0
LINE
  8
型材断面
  6
CONTINUOUS
 62
    47
 10
58.528368
 20
-86.700055
 11
59.703368
 21
-86.550055
  0
LINE
  8
型材断面
  6
CONTINUOUS
 62
    47
 10
59.703368
 20
-85.941018
 11
59.703368
 21
-86.550055
  0
LINE
  8
型材断面
  6
CONTINUOUS
 62
    47
 10
58.998367
 20
-85.941018
 11
58.998367
 21
-83.191018
  0
LINE
  8
型材断面
  6
CONTINUOUS
 62
    47
 10
59.848367
 20
-91.891018
 11
59.848367
 21
-91.141018
  0
LINE
  8
型材断面
  6
CONTINUOUS
 62
    47
 10
58.998367
 20
-91.141018
 11
58.998367
 21
-87.200055
  0
LINE
  8
型材断面
  6
CONTINUOUS
 62
    47
 10
59.848367
 20
-91.891018
 11
106.948367
 21
-91.891018
  0
LINE
  8
型材断面
  6
CONTINUOUS
 62
    47
 10
58.998367
 20
-91.141018
 11
106.948367
 21
-91.141018
  0
LINE
  8
型材断面
  6
CONTINUOUS
 62
    47
 10
58.528368
 20
-87.200055
 11
106.948367
 21
-87.200055
  0
LINE
  8
型材断面
  6
CONTINUOUS
 10
58.528368
 20
-86.700055
 11
106.948367
 21
-86.700055
  0
LINE
  8
型材断面
  6
CONTINUOUS
 62
    47
 10
58.998367
 20
-85.941018
 11
106.948367
 21
-85.941018
  0
LINE
  8
型材断面
  6
CONTINUOUS
 10
59.703368
 20
-86.550055
 11
106.948367
 21
-86.550055
  0
LINE
  8
型材断面
  6
CONTINUOUS
 10
58.998367
 20
-83.191018
 11
106.948367
 21
-83.191018
  0
LINE
  8
型材断面
  6
CONTINUOUS
 10
59.703368
 20
-82.516018
 11
106.948367
 21
-82.516018
  0
INSERT
  2
*GRP_0015
  8
型材断面
  6
CONTINUOUS
 10
0.0
 20
0.0
  0
INSERT
  2
*GRP_0016
  8
型材断面
  6
CONTINUOUS
 10
0.0
 20
0.0
  0
INSERT
  2
*GRP_0017
  8
型材断面
  6
CONTINUOUS
 10
0.0
 20
0.0
  0
INSERT
  2
*GRP_0018
  8
型材断面
  6
CONTINUOUS
 10
0.0
 20
0.0
  0
LINE
  8
ガラス
  6
CONTINUOUS
 10
138.0134
 20
68.182915
 11
138.0134
 21
24.692915
  0
LINE
  8
ガラス
  6
CONTINUOUS
 10
49.0134
 20
24.692915
 11
138.0134
 21
24.692915
  0
LINE
  8
ガラス
  6
CONTINUOUS
 10
138.0134
 20
68.182915
 11
49.0134
 21
68.182915
  0
LINE
  8
ガラス
  6
CONTINUOUS
 10
49.0134
 20
68.182915
 11
49.0134
 21
24.692915
  0
INSERT
  2
*GRP_0025
  8
ガラス
  6
DOT
 10
0.0
 20
0.0
  0
TEXT
  7
TextStyle03
  8
文字
  6
CONTINUOUS
 10
3.175
 20
-14.8
  1
は排水穴位置を示す
 40
3.0
 72
     5
 11
33.175
 21
-14.8
  0
TEXT
  7
TextStyle03
  8
文字
  6
CONTINUOUS
 10
3.175
 20
-22.65
  1
はケーシング位置を示す
 40
3.0
 72
     5
 11
39.925
 21
-22.65
  0
TEXT
  7
TextStyle03
  8
文字
  6
CONTINUOUS
 10
3.175
 20
-26.025
  1
４ヶ所中1ヶ所に設定
 40
3.0
 72
     5
 11
34.8625
 21
-26.025
  0
TEXT
  7
TextStyle03
  8
文字
  6
CONTINUOUS
 10
110.825
 20
35.4
  1
網入り6.8t
 40
3.0
 72
     5
 11
127.5125
 21
35.4
  0
TEXT
  7
TextStyle03
  8
文字
  6
CONTINUOUS
 10
75.325
 20
104.325
  1
ＮＳコード：ＮＳＤＳ
 40
5.0
 72
     5
 11
130.95
 21
104.325
  0
TEXT
  7
TextStyle03
  8
文字
  6
CONTINUOUS
 10
-2.525
 20
-40.025
  1
アームユニット数　４ヶ所
 40
3.0
 72
     5
 11
37.6
 21
-40.025
  0
TEXT
  7
TextStyle03
  8
文字
  6
CONTINUOUS
 10
-2.425
 20
-33.175
  1
アンカー数量　１２ヶ所
 40
3.0
 72
     5
 11
34.325
 21
-33.175
  0
TEXT
  7
TextStyle03
  8
文字
  6
CONTINUOUS
 10
117.975
 20
31.375
  1
×２枚
 40
3.0
 72
     5
 11
127.725
 21
31.375
  0
TEXT
  7
TextStyle03
  8
文字
  6
CONTINUOUS
 10
-34.8
 20
1.7
  1
ﾊﾞﾗﾝｽｽﾃｰ
 40
3.0
 72
     5
 11
-21.4875
 21
1.7
  0
TEXT
  7
TextStyle03
  8
文字
  6
CONTINUOUS
 10
-120.55
 20
35.55
  1
中桟
 40
3.0
 72
     5
 11
-114.175
 21
35.55
  0
TEXT
  7
TextStyle03
  8
文字
  6
CONTINUOUS
 10
-167.35
 20
-26.75
  1
アンカーピッチ
 40
3.0
 50
90.0
 72
     5
 11
-167.35
 21
-3.5
  0
TEXT
  7
TextStyle03
  8
文字
  6
CONTINUOUS
 10
-86.825
 20
65.7
  1
中桟
 40
3.0
 50
270.0
 72
     5
 11
-86.825
 21
59.325
  0
TEXT
  7
TextStyle03
  8
文字
  6
CONTINUOUS
 10
-97.625
 20
91.8
  1
可動装置側
 40
3.0
 72
     5
 11
-81.125
 21
91.8
  0
TEXT
  7
TextStyle03
  8
文字
  6
CONTINUOUS
 10
-151.625
 20
109.75
  1
アンカーピッチ
 40
3.0
 72
     5
 11
-128.375
 21
109.75
  0
TEXT
  7
TextStyle03
  8
文字
  6
CONTINUOUS
 10
-157.2875
 20
64.3
  1
ﾊﾞﾗﾝｽｽﾃｰ
 40
3.0
 50
360.0
 72
     5
 11
-143.975
 21
64.3
  0
TEXT
  7
TextStyle03
  8
文字
  6
CONTINUOUS
 10
-97.625
 20
-28.8
  1
可動装置側
 40
3.0
 72
     5
 11
-81.125
 21
-28.8
  0
TEXT
  7
TextStyle03
  8
文字
  6
CONTINUOUS
 10
75.75
 20
125.25
  1
シリーズ：ＳＴＤ
 40
5.0
 72
     5
 11
120.125
 21
125.25
  0
TEXT
  7
TextStyle03
  8
文字
  6
CONTINUOUS
 10
75.75
 20
119.625
  1
　　　　　（上下可動）1800×1800タイプ
 40
5.0
 72
     5
 11
182.0
 21
119.625
  0
TEXT
  7
TextStyle03
  8
文字
  6
CONTINUOUS
 10
75.75
 20
114.0
  1
図面名　：外観姿図
 40
5.0
 72
     5
 11
125.75
 21
114.0
  0
TEXT
  7
TextStyle03
  8
文字
  6
CONTINUOUS
 10
75.75
 20
108.375
  1
　　　　　　
 40
5.0
 72
     5
 11
108.875
 21
108.375
  0
INSERT
  2
*DIM_0003
  8
寸法
  6
CONTINUOUS
 10
0.0
 20
0.0
  0
INSERT
  2
*GRP_0002
  8
寸法
  6
CONTINUOUS
 10
0.0
 20
0.0
  0
INSERT
  2
*DIM_0004
  8
寸法
  6
CONTINUOUS
 10
0.0
 20
0.0
  0
INSERT
  2
*DIM_0005
  8
寸法
  6
CONTINUOUS
 10
0.0
 20
0.0
  0
INSERT
  2
*DIM_0006
  8
寸法
  6
CONTINUOUS
 10
0.0
 20
0.0
  0
INSERT
  2
*DIM_0007
  8
寸法
  6
CONTINUOUS
 10
0.0
 20
0.0
  0
INSERT
  2
*DIM_0009
  8
寸法
  6
CONTINUOUS
 10
0.0
 20
0.0
  0
INSERT
  2
*DIM_0010
  8
寸法
  6
CONTINUOUS
 10
0.0
 20
0.0
  0
INSERT
  2
*DIM_0011
  8
寸法
  6
CONTINUOUS
 10
0.0
 20
0.0
  0
INSERT
  2
*GRP_0008
  8
寸法
  6
CONTINUOUS
 10
0.0
 20
0.0
  0
INSERT
  2
*DIM_0012
  8
寸法
  6
CONTINUOUS
 10
0.0
 20
0.0
  0
INSERT
  2
*DIM_0013
  8
寸法
  6
CONTINUOUS
 10
0.0
 20
0.0
  0
INSERT
  2
*DIM_0014
  8
寸法
  6
CONTINUOUS
 10
0.0
 20
0.0
  0
INSERT
  2
*DIM_0019
  8
寸法
  6
CONTINUOUS
 10
0.0
 20
0.0
  0
INSERT
  2
*DIM_0020
  8
寸法
  6
CONTINUOUS
 10
0.0
 20
0.0
  0
LINE
  8
別途部材
  6
CONTINUOUS
 62
    96
 10
-41.88576
 20
-80.96609
 11
-41.28576
 21
-82.46609
  0
LINE
  8
別途部材
  6
CONTINUOUS
 62
    96
 10
-41.88576
 20
-80.96609
 11
-89.38576
 21
-80.96609
  0
LINE
  8
別途部材
  6
CONTINUOUS
 10
-41.28576
 20
-82.46609
 11
-89.38576
 21
-82.46609
  0
LINE
  8
別途部材
  6
CONTINUOUS
 62
    96
 10
-136.88576
 20
-80.96609
 11
-137.48576
 21
-82.46609
  0
LINE
  8
別途部材
  6
CONTINUOUS
 62
    96
 10
-136.88576
 20
-80.96609
 11
-89.38576
 21
-80.96609
  0
LINE
  8
別途部材
  6
CONTINUOUS
 10
-137.48576
 20
-82.46609
 11
-89.38576
 21
-82.46609
  0
LINE
  8
別途部材
  6
CONTINUOUS
 10
-41.28576
 20
81.074165
 11
-41.88576
 21
80.474165
  0
LINE
  8
別途部材
  6
CONTINUOUS
 10
-44.38576
 20
77.974165
 11
-56.474645
 21
65.88528
  0
LINE
  8
別途部材
  6
CONTINUOUS
 10
-41.28576
 20
81.074165
 11
-41.28576
 21
32.974165
  0
LINE
  8
別途部材
  6
CONTINUOUS
 10
-41.88576
 20
80.474165
 11
-41.88576
 21
32.974165
  0
LINE
  8
別途部材
  6
CONTINUOUS
 10
-41.88576
 20
80.474165
 11
-89.38576
 21
80.474165
  0
LINE
  8
別途部材
  6
CONTINUOUS
 10
-41.28576
 20
81.074165
 11
-89.38576
 21
81.074165
  0
LINE
  8
別途部材
  6
CONTINUOUS
 10
-137.48576
 20
81.074165
 11
-136.88576
 21
80.474165
  0
LINE
  8
別途部材
  6
CONTINUOUS
 10
-134.38576
 20
77.974165
 11
-122.296875
 21
65.88528
  0
LINE
  8
別途部材
  6
CONTINUOUS
 10
-137.48576
 20
81.074165
 11
-137.48576
 21
32.974165
  0
LINE
  8
別途部材
  6
CONTINUOUS
 10
-136.88576
 20
80.474165
 11
-136.88576
 21
32.974165
  0
LINE
  8
別途部材
  6
CONTINUOUS
 10
-136.88576
 20
80.474165
 11
-89.38576
 21
80.474165
  0
LINE
  8
別途部材
  6
CONTINUOUS
 10
-137.48576
 20
81.074165
 11
-89.38576
 21
81.074165
  0
LINE
  8
別途部材
  6
CONTINUOUS
 10
-41.28576
 20
-15.125835
 11
-41.88576
 21
-14.525835
  0
LINE
  8
別途部材
  6
CONTINUOUS
 10
-44.38576
 20
-12.025835
 11
-56.474645
 21
0.06305
  0
LINE
  8
別途部材
  6
CONTINUOUS
 10
-41.28576
 20
-15.125835
 11
-41.28576
 21
32.974165
  0
LINE
  8
別途部材
  6
CONTINUOUS
 10
-41.88576
 20
-14.525835
 11
-41.88576
 21
32.974165
  0
LINE
  8
別途部材
  6
CONTINUOUS
 10
-41.88576
 20
-14.525835
 11
-89.38576
 21
-14.525835
  0
LINE
  8
別途部材
  6
CONTINUOUS
 10
-41.28576
 20
-15.125835
 11
-89.38576
 21
-15.125835
  0
LINE
  8
別途部材
  6
CONTINUOUS
 10
-137.48576
 20
-15.125835
 11
-136.88576
 21
-14.525835
  0
LINE
  8
別途部材
  6
CONTINUOUS
 10
-134.38576
 20
-12.025835
 11
-122.296875
 21
0.06305
  0
LINE
  8
別途部材
  6
CONTINUOUS
 10
-137.48576
 20
-15.125835
 11
-137.48576
 21
32.974165
  0
LINE
  8
別途部材
  6
CONTINUOUS
 10
-136.88576
 20
-14.525835
 11
-136.88576
 21
32.974165
  0
LINE
  8
別途部材
  6
CONTINUOUS
 10
-136.88576
 20
-14.525835
 11
-89.38576
 21
-14.525835
  0
LINE
  8
別途部材
  6
CONTINUOUS
 10
-137.48576
 20
-15.125835
 11
-89.38576
 21
-15.125835
  0
ARC
  8
別途部材
  6
CONTINUOUS
 10
-89.38576
 20
-114.71609
 40
56.25
 50
36.869898
 51
143.130102
  0
LINE
  8
別途部材
  6
CONTINUOUS
 62
    96
 10
154.448367
 20
-80.96609
 11
155.048367
 21
-82.46609
  0
LINE
  8
別途部材
  6
CONTINUOUS
 62
    96
 10
154.448367
 20
-80.96609
 11
106.948367
 21
-80.96609
  0
LINE
  8
別途部材
  6
CONTINUOUS
 10
155.048367
 20
-82.46609
 11
106.948367
 21
-82.46609
  0
LINE
  8
別途部材
  6
CONTINUOUS
 62
    96
 10
59.448367
 20
-80.96609
 11
58.848367
 21
-82.46609
  0
LINE
  8
別途部材
  6
CONTINUOUS
 62
    96
 10
59.448367
 20
-80.96609
 11
106.948367
 21
-80.96609
  0
LINE
  8
別途部材
  6
CONTINUOUS
 10
58.848367
 20
-82.46609
 11
106.948367
 21
-82.46609
  0
ARC
  8
別途部材
  6
CONTINUOUS
 10
106.948368
 20
-114.71609
 40
56.25
 50
36.869898
 51
143.130102
  0
INSERT
  2
*GRP_0021
  8
別途部材
  6
DOT
 10
0.0
 20
0.0
  0
INSERT
  2
*GRP_0022
  8
別途部材
  6
DOT
 10
0.0
 20
0.0
  0
INSERT
  2
*GRP_0023
  8
別途部材
  6
DOT
 10
0.0
 20
0.0
  0
INSERT
  2
*GRP_0024
  8
別途部材
  6
DOT
 10
0.0
 20
0.0
  0
ENDSEC
  0
EOF
