  0
SECTION
  2
HEADER
  9
$EXTMIN
 10
-210.0
 20
-148.5
  9
$EXTMAX
 10
210.0
 20
148.5
  9
$PDMODE
 70
    32
  9
$PDSIZE
 40
0.3
  9
$LTSCALE
 40
10.0
  0
ENDSEC
  0
SECTION
  2
TABLES
  0
TABLE
  2
LTYPE
 70
    15
  0
LTYPE
  2
CONTINUOUS
 70
    64
  3
実線
 72
    65
 73
     0
 40
0.0
  0
LTYPE
  2
DASHED
 70
    64
  3
破線A
 72
    65
 73
     2
 40
0.6
 49
0.4
 49
-0.2
  0
LTYPE
  2
DASHEDX2
 70
    64
  3
破線B
 72
    65
 73
     2
 40
1.3
 49
0.9
 49
-0.4
  0
LTYPE
  2
DASHDOT
 70
    64
  3
１点鎖線A
 72
    65
 73
     4
 40
0.5375
 49
0.375
 49
-0.05
 49
0.0625
 49
-0.05
  0
LTYPE
  2
DASHDOTX2
 70
    64
  3
１点鎖線B
 72
    65
 73
     4
 40
1.075
 49
0.75
 49
-0.1
 49
0.125
 49
-0.1
  0
LTYPE
  2
DIVIDE2
 70
    64
  3
２点鎖線A
 72
    65
 73
     6
 40
0.5125
 49
0.3
 49
-0.0375
 49
0.05
 49
-0.0375
 49
0.05
 49
-0.0375
  0
LTYPE
  2
DIVIDE
 70
    64
  3
２点鎖線B
 72
    65
 73
     6
 40
1.05
 49
0.55
 49
-0.1
 49
0.1
 49
-0.1
 49
0.1
 49
-0.1
  0
LTYPE
  2
DOT
 70
    64
  3
点線A
 72
    65
 73
     2
 40
0.1125
 49
0.0625
 49
-0.05
  0
LTYPE
  2
DOTX2
 70
    64
  3
点線B
 72
    65
 73
     2
 40
0.275
 49
0.15
 49
-0.125
  0
LTYPE
  2
CONTINUOUS
 70
    64
  3
実線
 72
    65
 73
     0
 40
0.0
  0
LTYPE
  2
CONTINUOUS
 70
    64
  3
実線
 72
    65
 73
     0
 40
0.0
  0
LTYPE
  2
CONTINUOUS
 70
    64
  3
実線
 72
    65
 73
     0
 40
0.0
  0
LTYPE
  2
CONTINUOUS
 70
    64
  3
実線
 72
    65
 73
     0
 40
0.0
  0
LTYPE
  2
CONTINUOUS
 70
    64
  3
実線
 72
    65
 73
     0
 40
0.0
  0
LTYPE
  2
CONTINUOUS
 70
    64
  3
実線
 72
    65
 73
     0
 40
0.0
  0
ENDTAB
  0
TABLE
  2
LAYER
 70
    34
  0
LAYER
  2
通り芯
 70
     0
 62
    15
  6
CONTINUOUS
  0
LAYER
  2
補助線
 70
     0
 62
    16
  6
DOT
  0
LAYER
  2
躯体
 70
     0
 62
    31
  6
CONTINUOUS
  0
LAYER
  2
型材
 70
     0
 62
    32
  6
CONTINUOUS
  0
LAYER
  2
型材断面
 70
     0
 62
    47
  6
CONTINUOUS
  0
LAYER
  2
ガラス
 70
     0
 62
    48
  6
CONTINUOUS
  0
LAYER
  2
ゴム等
 70
     0
 62
    63
  6
CONTINUOUS
  0
LAYER
  2
ボルト／ビス
 70
     0
 62
    64
  6
CONTINUOUS
  0
LAYER
  2
文字
 70
     0
 62
    79
  6
CONTINUOUS
  0
LAYER
  2
寸法
 70
     0
 62
    80
  6
CONTINUOUS
  0
LAYER
  2
ﾊｯﾁﾝｸﾞ
 70
     0
 62
    95
  6
CONTINUOUS
  0
LAYER
  2
別途部材
 70
     0
 62
    96
  6
CONTINUOUS
  0
LAYER
  2
曲げ物
 70
     0
 62
   111
  6
CONTINUOUS
  0
LAYER
  2
鉄骨等
 70
     0
 62
   112
  6
CONTINUOUS
  0
LAYER
  2
St
 70
     0
 62
   127
  6
CONTINUOUS
  0
LAYER
  2
その他部品等
 70
     0
 62
   128
  6
CONTINUOUS
  0
LAYER
  2
ｶﾞｽｹｯﾄ
 70
     0
 62
   143
  6
CONTINUOUS
  0
LAYER
  2
ｽｹｯﾁ
 70
     0
 62
    14
  6
CONTINUOUS
  0
LAYER
  2
0
 70
     0
 62
    17
  6
CONTINUOUS
  0
LAYER
  2
1
 70
     0
 62
    30
  6
CONTINUOUS
  0
LAYER
  2
4
 70
     0
 62
    33
  6
CONTINUOUS
  0
LAYER
  2
ﾚｲﾔ3
 70
     0
 62
    46
  6
CONTINUOUS
  0
LAYER
  2
外形線
 70
     0
 62
    49
  6
CONTINUOUS
  0
LAYER
  2
部品
 70
     0
 62
    14
  6
CONTINUOUS
  0
LAYER
  2
サッシ芯
 70
     0
 62
    17
  6
DASHDOTX2
  0
LAYER
  2
寸法線
 70
     0
 62
    62
  6
CONTINUOUS
  0
LAYER
  2
姿図外形線
 70
     0
 62
    65
  6
CONTINUOUS
  0
LAYER
  2
姿補助線
 70
     0
 62
    30
  6
CONTINUOUS
  0
LAYER
  2
透視線
 70
     0
 62
    78
  6
DOT
  0
LAYER
  2
用紙
 70
     0
 62
    81
  6
CONTINUOUS
  0
LAYER
  2
実線図枠
 70
     0
 62
    94
  6
CONTINUOUS
  0
LAYER
  2
補助図枠
 70
     0
 62
    97
  6
CONTINUOUS
  0
LAYER
  2
建具記号
 70
     0
 62
   110
  6
CONTINUOUS
  0
LAYER
  2
補助文字
 70
     0
 62
   113
  6
CONTINUOUS
  0
ENDTAB
  0
TABLE
  2
STYLE
 70
    10
  0
STYLE
  2
STANDARD
 70
     0
 40
1.0
 41
1.0
 42
1.0
 50
0.0
 71
     0
  3
TXT
  4
BIGFONT
  0
STYLE
  2
TATE
 70
     4
 40
1.0
 41
1.0
 42
1.0
 50
0.0
 71
     0
  3
TXT
  4
BIGFONT
  0
STYLE
  2
TextStyle03
 70
     0
 40
1.0
 41
1.0
 42
1.0
 50
0.0
 71
     0
  3
MONOTXT
  4
BIGFONT
  0
STYLE
  2
TextStyle04
 70
     0
 40
1.0
 41
1.0
 42
1.0
 50
0.0
 71
     0
  3
MONOTXT
  4
BIGFONT
  0
STYLE
  2
TextStyle05
 70
     0
 40
1.0
 41
1.0
 42
1.0
 50
0.0
 71
     0
  3
MONOTXT
  4
BIGFONT
  0
STYLE
  2
TextStyle06
 70
     0
 40
1.0
 41
1.0
 42
1.0
 50
0.0
 71
     0
  3
MONOTXT
  4
BIGFONT
  0
STYLE
  2
TextStyle07
 70
     0
 40
1.0
 41
1.0
 42
1.0
 50
0.0
 71
     0
  3
MONOTXT
  4
BIGFONT
  0
STYLE
  2
TextStyle08
 70
     0
 40
1.0
 41
1.0
 42
1.0
 50
0.0
 71
     0
  3
MONOTXT
  4
BIGFONT
  0
STYLE
  2
TextStyle09
 70
     0
 40
1.0
 41
1.0
 42
1.0
 50
0.0
 71
     0
  3
MONOTXT
  4
BIGFONT
  0
STYLE
  2
TextStyle10
 70
     0
 40
1.0
 41
1.0
 42
1.0
 50
0.0
 71
     0
  3
MONOTXT
  4
BIGFONT
  0
ENDTAB
  0
ENDSEC
  0
SECTION
  2
BLOCKS
  0
BLOCK
  2
*GRP_0001
 70
    65
 10
0.0
 20
0.0
  0
LINE
  8
型材断面
  6
CONTINUOUS
 10
195.0
 20
133.5
 11
195.0
 21
-133.5
  0
LINE
  8
型材断面
  6
CONTINUOUS
 10
195.0
 20
-133.5
 11
-185.0
 21
-133.5
  0
LINE
  8
型材断面
  6
CONTINUOUS
 10
-185.0
 20
-133.5
 11
-185.0
 21
133.5
  0
LINE
  8
型材断面
  6
CONTINUOUS
 10
195.0
 20
133.5
 11
-185.0
 21
133.5
  0
LINE
  8
型材断面
  6
CONTINUOUS
 10
145.0
 20
-133.5
 11
145.0
 21
-118.5
  0
LINE
  8
型材断面
  6
CONTINUOUS
 10
195.0
 20
-118.5
 11
145.0
 21
-118.5
  0
ENDBLK
  0
BLOCK
  2
*GRP_0002
 70
    65
 10
0.0
 20
0.0
  0
LINE
  8
補助線
  6
DOT
 62
    64
 10
79.073275
 20
-62.72124
 11
79.210325
 21
-62.816085
  0
LINE
  8
補助線
  6
DOT
 62
    64
 10
79.189222
 20
-62.700135
 11
79.094377
 21
-62.837187
  0
LINE
  8
補助線
  6
DOT
 62
    64
 10
69.945873
 20
-56.40455
 11
70.082922
 21
-56.499392
  0
LINE
  8
補助線
  6
DOT
 62
    64
 10
70.06182
 20
-56.383445
 11
69.966975
 21
-56.520495
  0
LINE
  8
補助線
  6
DOT
 62
    64
 10
60.95552
 20
-50.182702
 11
60.818472
 21
-50.087857
  0
LINE
  8
補助線
  6
DOT
 62
    64
 10
60.93442
 20
-50.066752
 11
60.839573
 21
-50.203805
  0
LINE
  8
型材断面
  6
DOT
 10
79.89012
 20
-62.273115
 11
80.01673
 21
-62.968795
  0
LINE
  8
型材断面
  6
DOT
 10
80.01673
 20
-62.968795
 11
79.637348
 21
-63.516985
  0
LINE
  8
型材断面
  6
DOT
 10
79.637348
 20
-63.516985
 11
78.941668
 21
-63.643595
  0
LINE
  8
型材断面
  6
DOT
 10
61.087127
 20
-49.26035
 11
60.391447
 21
-49.38696
  0
LINE
  8
型材断面
  6
DOT
 10
60.391447
 20
-49.38696
 11
60.012065
 21
-49.93515
  0
LINE
  8
型材断面
  6
DOT
 10
60.012065
 20
-49.93515
 11
60.138675
 21
-50.63083
  0
LINE
  8
型材断面
  6
DOT
 10
79.89012
 20
-62.273115
 11
61.087127
 21
-49.26035
  0
LINE
  8
型材断面
  6
DOT
 10
78.941668
 20
-63.643595
 11
60.138675
 21
-50.63083
  0
CIRCLE
  8
ボルト／ビス
  6
DOT
 10
79.1418
 20
-62.768663
 40
0.250185
  0
CIRCLE
  8
ボルト／ビス
  6
DOT
 10
79.1418
 20
-62.768663
 40
0.301025
  0
LINE
  8
ボルト／ビス
  6
DOT
 62
    64
 10
79.39115
 20
-62.7891
 11
79.284173
 21
-62.56294
  0
LINE
  8
ボルト／ビス
  6
DOT
 62
    64
 10
79.034822
 20
-62.542502
 11
79.284173
 21
-62.56294
  0
LINE
  8
ボルト／ビス
  6
DOT
 62
    64
 10
79.248777
 20
-62.994823
 11
78.999427
 21
-62.974385
  0
LINE
  8
ボルト／ビス
  6
DOT
 62
    64
 10
78.89245
 20
-62.748225
 11
78.999427
 21
-62.974385
  0
LINE
  8
ボルト／ビス
  6
DOT
 62
    64
 10
79.39115
 20
-62.7891
 11
79.248777
 21
-62.994823
  0
LINE
  8
ボルト／ビス
  6
DOT
 62
    64
 10
79.034822
 20
-62.542502
 11
78.89245
 21
-62.748225
  0
CIRCLE
  8
ボルト／ビス
  6
DOT
 62
    64
 10
79.1418
 20
-62.768663
 40
0.216668
  0
CIRCLE
  8
ボルト／ビス
  6
DOT
 10
70.014398
 20
-56.45197
 40
0.250185
  0
CIRCLE
  8
ボルト／ビス
  6
DOT
 10
70.014398
 20
-56.45197
 40
0.301025
  0
LINE
  8
ボルト／ビス
  6
DOT
 62
    64
 10
70.26375
 20
-56.472408
 11
70.156773
 21
-56.246248
  0
LINE
  8
ボルト／ビス
  6
DOT
 62
    64
 10
69.90742
 20
-56.22581
 11
70.156773
 21
-56.246248
  0
LINE
  8
ボルト／ビス
  6
DOT
 62
    64
 10
70.121375
 20
-56.678132
 11
69.872025
 21
-56.657695
  0
LINE
  8
ボルト／ビス
  6
DOT
 62
    64
 10
69.76505
 20
-56.431535
 11
69.872025
 21
-56.657695
  0
LINE
  8
ボルト／ビス
  6
DOT
 62
    64
 10
70.26375
 20
-56.472408
 11
70.121375
 21
-56.678132
  0
LINE
  8
ボルト／ビス
  6
DOT
 62
    64
 10
69.90742
 20
-56.22581
 11
69.76505
 21
-56.431535
  0
CIRCLE
  8
ボルト／ビス
  6
DOT
 62
    64
 10
70.014398
 20
-56.45197
 40
0.216668
  0
CIRCLE
  8
ボルト／ビス
  6
DOT
 10
60.886995
 20
-50.13528
 40
0.250185
  0
CIRCLE
  8
ボルト／ビス
  6
DOT
 10
60.886995
 20
-50.13528
 40
0.301025
  0
LINE
  8
ボルト／ビス
  6
DOT
 62
    64
 10
60.780018
 20
-49.909117
 11
61.029368
 21
-49.929558
  0
LINE
  8
ボルト／ビス
  6
DOT
 62
    64
 10
61.136345
 20
-50.155717
 11
61.029368
 21
-49.929558
  0
LINE
  8
ボルト／ビス
  6
DOT
 62
    64
 10
60.637647
 20
-50.114843
 11
60.744622
 21
-50.341003
  0
LINE
  8
ボルト／ビス
  6
DOT
 62
    64
 10
60.993973
 20
-50.36144
 11
60.744622
 21
-50.341003
  0
LINE
  8
ボルト／ビス
  6
DOT
 62
    64
 10
60.780018
 20
-49.909117
 11
60.637647
 21
-50.114843
  0
LINE
  8
ボルト／ビス
  6
DOT
 62
    64
 10
61.136345
 20
-50.155717
 11
60.993973
 21
-50.36144
  0
CIRCLE
  8
ボルト／ビス
  6
DOT
 62
    64
 10
60.886995
 20
-50.13528
 40
0.216668
  0
ENDBLK
  0
BLOCK
  2
*GRP_0003
 70
    65
 10
0.0
 20
0.0
  0
LINE
  8
補助線
  6
DOT
 62
    64
 10
60.95552
 20
-62.72124
 11
60.81847
 21
-62.816085
  0
LINE
  8
補助線
  6
DOT
 62
    64
 10
60.839573
 20
-62.700135
 11
60.934418
 21
-62.837187
  0
LINE
  8
補助線
  6
DOT
 62
    64
 10
70.082922
 20
-56.40455
 11
69.945873
 21
-56.499392
  0
LINE
  8
補助線
  6
DOT
 62
    64
 10
69.966975
 20
-56.383445
 11
70.06182
 21
-56.520495
  0
LINE
  8
補助線
  6
DOT
 62
    64
 10
79.073275
 20
-50.182702
 11
79.210323
 21
-50.087857
  0
LINE
  8
補助線
  6
DOT
 62
    64
 10
79.094375
 20
-50.066752
 11
79.189222
 21
-50.203805
  0
LINE
  8
型材断面
  6
DOT
 10
60.138675
 20
-62.273115
 11
60.012065
 21
-62.968795
  0
LINE
  8
型材断面
  6
DOT
 10
60.012065
 20
-62.968795
 11
60.391447
 21
-63.516985
  0
LINE
  8
型材断面
  6
DOT
 10
60.391447
 20
-63.516985
 11
61.087127
 21
-63.643595
  0
LINE
  8
型材断面
  6
DOT
 10
78.941668
 20
-49.26035
 11
79.637348
 21
-49.38696
  0
LINE
  8
型材断面
  6
DOT
 10
79.637348
 20
-49.38696
 11
80.01673
 21
-49.93515
  0
LINE
  8
型材断面
  6
DOT
 10
80.01673
 20
-49.93515
 11
79.89012
 21
-50.63083
  0
LINE
  8
型材断面
  6
DOT
 10
60.138675
 20
-62.273115
 11
78.941668
 21
-49.26035
  0
LINE
  8
型材断面
  6
DOT
 10
61.087127
 20
-63.643595
 11
79.89012
 21
-50.63083
  0
CIRCLE
  8
ボルト／ビス
  6
DOT
 10
60.886995
 20
-62.768663
 40
0.250185
  0
CIRCLE
  8
ボルト／ビス
  6
DOT
 10
60.886995
 20
-62.768663
 40
0.301025
  0
LINE
  8
ボルト／ビス
  6
DOT
 62
    64
 10
60.637645
 20
-62.7891
 11
60.744622
 21
-62.56294
  0
LINE
  8
ボルト／ビス
  6
DOT
 62
    64
 10
60.993973
 20
-62.542502
 11
60.744622
 21
-62.56294
  0
LINE
  8
ボルト／ビス
  6
DOT
 62
    64
 10
60.780018
 20
-62.994823
 11
61.029368
 21
-62.974385
  0
LINE
  8
ボルト／ビス
  6
DOT
 62
    64
 10
61.136345
 20
-62.748225
 11
61.029368
 21
-62.974385
  0
LINE
  8
ボルト／ビス
  6
DOT
 62
    64
 10
60.637645
 20
-62.7891
 11
60.780018
 21
-62.994823
  0
LINE
  8
ボルト／ビス
  6
DOT
 62
    64
 10
60.993973
 20
-62.542502
 11
61.136345
 21
-62.748225
  0
CIRCLE
  8
ボルト／ビス
  6
DOT
 62
    64
 10
60.886995
 20
-62.768663
 40
0.216668
  0
CIRCLE
  8
ボルト／ビス
  6
DOT
 10
70.014398
 20
-56.45197
 40
0.250185
  0
CIRCLE
  8
ボルト／ビス
  6
DOT
 10
70.014398
 20
-56.45197
 40
0.301025
  0
LINE
  8
ボルト／ビス
  6
DOT
 62
    64
 10
69.765045
 20
-56.472408
 11
69.872022
 21
-56.246248
  0
LINE
  8
ボルト／ビス
  6
DOT
 62
    64
 10
70.121375
 20
-56.22581
 11
69.872022
 21
-56.246248
  0
LINE
  8
ボルト／ビス
  6
DOT
 62
    64
 10
69.90742
 20
-56.678132
 11
70.15677
 21
-56.657695
  0
LINE
  8
ボルト／ビス
  6
DOT
 62
    64
 10
70.263745
 20
-56.431535
 11
70.15677
 21
-56.657695
  0
LINE
  8
ボルト／ビス
  6
DOT
 62
    64
 10
69.765045
 20
-56.472408
 11
69.90742
 21
-56.678132
  0
LINE
  8
ボルト／ビス
  6
DOT
 62
    64
 10
70.121375
 20
-56.22581
 11
70.263745
 21
-56.431535
  0
CIRCLE
  8
ボルト／ビス
  6
DOT
 62
    64
 10
70.014398
 20
-56.45197
 40
0.216668
  0
CIRCLE
  8
ボルト／ビス
  6
DOT
 10
79.1418
 20
-50.13528
 40
0.250185
  0
CIRCLE
  8
ボルト／ビス
  6
DOT
 10
79.1418
 20
-50.13528
 40
0.301025
  0
LINE
  8
ボルト／ビス
  6
DOT
 62
    64
 10
79.248777
 20
-49.909117
 11
78.999427
 21
-49.929558
  0
LINE
  8
ボルト／ビス
  6
DOT
 62
    64
 10
78.89245
 20
-50.155717
 11
78.999427
 21
-49.929558
  0
LINE
  8
ボルト／ビス
  6
DOT
 62
    64
 10
79.391148
 20
-50.114843
 11
79.284173
 21
-50.341003
  0
LINE
  8
ボルト／ビス
  6
DOT
 62
    64
 10
79.034822
 20
-50.36144
 11
79.284173
 21
-50.341003
  0
LINE
  8
ボルト／ビス
  6
DOT
 62
    64
 10
79.248777
 20
-49.909117
 11
79.391148
 21
-50.114843
  0
LINE
  8
ボルト／ビス
  6
DOT
 62
    64
 10
78.89245
 20
-50.155717
 11
79.034822
 21
-50.36144
  0
CIRCLE
  8
ボルト／ビス
  6
DOT
 62
    64
 10
79.1418
 20
-50.13528
 40
0.216668
  0
ENDBLK
  0
BLOCK
  2
*GRP_0004
 70
    65
 10
0.0
 20
0.0
  0
LINE
  8
補助線
  6
DOT
 62
    64
 10
6.42366
 20
-62.72124
 11
6.28661
 21
-62.816085
  0
LINE
  8
補助線
  6
DOT
 62
    64
 10
6.307712
 20
-62.700135
 11
6.402557
 21
-62.837187
  0
LINE
  8
補助線
  6
DOT
 62
    64
 10
15.551063
 20
-56.40455
 11
15.414012
 21
-56.499392
  0
LINE
  8
補助線
  6
DOT
 62
    64
 10
15.435115
 20
-56.383445
 11
15.52996
 21
-56.520495
  0
LINE
  8
補助線
  6
DOT
 62
    64
 10
24.541415
 20
-50.182702
 11
24.678463
 21
-50.087857
  0
LINE
  8
補助線
  6
DOT
 62
    64
 10
24.562515
 20
-50.066752
 11
24.657363
 21
-50.203805
  0
LINE
  8
型材断面
  6
DOT
 10
5.606815
 20
-62.273115
 11
5.480205
 21
-62.968795
  0
LINE
  8
型材断面
  6
DOT
 10
5.480205
 20
-62.968795
 11
5.859588
 21
-63.516985
  0
LINE
  8
型材断面
  6
DOT
 10
5.859588
 20
-63.516985
 11
6.555268
 21
-63.643595
  0
LINE
  8
型材断面
  6
DOT
 10
24.409807
 20
-49.26035
 11
25.105487
 21
-49.38696
  0
LINE
  8
型材断面
  6
DOT
 10
25.105487
 20
-49.38696
 11
25.48487
 21
-49.93515
  0
LINE
  8
型材断面
  6
DOT
 10
25.48487
 20
-49.93515
 11
25.35826
 21
-50.63083
  0
LINE
  8
型材断面
  6
DOT
 10
5.606815
 20
-62.273115
 11
24.409807
 21
-49.26035
  0
LINE
  8
型材断面
  6
DOT
 10
6.555268
 20
-63.643595
 11
25.35826
 21
-50.63083
  0
CIRCLE
  8
ボルト／ビス
  6
DOT
 10
6.355135
 20
-62.768663
 40
0.250185
  0
CIRCLE
  8
ボルト／ビス
  6
DOT
 10
6.355135
 20
-62.768663
 40
0.301025
  0
LINE
  8
ボルト／ビス
  6
DOT
 62
    64
 10
6.105785
 20
-62.7891
 11
6.212762
 21
-62.56294
  0
LINE
  8
ボルト／ビス
  6
DOT
 62
    64
 10
6.462112
 20
-62.542502
 11
6.212762
 21
-62.56294
  0
LINE
  8
ボルト／ビス
  6
DOT
 62
    64
 10
6.248157
 20
-62.994823
 11
6.497508
 21
-62.974385
  0
LINE
  8
ボルト／ビス
  6
DOT
 62
    64
 10
6.604485
 20
-62.748225
 11
6.497508
 21
-62.974385
  0
LINE
  8
ボルト／ビス
  6
DOT
 62
    64
 10
6.105785
 20
-62.7891
 11
6.248157
 21
-62.994823
  0
LINE
  8
ボルト／ビス
  6
DOT
 62
    64
 10
6.462112
 20
-62.542502
 11
6.604485
 21
-62.748225
  0
CIRCLE
  8
ボルト／ビス
  6
DOT
 62
    64
 10
6.355135
 20
-62.768663
 40
0.216668
  0
CIRCLE
  8
ボルト／ビス
  6
DOT
 10
15.482538
 20
-56.45197
 40
0.250185
  0
CIRCLE
  8
ボルト／ビス
  6
DOT
 10
15.482538
 20
-56.45197
 40
0.301025
  0
LINE
  8
ボルト／ビス
  6
DOT
 62
    64
 10
15.233185
 20
-56.472408
 11
15.340163
 21
-56.246248
  0
LINE
  8
ボルト／ビス
  6
DOT
 62
    64
 10
15.589515
 20
-56.22581
 11
15.340163
 21
-56.246248
  0
LINE
  8
ボルト／ビス
  6
DOT
 62
    64
 10
15.37556
 20
-56.678132
 11
15.62491
 21
-56.657695
  0
LINE
  8
ボルト／ビス
  6
DOT
 62
    64
 10
15.731885
 20
-56.431535
 11
15.62491
 21
-56.657695
  0
LINE
  8
ボルト／ビス
  6
DOT
 62
    64
 10
15.233185
 20
-56.472408
 11
15.37556
 21
-56.678132
  0
LINE
  8
ボルト／ビス
  6
DOT
 62
    64
 10
15.589515
 20
-56.22581
 11
15.731885
 21
-56.431535
  0
CIRCLE
  8
ボルト／ビス
  6
DOT
 62
    64
 10
15.482538
 20
-56.45197
 40
0.216668
  0
CIRCLE
  8
ボルト／ビス
  6
DOT
 10
24.60994
 20
-50.13528
 40
0.250185
  0
CIRCLE
  8
ボルト／ビス
  6
DOT
 10
24.60994
 20
-50.13528
 40
0.301025
  0
LINE
  8
ボルト／ビス
  6
DOT
 62
    64
 10
24.716918
 20
-49.909117
 11
24.467568
 21
-49.929558
  0
LINE
  8
ボルト／ビス
  6
DOT
 62
    64
 10
24.36059
 20
-50.155717
 11
24.467568
 21
-49.929558
  0
LINE
  8
ボルト／ビス
  6
DOT
 62
    64
 10
24.859288
 20
-50.114843
 11
24.752312
 21
-50.341003
  0
LINE
  8
ボルト／ビス
  6
DOT
 62
    64
 10
24.502962
 20
-50.36144
 11
24.752312
 21
-50.341003
  0
LINE
  8
ボルト／ビス
  6
DOT
 62
    64
 10
24.716918
 20
-49.909117
 11
24.859288
 21
-50.114843
  0
LINE
  8
ボルト／ビス
  6
DOT
 62
    64
 10
24.36059
 20
-50.155717
 11
24.502962
 21
-50.36144
  0
CIRCLE
  8
ボルト／ビス
  6
DOT
 62
    64
 10
24.60994
 20
-50.13528
 40
0.216668
  0
ENDBLK
  0
BLOCK
  2
*GRP_0005
 70
    65
 10
0.0
 20
0.0
  0
LINE
  8
補助線
  6
DOT
 62
    64
 10
24.541415
 20
-62.72124
 11
24.678465
 21
-62.816085
  0
LINE
  8
補助線
  6
DOT
 62
    64
 10
24.657363
 20
-62.700135
 11
24.562517
 21
-62.837187
  0
LINE
  8
補助線
  6
DOT
 62
    64
 10
15.414012
 20
-56.40455
 11
15.551063
 21
-56.499392
  0
LINE
  8
補助線
  6
DOT
 62
    64
 10
15.52996
 20
-56.383445
 11
15.435115
 21
-56.520495
  0
LINE
  8
補助線
  6
DOT
 62
    64
 10
6.42366
 20
-50.182702
 11
6.286613
 21
-50.087857
  0
LINE
  8
補助線
  6
DOT
 62
    64
 10
6.40256
 20
-50.066752
 11
6.307712
 21
-50.203805
  0
LINE
  8
型材断面
  6
DOT
 10
25.35826
 20
-62.273115
 11
25.48487
 21
-62.968795
  0
LINE
  8
型材断面
  6
DOT
 10
25.48487
 20
-62.968795
 11
25.105487
 21
-63.516985
  0
LINE
  8
型材断面
  6
DOT
 10
25.105487
 20
-63.516985
 11
24.409807
 21
-63.643595
  0
LINE
  8
型材断面
  6
DOT
 10
6.555268
 20
-49.26035
 11
5.859588
 21
-49.38696
  0
LINE
  8
型材断面
  6
DOT
 10
5.859588
 20
-49.38696
 11
5.480205
 21
-49.93515
  0
LINE
  8
型材断面
  6
DOT
 10
5.480205
 20
-49.93515
 11
5.606815
 21
-50.63083
  0
LINE
  8
型材断面
  6
DOT
 10
25.35826
 20
-62.273115
 11
6.555268
 21
-49.26035
  0
LINE
  8
型材断面
  6
DOT
 10
24.409807
 20
-63.643595
 11
5.606815
 21
-50.63083
  0
CIRCLE
  8
ボルト／ビス
  6
DOT
 10
24.60994
 20
-62.768663
 40
0.250185
  0
CIRCLE
  8
ボルト／ビス
  6
DOT
 10
24.60994
 20
-62.768663
 40
0.301025
  0
LINE
  8
ボルト／ビス
  6
DOT
 62
    64
 10
24.85929
 20
-62.7891
 11
24.752312
 21
-62.56294
  0
LINE
  8
ボルト／ビス
  6
DOT
 62
    64
 10
24.502962
 20
-62.542502
 11
24.752312
 21
-62.56294
  0
LINE
  8
ボルト／ビス
  6
DOT
 62
    64
 10
24.716918
 20
-62.994823
 11
24.467568
 21
-62.974385
  0
LINE
  8
ボルト／ビス
  6
DOT
 62
    64
 10
24.36059
 20
-62.748225
 11
24.467568
 21
-62.974385
  0
LINE
  8
ボルト／ビス
  6
DOT
 62
    64
 10
24.85929
 20
-62.7891
 11
24.716918
 21
-62.994823
  0
LINE
  8
ボルト／ビス
  6
DOT
 62
    64
 10
24.502962
 20
-62.542502
 11
24.36059
 21
-62.748225
  0
CIRCLE
  8
ボルト／ビス
  6
DOT
 62
    64
 10
24.60994
 20
-62.768663
 40
0.216668
  0
CIRCLE
  8
ボルト／ビス
  6
DOT
 10
15.482538
 20
-56.45197
 40
0.250185
  0
CIRCLE
  8
ボルト／ビス
  6
DOT
 10
15.482538
 20
-56.45197
 40
0.301025
  0
LINE
  8
ボルト／ビス
  6
DOT
 62
    64
 10
15.73189
 20
-56.472408
 11
15.624913
 21
-56.246248
  0
LINE
  8
ボルト／ビス
  6
DOT
 62
    64
 10
15.37556
 20
-56.22581
 11
15.624913
 21
-56.246248
  0
LINE
  8
ボルト／ビス
  6
DOT
 62
    64
 10
15.589515
 20
-56.678132
 11
15.340165
 21
-56.657695
  0
LINE
  8
ボルト／ビス
  6
DOT
 62
    64
 10
15.23319
 20
-56.431535
 11
15.340165
 21
-56.657695
  0
LINE
  8
ボルト／ビス
  6
DOT
 62
    64
 10
15.73189
 20
-56.472408
 11
15.589515
 21
-56.678132
  0
LINE
  8
ボルト／ビス
  6
DOT
 62
    64
 10
15.37556
 20
-56.22581
 11
15.23319
 21
-56.431535
  0
CIRCLE
  8
ボルト／ビス
  6
DOT
 62
    64
 10
15.482538
 20
-56.45197
 40
0.216668
  0
CIRCLE
  8
ボルト／ビス
  6
DOT
 10
6.355135
 20
-50.13528
 40
0.250185
  0
CIRCLE
  8
ボルト／ビス
  6
DOT
 10
6.355135
 20
-50.13528
 40
0.301025
  0
LINE
  8
ボルト／ビス
  6
DOT
 62
    64
 10
6.248157
 20
-49.909117
 11
6.497508
 21
-49.929558
  0
LINE
  8
ボルト／ビス
  6
DOT
 62
    64
 10
6.604485
 20
-50.155717
 11
6.497508
 21
-49.929558
  0
LINE
  8
ボルト／ビス
  6
DOT
 62
    64
 10
6.105788
 20
-50.114843
 11
6.212762
 21
-50.341003
  0
LINE
  8
ボルト／ビス
  6
DOT
 62
    64
 10
6.462112
 20
-50.36144
 11
6.212762
 21
-50.341003
  0
LINE
  8
ボルト／ビス
  6
DOT
 62
    64
 10
6.248157
 20
-49.909117
 11
6.105788
 21
-50.114843
  0
LINE
  8
ボルト／ビス
  6
DOT
 62
    64
 10
6.604485
 20
-50.155717
 11
6.462112
 21
-50.36144
  0
CIRCLE
  8
ボルト／ビス
  6
DOT
 62
    64
 10
6.355135
 20
-50.13528
 40
0.216668
  0
ENDBLK
  0
BLOCK
  2
*DIM_0006
 70
    65
 10
0.0
 20
0.0
  0
LINE
  8
寸法
  6
BYBLOCK
 62
     0
 10
-28.28957
 20
-57.7781
 11
-28.28957
 21
-21.260142
  0
LINE
  8
寸法
  6
BYBLOCK
 62
     0
 10
-32.48957
 20
-21.260142
 11
-28.28957
 21
-21.260142
  0
POINT
  8
寸法
 62
     0
 10
-32.48957
 20
-21.260142
  0
POINT
  8
寸法
 62
     0
 10
-28.28957
 20
-21.260142
  0
TEXT
  7
TextStyle03
  8
寸法
  6
CONTINUOUS
 62
     0
 10
-27.8125
 20
-20.875
  1
126
 40
3.0
 72
     5
 11
-22.9375
 21
-20.875
  0
ENDBLK
  0
BLOCK
  2
*DIM_0007
 70
    65
 10
0.0
 20
0.0
  0
LINE
  8
寸法
  6
BYBLOCK
 62
     0
 10
-46.489577
 20
-39.460365
 11
-14.02534
 21
-39.460365
  0
LINE
  8
寸法
  6
BYBLOCK
 62
     0
 10
-14.02534
 20
-58.7781
 11
-14.02534
 21
-39.460365
  0
POINT
  8
寸法
 62
     0
 10
-14.02534
 20
-39.460365
  0
TEXT
  7
TextStyle03
  8
寸法
  6
CONTINUOUS
 62
     0
 10
-14.425
 20
-53.25
  1
579.5
 40
3.0
 50
90.0
 72
     5
 11
-14.425
 21
-45.0
  0
ENDBLK
  0
BLOCK
  2
*DIM_0008
 70
    65
 10
0.0
 20
0.0
  0
LINE
  8
寸法
  6
BYBLOCK
 62
     0
 10
54.867913
 20
31.062578
 11
18.876165
 21
31.062578
  0
LINE
  8
寸法
  6
BYBLOCK
 62
     0
 10
18.876165
 20
35.262578
 11
18.876165
 21
31.062578
  0
POINT
  8
寸法
 62
     0
 10
18.876165
 20
31.062578
  0
TEXT
  7
TextStyle03
  8
寸法
  6
CONTINUOUS
 62
     0
 10
18.475
 20
25.6875
  1
126
 40
3.0
 50
90.0
 72
     5
 11
18.475
 21
30.5625
  0
ENDBLK
  0
BLOCK
  2
*DIM_0009
 70
    65
 10
0.0
 20
0.0
  0
LINE
  8
寸法
  6
BYBLOCK
 62
     0
 10
54.867913
 20
69.462578
 11
18.876165
 21
69.462578
  0
LINE
  8
寸法
  6
BYBLOCK
 62
     0
 10
18.876165
 20
65.262578
 11
18.876165
 21
69.462578
  0
POINT
  8
寸法
 62
     0
 10
18.876165
 20
65.262578
  0
POINT
  8
寸法
 62
     0
 10
18.876165
 20
69.462578
  0
TEXT
  7
TextStyle03
  8
寸法
  6
CONTINUOUS
 62
     0
 10
18.475
 20
69.9875
  1
126
 40
3.0
 50
90.0
 72
     5
 11
18.475
 21
74.8625
  0
ENDBLK
  0
BLOCK
  2
*DIM_0010
 70
    65
 10
0.0
 20
0.0
  0
LINE
  8
寸法
  6
BYBLOCK
 62
     0
 10
19.545062
 20
65.262578
 11
18.876165
 21
65.262578
  0
LINE
  8
寸法
  6
BYBLOCK
 62
     0
 10
19.545062
 20
35.262578
 11
18.876165
 21
35.262578
  0
LINE
  8
寸法
  6
BYBLOCK
 62
     0
 10
18.876165
 20
65.262578
 11
18.876165
 21
35.262578
  0
POINT
  8
寸法
 62
     0
 10
18.876165
 20
65.262578
  0
POINT
  8
寸法
 62
     0
 10
18.876165
 20
35.262578
  0
TEXT
  7
TextStyle03
  8
寸法
  6
CONTINUOUS
 62
     0
 10
18.475
 20
39.4
  1
呼称寸法＝900
 40
3.0
 50
90.0
 72
     5
 11
18.475
 21
61.15
  0
ENDBLK
  0
BLOCK
  2
*DIM_0011
 70
    65
 10
0.0
 20
0.0
  0
LINE
  8
寸法
  6
BYBLOCK
 62
     0
 10
53.867913
 20
69.462578
 11
12.49456
 21
69.462578
  0
LINE
  8
寸法
  6
BYBLOCK
 62
     0
 10
53.867913
 20
31.062578
 11
12.49456
 21
31.062578
  0
LINE
  8
寸法
  6
BYBLOCK
 62
     0
 10
12.49456
 20
69.462578
 11
12.49456
 21
31.062578
  0
POINT
  8
寸法
 62
     0
 10
12.49456
 20
69.462578
  0
POINT
  8
寸法
 62
     0
 10
12.49456
 20
31.062578
  0
TEXT
  7
TextStyle03
  8
寸法
  6
CONTINUOUS
 62
     0
 10
12.1
 20
46.99375
  1
1152
 40
3.0
 50
90.0
 72
     5
 11
12.1
 21
53.55625
  0
ENDBLK
  0
BLOCK
  2
*DIM_0012
 70
    65
 10
0.0
 20
0.0
  0
LINE
  8
寸法
  6
BYBLOCK
 62
     0
 10
36.550182
 20
49.262578
 11
36.550182
 21
11.802637
  0
LINE
  8
寸法
  6
BYBLOCK
 62
     0
 10
55.867913
 20
11.802637
 11
36.550182
 21
11.802637
  0
POINT
  8
寸法
 62
     0
 10
36.550182
 20
11.802637
  0
TEXT
  7
TextStyle03
  8
寸法
  6
CONTINUOUS
 62
     0
 10
42.05
 20
12.175
  1
579.5
 40
3.0
 72
     5
 11
50.3
 21
12.175
  0
ENDBLK
  0
BLOCK
  2
*DIM_0013
 70
    65
 10
0.0
 20
0.0
  0
LINE
  8
寸法
  6
BYBLOCK
 62
     0
 10
-28.28957
 20
-57.7781
 11
-28.28957
 21
-15.20899
  0
LINE
  8
寸法
  6
BYBLOCK
 62
     0
 10
-116.68957
 20
-57.7781
 11
-116.68957
 21
-15.20899
  0
LINE
  8
寸法
  6
BYBLOCK
 62
     0
 10
-28.28957
 20
-15.20899
 11
-116.68957
 21
-15.20899
  0
POINT
  8
寸法
 62
     0
 10
-28.28957
 20
-15.20899
  0
POINT
  8
寸法
 62
     0
 10
-116.68957
 20
-15.20899
  0
TEXT
  7
TextStyle03
  8
寸法
  6
CONTINUOUS
 62
     0
 10
-75.80625
 20
-14.85
  1
2652
 40
3.0
 72
     5
 11
-69.24375
 21
-14.85
  0
ENDBLK
  0
BLOCK
  2
*DIM_0014
 70
    65
 10
0.0
 20
0.0
  0
LINE
  8
寸法
  6
BYBLOCK
 62
     0
 10
-32.48957
 20
-21.260142
 11
-112.48957
 21
-21.260142
  0
POINT
  8
寸法
 62
     0
 10
-32.48957
 20
-21.260142
  0
POINT
  8
寸法
 62
     0
 10
-112.48957
 20
-21.260142
  0
TEXT
  7
TextStyle03
  8
寸法
  6
CONTINUOUS
 62
     0
 10
-82.55625
 20
-20.9
  1
呼称寸法2400
 40
3.0
 72
     5
 11
-62.49375
 21
-20.9
  0
ENDBLK
  0
BLOCK
  2
*DIM_0015
 70
    65
 10
0.0
 20
0.0
  0
LINE
  8
寸法
  6
BYBLOCK
 62
     0
 10
-112.48957
 20
-21.260142
 11
-116.68957
 21
-21.260142
  0
POINT
  8
寸法
 62
     0
 10
-112.48957
 20
-21.260142
  0
POINT
  8
寸法
 62
     0
 10
-116.68957
 20
-21.260142
  0
TEXT
  7
TextStyle03
  8
寸法
  6
CONTINUOUS
 62
     0
 10
-122.1125
 20
-20.9
  1
126
 40
3.0
 72
     5
 11
-117.2375
 21
-20.9
  0
ENDBLK
  0
BLOCK
  2
*DIM_0016
 70
    65
 10
0.0
 20
0.0
  0
LINE
  8
寸法
  6
BYBLOCK
 62
     0
 10
-118.683683
 20
65.262578
 11
-131.555573
 21
65.262578
  0
LINE
  8
寸法
  6
BYBLOCK
 62
     0
 10
-118.683683
 20
58.59591
 11
-131.555573
 21
58.59591
  0
LINE
  8
寸法
  6
BYBLOCK
 62
     0
 10
-131.555573
 20
65.262578
 11
-131.555573
 21
58.59591
  0
POINT
  8
寸法
 62
     0
 10
-131.555573
 20
65.262578
  0
POINT
  8
寸法
 62
     0
 10
-131.555573
 20
58.59591
  0
TEXT
  7
TextStyle03
  8
寸法
  6
CONTINUOUS
 62
     0
 10
-131.95
 20
59.4875
  1
200
 40
3.0
 50
90.0
 72
     5
 11
-131.95
 21
64.3625
  0
ENDBLK
  0
BLOCK
  2
*DIM_0017
 70
    65
 10
0.0
 20
0.0
  0
LINE
  8
寸法
  6
BYBLOCK
 62
     0
 10
-118.683683
 20
41.929245
 11
-131.555573
 21
41.929245
  0
LINE
  8
寸法
  6
BYBLOCK
 62
     0
 10
-131.555573
 20
58.59591
 11
-131.555573
 21
41.929245
  0
POINT
  8
寸法
 62
     0
 10
-131.555573
 20
41.929245
  0
TEXT
  7
TextStyle03
  8
寸法
  6
CONTINUOUS
 62
     0
 10
-131.95
 20
47.8375
  1
500
 40
3.0
 50
90.0
 72
     5
 11
-131.95
 21
52.7125
  0
ENDBLK
  0
BLOCK
  2
*DIM_0018
 70
    65
 10
0.0
 20
0.0
  0
LINE
  8
寸法
  6
BYBLOCK
 62
     0
 10
-118.683683
 20
35.262578
 11
-131.555573
 21
35.262578
  0
LINE
  8
寸法
  6
BYBLOCK
 62
     0
 10
-131.555573
 20
41.929245
 11
-131.555573
 21
35.262578
  0
POINT
  8
寸法
 62
     0
 10
-131.555573
 20
35.262578
  0
TEXT
  7
TextStyle03
  8
寸法
  6
CONTINUOUS
 62
     0
 10
-131.95
 20
36.1625
  1
200
 40
3.0
 50
90.0
 72
     5
 11
-131.95
 21
41.0375
  0
ENDBLK
  0
BLOCK
  2
*DIM_0019
 70
    65
 10
0.0
 20
0.0
  0
LINE
  8
寸法
  6
BYBLOCK
 62
     0
 10
-105.822902
 20
72.64068
 11
-105.822902
 21
83.764163
  0
LINE
  8
寸法
  6
BYBLOCK
 62
     0
 10
-89.156238
 20
72.64068
 11
-89.156238
 21
83.764163
  0
LINE
  8
寸法
  6
BYBLOCK
 62
     0
 10
-105.822902
 20
83.764163
 11
-89.156238
 21
83.764163
  0
POINT
  8
寸法
 62
     0
 10
-105.822902
 20
83.764163
  0
POINT
  8
寸法
 62
     0
 10
-89.156238
 20
83.764163
  0
TEXT
  7
TextStyle03
  8
寸法
  6
CONTINUOUS
 62
     0
 10
-99.9625
 20
84.125
  1
500
 40
3.0
 72
     5
 11
-95.0875
 21
84.125
  0
ENDBLK
  0
BLOCK
  2
*DIM_0020
 70
    65
 10
0.0
 20
0.0
  0
LINE
  8
寸法
  6
BYBLOCK
 62
     0
 10
-72.48957
 20
72.64068
 11
-72.48957
 21
83.764163
  0
LINE
  8
寸法
  6
BYBLOCK
 62
     0
 10
-89.156238
 20
83.764163
 11
-72.48957
 21
83.764163
  0
POINT
  8
寸法
 62
     0
 10
-72.48957
 20
83.764163
  0
TEXT
  7
TextStyle03
  8
寸法
  6
CONTINUOUS
 62
     0
 10
-83.2875
 20
84.125
  1
500
 40
3.0
 72
     5
 11
-78.4125
 21
84.125
  0
ENDBLK
  0
BLOCK
  2
*DIM_0021
 70
    65
 10
0.0
 20
0.0
  0
LINE
  8
寸法
  6
BYBLOCK
 62
     0
 10
-55.822902
 20
72.64068
 11
-55.822902
 21
83.764163
  0
LINE
  8
寸法
  6
BYBLOCK
 62
     0
 10
-72.48957
 20
83.764163
 11
-55.822902
 21
83.764163
  0
POINT
  8
寸法
 62
     0
 10
-55.822902
 20
83.764163
  0
TEXT
  7
TextStyle03
  8
寸法
  6
CONTINUOUS
 62
     0
 10
-66.6125
 20
84.125
  1
500
 40
3.0
 72
     5
 11
-61.7375
 21
84.125
  0
ENDBLK
  0
BLOCK
  2
*DIM_0022
 70
    65
 10
0.0
 20
0.0
  0
LINE
  8
寸法
  6
BYBLOCK
 62
     0
 10
-39.156238
 20
72.64068
 11
-39.156238
 21
83.764163
  0
LINE
  8
寸法
  6
BYBLOCK
 62
     0
 10
-55.822902
 20
83.764163
 11
-39.156238
 21
83.764163
  0
POINT
  8
寸法
 62
     0
 10
-39.156238
 20
83.764163
  0
TEXT
  7
TextStyle03
  8
寸法
  6
CONTINUOUS
 62
     0
 10
-49.9625
 20
84.125
  1
500
 40
3.0
 72
     5
 11
-45.0875
 21
84.125
  0
ENDBLK
  0
BLOCK
  2
*DIM_0023
 70
    65
 10
0.0
 20
0.0
  0
LINE
  8
寸法
  6
BYBLOCK
 62
     0
 10
-32.48957
 20
66.262578
 11
-32.48957
 21
83.764163
  0
LINE
  8
寸法
  6
BYBLOCK
 62
     0
 10
-39.156238
 20
83.764163
 11
-32.48957
 21
83.764163
  0
POINT
  8
寸法
 62
     0
 10
-32.48957
 20
83.764163
  0
TEXT
  7
TextStyle03
  8
寸法
  6
CONTINUOUS
 62
     0
 10
-38.2875
 20
84.125
  1
200
 40
3.0
 72
     5
 11
-33.4125
 21
84.125
  0
ENDBLK
  0
BLOCK
  2
*DIM_0024
 70
    65
 10
0.0
 20
0.0
  0
LINE
  8
寸法
  6
BYBLOCK
 62
     0
 10
-112.48957
 20
66.262578
 11
-112.48957
 21
83.764163
  0
LINE
  8
寸法
  6
BYBLOCK
 62
     0
 10
-105.822902
 20
83.764163
 11
-112.48957
 21
83.764163
  0
POINT
  8
寸法
 62
     0
 10
-105.822902
 20
83.764163
  0
POINT
  8
寸法
 62
     0
 10
-112.48957
 20
83.764163
  0
TEXT
  7
TextStyle03
  8
寸法
  6
CONTINUOUS
 62
     0
 10
-111.6125
 20
84.125
  1
200
 40
3.0
 72
     5
 11
-106.7375
 21
84.125
  0
ENDBLK
  0
BLOCK
  2
*DIM_0025
 70
    65
 10
0.0
 20
0.0
  0
LINE
  8
寸法
  6
BYBLOCK
 62
     0
 10
-97.48957
 20
30.062578
 11
-97.48957
 21
20.685815
  0
LINE
  8
寸法
  6
BYBLOCK
 62
     0
 10
-47.48957
 20
30.062578
 11
-47.48957
 21
20.685815
  0
LINE
  8
寸法
  6
BYBLOCK
 62
     0
 10
-97.48957
 20
20.685815
 11
-47.48957
 21
20.685815
  0
POINT
  8
寸法
 62
     0
 10
-97.48957
 20
20.685815
  0
POINT
  8
寸法
 62
     0
 10
-47.48957
 20
20.685815
  0
TEXT
  7
TextStyle03
  8
寸法
  6
CONTINUOUS
 62
     0
 10
-75.80625
 20
21.05
  1
1500
 40
3.0
 72
     5
 11
-69.24375
 21
21.05
  0
ENDBLK
  0
BLOCK
  2
*DIM_0026
 70
    65
 10
0.0
 20
0.0
  0
LINE
  8
寸法
  6
BYBLOCK
 62
     0
 10
100.588042
 20
10.931478
 11
100.588042
 21
6.765558
  0
LINE
  8
寸法
  6
BYBLOCK
 62
     0
 10
132.860938
 20
10.931478
 11
132.860938
 21
6.765558
  0
LINE
  8
寸法
  6
BYBLOCK
 62
     0
 10
100.588042
 20
6.765558
 11
132.860938
 21
6.765558
  0
POINT
  8
寸法
 62
     0
 10
100.588042
 20
6.765558
  0
POINT
  8
寸法
 62
     0
 10
132.860938
 20
6.765558
  0
TEXT
  7
TextStyle03
  8
寸法
  6
CONTINUOUS
 62
     0
 10
112.6
 20
7.125
  1
968.2
 40
3.0
 72
     5
 11
120.85
 21
7.125
  0
ENDBLK
  0
BLOCK
  2
*DIM_0027
 70
    65
 10
0.0
 20
0.0
  0
ARC
  8
寸法
  6
BYBLOCK
 62
     0
 10
100.588042
 20
13.931476
 40
9.309483
 50
0.0
 51
54.735496
  0
POINT
  8
寸法
 62
     0
 10
105.96289
 20
21.532627
  0
POINT
  8
寸法
 62
     0
 10
109.897525
 20
13.931478
  0
TEXT
  7
TextStyle03
  8
寸法
  6
CONTINUOUS
 62
     0
 10
106.120707
 20
24.272225
  1
54.7355
 40
3.0
 50
297.37
 72
     5
 11
111.465125
 21
13.948571
  0
TEXT
  7
TextStyle03
  8
寸法
  6
CONTINUOUS
 62
     0
 10
111.548115
 20
13.80144
  1
ﾟ
 40
3.0
 50
297.37
 41
0.5625
  0
ENDBLK
  0
BLOCK
  2
*DIM_0028
 70
    65
 10
0.0
 20
0.0
  0
ARC
  8
寸法
  6
BYBLOCK
 62
     0
 10
132.860937
 20
13.931476
 40
9.309483
 50
125.264504
 51
180.0
  0
POINT
  8
寸法
 62
     0
 10
127.48609
 20
21.532627
  0
POINT
  8
寸法
 62
     0
 10
123.551455
 20
13.931478
  0
TEXT
  7
TextStyle03
  8
寸法
  6
CONTINUOUS
 62
     0
 10
121.209875
 20
12.473571
  1
54.7355
 40
3.0
 50
62.63
 72
     5
 11
126.554293
 21
22.797225
  0
TEXT
  7
TextStyle03
  8
寸法
  6
CONTINUOUS
 62
     0
 10
126.637283
 20
22.944356
  1
ﾟ
 40
3.0
 50
62.63
 41
0.5625
  0
ENDBLK
  0
BLOCK
  2
*DIM_0029
 70
    65
 10
0.0
 20
0.0
  0
ARC
  8
寸法
  6
BYBLOCK
 62
     0
 10
96.53127
 20
55.945645
 40
16.037097
 50
0.0
 51
54.735501
  0
POINT
  8
寸法
 62
     0
 10
105.790317
 20
69.039862
  0
POINT
  8
寸法
 62
     0
 10
112.568368
 20
55.945645
  0
TEXT
  7
TextStyle03
  8
寸法
  6
CONTINUOUS
 62
     0
 10
108.045707
 20
69.372225
  1
54.7355
 40
3.0
 50
297.37
 72
     5
 11
113.390125
 21
59.048571
  0
TEXT
  7
TextStyle03
  8
寸法
  6
CONTINUOUS
 62
     0
 10
113.473115
 20
58.90144
  1
ﾟ
 40
3.0
 50
297.37
 41
0.5625
  0
ENDBLK
  0
BLOCK
  2
*DIM_0030
 70
    65
 10
0.0
 20
0.0
  0
LINE
  8
寸法
  6
BYBLOCK
 62
     0
 10
113.01597
 20
82.258435
 11
113.01597
 21
85.957143
  0
LINE
  8
寸法
  6
BYBLOCK
 62
     0
 10
136.91771
 20
82.258435
 11
136.91771
 21
85.957143
  0
LINE
  8
寸法
  6
BYBLOCK
 62
     0
 10
113.01597
 20
85.957143
 11
136.91771
 21
85.957143
  0
POINT
  8
寸法
 62
     0
 10
113.01597
 20
85.957143
  0
POINT
  8
寸法
 62
     0
 10
136.91771
 20
85.957143
  0
TEXT
  7
TextStyle03
  8
寸法
  6
CONTINUOUS
 62
     0
 10
120.825
 20
86.325
  1
717.1
 40
3.0
 72
     5
 11
129.075
 21
86.325
  0
ENDBLK
  0
BLOCK
  2
*DIM_0031
 70
    65
 10
0.0
 20
0.0
  0
LINE
  8
寸法
  6
BYBLOCK
 62
     0
 10
96.53127
 20
52.945645
 11
96.53127
 21
46.054083
  0
LINE
  8
寸法
  6
BYBLOCK
 62
     0
 10
136.91771
 20
52.945645
 11
136.91771
 21
46.054083
  0
LINE
  8
寸法
  6
BYBLOCK
 62
     0
 10
96.53127
 20
46.054083
 11
136.91771
 21
46.054083
  0
POINT
  8
寸法
 62
     0
 10
96.53127
 20
46.054083
  0
POINT
  8
寸法
 62
     0
 10
136.91771
 20
46.054083
  0
TEXT
  7
TextStyle03
  8
寸法
  6
CONTINUOUS
 62
     0
 10
111.73125
 20
46.425
  1
1211.6
 40
3.0
 72
     5
 11
121.66875
 21
46.425
  0
ENDBLK
  0
BLOCK
  2
*DIM_0032
 70
    65
 10
0.0
 20
0.0
  0
LINE
  8
寸法
  6
BYBLOCK
 62
     0
 10
97.588042
 20
13.931478
 11
91.798785
 21
13.931478
  0
LINE
  8
寸法
  6
BYBLOCK
 62
     0
 10
113.72449
 20
36.751767
 11
91.798785
 21
36.751767
  0
LINE
  8
寸法
  6
BYBLOCK
 62
     0
 10
91.798785
 20
13.931478
 11
91.798785
 21
36.751767
  0
POINT
  8
寸法
 62
     0
 10
91.798785
 20
13.931478
  0
POINT
  8
寸法
 62
     0
 10
91.798785
 20
36.751767
  0
TEXT
  7
TextStyle03
  8
寸法
  6
CONTINUOUS
 62
     0
 10
91.4
 20
21.2
  1
684.6
 40
3.0
 50
90.0
 72
     5
 11
91.4
 21
29.45
  0
ENDBLK
  0
BLOCK
  2
*DIM_0033
 70
    65
 10
0.0
 20
0.0
  0
LINE
  8
寸法
  6
BYBLOCK
 62
     0
 10
93.53127
 20
55.945645
 11
88.105103
 21
55.945645
  0
LINE
  8
寸法
  6
BYBLOCK
 62
     0
 10
93.53127
 20
79.258435
 11
88.105103
 21
79.258435
  0
LINE
  8
寸法
  6
BYBLOCK
 62
     0
 10
88.105103
 20
55.945645
 11
88.105103
 21
79.258435
  0
POINT
  8
寸法
 62
     0
 10
88.105103
 20
55.945645
  0
POINT
  8
寸法
 62
     0
 10
88.105103
 20
79.258435
  0
TEXT
  7
TextStyle03
  8
寸法
  6
CONTINUOUS
 62
     0
 10
87.725
 20
63.475
  1
699.4
 40
3.0
 50
90.0
 72
     5
 11
87.725
 21
71.725
  0
ENDBLK
  0
BLOCK
  2
*GRP_0034
 70
    65
 10
0.0
 20
0.0
  0
POLYLINE
  8
寸法
  6
BYBLOCK
 62
     0
 66
     1
  0
VERTEX
  8
寸法
 10
-36.89516
 20
52.370135
  0
VERTEX
  8
寸法
 10
-35.58922
 20
53.676075
  0
VERTEX
  8
寸法
 10
-21.780937
 20
53.676075
  0
SEQEND
  0
ENDBLK
  0
BLOCK
  2
*DIM_0035
 70
    65
 10
0.0
 20
0.0
  0
LINE
  8
寸法
  6
BYBLOCK
 62
     0
 10
-24.140327
 20
38.962578
 11
-17.319538
 21
38.962578
  0
LINE
  8
寸法
  6
BYBLOCK
 62
     0
 10
-17.319538
 20
35.262578
 11
-17.319538
 21
38.962578
  0
POINT
  8
寸法
 62
     0
 10
-17.319538
 20
35.262578
  0
POINT
  8
寸法
 62
     0
 10
-17.319538
 20
38.962578
  0
TEXT
  7
TextStyle03
  8
寸法
  6
CONTINUOUS
 62
     0
 10
-17.725
 20
29.4375
  1
111
 40
3.0
 50
90.0
 72
     5
 11
-17.725
 21
34.3125
  0
ENDBLK
  0
BLOCK
  2
*DIM_0036
 70
    65
 10
0.0
 20
0.0
  0
LINE
  8
寸法
  6
BYBLOCK
 62
     0
 10
-24.140327
 20
61.562578
 11
-17.319538
 21
61.562578
  0
LINE
  8
寸法
  6
BYBLOCK
 62
     0
 10
-17.319538
 20
65.262578
 11
-17.319538
 21
61.562578
  0
POINT
  8
寸法
 62
     0
 10
-17.319538
 20
65.262578
  0
POINT
  8
寸法
 62
     0
 10
-17.319538
 20
61.562578
  0
TEXT
  7
TextStyle03
  8
寸法
  6
CONTINUOUS
 62
     0
 10
-17.725
 20
66.2375
  1
111
 40
3.0
 50
90.0
 72
     5
 11
-17.725
 21
71.1125
  0
ENDBLK
  0
BLOCK
  2
*DIM_0037
 70
    65
 10
0.0
 20
0.0
  0
LINE
  8
寸法
  6
BYBLOCK
 62
     0
 10
87.3818
 20
-61.4281
 11
99.111943
 21
-61.4281
  0
LINE
  8
寸法
  6
BYBLOCK
 62
     0
 10
87.3818
 20
-51.4281
 11
99.111943
 21
-51.4281
  0
LINE
  8
寸法
  6
BYBLOCK
 62
     0
 10
99.111943
 20
-61.4281
 11
99.111943
 21
-51.4281
  0
POINT
  8
寸法
 62
     0
 10
99.111943
 20
-61.4281
  0
POINT
  8
寸法
 62
     0
 10
99.111943
 20
-51.4281
  0
TEXT
  7
TextStyle03
  8
寸法
  6
CONTINUOUS
 62
     0
 10
103.45
 20
-67.18125
  1
上昇　263以上
 40
3.0
 50
90.0
 72
     5
 11
103.45
 21
-45.61875
  0
ENDBLK
  0
BLOCK
  2
*DIM_0038
 70
    65
 10
0.0
 20
0.0
  0
LINE
  8
寸法
  6
BYBLOCK
 62
     0
 10
154.805057
 20
-61.4281
 11
166.5352
 21
-61.4281
  0
LINE
  8
寸法
  6
BYBLOCK
 62
     0
 10
154.805057
 20
-51.4281
 11
166.5352
 21
-51.4281
  0
LINE
  8
寸法
  6
BYBLOCK
 62
     0
 10
166.5352
 20
-61.4281
 11
166.5352
 21
-51.4281
  0
POINT
  8
寸法
 62
     0
 10
166.5352
 20
-61.4281
  0
POINT
  8
寸法
 62
     0
 10
166.5352
 20
-51.4281
  0
TEXT
  7
TextStyle03
  8
寸法
  6
CONTINUOUS
 62
     0
 10
170.85
 20
-67.18125
  1
上昇　263以上
 40
3.0
 50
90.0
 72
     5
 11
170.85
 21
-45.61875
  0
ENDBLK
  0
BLOCK
  2
*DIM_0039
 70
    65
 10
0.0
 20
0.0
  0
LINE
  8
寸法
  6
CONTINUOUS
 10
-23.28957
 20
-58.7781
 11
-14.02534
 21
-58.7781
  0
LINE
  8
寸法
  6
CONTINUOUS
 10
-24.726387
 20
-65.311432
 11
-14.02534
 21
-65.311432
  0
LINE
  8
寸法
  6
CONTINUOUS
 10
-14.02534
 20
-58.7781
 11
-14.02534
 21
-65.311432
  0
POINT
  8
寸法
 10
-14.02534
 20
-58.7781
  0
POINT
  8
寸法
 10
-14.02534
 20
-65.311432
  0
TEXT
  7
TextStyle03
  8
寸法
  6
CONTINUOUS
 10
-11.05
 20
-64.4875
  1
196
 40
3.0
 50
90.0
 72
     5
 11
-11.05
 21
-59.6125
  0
ENDBLK
  0
BLOCK
  2
*DIM_0040
 70
    65
 10
0.0
 20
0.0
  0
LINE
  8
寸法
  6
CONTINUOUS
 10
55.867913
 20
26.062578
 11
55.867913
 21
11.802637
  0
LINE
  8
寸法
  6
CONTINUOUS
 10
62.401245
 20
27.499395
 11
62.401245
 21
11.802637
  0
LINE
  8
寸法
  6
CONTINUOUS
 10
55.867913
 20
11.802637
 11
62.401245
 21
11.802637
  0
POINT
  8
寸法
 10
55.867913
 20
11.802637
  0
POINT
  8
寸法
 10
62.401245
 20
11.802637
  0
TEXT
  7
TextStyle03
  8
寸法
  6
CONTINUOUS
 10
56.6875
 20
8.8
  1
196
 40
3.0
 72
     5
 11
61.5625
 21
8.8
  0
ENDBLK
  0
ENDSEC
  0
SECTION
  2
ENTITIES
  0
POLYLINE
  8
通り芯
  6
CONTINUOUS
 66
     1
 70
     1
  0
VERTEX
  8
通り芯
 10
-210.0
 20
-148.5
  0
VERTEX
  8
通り芯
 10
210.0
 20
-148.5
  0
VERTEX
  8
通り芯
 10
210.0
 20
148.5
  0
VERTEX
  8
通り芯
 10
-210.0
 20
148.5
  0
SEQEND
  0
INSERT
  2
*GRP_0001
  8
型材断面
  6
CONTINUOUS
 10
0.0
 20
0.0
  0
LINE
  8
型材断面
  6
CONTINUOUS
 62
    47
 10
-28.28957
 20
-58.7781
 11
-28.28957
 21
-60.911432
  0
LINE
  8
型材断面
  6
CONTINUOUS
 10
-28.28957
 20
-58.7781
 11
-28.230705
 21
-58.719235
  0
LINE
  8
型材断面
  6
CONTINUOUS
 62
    47
 10
-28.856238
 20
-60.911432
 11
-28.856238
 21
-61.4281
  0
LINE
  8
型材断面
  6
CONTINUOUS
 10
-45.94997
 20
48.72297
 11
-45.94997
 21
49.66009
  0
LINE
  8
型材断面
  6
CONTINUOUS
 10
-45.94997
 20
48.72297
 11
-46.88709
 21
48.72297
  0
LINE
  8
型材断面
  6
CONTINUOUS
 10
-46.552458
 20
50.262578
 11
-45.94997
 21
49.66009
  0
LINE
  8
型材断面
  6
CONTINUOUS
 10
-45.94997
 20
48.72297
 11
-47.489577
 21
50.262578
  0
LINE
  8
型材断面
  6
CONTINUOUS
 10
-46.88709
 20
48.72297
 11
-47.231688
 21
49.067568
  0
LINE
  8
型材断面
  6
CONTINUOUS
 10
-47.231688
 20
49.067568
 11
-47.489577
 21
50.262578
  0
LINE
  8
型材断面
  6
CONTINUOUS
 10
-29.080535
 20
31.062578
 11
-46.740927
 21
48.72297
  0
LINE
  8
型材断面
  6
CONTINUOUS
 10
-28.289577
 20
31.853537
 11
-45.94997
 21
49.513927
  0
LINE
  8
型材断面
  6
CONTINUOUS
 10
-45.94997
 20
51.802185
 11
-45.94997
 21
50.865065
  0
LINE
  8
型材断面
  6
CONTINUOUS
 10
-45.94997
 20
51.802185
 11
-46.88709
 21
51.802185
  0
LINE
  8
型材断面
  6
CONTINUOUS
 10
-46.552458
 20
50.262578
 11
-45.94997
 21
50.865065
  0
LINE
  8
型材断面
  6
CONTINUOUS
 10
-45.94997
 20
51.802185
 11
-47.489577
 21
50.262578
  0
LINE
  8
型材断面
  6
CONTINUOUS
 10
-46.88709
 20
51.802185
 11
-47.231688
 21
51.457588
  0
LINE
  8
型材断面
  6
CONTINUOUS
 10
-47.231688
 20
51.457588
 11
-47.489577
 21
50.262578
  0
LINE
  8
型材断面
  6
CONTINUOUS
 10
-29.080535
 20
69.462578
 11
-46.740927
 21
51.802185
  0
LINE
  8
型材断面
  6
CONTINUOUS
 10
-28.289577
 20
68.671617
 11
-45.94997
 21
51.011227
  0
LINE
  8
型材断面
  6
CONTINUOUS
 10
-28.230705
 20
-58.719235
 11
-47.489577
 21
-39.460365
  0
LINE
  8
型材断面
  6
CONTINUOUS
 10
-29.015528
 20
-58.7781
 11
-46.817248
 21
-40.97638
  0
LINE
  8
型材断面
  6
CONTINUOUS
 62
    47
 10
55.867913
 20
31.062578
 11
58.001245
 21
31.062578
  0
LINE
  8
型材断面
  6
CONTINUOUS
 10
55.867913
 20
31.062578
 11
55.809048
 21
31.003713
  0
LINE
  8
型材断面
  6
CONTINUOUS
 62
    47
 10
58.001245
 20
31.629245
 11
58.517913
 21
31.629245
  0
LINE
  8
型材断面
  6
CONTINUOUS
 10
55.867913
 20
31.062578
 11
55.867913
 21
50.262578
  0
LINE
  8
型材断面
  6
CONTINUOUS
 62
    47
 10
58.001245
 20
31.062578
 11
58.001245
 21
50.262578
  0
LINE
  8
型材断面
  6
CONTINUOUS
 62
    47
 10
58.517913
 20
31.629245
 11
58.517913
 21
50.262578
  0
LINE
  8
型材断面
  6
CONTINUOUS
 10
55.867913
 20
31.788535
 11
37.393867
 21
50.262578
  0
LINE
  8
型材断面
  6
CONTINUOUS
 10
55.809048
 20
31.003713
 11
36.550182
 21
50.262578
  0
LINE
  8
型材断面
  6
CONTINUOUS
 10
38.066198
 20
48.722968
 11
38.066198
 21
49.660088
  0
LINE
  8
型材断面
  6
CONTINUOUS
 10
37.46371
 20
50.262578
 11
38.066198
 21
49.660088
  0
LINE
  8
型材断面
  6
CONTINUOUS
 10
38.066198
 20
48.722968
 11
36.52659
 21
50.262578
  0
LINE
  8
型材断面
  6
CONTINUOUS
 62
    47
 10
55.867913
 20
69.462578
 11
58.001245
 21
69.462578
  0
LINE
  8
型材断面
  6
CONTINUOUS
 10
55.867913
 20
69.462578
 11
55.809048
 21
69.521443
  0
LINE
  8
型材断面
  6
CONTINUOUS
 62
    47
 10
58.001245
 20
68.89591
 11
58.517913
 21
68.89591
  0
LINE
  8
型材断面
  6
CONTINUOUS
 10
55.867913
 20
69.462578
 11
55.867913
 21
50.262578
  0
LINE
  8
型材断面
  6
CONTINUOUS
 62
    47
 10
58.001245
 20
69.462578
 11
58.001245
 21
50.262578
  0
LINE
  8
型材断面
  6
CONTINUOUS
 62
    47
 10
58.517913
 20
68.89591
 11
58.517913
 21
50.262578
  0
LINE
  8
型材断面
  6
CONTINUOUS
 10
55.867913
 20
68.73662
 11
37.393867
 21
50.262578
  0
LINE
  8
型材断面
  6
CONTINUOUS
 10
55.809048
 20
69.521443
 11
36.550182
 21
50.262578
  0
LINE
  8
型材断面
  6
CONTINUOUS
 10
38.066198
 20
51.802188
 11
38.066198
 21
50.865068
  0
LINE
  8
型材断面
  6
CONTINUOUS
 10
37.46371
 20
50.262578
 11
38.066198
 21
50.865068
  0
LINE
  8
型材断面
  6
CONTINUOUS
 10
38.066198
 20
51.802188
 11
36.52659
 21
50.262578
  0
LINE
  8
型材断面
  6
CONTINUOUS
 62
    47
 10
-116.68957
 20
-58.7781
 11
-116.68957
 21
-60.911432
  0
LINE
  8
型材断面
  6
CONTINUOUS
 10
-116.68957
 20
-58.7781
 11
-116.748435
 21
-58.719235
  0
LINE
  8
型材断面
  6
CONTINUOUS
 62
    47
 10
-116.122902
 20
-60.911432
 11
-116.122902
 21
-61.4281
  0
LINE
  8
型材断面
  6
CONTINUOUS
 10
-116.748435
 20
-58.719235
 11
-97.489563
 21
-39.460365
  0
LINE
  8
型材断面
  6
CONTINUOUS
 10
-115.963613
 20
-58.7781
 11
-98.161892
 21
-40.97638
  0
LINE
  8
型材断面
  6
CONTINUOUS
 10
-95.728637
 20
-40.576835
 11
-72.48957
 21
-40.576835
  0
LINE
  8
型材断面
  6
CONTINUOUS
 10
-97.755105
 20
-40.639435
 11
-72.48957
 21
-40.639435
  0
LINE
  8
型材断面
  6
CONTINUOUS
 10
-97.4895
 20
-39.460365
 11
-72.48957
 21
-39.460365
  0
LINE
  8
型材断面
  6
CONTINUOUS
 10
-47.48964
 20
-39.460365
 11
-72.48957
 21
-39.460365
  0
LINE
  8
型材断面
  6
CONTINUOUS
 10
-49.250503
 20
-40.576835
 11
-72.48957
 21
-40.576835
  0
LINE
  8
型材断面
  6
CONTINUOUS
 10
-47.224035
 20
-40.639435
 11
-72.48957
 21
-40.639435
  0
LINE
  8
型材断面
  6
CONTINUOUS
 10
-28.28957
 20
-58.7781
 11
-72.48957
 21
-58.7781
  0
LINE
  8
型材断面
  6
CONTINUOUS
 62
    47
 10
-28.856238
 20
-61.4281
 11
-72.48957
 21
-61.4281
  0
LINE
  8
型材断面
  6
CONTINUOUS
 62
    47
 10
-28.28957
 20
-60.911432
 11
-72.48957
 21
-60.911432
  0
LINE
  8
型材断面
  6
CONTINUOUS
 10
-116.68957
 20
-58.7781
 11
-72.48957
 21
-58.7781
  0
LINE
  8
型材断面
  6
CONTINUOUS
 62
    47
 10
-116.122902
 20
-61.4281
 11
-72.48957
 21
-61.4281
  0
LINE
  8
型材断面
  6
CONTINUOUS
 62
    47
 10
-116.68957
 20
-60.911432
 11
-72.48957
 21
-60.911432
  0
LINE
  8
型材断面
  6
CONTINUOUS
 10
-99.02917
 20
48.72297
 11
-99.02917
 21
49.66009
  0
LINE
  8
型材断面
  6
CONTINUOUS
 10
-99.02917
 20
48.72297
 11
-98.09205
 21
48.72297
  0
LINE
  8
型材断面
  6
CONTINUOUS
 10
-98.426682
 20
50.262578
 11
-99.02917
 21
49.66009
  0
LINE
  8
型材断面
  6
CONTINUOUS
 10
-99.02917
 20
48.72297
 11
-97.489563
 21
50.262578
  0
LINE
  8
型材断面
  6
CONTINUOUS
 10
-98.09205
 20
48.72297
 11
-97.747452
 21
49.067568
  0
LINE
  8
型材断面
  6
CONTINUOUS
 10
-97.747452
 20
49.067568
 11
-97.489563
 21
50.262578
  0
LINE
  8
型材断面
  6
CONTINUOUS
 10
-115.898605
 20
31.062578
 11
-98.238213
 21
48.72297
  0
LINE
  8
型材断面
  6
CONTINUOUS
 10
-116.689563
 20
31.853537
 11
-99.02917
 21
49.513927
  0
LINE
  8
型材断面
  6
CONTINUOUS
 10
-99.02917
 20
51.802185
 11
-99.02917
 21
50.865065
  0
LINE
  8
型材断面
  6
CONTINUOUS
 10
-99.02917
 20
51.802185
 11
-98.09205
 21
51.802185
  0
LINE
  8
型材断面
  6
CONTINUOUS
 10
-98.426682
 20
50.262578
 11
-99.02917
 21
50.865065
  0
LINE
  8
型材断面
  6
CONTINUOUS
 10
-99.02917
 20
51.802185
 11
-97.489563
 21
50.262578
  0
LINE
  8
型材断面
  6
CONTINUOUS
 10
-98.09205
 20
51.802185
 11
-97.747452
 21
51.457588
  0
LINE
  8
型材断面
  6
CONTINUOUS
 10
-97.747452
 20
51.457588
 11
-97.489563
 21
50.262578
  0
LINE
  8
型材断面
  6
CONTINUOUS
 10
-115.898605
 20
69.462578
 11
-98.238213
 21
51.802185
  0
LINE
  8
型材断面
  6
CONTINUOUS
 10
-116.689563
 20
68.671617
 11
-99.02917
 21
51.011227
  0
LINE
  8
型材断面
  6
CONTINUOUS
 10
-116.689563
 20
69.462578
 11
-72.48957
 21
69.462578
  0
LINE
  8
型材断面
  6
CONTINUOUS
 10
-28.289577
 20
69.462578
 11
-72.48957
 21
69.462578
  0
LINE
  8
型材断面
  6
CONTINUOUS
 10
-49.250508
 20
51.377625
 11
-72.48957
 21
51.377625
  0
LINE
  8
型材断面
  6
CONTINUOUS
 10
-49.250508
 20
49.14753
 11
-72.48957
 21
49.14753
  0
LINE
  8
型材断面
  6
CONTINUOUS
 10
-28.289577
 20
31.062578
 11
-72.48957
 21
31.062578
  0
LINE
  8
型材断面
  6
CONTINUOUS
 10
-116.689563
 20
31.062578
 11
-72.48957
 21
31.062578
  0
LINE
  8
型材断面
  6
CONTINUOUS
 10
-95.728633
 20
49.14753
 11
-72.48957
 21
49.14753
  0
LINE
  8
型材断面
  6
CONTINUOUS
 10
-95.728633
 20
51.377625
 11
-72.48957
 21
51.377625
  0
LINE
  8
型材断面
  6
CONTINUOUS
 10
-36.776288
 20
36.962578
 11
-71.23957
 21
36.962578
  0
LINE
  8
型材断面
  6
CONTINUOUS
 10
-36.992955
 20
37.179245
 11
-71.23957
 21
37.179245
  0
LINE
  8
型材断面
  6
CONTINUOUS
 10
-108.202852
 20
36.962578
 11
-73.73957
 21
36.962578
  0
LINE
  8
型材断面
  6
CONTINUOUS
 10
-107.986185
 20
37.179245
 11
-73.73957
 21
37.179245
  0
LINE
  8
型材断面
  6
CONTINUOUS
 10
-110.895435
 20
34.269997
 11
-73.73957
 21
34.269997
  0
LINE
  8
型材断面
  6
CONTINUOUS
 10
-110.848295
 20
34.317137
 11
-73.73957
 21
34.317137
  0
LINE
  8
型材断面
  6
CONTINUOUS
 10
-110.742847
 20
34.422582
 11
-73.73957
 21
34.422582
  0
LINE
  8
型材断面
  6
CONTINUOUS
 10
-110.592847
 20
34.572582
 11
-73.73957
 21
34.572582
  0
LINE
  8
型材断面
  6
CONTINUOUS
 10
-34.083705
 20
34.269997
 11
-71.23957
 21
34.269997
  0
LINE
  8
型材断面
  6
CONTINUOUS
 10
-34.130845
 20
34.317137
 11
-71.23957
 21
34.317137
  0
LINE
  8
型材断面
  6
CONTINUOUS
 10
-34.236293
 20
34.422582
 11
-71.23957
 21
34.422582
  0
LINE
  8
型材断面
  6
CONTINUOUS
 10
-34.386293
 20
34.572582
 11
-71.23957
 21
34.572582
  0
LINE
  8
型材断面
  6
CONTINUOUS
 10
-36.992955
 20
63.34591
 11
-71.23957
 21
63.34591
  0
LINE
  8
型材断面
  6
CONTINUOUS
 10
-36.776288
 20
63.562578
 11
-71.23957
 21
63.562578
  0
LINE
  8
型材断面
  6
CONTINUOUS
 10
-34.386293
 20
65.952572
 11
-71.23957
 21
65.952572
  0
LINE
  8
型材断面
  6
CONTINUOUS
 10
-34.236293
 20
66.102572
 11
-71.23957
 21
66.102572
  0
LINE
  8
型材断面
  6
CONTINUOUS
 10
-34.130845
 20
66.208017
 11
-71.23957
 21
66.208017
  0
LINE
  8
型材断面
  6
CONTINUOUS
 10
-34.083705
 20
66.255157
 11
-71.23957
 21
66.255157
  0
LINE
  8
型材断面
  6
CONTINUOUS
 10
-110.592847
 20
65.952572
 11
-73.73957
 21
65.952572
  0
LINE
  8
型材断面
  6
CONTINUOUS
 10
-110.742847
 20
66.102572
 11
-73.73957
 21
66.102572
  0
LINE
  8
型材断面
  6
CONTINUOUS
 10
-110.895435
 20
66.255157
 11
-73.73957
 21
66.255157
  0
LINE
  8
型材断面
  6
CONTINUOUS
 10
-110.848295
 20
66.208017
 11
-73.73957
 21
66.208017
  0
LINE
  8
型材断面
  6
CONTINUOUS
 10
-107.986185
 20
63.34591
 11
-73.73957
 21
63.34591
  0
LINE
  8
型材断面
  6
CONTINUOUS
 10
-108.202852
 20
63.562578
 11
-73.73957
 21
63.562578
  0
LINE
  8
型材断面
  6
CONTINUOUS
 10
-116.689563
 20
69.462578
 11
-116.689563
 21
50.262578
  0
LINE
  8
型材断面
  6
CONTINUOUS
 10
-113.435005
 20
63.62131
 11
-113.435005
 21
50.262578
  0
LINE
  8
型材断面
  6
CONTINUOUS
 10
-113.482145
 20
63.668447
 11
-113.482145
 21
50.262578
  0
LINE
  8
型材断面
  6
CONTINUOUS
 10
-113.179558
 20
63.365863
 11
-113.179558
 21
50.262578
  0
LINE
  8
型材断面
  6
CONTINUOUS
 10
-113.329558
 20
63.515863
 11
-113.329558
 21
50.262578
  0
LINE
  8
型材断面
  6
CONTINUOUS
 10
-110.789563
 20
60.975867
 11
-110.789563
 21
50.262578
  0
LINE
  8
型材断面
  6
CONTINUOUS
 10
-110.572895
 20
60.7592
 11
-110.572895
 21
50.262578
  0
LINE
  8
型材断面
  6
CONTINUOUS
 10
-110.789563
 20
39.549287
 11
-110.789563
 21
50.262578
  0
LINE
  8
型材断面
  6
CONTINUOUS
 10
-110.572895
 20
39.765955
 11
-110.572895
 21
50.262578
  0
LINE
  8
型材断面
  6
CONTINUOUS
 10
-113.482145
 20
36.856708
 11
-113.482145
 21
50.262578
  0
LINE
  8
型材断面
  6
CONTINUOUS
 10
-113.435005
 20
36.903845
 11
-113.435005
 21
50.262578
  0
LINE
  8
型材断面
  6
CONTINUOUS
 10
-113.179558
 20
37.159293
 11
-113.179558
 21
50.262578
  0
LINE
  8
型材断面
  6
CONTINUOUS
 10
-113.329558
 20
37.009293
 11
-113.329558
 21
50.262578
  0
LINE
  8
型材断面
  6
CONTINUOUS
 10
-116.689563
 20
31.062578
 11
-116.689563
 21
50.262578
  0
LINE
  8
型材断面
  6
CONTINUOUS
 10
-34.189577
 20
39.549287
 11
-34.189577
 21
50.262578
  0
LINE
  8
型材断面
  6
CONTINUOUS
 10
-34.406245
 20
39.765955
 11
-34.406245
 21
50.262578
  0
LINE
  8
型材断面
  6
CONTINUOUS
 10
-31.649582
 20
37.009293
 11
-31.649582
 21
50.262578
  0
LINE
  8
型材断面
  6
CONTINUOUS
 10
-31.799582
 20
37.159293
 11
-31.799582
 21
50.262578
  0
LINE
  8
型材断面
  6
CONTINUOUS
 10
-31.544135
 20
36.903845
 11
-31.544135
 21
50.262578
  0
LINE
  8
型材断面
  6
CONTINUOUS
 10
-31.496995
 20
36.856708
 11
-31.496995
 21
50.262578
  0
LINE
  8
型材断面
  6
CONTINUOUS
 10
-28.289577
 20
31.062578
 11
-28.289577
 21
50.262578
  0
LINE
  8
型材断面
  6
CONTINUOUS
 10
-28.289577
 20
69.462578
 11
-28.289577
 21
50.262578
  0
LINE
  8
型材断面
  6
CONTINUOUS
 10
-31.799582
 20
63.365863
 11
-31.799582
 21
50.262578
  0
LINE
  8
型材断面
  6
CONTINUOUS
 10
-31.649582
 20
63.515863
 11
-31.649582
 21
50.262578
  0
LINE
  8
型材断面
  6
CONTINUOUS
 10
-31.496995
 20
63.668447
 11
-31.496995
 21
50.262578
  0
LINE
  8
型材断面
  6
CONTINUOUS
 10
-31.544135
 20
63.62131
 11
-31.544135
 21
50.262578
  0
LINE
  8
型材断面
  6
CONTINUOUS
 10
-34.189577
 20
60.975867
 11
-34.189577
 21
50.262578
  0
LINE
  8
型材断面
  6
CONTINUOUS
 10
-34.406245
 20
60.7592
 11
-34.406245
 21
50.262578
  0
LINE
  8
型材断面
  6
CONTINUOUS
 62
    47
 10
86.948467
 20
-58.7781
 11
86.948467
 21
-60.911432
  0
LINE
  8
型材断面
  6
CONTINUOUS
 10
86.948467
 20
-58.7781
 11
87.007332
 21
-58.719235
  0
LINE
  8
型材断面
  6
CONTINUOUS
 62
    47
 10
86.3818
 20
-60.911432
 11
86.3818
 21
-61.4281
  0
LINE
  8
型材断面
  6
CONTINUOUS
 10
87.007332
 20
-58.719235
 11
67.74846
 21
-39.460365
  0
LINE
  8
型材断面
  6
CONTINUOUS
 10
86.22251
 20
-58.7781
 11
68.42079
 21
-40.97638
  0
LINE
  8
型材断面
  6
CONTINUOUS
 62
    47
 10
-1.451533
 20
-58.7781
 11
-1.451533
 21
-60.911432
  0
LINE
  8
型材断面
  6
CONTINUOUS
 10
-1.451533
 20
-58.7781
 11
-1.510397
 21
-58.719235
  0
LINE
  8
型材断面
  6
CONTINUOUS
 62
    47
 10
-0.884865
 20
-60.911432
 11
-0.884865
 21
-61.4281
  0
LINE
  8
型材断面
  6
CONTINUOUS
 10
-1.510397
 20
-58.719235
 11
17.748475
 21
-39.460365
  0
LINE
  8
型材断面
  6
CONTINUOUS
 10
-0.725575
 20
-58.7781
 11
17.076145
 21
-40.97638
  0
LINE
  8
型材断面
  6
CONTINUOUS
 10
19.5094
 20
-40.576835
 11
42.748467
 21
-40.576835
  0
LINE
  8
型材断面
  6
CONTINUOUS
 10
17.482933
 20
-40.639435
 11
42.748467
 21
-40.639435
  0
LINE
  8
型材断面
  6
CONTINUOUS
 10
17.748538
 20
-39.460365
 11
42.748467
 21
-39.460365
  0
LINE
  8
型材断面
  6
CONTINUOUS
 10
67.748397
 20
-39.460365
 11
42.748467
 21
-39.460365
  0
LINE
  8
型材断面
  6
CONTINUOUS
 10
65.987535
 20
-40.576835
 11
42.748467
 21
-40.576835
  0
LINE
  8
型材断面
  6
CONTINUOUS
 10
68.014003
 20
-40.639435
 11
42.748467
 21
-40.639435
  0
LINE
  8
型材断面
  6
CONTINUOUS
 10
86.948467
 20
-58.7781
 11
42.748467
 21
-58.7781
  0
LINE
  8
型材断面
  6
CONTINUOUS
 62
    47
 10
86.3818
 20
-61.4281
 11
42.748467
 21
-61.4281
  0
LINE
  8
型材断面
  6
CONTINUOUS
 62
    47
 10
86.948467
 20
-60.911432
 11
42.748467
 21
-60.911432
  0
LINE
  8
型材断面
  6
CONTINUOUS
 10
-1.451533
 20
-58.7781
 11
42.748467
 21
-58.7781
  0
LINE
  8
型材断面
  6
CONTINUOUS
 62
    47
 10
-0.884865
 20
-61.4281
 11
42.748467
 21
-61.4281
  0
LINE
  8
型材断面
  6
CONTINUOUS
 62
    47
 10
-1.451533
 20
-60.911432
 11
42.748467
 21
-60.911432
  0
LINE
  8
型材断面
  6
DOT
 62
    47
 10
86.948467
 20
-48.7781
 11
86.948467
 21
-50.911432
  0
LINE
  8
型材断面
  6
DOT
 10
86.948467
 20
-48.7781
 11
87.007332
 21
-48.719235
  0
LINE
  8
型材断面
  6
DOT
 62
    47
 10
86.3818
 20
-50.911432
 11
86.3818
 21
-51.4281
  0
LINE
  8
型材断面
  6
DOT
 10
87.007332
 20
-48.719235
 11
67.74846
 21
-29.460365
  0
LINE
  8
型材断面
  6
DOT
 10
86.22251
 20
-48.7781
 11
68.42079
 21
-30.97638
  0
LINE
  8
型材断面
  6
DOT
 62
    47
 10
-1.451533
 20
-48.7781
 11
-1.451533
 21
-50.911432
  0
LINE
  8
型材断面
  6
DOT
 10
-1.451533
 20
-48.7781
 11
-1.510397
 21
-48.719235
  0
LINE
  8
型材断面
  6
DOT
 62
    47
 10
-0.884865
 20
-50.911432
 11
-0.884865
 21
-51.4281
  0
LINE
  8
型材断面
  6
DOT
 10
-1.510397
 20
-48.719235
 11
17.748475
 21
-29.460365
  0
LINE
  8
型材断面
  6
DOT
 10
-0.725575
 20
-48.7781
 11
17.076145
 21
-30.97638
  0
LINE
  8
型材断面
  6
DOT
 10
19.5094
 20
-30.576835
 11
42.748467
 21
-30.576835
  0
LINE
  8
型材断面
  6
DOT
 10
17.482933
 20
-30.639435
 11
42.748467
 21
-30.639435
  0
LINE
  8
型材断面
  6
DOT
 10
17.748538
 20
-29.460365
 11
42.748467
 21
-29.460365
  0
LINE
  8
型材断面
  6
DOT
 10
67.748397
 20
-29.460365
 11
42.748467
 21
-29.460365
  0
LINE
  8
型材断面
  6
DOT
 10
65.987535
 20
-30.576835
 11
42.748467
 21
-30.576835
  0
LINE
  8
型材断面
  6
DOT
 10
68.014003
 20
-30.639435
 11
42.748467
 21
-30.639435
  0
LINE
  8
型材断面
  6
DOT
 10
86.948467
 20
-48.7781
 11
42.748467
 21
-48.7781
  0
LINE
  8
型材断面
  6
DOT
 62
    47
 10
86.3818
 20
-51.4281
 11
42.748467
 21
-51.4281
  0
LINE
  8
型材断面
  6
DOT
 62
    47
 10
86.948467
 20
-50.911432
 11
42.748467
 21
-50.911432
  0
LINE
  8
型材断面
  6
DOT
 10
-1.451533
 20
-48.7781
 11
42.748467
 21
-48.7781
  0
LINE
  8
型材断面
  6
DOT
 62
    47
 10
-0.884865
 20
-51.4281
 11
42.748467
 21
-51.4281
  0
LINE
  8
型材断面
  6
DOT
 62
    47
 10
-1.451533
 20
-50.911432
 11
42.748467
 21
-50.911432
  0
INSERT
  2
*GRP_0002
  8
型材断面
  6
DOT
 10
0.0
 20
0.0
  0
INSERT
  2
*GRP_0003
  8
型材断面
  6
DOT
 10
0.0
 20
0.0
  0
INSERT
  2
*GRP_0004
  8
型材断面
  6
DOT
 10
0.0
 20
0.0
  0
INSERT
  2
*GRP_0005
  8
型材断面
  6
DOT
 10
0.0
 20
0.0
  0
LINE
  8
型材断面
  6
CONTINUOUS
 62
    47
 10
114.504702
 20
-58.7781
 11
114.504702
 21
-60.911432
  0
LINE
  8
型材断面
  6
CONTINUOUS
 10
114.504702
 20
-58.7781
 11
114.445838
 21
-58.719235
  0
LINE
  8
型材断面
  6
CONTINUOUS
 62
    47
 10
115.07137
 20
-60.911432
 11
115.07137
 21
-61.4281
  0
LINE
  8
型材断面
  6
CONTINUOUS
 10
114.504702
 20
-58.7781
 11
133.704703
 21
-58.7781
  0
LINE
  8
型材断面
  6
CONTINUOUS
 62
    47
 10
114.504702
 20
-60.911432
 11
133.704703
 21
-60.911432
  0
LINE
  8
型材断面
  6
CONTINUOUS
 62
    47
 10
115.07137
 20
-61.4281
 11
133.704703
 21
-61.4281
  0
LINE
  8
型材断面
  6
CONTINUOUS
 10
115.23066
 20
-58.7781
 11
133.704703
 21
-40.304055
  0
LINE
  8
型材断面
  6
CONTINUOUS
 10
114.445838
 20
-58.719235
 11
133.704703
 21
-39.46037
  0
LINE
  8
型材断面
  6
CONTINUOUS
 10
132.165092
 20
-40.976385
 11
133.102212
 21
-40.976385
  0
LINE
  8
型材断面
  6
CONTINUOUS
 10
133.704703
 20
-40.373898
 11
133.102212
 21
-40.976385
  0
LINE
  8
型材断面
  6
CONTINUOUS
 10
132.165092
 20
-40.976385
 11
133.704703
 21
-39.436777
  0
LINE
  8
型材断面
  6
CONTINUOUS
 62
    47
 10
152.904702
 20
-58.7781
 11
152.904702
 21
-60.911432
  0
LINE
  8
型材断面
  6
CONTINUOUS
 10
152.904702
 20
-58.7781
 11
152.963567
 21
-58.719235
  0
LINE
  8
型材断面
  6
CONTINUOUS
 62
    47
 10
152.338035
 20
-60.911432
 11
152.338035
 21
-61.4281
  0
LINE
  8
型材断面
  6
CONTINUOUS
 10
152.904702
 20
-58.7781
 11
133.704703
 21
-58.7781
  0
LINE
  8
型材断面
  6
CONTINUOUS
 62
    47
 10
152.904702
 20
-60.911432
 11
133.704703
 21
-60.911432
  0
LINE
  8
型材断面
  6
CONTINUOUS
 62
    47
 10
152.338035
 20
-61.4281
 11
133.704703
 21
-61.4281
  0
LINE
  8
型材断面
  6
CONTINUOUS
 10
152.178745
 20
-58.7781
 11
133.704703
 21
-40.304055
  0
LINE
  8
型材断面
  6
CONTINUOUS
 10
152.963567
 20
-58.719235
 11
133.704703
 21
-39.46037
  0
LINE
  8
型材断面
  6
CONTINUOUS
 10
135.244312
 20
-40.976385
 11
134.307193
 21
-40.976385
  0
LINE
  8
型材断面
  6
CONTINUOUS
 10
133.704703
 20
-40.373898
 11
134.307193
 21
-40.976385
  0
LINE
  8
型材断面
  6
CONTINUOUS
 10
135.244312
 20
-40.976385
 11
133.704703
 21
-39.436777
  0
LINE
  8
型材断面
  6
DOT
 62
    47
 10
114.504702
 20
-48.7781
 11
114.504702
 21
-50.911432
  0
LINE
  8
型材断面
  6
DOT
 10
114.504702
 20
-48.7781
 11
114.445838
 21
-48.719235
  0
LINE
  8
型材断面
  6
DOT
 62
    47
 10
115.07137
 20
-50.911432
 11
115.07137
 21
-51.4281
  0
LINE
  8
型材断面
  6
DOT
 10
114.504702
 20
-48.7781
 11
133.704703
 21
-48.7781
  0
LINE
  8
型材断面
  6
DOT
 62
    47
 10
114.504702
 20
-50.911432
 11
133.704703
 21
-50.911432
  0
LINE
  8
型材断面
  6
DOT
 62
    47
 10
115.07137
 20
-51.4281
 11
133.704703
 21
-51.4281
  0
LINE
  8
型材断面
  6
DOT
 10
115.23066
 20
-48.7781
 11
133.704703
 21
-30.304055
  0
LINE
  8
型材断面
  6
DOT
 10
114.445838
 20
-48.719235
 11
133.704703
 21
-29.46037
  0
LINE
  8
型材断面
  6
DOT
 10
132.165092
 20
-30.976385
 11
133.102212
 21
-30.976385
  0
LINE
  8
型材断面
  6
DOT
 10
133.704703
 20
-30.373898
 11
133.102212
 21
-30.976385
  0
LINE
  8
型材断面
  6
DOT
 10
132.165092
 20
-30.976385
 11
133.704703
 21
-29.436777
  0
LINE
  8
型材断面
  6
DOT
 62
    47
 10
152.904702
 20
-48.7781
 11
152.904702
 21
-50.911432
  0
LINE
  8
型材断面
  6
DOT
 10
152.904702
 20
-48.7781
 11
152.963567
 21
-48.719235
  0
LINE
  8
型材断面
  6
DOT
 62
    47
 10
152.338035
 20
-50.911432
 11
152.338035
 21
-51.4281
  0
LINE
  8
型材断面
  6
DOT
 10
152.904702
 20
-48.7781
 11
133.704703
 21
-48.7781
  0
LINE
  8
型材断面
  6
DOT
 62
    47
 10
152.904702
 20
-50.911432
 11
133.704703
 21
-50.911432
  0
LINE
  8
型材断面
  6
DOT
 62
    47
 10
152.338035
 20
-51.4281
 11
133.704703
 21
-51.4281
  0
LINE
  8
型材断面
  6
DOT
 10
152.178745
 20
-48.7781
 11
133.704703
 21
-30.304055
  0
LINE
  8
型材断面
  6
DOT
 10
152.963567
 20
-48.719235
 11
133.704703
 21
-29.46037
  0
LINE
  8
型材断面
  6
DOT
 10
135.244312
 20
-30.976385
 11
134.307193
 21
-30.976385
  0
LINE
  8
型材断面
  6
DOT
 10
133.704703
 20
-30.373898
 11
134.307193
 21
-30.976385
  0
LINE
  8
型材断面
  6
DOT
 10
135.244312
 20
-30.976385
 11
133.704703
 21
-29.436777
  0
LINE
  8
型材断面
  6
DASHDOT
 10
-116.689563
 20
31.062578
 11
-97.489563
 21
50.262578
  0
LINE
  8
型材断面
  6
DASHDOT
 10
-28.289577
 20
31.062578
 11
-47.489577
 21
50.262578
  0
LINE
  8
型材断面
  6
DOT
 10
-38.228492
 20
63.34591
 11
-38.228492
 21
36.962578
  0
LINE
  8
型材断面
  6
DOT
 10
-36.89516
 20
63.34591
 11
-36.89516
 21
36.962578
  0
LINE
  8
型材断面
  6
DOT
 10
-106.750648
 20
63.34591
 11
-106.750648
 21
36.962578
  0
LINE
  8
型材断面
  6
DOT
 10
-108.08398
 20
63.34591
 11
-108.08398
 21
36.962578
  0
LINE
  8
型材断面
  6
CONTINUOUS
 10
-27.140327
 20
38.962578
 11
-24.54982
 21
39.558635
  0
LINE
  8
型材断面
  6
CONTINUOUS
 10
-27.140327
 20
38.962578
 11
-24.54982
 21
38.36652
  0
LINE
  8
型材断面
  6
CONTINUOUS
 10
-24.54982
 20
38.36652
 11
-24.54982
 21
39.558635
  0
LINE
  8
型材断面
  6
CONTINUOUS
 10
-27.140327
 20
61.562578
 11
-24.54982
 21
60.96652
  0
LINE
  8
型材断面
  6
CONTINUOUS
 10
-27.140327
 20
61.562578
 11
-24.54982
 21
62.158635
  0
LINE
  8
型材断面
  6
CONTINUOUS
 10
-24.54982
 20
62.158635
 11
-24.54982
 21
60.96652
  0
LINE
  8
型材断面
  6
CONTINUOUS
 10
-117.838813
 20
38.962578
 11
-120.42932
 21
39.558635
  0
LINE
  8
型材断面
  6
CONTINUOUS
 10
-117.838813
 20
38.962578
 11
-120.42932
 21
38.36652
  0
LINE
  8
型材断面
  6
CONTINUOUS
 10
-120.42932
 20
38.36652
 11
-120.42932
 21
39.558635
  0
LINE
  8
型材断面
  6
CONTINUOUS
 10
-117.838813
 20
61.562578
 11
-120.42932
 21
60.96652
  0
LINE
  8
型材断面
  6
CONTINUOUS
 10
-117.838813
 20
61.562578
 11
-120.42932
 21
62.158635
  0
LINE
  8
型材断面
  6
CONTINUOUS
 10
-120.42932
 20
62.158635
 11
-120.42932
 21
60.96652
  0
LINE
  8
型材断面
  6
CONTINUOUS
 10
-24.647008
 20
16.357582
 11
-24.05095
 21
13.767078
  0
LINE
  8
型材断面
  6
CONTINUOUS
 10
-24.647008
 20
16.357582
 11
-25.243065
 21
13.767078
  0
LINE
  8
型材断面
  6
CONTINUOUS
 10
-25.243065
 20
13.767078
 11
-24.05095
 21
13.767078
  0
LINE
  8
型材断面
  6
CONTINUOUS
 10
-28.003658
 20
10.323133
 11
10.071655
 21
10.323133
  0
LINE
  8
型材断面
  6
DASHDOT
 10
-32.48957
 20
-65.95488
 11
-32.48957
 21
65.262578
  0
LINE
  8
型材断面
  6
DASHDOT
 10
-72.48957
 20
-65.95488
 11
-72.48957
 21
65.262578
  0
LINE
  8
型材断面
  6
DASHDOT
 10
-112.48957
 20
-65.95488
 11
-112.48957
 21
65.262578
  0
LINE
  8
型材断面
  6
CONTINUOUS
 10
-114.752753
 20
-65.311432
 11
-114.752753
 21
-65.648098
  0
LINE
  8
型材断面
  6
CONTINUOUS
 10
-115.252753
 20
-65.311432
 11
-115.252753
 21
-61.4281
  0
LINE
  8
型材断面
  6
CONTINUOUS
 10
-115.252753
 20
-65.311432
 11
-72.48957
 21
-65.311432
  0
LINE
  8
型材断面
  6
CONTINUOUS
 10
-114.752753
 20
-65.648098
 11
-72.48957
 21
-65.648098
  0
LINE
  8
型材断面
  6
CONTINUOUS
 10
-30.226387
 20
-65.311432
 11
-30.226387
 21
-65.648098
  0
LINE
  8
型材断面
  6
CONTINUOUS
 10
-29.726387
 20
-65.311432
 11
-29.726387
 21
-61.4281
  0
LINE
  8
型材断面
  6
CONTINUOUS
 10
-29.726387
 20
-65.311432
 11
-72.48957
 21
-65.311432
  0
LINE
  8
型材断面
  6
CONTINUOUS
 10
-30.226387
 20
-65.648098
 11
-72.48957
 21
-65.648098
  0
LINE
  8
型材断面
  6
CONTINUOUS
 10
0.485285
 20
-65.311432
 11
0.485285
 21
-65.648098
  0
LINE
  8
型材断面
  6
CONTINUOUS
 10
-0.014715
 20
-65.311432
 11
-0.014715
 21
-61.4281
  0
LINE
  8
型材断面
  6
CONTINUOUS
 10
-0.014715
 20
-65.311432
 11
42.748467
 21
-65.311432
  0
LINE
  8
型材断面
  6
CONTINUOUS
 10
0.485285
 20
-65.648098
 11
42.748467
 21
-65.648098
  0
LINE
  8
型材断面
  6
CONTINUOUS
 10
85.01165
 20
-65.311432
 11
85.01165
 21
-65.648098
  0
LINE
  8
型材断面
  6
CONTINUOUS
 10
85.51165
 20
-65.311432
 11
85.51165
 21
-61.4281
  0
LINE
  8
型材断面
  6
CONTINUOUS
 10
85.51165
 20
-65.311432
 11
42.748467
 21
-65.311432
  0
LINE
  8
型材断面
  6
CONTINUOUS
 10
85.01165
 20
-65.648098
 11
42.748467
 21
-65.648098
  0
LINE
  8
型材断面
  6
CONTINUOUS
 10
116.44152
 20
-65.311432
 11
116.44152
 21
-65.648098
  0
LINE
  8
型材断面
  6
CONTINUOUS
 10
115.94152
 20
-65.311432
 11
115.94152
 21
-61.4281
  0
LINE
  8
型材断面
  6
CONTINUOUS
 10
116.44152
 20
-65.648098
 11
133.704703
 21
-65.648098
  0
LINE
  8
型材断面
  6
CONTINUOUS
 10
115.94152
 20
-65.311432
 11
133.704703
 21
-65.311432
  0
LINE
  8
型材断面
  6
CONTINUOUS
 10
150.967885
 20
-65.311432
 11
150.967885
 21
-65.648098
  0
LINE
  8
型材断面
  6
CONTINUOUS
 10
151.467885
 20
-65.311432
 11
151.467885
 21
-61.4281
  0
LINE
  8
型材断面
  6
CONTINUOUS
 10
150.967885
 20
-65.648098
 11
133.704703
 21
-65.648098
  0
LINE
  8
型材断面
  6
CONTINUOUS
 10
151.467885
 20
-65.311432
 11
133.704703
 21
-65.311432
  0
LINE
  8
型材断面
  6
DASHDOT
 10
62.528025
 20
35.262578
 11
-112.48957
 21
35.262578
  0
LINE
  8
型材断面
  6
DASHDOT
 10
62.528025
 20
65.262578
 11
-112.48957
 21
65.262578
  0
LINE
  8
型材断面
  6
DASHDOT
 10
62.528025
 20
50.262578
 11
-112.48957
 21
50.262578
  0
LINE
  8
型材断面
  6
CONTINUOUS
 10
62.401245
 20
32.999395
 11
62.73791
 21
32.999395
  0
LINE
  8
型材断面
  6
CONTINUOUS
 10
62.401245
 20
32.499395
 11
58.517913
 21
32.499395
  0
LINE
  8
型材断面
  6
CONTINUOUS
 10
62.73791
 20
32.999395
 11
62.73791
 21
50.262578
  0
LINE
  8
型材断面
  6
CONTINUOUS
 10
62.401245
 20
32.499395
 11
62.401245
 21
50.262578
  0
LINE
  8
型材断面
  6
CONTINUOUS
 10
62.401245
 20
67.52576
 11
62.73791
 21
67.52576
  0
LINE
  8
型材断面
  6
CONTINUOUS
 10
62.401245
 20
68.02576
 11
58.517913
 21
68.02576
  0
LINE
  8
型材断面
  6
CONTINUOUS
 10
62.73791
 20
67.52576
 11
62.73791
 21
50.262578
  0
LINE
  8
型材断面
  6
CONTINUOUS
 10
62.401245
 20
68.02576
 11
62.401245
 21
50.262578
  0
LINE
  8
ゴム等
  6
CONTINUOUS
 10
-32.37177
 20
-57.671595
 11
-31.064605
 21
-58.007492
  0
LINE
  8
ゴム等
  6
CONTINUOUS
 10
-31.064605
 20
-58.007492
 11
-30.825422
 21
-58.059213
  0
LINE
  8
ゴム等
  6
CONTINUOUS
 10
-30.825422
 20
-58.059213
 11
-29.015528
 21
-58.7781
  0
LINE
  8
ゴム等
  6
CONTINUOUS
 10
-47.231688
 20
49.067568
 11
-49.250508
 21
49.067568
  0
LINE
  8
ゴム等
  6
CONTINUOUS
 10
-49.250508
 20
49.067568
 11
-49.250508
 21
50.262578
  0
LINE
  8
ゴム等
  6
CONTINUOUS
 10
-32.337168
 20
32.523458
 11
-31.06451
 21
31.883098
  0
LINE
  8
ゴム等
  6
CONTINUOUS
 10
-31.06451
 20
31.883098
 11
-30.879025
 21
31.767323
  0
LINE
  8
ゴム等
  6
CONTINUOUS
 10
-30.82534
 20
31.7579
 11
-29.080535
 21
31.062578
  0
LINE
  8
ゴム等
  6
CONTINUOUS
 10
-29.750457
 20
35.110167
 11
-29.110095
 21
33.837513
  0
LINE
  8
ゴム等
  6
CONTINUOUS
 10
-29.110095
 20
33.837513
 11
-28.994322
 21
33.652028
  0
LINE
  8
ゴム等
  6
CONTINUOUS
 10
-28.9849
 20
33.598343
 11
-28.289577
 21
31.853537
  0
LINE
  8
ゴム等
  6
CONTINUOUS
 10
-29.110095
 20
33.837513
 11
-45.535163
 21
50.262578
  0
LINE
  8
ゴム等
  6
CONTINUOUS
 10
-28.9849
 20
33.598343
 11
-45.649137
 21
50.262578
  0
LINE
  8
ゴム等
  6
CONTINUOUS
 10
-29.750457
 20
35.110167
 11
-44.902867
 21
50.262578
  0
LINE
  8
ゴム等
  6
CONTINUOUS
 10
-30.82534
 20
31.7579
 11
-47.672795
 21
48.605352
  0
LINE
  8
ゴム等
  6
CONTINUOUS
 10
-31.06451
 20
31.883098
 11
-47.726452
 21
48.545038
  0
LINE
  8
ゴム等
  6
CONTINUOUS
 10
-32.337168
 20
32.523458
 11
-48.024423
 21
48.210713
  0
LINE
  8
ゴム等
  6
CONTINUOUS
 10
-47.231688
 20
51.457588
 11
-49.250508
 21
51.457588
  0
LINE
  8
ゴム等
  6
CONTINUOUS
 10
-49.250508
 20
51.457588
 11
-49.250508
 21
50.262578
  0
LINE
  8
ゴム等
  6
CONTINUOUS
 10
-32.337168
 20
68.001698
 11
-31.06451
 21
68.642058
  0
LINE
  8
ゴム等
  6
CONTINUOUS
 10
-31.06451
 20
68.642058
 11
-30.879025
 21
68.757833
  0
LINE
  8
ゴム等
  6
CONTINUOUS
 10
-30.82534
 20
68.767255
 11
-29.080535
 21
69.462578
  0
LINE
  8
ゴム等
  6
CONTINUOUS
 10
-29.750457
 20
65.414987
 11
-29.110095
 21
66.687643
  0
LINE
  8
ゴム等
  6
CONTINUOUS
 10
-29.110095
 20
66.687643
 11
-28.994322
 21
66.873128
  0
LINE
  8
ゴム等
  6
CONTINUOUS
 10
-28.9849
 20
66.926813
 11
-28.289577
 21
68.671617
  0
LINE
  8
ゴム等
  6
CONTINUOUS
 10
-29.110095
 20
66.687643
 11
-45.535163
 21
50.262578
  0
LINE
  8
ゴム等
  6
CONTINUOUS
 10
-28.9849
 20
66.926813
 11
-45.649137
 21
50.262578
  0
LINE
  8
ゴム等
  6
CONTINUOUS
 10
-29.750457
 20
65.414987
 11
-44.902867
 21
50.262578
  0
LINE
  8
ゴム等
  6
CONTINUOUS
 10
-30.82534
 20
68.767255
 11
-47.672795
 21
51.919802
  0
LINE
  8
ゴム等
  6
CONTINUOUS
 10
-31.06451
 20
68.642058
 11
-47.726452
 21
51.980118
  0
LINE
  8
ゴム等
  6
CONTINUOUS
 10
-32.337168
 20
68.001698
 11
-48.024423
 21
52.314443
  0
LINE
  8
ゴム等
  6
CONTINUOUS
 10
-47.583835
 20
-39.342515
 11
-49.250503
 21
-39.342515
  0
LINE
  8
ゴム等
  6
CONTINUOUS
 10
-49.250503
 20
-39.342515
 11
-49.250503
 21
-40.584665
  0
LINE
  8
ゴム等
  6
CONTINUOUS
 10
-47.325945
 20
-40.537525
 11
-49.250503
 21
-40.537525
  0
LINE
  8
ゴム等
  6
CONTINUOUS
 10
-49.250503
 20
-40.584665
 11
-47.278805
 21
-40.584665
  0
LINE
  8
ゴム等
  6
CONTINUOUS
 10
-45.949968
 20
-40.97638
 11
-46.887087
 21
-40.97638
  0
LINE
  8
ゴム等
  6
CONTINUOUS
 10
-45.949968
 20
-40.97638
 11
-47.583835
 21
-39.342515
  0
LINE
  8
ゴム等
  6
CONTINUOUS
 10
-46.887087
 20
-40.97638
 11
-47.325945
 21
-40.537525
  0
LINE
  8
ゴム等
  6
CONTINUOUS
 10
-47.542958
 20
-41.341677
 11
-47.619237
 21
-41.452858
  0
LINE
  8
ゴム等
  6
CONTINUOUS
 10
-47.619237
 20
-41.452858
 11
-47.946615
 21
-42.09675
  0
LINE
  8
ゴム等
  6
CONTINUOUS
 10
-47.542958
 20
-41.341677
 11
-47.17908
 21
-40.68439
  0
LINE
  8
ゴム等
  6
CONTINUOUS
 10
-31.064605
 20
-58.007492
 11
-47.609755
 21
-41.46234
  0
LINE
  8
ゴム等
  6
CONTINUOUS
 10
-30.825422
 20
-58.059213
 11
-47.542958
 21
-41.341677
  0
LINE
  8
ゴム等
  6
CONTINUOUS
 10
-32.37177
 20
-57.671595
 11
-47.946615
 21
-42.09675
  0
LINE
  8
ゴム等
  6
CONTINUOUS
 10
54.76141
 20
35.144775
 11
55.097307
 21
33.83761
  0
LINE
  8
ゴム等
  6
CONTINUOUS
 10
55.097307
 20
33.83761
 11
55.149028
 21
33.59843
  0
LINE
  8
ゴム等
  6
CONTINUOUS
 10
55.149028
 20
33.59843
 11
55.867913
 21
31.788535
  0
LINE
  8
ゴム等
  6
CONTINUOUS
 10
54.76141
 20
35.144775
 11
54.76141
 21
50.262578
  0
LINE
  8
ゴム等
  6
CONTINUOUS
 10
55.149028
 20
33.59843
 11
55.149028
 21
50.262578
  0
LINE
  8
ゴム等
  6
CONTINUOUS
 10
55.097307
 20
33.83761
 11
55.097307
 21
50.262578
  0
LINE
  8
ゴム等
  6
CONTINUOUS
 10
54.76141
 20
35.144775
 11
39.643605
 21
50.262578
  0
LINE
  8
ゴム等
  6
CONTINUOUS
 10
55.097307
 20
33.83761
 11
38.672337
 21
50.262578
  0
LINE
  8
ゴム等
  6
CONTINUOUS
 10
55.149028
 20
33.59843
 11
38.484878
 21
50.262578
  0
LINE
  8
ゴム等
  6
CONTINUOUS
 10
54.76141
 20
65.38038
 11
55.097307
 21
66.687545
  0
LINE
  8
ゴム等
  6
CONTINUOUS
 10
55.097307
 20
66.687545
 11
55.149028
 21
66.926725
  0
LINE
  8
ゴム等
  6
CONTINUOUS
 10
55.149028
 20
66.926725
 11
55.867913
 21
68.73662
  0
LINE
  8
ゴム等
  6
CONTINUOUS
 10
54.76141
 20
65.38038
 11
54.76141
 21
50.262578
  0
LINE
  8
ゴム等
  6
CONTINUOUS
 10
55.149028
 20
66.926725
 11
55.149028
 21
50.262578
  0
LINE
  8
ゴム等
  6
CONTINUOUS
 10
55.097307
 20
66.687545
 11
55.097307
 21
50.262578
  0
LINE
  8
ゴム等
  6
CONTINUOUS
 10
54.76141
 20
65.38038
 11
39.643605
 21
50.262578
  0
LINE
  8
ゴム等
  6
CONTINUOUS
 10
55.097307
 20
66.687545
 11
38.672337
 21
50.262578
  0
LINE
  8
ゴム等
  6
CONTINUOUS
 10
55.149028
 20
66.926725
 11
38.484878
 21
50.262578
  0
LINE
  8
ゴム等
  6
CONTINUOUS
 10
-112.60737
 20
-57.671595
 11
-113.914535
 21
-58.007492
  0
LINE
  8
ゴム等
  6
CONTINUOUS
 10
-113.914535
 20
-58.007492
 11
-114.153718
 21
-58.059213
  0
LINE
  8
ゴム等
  6
CONTINUOUS
 10
-114.153718
 20
-58.059213
 11
-115.963613
 21
-58.7781
  0
LINE
  8
ゴム等
  6
CONTINUOUS
 10
-97.395305
 20
-39.342515
 11
-95.728637
 21
-39.342515
  0
LINE
  8
ゴム等
  6
CONTINUOUS
 10
-95.728637
 20
-39.342515
 11
-95.728637
 21
-40.584665
  0
LINE
  8
ゴム等
  6
CONTINUOUS
 10
-97.653195
 20
-40.537525
 11
-95.728637
 21
-40.537525
  0
LINE
  8
ゴム等
  6
CONTINUOUS
 10
-95.728637
 20
-40.584665
 11
-97.700335
 21
-40.584665
  0
LINE
  8
ゴム等
  6
CONTINUOUS
 10
-99.029173
 20
-40.97638
 11
-98.092053
 21
-40.97638
  0
LINE
  8
ゴム等
  6
CONTINUOUS
 10
-99.029173
 20
-40.97638
 11
-97.395305
 21
-39.342515
  0
LINE
  8
ゴム等
  6
CONTINUOUS
 10
-98.092053
 20
-40.97638
 11
-97.653195
 21
-40.537525
  0
LINE
  8
ゴム等
  6
CONTINUOUS
 10
-97.436183
 20
-41.341677
 11
-97.359903
 21
-41.452858
  0
LINE
  8
ゴム等
  6
CONTINUOUS
 10
-97.359903
 20
-41.452858
 11
-97.032525
 21
-42.09675
  0
LINE
  8
ゴム等
  6
CONTINUOUS
 10
-97.436183
 20
-41.341677
 11
-97.80006
 21
-40.68439
  0
LINE
  8
ゴム等
  6
CONTINUOUS
 10
-113.914535
 20
-58.007492
 11
-97.369385
 21
-41.46234
  0
LINE
  8
ゴム等
  6
CONTINUOUS
 10
-114.153718
 20
-58.059213
 11
-97.436183
 21
-41.341677
  0
LINE
  8
ゴム等
  6
CONTINUOUS
 10
-112.60737
 20
-57.671595
 11
-97.032525
 21
-42.09675
  0
LINE
  8
ゴム等
  6
CONTINUOUS
 10
-97.436183
 20
-41.341677
 11
-72.48957
 21
-41.341677
  0
LINE
  8
ゴム等
  6
CONTINUOUS
 10
-97.359903
 20
-41.452858
 11
-72.48957
 21
-41.452858
  0
LINE
  8
ゴム等
  6
CONTINUOUS
 10
-47.542958
 20
-41.341677
 11
-72.48957
 21
-41.341677
  0
LINE
  8
ゴム等
  6
CONTINUOUS
 10
-47.619237
 20
-41.452858
 11
-72.48957
 21
-41.452858
  0
LINE
  8
ゴム等
  6
CONTINUOUS
 10
-31.064605
 20
-58.007492
 11
-72.48957
 21
-58.007492
  0
LINE
  8
ゴム等
  6
CONTINUOUS
 10
-113.914535
 20
-58.007492
 11
-72.48957
 21
-58.007492
  0
LINE
  8
ゴム等
  6
CONTINUOUS
 10
-114.153718
 20
-58.059213
 11
-72.48957
 21
-58.059213
  0
LINE
  8
ゴム等
  6
CONTINUOUS
 10
-97.747452
 20
49.067568
 11
-95.728633
 21
49.067568
  0
LINE
  8
ゴム等
  6
CONTINUOUS
 10
-95.728633
 20
49.067568
 11
-95.728633
 21
50.262578
  0
LINE
  8
ゴム等
  6
CONTINUOUS
 10
-112.641972
 20
32.523458
 11
-113.91463
 21
31.883098
  0
LINE
  8
ゴム等
  6
CONTINUOUS
 10
-113.91463
 20
31.883098
 11
-114.100115
 21
31.767323
  0
LINE
  8
ゴム等
  6
CONTINUOUS
 10
-114.1538
 20
31.7579
 11
-115.898605
 21
31.062578
  0
LINE
  8
ゴム等
  6
CONTINUOUS
 10
-115.228683
 20
35.110167
 11
-115.869045
 21
33.837513
  0
LINE
  8
ゴム等
  6
CONTINUOUS
 10
-115.869045
 20
33.837513
 11
-115.984818
 21
33.652028
  0
LINE
  8
ゴム等
  6
CONTINUOUS
 10
-115.99424
 20
33.598343
 11
-116.689563
 21
31.853537
  0
LINE
  8
ゴム等
  6
CONTINUOUS
 10
-115.869045
 20
33.837513
 11
-99.443977
 21
50.262578
  0
LINE
  8
ゴム等
  6
CONTINUOUS
 10
-115.99424
 20
33.598343
 11
-99.330002
 21
50.262578
  0
LINE
  8
ゴム等
  6
CONTINUOUS
 10
-115.228683
 20
35.110167
 11
-100.076272
 21
50.262578
  0
LINE
  8
ゴム等
  6
CONTINUOUS
 10
-114.1538
 20
31.7579
 11
-97.306345
 21
48.605352
  0
LINE
  8
ゴム等
  6
CONTINUOUS
 10
-113.91463
 20
31.883098
 11
-97.252687
 21
48.545038
  0
LINE
  8
ゴム等
  6
CONTINUOUS
 10
-112.641972
 20
32.523458
 11
-96.954717
 21
48.210713
  0
LINE
  8
ゴム等
  6
CONTINUOUS
 10
-97.747452
 20
51.457588
 11
-95.728633
 21
51.457588
  0
LINE
  8
ゴム等
  6
CONTINUOUS
 10
-95.728633
 20
51.457588
 11
-95.728633
 21
50.262578
  0
LINE
  8
ゴム等
  6
CONTINUOUS
 10
-112.641972
 20
68.001698
 11
-113.91463
 21
68.642058
  0
LINE
  8
ゴム等
  6
CONTINUOUS
 10
-113.91463
 20
68.642058
 11
-114.100115
 21
68.757833
  0
LINE
  8
ゴム等
  6
CONTINUOUS
 10
-114.1538
 20
68.767255
 11
-115.898605
 21
69.462578
  0
LINE
  8
ゴム等
  6
CONTINUOUS
 10
-115.228683
 20
65.414987
 11
-115.869045
 21
66.687643
  0
LINE
  8
ゴム等
  6
CONTINUOUS
 10
-115.869045
 20
66.687643
 11
-115.984818
 21
66.873128
  0
LINE
  8
ゴム等
  6
CONTINUOUS
 10
-115.99424
 20
66.926813
 11
-116.689563
 21
68.671617
  0
LINE
  8
ゴム等
  6
CONTINUOUS
 10
-115.869045
 20
66.687643
 11
-99.443977
 21
50.262578
  0
LINE
  8
ゴム等
  6
CONTINUOUS
 10
-115.99424
 20
66.926813
 11
-99.330002
 21
50.262578
  0
LINE
  8
ゴム等
  6
CONTINUOUS
 10
-115.228683
 20
65.414987
 11
-100.076272
 21
50.262578
  0
LINE
  8
ゴム等
  6
CONTINUOUS
 10
-114.1538
 20
68.767255
 11
-97.306345
 21
51.919802
  0
LINE
  8
ゴム等
  6
CONTINUOUS
 10
-113.91463
 20
68.642058
 11
-97.252687
 21
51.980118
  0
LINE
  8
ゴム等
  6
CONTINUOUS
 10
-112.641972
 20
68.001698
 11
-96.954717
 21
52.314443
  0
LINE
  8
ゴム等
  6
CONTINUOUS
 10
-113.91463
 20
68.642058
 11
-72.48957
 21
68.642058
  0
LINE
  8
ゴム等
  6
CONTINUOUS
 10
-114.1538
 20
68.767255
 11
-72.48957
 21
68.767255
  0
LINE
  8
ゴム等
  6
CONTINUOUS
 10
-30.82534
 20
68.767255
 11
-72.48957
 21
68.767255
  0
LINE
  8
ゴム等
  6
CONTINUOUS
 10
-31.06451
 20
68.642058
 11
-72.48957
 21
68.642058
  0
LINE
  8
ゴム等
  6
CONTINUOUS
 10
-47.672795
 20
51.919802
 11
-72.48957
 21
51.919802
  0
LINE
  8
ゴム等
  6
CONTINUOUS
 10
-47.726452
 20
51.980118
 11
-72.48957
 21
51.980118
  0
LINE
  8
ゴム等
  6
CONTINUOUS
 10
-47.672795
 20
48.605352
 11
-72.48957
 21
48.605352
  0
LINE
  8
ゴム等
  6
CONTINUOUS
 10
-47.726452
 20
48.545038
 11
-72.48957
 21
48.545038
  0
LINE
  8
ゴム等
  6
CONTINUOUS
 10
-31.06451
 20
31.883098
 11
-72.48957
 21
31.883098
  0
LINE
  8
ゴム等
  6
CONTINUOUS
 10
-30.82534
 20
31.7579
 11
-72.48957
 21
31.7579
  0
LINE
  8
ゴム等
  6
CONTINUOUS
 10
-114.1538
 20
31.7579
 11
-72.48957
 21
31.7579
  0
LINE
  8
ゴム等
  6
CONTINUOUS
 10
-113.91463
 20
31.883098
 11
-72.48957
 21
31.883098
  0
LINE
  8
ゴム等
  6
CONTINUOUS
 10
-97.252687
 20
48.545038
 11
-72.48957
 21
48.545038
  0
LINE
  8
ゴム等
  6
CONTINUOUS
 10
-97.306345
 20
48.605352
 11
-72.48957
 21
48.605352
  0
LINE
  8
ゴム等
  6
CONTINUOUS
 10
-97.306345
 20
51.919802
 11
-72.48957
 21
51.919802
  0
LINE
  8
ゴム等
  6
CONTINUOUS
 10
-97.252687
 20
51.980118
 11
-72.48957
 21
51.980118
  0
LINE
  8
ゴム等
  6
CONTINUOUS
 10
-48.024423
 20
48.210713
 11
-71.23957
 21
48.210713
  0
LINE
  8
ゴム等
  6
CONTINUOUS
 10
-71.956238
 20
48.545038
 11
-71.23957
 21
48.210713
  0
LINE
  8
ゴム等
  6
CONTINUOUS
 10
-71.23957
 20
48.210713
 11
-71.23957
 21
32.523458
  0
LINE
  8
ゴム等
  6
CONTINUOUS
 10
-32.337168
 20
32.523458
 11
-71.23957
 21
32.523458
  0
LINE
  8
ゴム等
  6
CONTINUOUS
 10
-71.956238
 20
48.545038
 11
-71.956238
 21
31.883098
  0
LINE
  8
ゴム等
  6
CONTINUOUS
 10
-71.956238
 20
31.883098
 11
-71.23957
 21
32.523458
  0
LINE
  8
ゴム等
  6
CONTINUOUS
 10
-73.022902
 20
48.545038
 11
-73.73957
 21
48.210713
  0
LINE
  8
ゴム等
  6
CONTINUOUS
 10
-73.73957
 20
48.210713
 11
-73.73957
 21
32.523458
  0
LINE
  8
ゴム等
  6
CONTINUOUS
 10
-73.022902
 20
48.545038
 11
-73.022902
 21
31.883098
  0
LINE
  8
ゴム等
  6
CONTINUOUS
 10
-73.022902
 20
31.883098
 11
-73.73957
 21
32.523458
  0
LINE
  8
ゴム等
  6
CONTINUOUS
 10
-112.641972
 20
32.523458
 11
-73.73957
 21
32.523458
  0
LINE
  8
ゴム等
  6
CONTINUOUS
 10
-96.954717
 20
48.210713
 11
-73.73957
 21
48.210713
  0
LINE
  8
ゴム等
  6
CONTINUOUS
 10
-71.956238
 20
51.980118
 11
-71.23957
 21
52.314443
  0
LINE
  8
ゴム等
  6
CONTINUOUS
 10
-71.23957
 20
52.314443
 11
-71.23957
 21
68.001698
  0
LINE
  8
ゴム等
  6
CONTINUOUS
 10
-71.956238
 20
51.980118
 11
-71.956238
 21
68.642058
  0
LINE
  8
ゴム等
  6
CONTINUOUS
 10
-71.956238
 20
68.642058
 11
-71.23957
 21
68.001698
  0
LINE
  8
ゴム等
  6
CONTINUOUS
 10
-73.022902
 20
51.980118
 11
-73.73957
 21
52.314443
  0
LINE
  8
ゴム等
  6
CONTINUOUS
 10
-73.73957
 20
52.314443
 11
-73.73957
 21
68.001698
  0
LINE
  8
ゴム等
  6
CONTINUOUS
 10
-73.022902
 20
51.980118
 11
-73.022902
 21
68.642058
  0
LINE
  8
ゴム等
  6
CONTINUOUS
 10
-73.022902
 20
68.642058
 11
-73.73957
 21
68.001698
  0
LINE
  8
ゴム等
  6
CONTINUOUS
 10
-32.337168
 20
68.001698
 11
-71.23957
 21
68.001698
  0
LINE
  8
ゴム等
  6
CONTINUOUS
 10
-112.641972
 20
68.001698
 11
-73.73957
 21
68.001698
  0
LINE
  8
ゴム等
  6
CONTINUOUS
 10
-48.024423
 20
52.314443
 11
-71.23957
 21
52.314443
  0
LINE
  8
ゴム等
  6
CONTINUOUS
 10
-96.954717
 20
52.314443
 11
-73.73957
 21
52.314443
  0
LINE
  8
ゴム等
  6
CONTINUOUS
 10
-30.825422
 20
-58.059213
 11
-72.48957
 21
-58.059213
  0
LINE
  8
ゴム等
  6
CONTINUOUS
 10
-32.37177
 20
-57.671595
 11
-71.23957
 21
-57.671595
  0
LINE
  8
ゴム等
  6
CONTINUOUS
 10
-71.956238
 20
-58.007492
 11
-71.23957
 21
-57.671595
  0
LINE
  8
ゴム等
  6
CONTINUOUS
 10
-47.946615
 20
-42.09675
 11
-71.23957
 21
-42.09675
  0
LINE
  8
ゴム等
  6
CONTINUOUS
 10
-71.23957
 20
-57.671595
 11
-71.23957
 21
-42.09675
  0
LINE
  8
ゴム等
  6
CONTINUOUS
 10
-71.956238
 20
-58.007492
 11
-71.956238
 21
-41.452858
  0
LINE
  8
ゴム等
  6
CONTINUOUS
 10
-71.956238
 20
-41.452858
 11
-71.23957
 21
-42.09675
  0
LINE
  8
ゴム等
  6
CONTINUOUS
 10
-73.022902
 20
-58.007492
 11
-73.73957
 21
-57.671595
  0
LINE
  8
ゴム等
  6
CONTINUOUS
 10
-73.73957
 20
-57.671595
 11
-73.73957
 21
-42.09675
  0
LINE
  8
ゴム等
  6
CONTINUOUS
 10
-73.022902
 20
-58.007492
 11
-73.022902
 21
-41.452858
  0
LINE
  8
ゴム等
  6
CONTINUOUS
 10
-73.022902
 20
-41.452858
 11
-73.73957
 21
-42.09675
  0
LINE
  8
ゴム等
  6
CONTINUOUS
 10
-112.60737
 20
-57.671595
 11
-73.73957
 21
-57.671595
  0
LINE
  8
ゴム等
  6
CONTINUOUS
 10
-97.032525
 20
-42.09675
 11
-73.73957
 21
-42.09675
  0
LINE
  8
ゴム等
  6
CONTINUOUS
 10
-115.869045
 20
66.687643
 11
-115.869045
 21
50.262578
  0
LINE
  8
ゴム等
  6
CONTINUOUS
 10
-115.99424
 20
66.926813
 11
-115.99424
 21
50.262578
  0
LINE
  8
ゴム等
  6
CONTINUOUS
 10
-115.228683
 20
65.414987
 11
-115.228683
 21
50.262578
  0
LINE
  8
ゴム等
  6
CONTINUOUS
 10
-115.228683
 20
35.110167
 11
-115.228683
 21
50.262578
  0
LINE
  8
ゴム等
  6
CONTINUOUS
 10
-115.869045
 20
33.837513
 11
-115.869045
 21
50.262578
  0
LINE
  8
ゴム等
  6
CONTINUOUS
 10
-115.99424
 20
33.598343
 11
-115.99424
 21
50.262578
  0
LINE
  8
ゴム等
  6
CONTINUOUS
 10
-29.750457
 20
35.110167
 11
-29.750457
 21
50.262578
  0
LINE
  8
ゴム等
  6
CONTINUOUS
 10
-29.110095
 20
33.837513
 11
-29.110095
 21
50.262578
  0
LINE
  8
ゴム等
  6
CONTINUOUS
 10
-28.9849
 20
33.598343
 11
-28.9849
 21
50.262578
  0
LINE
  8
ゴム等
  6
CONTINUOUS
 10
-29.110095
 20
66.687643
 11
-29.110095
 21
50.262578
  0
LINE
  8
ゴム等
  6
CONTINUOUS
 10
-28.9849
 20
66.926813
 11
-28.9849
 21
50.262578
  0
LINE
  8
ゴム等
  6
CONTINUOUS
 10
-29.750457
 20
65.414987
 11
-29.750457
 21
50.262578
  0
LINE
  8
ゴム等
  6
CONTINUOUS
 10
82.866267
 20
-57.671595
 11
84.173432
 21
-58.007492
  0
LINE
  8
ゴム等
  6
CONTINUOUS
 10
84.173432
 20
-58.007492
 11
84.412615
 21
-58.059213
  0
LINE
  8
ゴム等
  6
CONTINUOUS
 10
84.412615
 20
-58.059213
 11
86.22251
 21
-58.7781
  0
LINE
  8
ゴム等
  6
CONTINUOUS
 10
67.654203
 20
-39.342515
 11
65.987535
 21
-39.342515
  0
LINE
  8
ゴム等
  6
CONTINUOUS
 10
65.987535
 20
-39.342515
 11
65.987535
 21
-40.584665
  0
LINE
  8
ゴム等
  6
CONTINUOUS
 10
67.912092
 20
-40.537525
 11
65.987535
 21
-40.537525
  0
LINE
  8
ゴム等
  6
CONTINUOUS
 10
65.987535
 20
-40.584665
 11
67.959232
 21
-40.584665
  0
LINE
  8
ゴム等
  6
CONTINUOUS
 10
69.28807
 20
-40.97638
 11
68.35095
 21
-40.97638
  0
LINE
  8
ゴム等
  6
CONTINUOUS
 10
69.28807
 20
-40.97638
 11
67.654203
 21
-39.342515
  0
LINE
  8
ゴム等
  6
CONTINUOUS
 10
68.35095
 20
-40.97638
 11
67.912092
 21
-40.537525
  0
LINE
  8
ゴム等
  6
CONTINUOUS
 10
67.69508
 20
-41.341677
 11
67.6188
 21
-41.452858
  0
LINE
  8
ゴム等
  6
CONTINUOUS
 10
67.6188
 20
-41.452858
 11
67.291423
 21
-42.09675
  0
LINE
  8
ゴム等
  6
CONTINUOUS
 10
67.69508
 20
-41.341677
 11
68.058957
 21
-40.68439
  0
LINE
  8
ゴム等
  6
CONTINUOUS
 10
84.173432
 20
-58.007492
 11
67.628283
 21
-41.46234
  0
LINE
  8
ゴム等
  6
CONTINUOUS
 10
84.412615
 20
-58.059213
 11
67.69508
 21
-41.341677
  0
LINE
  8
ゴム等
  6
CONTINUOUS
 10
82.866267
 20
-57.671595
 11
67.291423
 21
-42.09675
  0
LINE
  8
ゴム等
  6
CONTINUOUS
 10
2.630667
 20
-57.671595
 11
1.323502
 21
-58.007492
  0
LINE
  8
ゴム等
  6
CONTINUOUS
 10
1.323502
 20
-58.007492
 11
1.08432
 21
-58.059213
  0
LINE
  8
ゴム等
  6
CONTINUOUS
 10
1.08432
 20
-58.059213
 11
-0.725575
 21
-58.7781
  0
LINE
  8
ゴム等
  6
CONTINUOUS
 10
17.842733
 20
-39.342515
 11
19.5094
 21
-39.342515
  0
LINE
  8
ゴム等
  6
CONTINUOUS
 10
19.5094
 20
-39.342515
 11
19.5094
 21
-40.584665
  0
LINE
  8
ゴム等
  6
CONTINUOUS
 10
17.584843
 20
-40.537525
 11
19.5094
 21
-40.537525
  0
LINE
  8
ゴム等
  6
CONTINUOUS
 10
19.5094
 20
-40.584665
 11
17.537702
 21
-40.584665
  0
LINE
  8
ゴム等
  6
CONTINUOUS
 10
16.208865
 20
-40.97638
 11
17.145985
 21
-40.97638
  0
LINE
  8
ゴム等
  6
CONTINUOUS
 10
16.208865
 20
-40.97638
 11
17.842733
 21
-39.342515
  0
LINE
  8
ゴム等
  6
CONTINUOUS
 10
17.145985
 20
-40.97638
 11
17.584843
 21
-40.537525
  0
LINE
  8
ゴム等
  6
CONTINUOUS
 10
17.801855
 20
-41.341677
 11
17.878135
 21
-41.452858
  0
LINE
  8
ゴム等
  6
CONTINUOUS
 10
17.878135
 20
-41.452858
 11
18.205513
 21
-42.09675
  0
LINE
  8
ゴム等
  6
CONTINUOUS
 10
17.801855
 20
-41.341677
 11
17.437977
 21
-40.68439
  0
LINE
  8
ゴム等
  6
CONTINUOUS
 10
1.323502
 20
-58.007492
 11
17.868652
 21
-41.46234
  0
LINE
  8
ゴム等
  6
CONTINUOUS
 10
1.08432
 20
-58.059213
 11
17.801855
 21
-41.341677
  0
LINE
  8
ゴム等
  6
CONTINUOUS
 10
2.630667
 20
-57.671595
 11
18.205513
 21
-42.09675
  0
LINE
  8
ゴム等
  6
CONTINUOUS
 10
17.801855
 20
-41.341677
 11
42.748467
 21
-41.341677
  0
LINE
  8
ゴム等
  6
CONTINUOUS
 10
17.878135
 20
-41.452858
 11
42.748467
 21
-41.452858
  0
LINE
  8
ゴム等
  6
CONTINUOUS
 10
67.69508
 20
-41.341677
 11
42.748467
 21
-41.341677
  0
LINE
  8
ゴム等
  6
CONTINUOUS
 10
67.6188
 20
-41.452858
 11
42.748467
 21
-41.452858
  0
LINE
  8
ゴム等
  6
CONTINUOUS
 10
84.173432
 20
-58.007492
 11
42.748467
 21
-58.007492
  0
LINE
  8
ゴム等
  6
CONTINUOUS
 10
1.323502
 20
-58.007492
 11
42.748467
 21
-58.007492
  0
LINE
  8
ゴム等
  6
CONTINUOUS
 10
1.08432
 20
-58.059213
 11
42.748467
 21
-58.059213
  0
LINE
  8
ゴム等
  6
CONTINUOUS
 10
84.412615
 20
-58.059213
 11
42.748467
 21
-58.059213
  0
LINE
  8
ゴム等
  6
CONTINUOUS
 10
82.866267
 20
-57.671595
 11
43.998467
 21
-57.671595
  0
LINE
  8
ゴム等
  6
CONTINUOUS
 10
43.2818
 20
-58.007492
 11
43.998467
 21
-57.671595
  0
LINE
  8
ゴム等
  6
CONTINUOUS
 10
67.291423
 20
-42.09675
 11
43.998467
 21
-42.09675
  0
LINE
  8
ゴム等
  6
CONTINUOUS
 10
43.998467
 20
-57.671595
 11
43.998467
 21
-42.09675
  0
LINE
  8
ゴム等
  6
CONTINUOUS
 10
43.2818
 20
-58.007492
 11
43.2818
 21
-41.452858
  0
LINE
  8
ゴム等
  6
CONTINUOUS
 10
43.2818
 20
-41.452858
 11
43.998467
 21
-42.09675
  0
LINE
  8
ゴム等
  6
CONTINUOUS
 10
42.215135
 20
-58.007492
 11
41.498467
 21
-57.671595
  0
LINE
  8
ゴム等
  6
CONTINUOUS
 10
41.498467
 20
-57.671595
 11
41.498467
 21
-42.09675
  0
LINE
  8
ゴム等
  6
CONTINUOUS
 10
42.215135
 20
-58.007492
 11
42.215135
 21
-41.452858
  0
LINE
  8
ゴム等
  6
CONTINUOUS
 10
42.215135
 20
-41.452858
 11
41.498467
 21
-42.09675
  0
LINE
  8
ゴム等
  6
CONTINUOUS
 10
2.630667
 20
-57.671595
 11
41.498467
 21
-57.671595
  0
LINE
  8
ゴム等
  6
CONTINUOUS
 10
18.205513
 20
-42.09675
 11
41.498467
 21
-42.09675
  0
LINE
  8
ゴム等
  6
DOT
 10
82.866267
 20
-47.671595
 11
84.173432
 21
-48.007492
  0
LINE
  8
ゴム等
  6
DOT
 10
84.173432
 20
-48.007492
 11
84.412615
 21
-48.059213
  0
LINE
  8
ゴム等
  6
DOT
 10
84.412615
 20
-48.059213
 11
86.22251
 21
-48.7781
  0
LINE
  8
ゴム等
  6
DOT
 10
67.654203
 20
-29.342515
 11
65.987535
 21
-29.342515
  0
LINE
  8
ゴム等
  6
DOT
 10
65.987535
 20
-29.342515
 11
65.987535
 21
-30.584665
  0
LINE
  8
ゴム等
  6
DOT
 10
67.912092
 20
-30.537525
 11
65.987535
 21
-30.537525
  0
LINE
  8
ゴム等
  6
DOT
 10
65.987535
 20
-30.584665
 11
67.959232
 21
-30.584665
  0
LINE
  8
ゴム等
  6
DOT
 10
69.28807
 20
-30.97638
 11
68.35095
 21
-30.97638
  0
LINE
  8
ゴム等
  6
DOT
 10
69.28807
 20
-30.97638
 11
67.654203
 21
-29.342515
  0
LINE
  8
ゴム等
  6
DOT
 10
68.35095
 20
-30.97638
 11
67.912092
 21
-30.537525
  0
LINE
  8
ゴム等
  6
DOT
 10
67.69508
 20
-31.341677
 11
67.6188
 21
-31.452858
  0
LINE
  8
ゴム等
  6
DOT
 10
67.6188
 20
-31.452858
 11
67.291423
 21
-32.09675
  0
LINE
  8
ゴム等
  6
DOT
 10
67.69508
 20
-31.341677
 11
68.058957
 21
-30.68439
  0
LINE
  8
ゴム等
  6
DOT
 10
84.173432
 20
-48.007492
 11
67.628283
 21
-31.46234
  0
LINE
  8
ゴム等
  6
DOT
 10
84.412615
 20
-48.059213
 11
67.69508
 21
-31.341677
  0
LINE
  8
ゴム等
  6
DOT
 10
82.866267
 20
-47.671595
 11
67.291423
 21
-32.09675
  0
LINE
  8
ゴム等
  6
DOT
 10
2.630667
 20
-47.671595
 11
1.323502
 21
-48.007492
  0
LINE
  8
ゴム等
  6
DOT
 10
1.323502
 20
-48.007492
 11
1.08432
 21
-48.059213
  0
LINE
  8
ゴム等
  6
DOT
 10
1.08432
 20
-48.059213
 11
-0.725575
 21
-48.7781
  0
LINE
  8
ゴム等
  6
DOT
 10
17.842733
 20
-29.342515
 11
19.5094
 21
-29.342515
  0
LINE
  8
ゴム等
  6
DOT
 10
19.5094
 20
-29.342515
 11
19.5094
 21
-30.584665
  0
LINE
  8
ゴム等
  6
DOT
 10
17.584843
 20
-30.537525
 11
19.5094
 21
-30.537525
  0
LINE
  8
ゴム等
  6
DOT
 10
19.5094
 20
-30.584665
 11
17.537702
 21
-30.584665
  0
LINE
  8
ゴム等
  6
DOT
 10
16.208865
 20
-30.97638
 11
17.145985
 21
-30.97638
  0
LINE
  8
ゴム等
  6
DOT
 10
16.208865
 20
-30.97638
 11
17.842733
 21
-29.342515
  0
LINE
  8
ゴム等
  6
DOT
 10
17.145985
 20
-30.97638
 11
17.584843
 21
-30.537525
  0
LINE
  8
ゴム等
  6
DOT
 10
17.801855
 20
-31.341677
 11
17.878135
 21
-31.452858
  0
LINE
  8
ゴム等
  6
DOT
 10
17.878135
 20
-31.452858
 11
18.205513
 21
-32.09675
  0
LINE
  8
ゴム等
  6
DOT
 10
17.801855
 20
-31.341677
 11
17.437977
 21
-30.68439
  0
LINE
  8
ゴム等
  6
DOT
 10
1.323502
 20
-48.007492
 11
17.868652
 21
-31.46234
  0
LINE
  8
ゴム等
  6
DOT
 10
1.08432
 20
-48.059213
 11
17.801855
 21
-31.341677
  0
LINE
  8
ゴム等
  6
DOT
 10
2.630667
 20
-47.671595
 11
18.205513
 21
-32.09675
  0
LINE
  8
ゴム等
  6
DOT
 10
17.801855
 20
-31.341677
 11
42.748467
 21
-31.341677
  0
LINE
  8
ゴム等
  6
DOT
 10
17.878135
 20
-31.452858
 11
42.748467
 21
-31.452858
  0
LINE
  8
ゴム等
  6
DOT
 10
67.69508
 20
-31.341677
 11
42.748467
 21
-31.341677
  0
LINE
  8
ゴム等
  6
DOT
 10
67.6188
 20
-31.452858
 11
42.748467
 21
-31.452858
  0
LINE
  8
ゴム等
  6
DOT
 10
84.173432
 20
-48.007492
 11
42.748467
 21
-48.007492
  0
LINE
  8
ゴム等
  6
DOT
 10
1.323502
 20
-48.007492
 11
42.748467
 21
-48.007492
  0
LINE
  8
ゴム等
  6
DOT
 10
1.08432
 20
-48.059213
 11
42.748467
 21
-48.059213
  0
LINE
  8
ゴム等
  6
DOT
 10
84.412615
 20
-48.059213
 11
42.748467
 21
-48.059213
  0
LINE
  8
ゴム等
  6
DOT
 10
82.866267
 20
-47.671595
 11
43.998467
 21
-47.671595
  0
LINE
  8
ゴム等
  6
DOT
 10
43.2818
 20
-48.007492
 11
43.998467
 21
-47.671595
  0
LINE
  8
ゴム等
  6
DOT
 10
67.291423
 20
-32.09675
 11
43.998467
 21
-32.09675
  0
LINE
  8
ゴム等
  6
DOT
 10
43.998467
 20
-47.671595
 11
43.998467
 21
-32.09675
  0
LINE
  8
ゴム等
  6
DOT
 10
43.2818
 20
-48.007492
 11
43.2818
 21
-31.452858
  0
LINE
  8
ゴム等
  6
DOT
 10
43.2818
 20
-31.452858
 11
43.998467
 21
-32.09675
  0
LINE
  8
ゴム等
  6
DOT
 10
42.215135
 20
-48.007492
 11
41.498467
 21
-47.671595
  0
LINE
  8
ゴム等
  6
DOT
 10
41.498467
 20
-47.671595
 11
41.498467
 21
-32.09675
  0
LINE
  8
ゴム等
  6
DOT
 10
42.215135
 20
-48.007492
 11
42.215135
 21
-31.452858
  0
LINE
  8
ゴム等
  6
DOT
 10
42.215135
 20
-31.452858
 11
41.498467
 21
-32.09675
  0
LINE
  8
ゴム等
  6
DOT
 10
2.630667
 20
-47.671595
 11
41.498467
 21
-47.671595
  0
LINE
  8
ゴム等
  6
DOT
 10
18.205513
 20
-32.09675
 11
41.498467
 21
-32.09675
  0
LINE
  8
ゴム等
  6
CONTINUOUS
 10
118.5869
 20
-57.671598
 11
117.279735
 21
-58.007495
  0
LINE
  8
ゴム等
  6
CONTINUOUS
 10
117.279735
 20
-58.007495
 11
117.040555
 21
-58.059215
  0
LINE
  8
ゴム等
  6
CONTINUOUS
 10
117.040555
 20
-58.059215
 11
115.23066
 21
-58.7781
  0
LINE
  8
ゴム等
  6
CONTINUOUS
 10
118.5869
 20
-57.671598
 11
133.704703
 21
-57.671598
  0
LINE
  8
ゴム等
  6
CONTINUOUS
 10
117.040555
 20
-58.059215
 11
133.704703
 21
-58.059215
  0
LINE
  8
ゴム等
  6
CONTINUOUS
 10
117.279735
 20
-58.007495
 11
133.704703
 21
-58.007495
  0
LINE
  8
ゴム等
  6
CONTINUOUS
 10
118.5869
 20
-57.671598
 11
133.704703
 21
-42.553792
  0
LINE
  8
ゴム等
  6
CONTINUOUS
 10
117.279735
 20
-58.007495
 11
133.704703
 21
-41.582525
  0
LINE
  8
ゴム等
  6
CONTINUOUS
 10
117.040555
 20
-58.059215
 11
133.704703
 21
-41.395065
  0
LINE
  8
ゴム等
  6
CONTINUOUS
 10
148.822505
 20
-57.671598
 11
150.12967
 21
-58.007495
  0
LINE
  8
ゴム等
  6
CONTINUOUS
 10
150.12967
 20
-58.007495
 11
150.36885
 21
-58.059215
  0
LINE
  8
ゴム等
  6
CONTINUOUS
 10
150.36885
 20
-58.059215
 11
152.178745
 21
-58.7781
  0
LINE
  8
ゴム等
  6
CONTINUOUS
 10
148.822505
 20
-57.671598
 11
133.704703
 21
-57.671598
  0
LINE
  8
ゴム等
  6
CONTINUOUS
 10
150.36885
 20
-58.059215
 11
133.704703
 21
-58.059215
  0
LINE
  8
ゴム等
  6
CONTINUOUS
 10
150.12967
 20
-58.007495
 11
133.704703
 21
-58.007495
  0
LINE
  8
ゴム等
  6
CONTINUOUS
 10
148.822505
 20
-57.671598
 11
133.704703
 21
-42.553792
  0
LINE
  8
ゴム等
  6
CONTINUOUS
 10
150.12967
 20
-58.007495
 11
133.704703
 21
-41.582525
  0
LINE
  8
ゴム等
  6
CONTINUOUS
 10
150.36885
 20
-58.059215
 11
133.704703
 21
-41.395065
  0
LINE
  8
ゴム等
  6
DOT
 10
118.5869
 20
-47.671598
 11
117.279735
 21
-48.007495
  0
LINE
  8
ゴム等
  6
DOT
 10
117.279735
 20
-48.007495
 11
117.040555
 21
-48.059215
  0
LINE
  8
ゴム等
  6
DOT
 10
117.040555
 20
-48.059215
 11
115.23066
 21
-48.7781
  0
LINE
  8
ゴム等
  6
DOT
 10
118.5869
 20
-47.671598
 11
133.704703
 21
-47.671598
  0
LINE
  8
ゴム等
  6
DOT
 10
117.040555
 20
-48.059215
 11
133.704703
 21
-48.059215
  0
LINE
  8
ゴム等
  6
DOT
 10
117.279735
 20
-48.007495
 11
133.704703
 21
-48.007495
  0
LINE
  8
ゴム等
  6
DOT
 10
118.5869
 20
-47.671598
 11
133.704703
 21
-32.553792
  0
LINE
  8
ゴム等
  6
DOT
 10
117.279735
 20
-48.007495
 11
133.704703
 21
-31.582525
  0
LINE
  8
ゴム等
  6
DOT
 10
117.040555
 20
-48.059215
 11
133.704703
 21
-31.395065
  0
LINE
  8
ゴム等
  6
DOT
 10
148.822505
 20
-47.671598
 11
150.12967
 21
-48.007495
  0
LINE
  8
ゴム等
  6
DOT
 10
150.12967
 20
-48.007495
 11
150.36885
 21
-48.059215
  0
LINE
  8
ゴム等
  6
DOT
 10
150.36885
 20
-48.059215
 11
152.178745
 21
-48.7781
  0
LINE
  8
ゴム等
  6
DOT
 10
148.822505
 20
-47.671598
 11
133.704703
 21
-47.671598
  0
LINE
  8
ゴム等
  6
DOT
 10
150.36885
 20
-48.059215
 11
133.704703
 21
-48.059215
  0
LINE
  8
ゴム等
  6
DOT
 10
150.12967
 20
-48.007495
 11
133.704703
 21
-48.007495
  0
LINE
  8
ゴム等
  6
DOT
 10
148.822505
 20
-47.671598
 11
133.704703
 21
-32.553792
  0
LINE
  8
ゴム等
  6
DOT
 10
150.12967
 20
-48.007495
 11
133.704703
 21
-31.582525
  0
LINE
  8
ゴム等
  6
DOT
 10
150.36885
 20
-48.059215
 11
133.704703
 21
-31.395065
  0
CIRCLE
  8
ボルト／ビス
  6
CONTINUOUS
 10
-114.586085
 20
-62.25866
 40
0.166668
  0
CIRCLE
  8
ボルト／ビス
  6
CONTINUOUS
 10
-114.586085
 20
-62.25866
 40
0.133333
  0
CIRCLE
  8
ボルト／ビス
  6
CONTINUOUS
 10
-114.586085
 20
-64.401995
 40
0.166668
  0
CIRCLE
  8
ボルト／ビス
  6
CONTINUOUS
 10
-114.586085
 20
-64.401995
 40
0.133333
  0
CIRCLE
  8
ボルト／ビス
  6
CONTINUOUS
 10
-30.393055
 20
-62.25866
 40
0.166668
  0
CIRCLE
  8
ボルト／ビス
  6
CONTINUOUS
 10
-30.393055
 20
-62.25866
 40
0.133333
  0
CIRCLE
  8
ボルト／ビス
  6
CONTINUOUS
 10
-30.393055
 20
-64.401995
 40
0.166668
  0
CIRCLE
  8
ボルト／ビス
  6
CONTINUOUS
 10
-30.393055
 20
-64.401995
 40
0.133333
  0
CIRCLE
  8
ボルト／ビス
  6
CONTINUOUS
 10
0.651952
 20
-62.25866
 40
0.166668
  0
CIRCLE
  8
ボルト／ビス
  6
CONTINUOUS
 10
0.651952
 20
-62.25866
 40
0.133333
  0
CIRCLE
  8
ボルト／ビス
  6
CONTINUOUS
 10
0.651952
 20
-64.401995
 40
0.166668
  0
CIRCLE
  8
ボルト／ビス
  6
CONTINUOUS
 10
0.651952
 20
-64.401995
 40
0.133333
  0
CIRCLE
  8
ボルト／ビス
  6
CONTINUOUS
 10
84.844982
 20
-62.25866
 40
0.166668
  0
CIRCLE
  8
ボルト／ビス
  6
CONTINUOUS
 10
84.844982
 20
-62.25866
 40
0.133333
  0
CIRCLE
  8
ボルト／ビス
  6
CONTINUOUS
 10
84.844982
 20
-64.401995
 40
0.166668
  0
CIRCLE
  8
ボルト／ビス
  6
CONTINUOUS
 10
84.844982
 20
-64.401995
 40
0.133333
  0
CIRCLE
  8
ボルト／ビス
  6
CONTINUOUS
 10
116.608187
 20
-62.25866
 40
0.166668
  0
CIRCLE
  8
ボルト／ビス
  6
CONTINUOUS
 10
116.608187
 20
-62.25866
 40
0.133333
  0
CIRCLE
  8
ボルト／ビス
  6
CONTINUOUS
 10
116.608187
 20
-64.401995
 40
0.166668
  0
CIRCLE
  8
ボルト／ビス
  6
CONTINUOUS
 10
116.608187
 20
-64.401995
 40
0.133333
  0
CIRCLE
  8
ボルト／ビス
  6
CONTINUOUS
 10
150.801217
 20
-62.25866
 40
0.166668
  0
CIRCLE
  8
ボルト／ビス
  6
CONTINUOUS
 10
150.801217
 20
-62.25866
 40
0.133333
  0
CIRCLE
  8
ボルト／ビス
  6
CONTINUOUS
 10
150.801217
 20
-64.401995
 40
0.166668
  0
CIRCLE
  8
ボルト／ビス
  6
CONTINUOUS
 10
150.801217
 20
-64.401995
 40
0.133333
  0
CIRCLE
  8
ボルト／ビス
  6
CONTINUOUS
 10
59.348473
 20
33.166063
 40
0.166668
  0
CIRCLE
  8
ボルト／ビス
  6
CONTINUOUS
 10
59.348473
 20
33.166063
 40
0.133333
  0
CIRCLE
  8
ボルト／ビス
  6
CONTINUOUS
 10
61.491807
 20
33.166063
 40
0.166668
  0
CIRCLE
  8
ボルト／ビス
  6
CONTINUOUS
 10
61.491807
 20
33.166063
 40
0.133333
  0
CIRCLE
  8
ボルト／ビス
  6
CONTINUOUS
 10
59.348473
 20
67.359093
 40
0.166668
  0
CIRCLE
  8
ボルト／ビス
  6
CONTINUOUS
 10
59.348473
 20
67.359093
 40
0.133333
  0
CIRCLE
  8
ボルト／ビス
  6
CONTINUOUS
 10
61.491807
 20
67.359093
 40
0.166668
  0
CIRCLE
  8
ボルト／ビス
  6
CONTINUOUS
 10
61.491807
 20
67.359093
 40
0.133333
  0
TEXT
  7
TextStyle03
  8
文字
  6
CONTINUOUS
 10
-130.05
 20
8.975
  1
アンカーピッチ
 40
3.0
 50
90.0
 72
     5
 11
-130.05
 21
32.225
  0
TEXT
  7
TextStyle03
  8
文字
  6
CONTINUOUS
 10
-139.75
 20
84.25
  1
アンカーピッチ
 40
3.0
 72
     5
 11
-116.5
 21
84.25
  0
TEXT
  7
TextStyle03
  8
文字
  6
CONTINUOUS
 10
-21.6
 20
22.275
  1
は排水穴位置を示す
 40
3.0
 72
     5
 11
8.4
 21
22.275
  0
TEXT
  7
TextStyle03
  8
文字
  6
CONTINUOUS
 10
154.0
 20
22.75
  1
×　２枚
 40
4.0
 72
     5
 11
171.5
 21
22.75
  0
TEXT
  7
TextStyle03
  8
文字
  6
CONTINUOUS
 10
154.0
 20
69.575
  1
×　右２枚
 40
4.0
 72
     5
 11
176.0
 21
69.575
  0
TEXT
  7
TextStyle03
  8
文字
  6
CONTINUOUS
 10
154.0
 20
65.075
  1
×　左２枚
 40
4.0
 72
     5
 11
176.0
 21
65.075
  0
TEXT
  7
TextStyle03
  8
文字
  6
CONTINUOUS
 10
-21.225
 20
52.3
  1
バランスステー
 40
3.0
 72
     5
 11
2.025
 21
52.3
  0
TEXT
  7
TextStyle03
  8
文字
  6
CONTINUOUS
 10
-21.8
 20
15.05
  1
はケーシング位置を示す
 40
3.0
 72
     5
 11
14.95
 21
15.05
  0
TEXT
  7
TextStyle03
  8
文字
  6
CONTINUOUS
 10
-21.8
 20
11.675
  1
４ヶ所中1ヶ所に設定
 40
3.0
 72
     5
 11
9.8875
 21
11.675
  0
TEXT
  7
TextStyle03
  8
文字
  6
CONTINUOUS
 10
-27.9
 20
6.075
  1
アームユニット数　４ヶ所
 40
3.0
 72
     5
 11
12.225
 21
6.075
  0
TEXT
  7
TextStyle03
  8
文字
  6
CONTINUOUS
 10
57.55
 20
123.625
  1
シリーズ：ＤＦＹ
 40
5.0
 72
     5
 11
101.925
 21
123.625
  0
TEXT
  7
TextStyle03
  8
文字
  6
CONTINUOUS
 10
57.55
 20
118.0
  1
　　　　　山型四角錘（上下可動）900×2400タイプ
 40
5.0
 72
     5
 11
189.1125
 21
118.0
  0
TEXT
  7
TextStyle03
  8
文字
  6
CONTINUOUS
 10
57.55
 20
112.375
  1
図面名　：外観姿図
 40
5.0
 72
     5
 11
107.55
 21
112.375
  0
TEXT
  7
TextStyle03
  8
文字
  6
CONTINUOUS
 10
57.55
 20
106.75
  1

 40
5.0
 41
1.125
  0
TEXT
  7
TextStyle03
  8
文字
  6
CONTINUOUS
 10
57.55
 20
101.125
  1
ＮＳコード：ＮＳ４Ｙ
 40
5.0
 72
     5
 11
113.175
 21
101.125
  0
INSERT
  2
*DIM_0006
  8
寸法
  6
CONTINUOUS
 10
0.0
 20
0.0
  0
INSERT
  2
*DIM_0007
  8
寸法
  6
CONTINUOUS
 10
0.0
 20
0.0
  0
INSERT
  2
*DIM_0008
  8
寸法
  6
CONTINUOUS
 10
0.0
 20
0.0
  0
INSERT
  2
*DIM_0009
  8
寸法
  6
CONTINUOUS
 10
0.0
 20
0.0
  0
INSERT
  2
*DIM_0010
  8
寸法
  6
CONTINUOUS
 10
0.0
 20
0.0
  0
INSERT
  2
*DIM_0011
  8
寸法
  6
CONTINUOUS
 10
0.0
 20
0.0
  0
INSERT
  2
*DIM_0012
  8
寸法
  6
CONTINUOUS
 10
0.0
 20
0.0
  0
INSERT
  2
*DIM_0013
  8
寸法
  6
CONTINUOUS
 10
0.0
 20
0.0
  0
INSERT
  2
*DIM_0014
  8
寸法
  6
CONTINUOUS
 10
0.0
 20
0.0
  0
INSERT
  2
*DIM_0015
  8
寸法
  6
CONTINUOUS
 10
0.0
 20
0.0
  0
INSERT
  2
*DIM_0016
  8
寸法
  6
CONTINUOUS
 10
0.0
 20
0.0
  0
INSERT
  2
*DIM_0017
  8
寸法
  6
CONTINUOUS
 10
0.0
 20
0.0
  0
INSERT
  2
*DIM_0018
  8
寸法
  6
CONTINUOUS
 10
0.0
 20
0.0
  0
INSERT
  2
*DIM_0019
  8
寸法
  6
CONTINUOUS
 10
0.0
 20
0.0
  0
INSERT
  2
*DIM_0020
  8
寸法
  6
CONTINUOUS
 10
0.0
 20
0.0
  0
INSERT
  2
*DIM_0021
  8
寸法
  6
CONTINUOUS
 10
0.0
 20
0.0
  0
INSERT
  2
*DIM_0022
  8
寸法
  6
CONTINUOUS
 10
0.0
 20
0.0
  0
INSERT
  2
*DIM_0023
  8
寸法
  6
CONTINUOUS
 10
0.0
 20
0.0
  0
INSERT
  2
*DIM_0024
  8
寸法
  6
CONTINUOUS
 10
0.0
 20
0.0
  0
LINE
  8
寸法
  6
CONTINUOUS
 10
-47.48957
 20
31.062578
 11
-46.113937
 21
28.679912
  0
LINE
  8
寸法
  6
CONTINUOUS
 10
-47.48957
 20
31.062578
 11
-48.865203
 21
28.679912
  0
LINE
  8
寸法
  6
CONTINUOUS
 10
-48.865203
 20
28.679912
 11
-46.113937
 21
28.679912
  0
LINE
  8
寸法
  6
CONTINUOUS
 10
-97.48957
 20
31.062578
 11
-98.865203
 21
28.679912
  0
LINE
  8
寸法
  6
CONTINUOUS
 10
-97.48957
 20
31.062578
 11
-96.113937
 21
28.679912
  0
LINE
  8
寸法
  6
CONTINUOUS
 10
-96.113937
 20
28.679912
 11
-98.865203
 21
28.679912
  0
LINE
  8
寸法
  6
CONTINUOUS
 10
-97.48957
 20
69.462578
 11
-98.865203
 21
71.845242
  0
LINE
  8
寸法
  6
CONTINUOUS
 10
-97.48957
 20
69.462578
 11
-96.113937
 21
71.845242
  0
LINE
  8
寸法
  6
CONTINUOUS
 10
-96.113937
 20
71.845242
 11
-98.865203
 21
71.845242
  0
LINE
  8
寸法
  6
CONTINUOUS
 10
-47.48957
 20
69.462578
 11
-46.113937
 21
71.845242
  0
LINE
  8
寸法
  6
CONTINUOUS
 10
-47.48957
 20
69.462578
 11
-48.865203
 21
71.845242
  0
LINE
  8
寸法
  6
CONTINUOUS
 10
-48.865203
 20
71.845242
 11
-46.113937
 21
71.845242
  0
LINE
  8
寸法
  6
CONTINUOUS
 10
-116.689563
 20
50.262578
 11
-119.072228
 21
51.63821
  0
LINE
  8
寸法
  6
CONTINUOUS
 10
-116.689563
 20
50.262578
 11
-119.072228
 21
48.886945
  0
LINE
  8
寸法
  6
CONTINUOUS
 10
-119.072228
 20
48.886945
 11
-119.072228
 21
51.63821
  0
LINE
  8
寸法
  6
CONTINUOUS
 10
-28.289577
 20
50.262578
 11
-25.906912
 21
51.63821
  0
LINE
  8
寸法
  6
CONTINUOUS
 10
-28.289577
 20
50.262578
 11
-25.906912
 21
48.886945
  0
LINE
  8
寸法
  6
CONTINUOUS
 10
-25.906912
 20
48.886945
 11
-25.906912
 21
51.63821
  0
LINE
  8
寸法
  6
CONTINUOUS
 10
-24.65417
 20
24.719595
 11
-23.278538
 21
22.33693
  0
LINE
  8
寸法
  6
CONTINUOUS
 10
-24.65417
 20
24.719595
 11
-26.029803
 21
22.33693
  0
LINE
  8
寸法
  6
CONTINUOUS
 10
-26.029803
 20
22.33693
 11
-23.278538
 21
22.33693
  0
LINE
  8
寸法
  6
CONTINUOUS
 10
-28.003658
 20
20.684975
 11
10.071655
 21
20.684975
  0
INSERT
  2
*DIM_0025
  8
寸法
  6
CONTINUOUS
 10
0.0
 20
0.0
  0
INSERT
  2
*DIM_0026
  8
寸法
  6
CONTINUOUS
 10
0.0
 20
0.0
  0
INSERT
  2
*DIM_0027
  8
寸法
  6
CONTINUOUS
 10
0.0
 20
0.0
  0
INSERT
  2
*DIM_0028
  8
寸法
  6
CONTINUOUS
 10
0.0
 20
0.0
  0
INSERT
  2
*DIM_0029
  8
寸法
  6
CONTINUOUS
 10
0.0
 20
0.0
  0
INSERT
  2
*DIM_0030
  8
寸法
  6
CONTINUOUS
 10
0.0
 20
0.0
  0
INSERT
  2
*DIM_0031
  8
寸法
  6
CONTINUOUS
 10
0.0
 20
0.0
  0
INSERT
  2
*DIM_0032
  8
寸法
  6
CONTINUOUS
 10
0.0
 20
0.0
  0
INSERT
  2
*DIM_0033
  8
寸法
  6
CONTINUOUS
 10
0.0
 20
0.0
  0
INSERT
  2
*GRP_0034
  8
寸法
  6
CONTINUOUS
 10
0.0
 20
0.0
  0
INSERT
  2
*DIM_0035
  8
寸法
  6
CONTINUOUS
 10
0.0
 20
0.0
  0
INSERT
  2
*DIM_0036
  8
寸法
  6
CONTINUOUS
 10
0.0
 20
0.0
  0
LINE
  8
寸法
  6
CONTINUOUS
 10
-28.003658
 20
4.443595
 11
10.071655
 21
4.443595
  0
INSERT
  2
*DIM_0037
  8
寸法
  6
CONTINUOUS
 10
0.0
 20
0.0
  0
INSERT
  2
*DIM_0038
  8
寸法
  6
CONTINUOUS
 10
0.0
 20
0.0
  0
INSERT
  2
*DIM_0039
  8
寸法
  6
CONTINUOUS
 10
0.0
 20
0.0
  0
INSERT
  2
*DIM_0040
  8
寸法
  6
CONTINUOUS
 10
0.0
 20
0.0
  0
LINE
  8
曲げ物
  6
CONTINUOUS
 10
96.53127
 20
55.945645
 11
113.01597
 21
79.258435
  0
LINE
  8
曲げ物
  6
CONTINUOUS
 10
136.91771
 20
79.258435
 11
136.91771
 21
55.945645
  0
LINE
  8
曲げ物
  6
CONTINUOUS
 10
96.53127
 20
55.945645
 11
136.91771
 21
55.945645
  0
LINE
  8
曲げ物
  6
CONTINUOUS
 10
113.01597
 20
79.258435
 11
136.91771
 21
79.258435
  0
LINE
  8
曲げ物
  6
CONTINUOUS
 10
100.588042
 20
13.931478
 11
132.860938
 21
13.931478
  0
LINE
  8
曲げ物
  6
CONTINUOUS
 10
100.588042
 20
13.931478
 11
116.72449
 21
36.751767
  0
LINE
  8
曲げ物
  6
CONTINUOUS
 10
132.860938
 20
13.931478
 11
116.72449
 21
36.751767
  0
LINE
  8
曲げ物
  6
CONTINUOUS
 10
117.386593
 20
63.937298
 11
125.247912
 21
71.798618
  0
LINE
  8
曲げ物
  6
CONTINUOUS
 10
123.07048
 20
68.294175
 11
120.891035
 21
66.11473
  0
LINE
  8
曲げ物
  6
CONTINUOUS
 10
121.74347
 20
69.621185
 11
119.564025
 21
67.44174
  0
LINE
  8
曲げ物
  6
CONTINUOUS
 10
112.507367
 20
19.16265
 11
120.368687
 21
27.02397
  0
LINE
  8
曲げ物
  6
CONTINUOUS
 10
118.191255
 20
23.519528
 11
116.01181
 21
21.340083
  0
LINE
  8
曲げ物
  6
CONTINUOUS
 10
116.864245
 20
24.846537
 11
114.6848
 21
22.667093
  0
ENDSEC
  0
EOF
