  0
SECTION
  2
HEADER
  9
$EXTMIN
 10
-210.0
 20
-148.5
  9
$EXTMAX
 10
210.0
 20
148.5
  9
$PDMODE
 70
    32
  9
$PDSIZE
 40
1.5
  9
$LTSCALE
 40
10.0
  0
ENDSEC
  0
SECTION
  2
TABLES
  0
TABLE
  2
LTYPE
 70
    15
  0
LTYPE
  2
CONTINUOUS
 70
    64
  3
実線
 72
    65
 73
     0
 40
0.0
  0
LTYPE
  2
DASHED
 70
    64
  3
破線A
 72
    65
 73
     2
 40
0.6
 49
0.4
 49
-0.2
  0
LTYPE
  2
DASHEDX2
 70
    64
  3
破線B
 72
    65
 73
     2
 40
1.3
 49
0.9
 49
-0.4
  0
LTYPE
  2
DASHDOT
 70
    64
  3
１点鎖線A
 72
    65
 73
     4
 40
0.5375
 49
0.375
 49
-0.05
 49
0.0625
 49
-0.05
  0
LTYPE
  2
DASHDOTX2
 70
    64
  3
１点鎖線B
 72
    65
 73
     4
 40
1.075
 49
0.75
 49
-0.1
 49
0.125
 49
-0.1
  0
LTYPE
  2
DIVIDE2
 70
    64
  3
２点鎖線A
 72
    65
 73
     6
 40
0.5125
 49
0.3
 49
-0.0375
 49
0.05
 49
-0.0375
 49
0.05
 49
-0.0375
  0
LTYPE
  2
DIVIDE
 70
    64
  3
２点鎖線B
 72
    65
 73
     6
 40
1.05
 49
0.55
 49
-0.1
 49
0.1
 49
-0.1
 49
0.1
 49
-0.1
  0
LTYPE
  2
DOT
 70
    64
  3
点線A
 72
    65
 73
     2
 40
0.1125
 49
0.0625
 49
-0.05
  0
LTYPE
  2
DOTX2
 70
    64
  3
点線B
 72
    65
 73
     2
 40
0.275
 49
0.15
 49
-0.125
  0
LTYPE
  2
CONTINUOUS
 70
    64
  3
実線
 72
    65
 73
     0
 40
0.0
  0
LTYPE
  2
CONTINUOUS
 70
    64
  3
実線
 72
    65
 73
     0
 40
0.0
  0
LTYPE
  2
CONTINUOUS
 70
    64
  3
実線
 72
    65
 73
     0
 40
0.0
  0
LTYPE
  2
CONTINUOUS
 70
    64
  3
実線
 72
    65
 73
     0
 40
0.0
  0
LTYPE
  2
CONTINUOUS
 70
    64
  3
実線
 72
    65
 73
     0
 40
0.0
  0
LTYPE
  2
CONTINUOUS
 70
    64
  3
実線
 72
    65
 73
     0
 40
0.0
  0
ENDTAB
  0
TABLE
  2
LAYER
 70
    34
  0
LAYER
  2
通り芯
 70
     0
 62
    15
  6
CONTINUOUS
  0
LAYER
  2
補助線
 70
     0
 62
    16
  6
DOT
  0
LAYER
  2
躯体
 70
     0
 62
    31
  6
CONTINUOUS
  0
LAYER
  2
型材
 70
     0
 62
    32
  6
CONTINUOUS
  0
LAYER
  2
型材断面
 70
     0
 62
    47
  6
CONTINUOUS
  0
LAYER
  2
ガラス
 70
     0
 62
    48
  6
CONTINUOUS
  0
LAYER
  2
ゴム等
 70
     0
 62
    63
  6
CONTINUOUS
  0
LAYER
  2
ボルト／ビス
 70
     0
 62
    64
  6
CONTINUOUS
  0
LAYER
  2
文字
 70
     0
 62
    79
  6
CONTINUOUS
  0
LAYER
  2
寸法
 70
     0
 62
    80
  6
CONTINUOUS
  0
LAYER
  2
ﾊｯﾁﾝｸﾞ
 70
     0
 62
    95
  6
CONTINUOUS
  0
LAYER
  2
別途部材
 70
     0
 62
    96
  6
CONTINUOUS
  0
LAYER
  2
曲げ物
 70
     0
 62
   111
  6
CONTINUOUS
  0
LAYER
  2
鉄骨等
 70
     0
 62
   112
  6
CONTINUOUS
  0
LAYER
  2
St
 70
     0
 62
   127
  6
CONTINUOUS
  0
LAYER
  2
その他部品等
 70
     0
 62
   128
  6
CONTINUOUS
  0
LAYER
  2
ｶﾞｽｹｯﾄ
 70
     0
 62
   143
  6
CONTINUOUS
  0
LAYER
  2
ｽｹｯﾁ
 70
     0
 62
    14
  6
CONTINUOUS
  0
LAYER
  2
0
 70
     0
 62
    17
  6
CONTINUOUS
  0
LAYER
  2
1
 70
     0
 62
    30
  6
CONTINUOUS
  0
LAYER
  2
4
 70
     0
 62
    33
  6
CONTINUOUS
  0
LAYER
  2
ﾚｲﾔ3
 70
     0
 62
    46
  6
CONTINUOUS
  0
LAYER
  2
外形線
 70
     0
 62
    49
  6
CONTINUOUS
  0
LAYER
  2
部品
 70
     0
 62
    14
  6
CONTINUOUS
  0
LAYER
  2
サッシ芯
 70
     0
 62
    17
  6
DASHDOTX2
  0
LAYER
  2
寸法線
 70
     0
 62
    62
  6
CONTINUOUS
  0
LAYER
  2
姿図外形線
 70
     0
 62
    65
  6
CONTINUOUS
  0
LAYER
  2
姿補助線
 70
     0
 62
    30
  6
CONTINUOUS
  0
LAYER
  2
透視線
 70
     0
 62
    78
  6
DOT
  0
LAYER
  2
用紙
 70
     0
 62
    81
  6
CONTINUOUS
  0
LAYER
  2
実線図枠
 70
     0
 62
    94
  6
CONTINUOUS
  0
LAYER
  2
補助図枠
 70
     0
 62
    97
  6
CONTINUOUS
  0
LAYER
  2
建具記号
 70
     0
 62
   110
  6
CONTINUOUS
  0
LAYER
  2
補助文字
 70
     0
 62
   113
  6
CONTINUOUS
  0
ENDTAB
  0
TABLE
  2
STYLE
 70
    10
  0
STYLE
  2
STANDARD
 70
     0
 40
1.0
 41
1.0
 42
1.0
 50
0.0
 71
     0
  3
TXT
  4
BIGFONT
  0
STYLE
  2
TATE
 70
     4
 40
1.0
 41
1.0
 42
1.0
 50
0.0
 71
     0
  3
TXT
  4
BIGFONT
  0
STYLE
  2
TextStyle03
 70
     0
 40
1.0
 41
1.0
 42
1.0
 50
0.0
 71
     0
  3
MONOTXT
  4
BIGFONT
  0
STYLE
  2
TextStyle04
 70
     0
 40
1.0
 41
1.0
 42
1.0
 50
0.0
 71
     0
  3
MONOTXT
  4
BIGFONT
  0
STYLE
  2
TextStyle05
 70
     0
 40
1.0
 41
1.0
 42
1.0
 50
0.0
 71
     0
  3
MONOTXT
  4
BIGFONT
  0
STYLE
  2
TextStyle06
 70
     0
 40
1.0
 41
1.0
 42
1.0
 50
0.0
 71
     0
  3
MONOTXT
  4
BIGFONT
  0
STYLE
  2
TextStyle07
 70
     0
 40
1.0
 41
1.0
 42
1.0
 50
0.0
 71
     0
  3
MONOTXT
  4
BIGFONT
  0
STYLE
  2
TextStyle08
 70
     0
 40
1.0
 41
1.0
 42
1.0
 50
0.0
 71
     0
  3
MONOTXT
  4
BIGFONT
  0
STYLE
  2
TextStyle09
 70
     0
 40
1.0
 41
1.0
 42
1.0
 50
0.0
 71
     0
  3
MONOTXT
  4
BIGFONT
  0
STYLE
  2
TextStyle10
 70
     0
 40
1.0
 41
1.0
 42
1.0
 50
0.0
 71
     0
  3
MONOTXT
  4
BIGFONT
  0
ENDTAB
  0
ENDSEC
  0
SECTION
  2
BLOCKS
  0
BLOCK
  2
*GRP_0001
 70
    65
 10
0.0
 20
0.0
  0
LINE
  8
型材断面
  6
CONTINUOUS
 10
195.0
 20
133.5
 11
195.0
 21
-133.5
  0
LINE
  8
型材断面
  6
CONTINUOUS
 10
195.0
 20
-133.5
 11
-185.0
 21
-133.5
  0
LINE
  8
型材断面
  6
CONTINUOUS
 10
-185.0
 20
-133.5
 11
-185.0
 21
133.5
  0
LINE
  8
型材断面
  6
CONTINUOUS
 10
195.0
 20
133.5
 11
-185.0
 21
133.5
  0
LINE
  8
型材断面
  6
CONTINUOUS
 10
145.0
 20
-133.5
 11
145.0
 21
-118.5
  0
LINE
  8
型材断面
  6
CONTINUOUS
 10
195.0
 20
-118.5
 11
145.0
 21
-118.5
  0
ENDBLK
  0
BLOCK
  2
*DIM_0002
 70
    65
 10
0.0
 20
0.0
  0
LINE
  8
寸法
  6
BYBLOCK
 62
     0
 10
52.867913
 20
79.344522
 11
10.768835
 21
79.344522
  0
LINE
  8
寸法
  6
BYBLOCK
 62
     0
 10
52.867913
 20
17.611188
 11
10.768835
 21
17.611188
  0
LINE
  8
寸法
  6
BYBLOCK
 62
     0
 10
10.768835
 20
79.344522
 11
10.768835
 21
17.611188
  0
POINT
  8
寸法
 62
     0
 10
10.768835
 20
79.344522
  0
POINT
  8
寸法
 62
     0
 10
10.768835
 20
17.611188
  0
TEXT
  7
TextStyle03
  8
寸法
  6
CONTINUOUS
 62
     0
 10
10.375
 20
45.19375
  1
1852
 40
3.0
 50
90.0
 72
     5
 11
10.375
 21
51.75625
  0
ENDBLK
  0
BLOCK
  2
*DIM_0003
 70
    65
 10
0.0
 20
0.0
  0
LINE
  8
寸法
  6
BYBLOCK
 62
     0
 10
15.81096
 20
79.344522
 11
15.81096
 21
75.144522
  0
POINT
  8
寸法
 62
     0
 10
15.81096
 20
79.344522
  0
POINT
  8
寸法
 62
     0
 10
15.81096
 20
75.144522
  0
TEXT
  7
TextStyle03
  8
寸法
  6
CONTINUOUS
 62
     0
 10
15.425
 20
79.8375
  1
126
 40
3.0
 50
90.0
 72
     5
 11
15.425
 21
84.7125
  0
ENDBLK
  0
BLOCK
  2
*DIM_0004
 70
    65
 10
0.0
 20
0.0
  0
LINE
  8
寸法
  6
BYBLOCK
 62
     0
 10
15.81096
 20
75.144522
 11
15.81096
 21
21.811188
  0
POINT
  8
寸法
 62
     0
 10
15.81096
 20
21.811188
  0
TEXT
  7
TextStyle03
  8
寸法
  6
CONTINUOUS
 62
     0
 10
15.425
 20
36.75625
  1
呼称寸法＝1600
 40
3.0
 50
90.0
 72
     5
 11
15.425
 21
60.19375
  0
ENDBLK
  0
BLOCK
  2
*DIM_0005
 70
    65
 10
0.0
 20
0.0
  0
LINE
  8
寸法
  6
BYBLOCK
 62
     0
 10
15.81096
 20
21.811188
 11
15.81096
 21
17.611188
  0
POINT
  8
寸法
 62
     0
 10
15.81096
 20
17.611188
  0
TEXT
  7
TextStyle03
  8
寸法
  6
CONTINUOUS
 62
     0
 10
15.425
 20
12.2125
  1
126
 40
3.0
 50
90.0
 72
     5
 11
15.425
 21
17.0875
  0
ENDBLK
  0
BLOCK
  2
*DIM_0006
 70
    65
 10
0.0
 20
0.0
  0
LINE
  8
寸法
  6
BYBLOCK
 62
     0
 10
24.883515
 20
45.477855
 11
24.883515
 21
-1.54452
  0
LINE
  8
寸法
  6
BYBLOCK
 62
     0
 10
55.867913
 20
-1.54452
 11
24.883515
 21
-1.54452
  0
POINT
  8
寸法
 62
     0
 10
24.883515
 20
-1.54452
  0
TEXT
  7
TextStyle03
  8
寸法
  6
CONTINUOUS
 62
     0
 10
36.25
 20
-1.175
  1
929.5
 40
3.0
 72
     5
 11
44.5
 21
-1.175
  0
ENDBLK
  0
BLOCK
  2
*DIM_0007
 70
    65
 10
0.0
 20
0.0
  0
LINE
  8
寸法
  6
BYBLOCK
 62
     0
 10
-97.48957
 20
12.228522
 11
-97.48957
 21
6.775155
  0
LINE
  8
寸法
  6
BYBLOCK
 62
     0
 10
-47.48957
 20
12.228522
 11
-47.48957
 21
6.775155
  0
LINE
  8
寸法
  6
BYBLOCK
 62
     0
 10
-97.48957
 20
6.775155
 11
-47.48957
 21
6.775155
  0
POINT
  8
寸法
 62
     0
 10
-97.48957
 20
6.775155
  0
POINT
  8
寸法
 62
     0
 10
-47.48957
 20
6.775155
  0
TEXT
  7
TextStyle03
  8
寸法
  6
CONTINUOUS
 62
     0
 10
-75.80625
 20
7.15
  1
1500
 40
3.0
 72
     5
 11
-69.24375
 21
7.15
  0
ENDBLK
  0
BLOCK
  2
*DIM_0008
 70
    65
 10
0.0
 20
0.0
  0
LINE
  8
寸法
  6
BYBLOCK
 62
     0
 10
-112.48957
 20
78.144522
 11
-112.48957
 21
95.852232
  0
LINE
  8
寸法
  6
BYBLOCK
 62
     0
 10
-105.822902
 20
82.061188
 11
-105.822902
 21
95.852232
  0
LINE
  8
寸法
  6
BYBLOCK
 62
     0
 10
-112.48957
 20
95.852232
 11
-105.822902
 21
95.852232
  0
POINT
  8
寸法
 62
     0
 10
-112.48957
 20
95.852232
  0
POINT
  8
寸法
 62
     0
 10
-105.822902
 20
95.852232
  0
TEXT
  7
TextStyle03
  8
寸法
  6
CONTINUOUS
 62
     0
 10
-111.6125
 20
96.2
  1
200
 40
3.0
 72
     5
 11
-106.7375
 21
96.2
  0
ENDBLK
  0
BLOCK
  2
*DIM_0009
 70
    65
 10
0.0
 20
0.0
  0
LINE
  8
寸法
  6
BYBLOCK
 62
     0
 10
-89.156238
 20
82.061188
 11
-89.156238
 21
95.852232
  0
LINE
  8
寸法
  6
BYBLOCK
 62
     0
 10
-105.822902
 20
95.852232
 11
-89.156238
 21
95.852232
  0
POINT
  8
寸法
 62
     0
 10
-105.822902
 20
95.852232
  0
POINT
  8
寸法
 62
     0
 10
-89.156238
 20
95.852232
  0
TEXT
  7
TextStyle03
  8
寸法
  6
CONTINUOUS
 62
     0
 10
-99.9625
 20
96.2
  1
500
 40
3.0
 72
     5
 11
-95.0875
 21
96.2
  0
ENDBLK
  0
BLOCK
  2
*DIM_0010
 70
    65
 10
0.0
 20
0.0
  0
LINE
  8
寸法
  6
BYBLOCK
 62
     0
 10
-72.48957
 20
82.061188
 11
-72.48957
 21
95.852232
  0
LINE
  8
寸法
  6
BYBLOCK
 62
     0
 10
-89.156238
 20
95.852232
 11
-72.48957
 21
95.852232
  0
POINT
  8
寸法
 62
     0
 10
-72.48957
 20
95.852232
  0
TEXT
  7
TextStyle03
  8
寸法
  6
CONTINUOUS
 62
     0
 10
-83.2875
 20
96.2
  1
500
 40
3.0
 72
     5
 11
-78.4125
 21
96.2
  0
ENDBLK
  0
BLOCK
  2
*DIM_0011
 70
    65
 10
0.0
 20
0.0
  0
LINE
  8
寸法
  6
BYBLOCK
 62
     0
 10
-55.822902
 20
82.061188
 11
-55.822902
 21
95.852232
  0
LINE
  8
寸法
  6
BYBLOCK
 62
     0
 10
-72.48957
 20
95.852232
 11
-55.822902
 21
95.852232
  0
POINT
  8
寸法
 62
     0
 10
-55.822902
 20
95.852232
  0
TEXT
  7
TextStyle03
  8
寸法
  6
CONTINUOUS
 62
     0
 10
-66.6125
 20
96.2
  1
500
 40
3.0
 72
     5
 11
-61.7375
 21
96.2
  0
ENDBLK
  0
BLOCK
  2
*DIM_0012
 70
    65
 10
0.0
 20
0.0
  0
LINE
  8
寸法
  6
BYBLOCK
 62
     0
 10
-39.156238
 20
82.061188
 11
-39.156238
 21
95.852232
  0
LINE
  8
寸法
  6
BYBLOCK
 62
     0
 10
-55.822902
 20
95.852232
 11
-39.156238
 21
95.852232
  0
POINT
  8
寸法
 62
     0
 10
-39.156238
 20
95.852232
  0
TEXT
  7
TextStyle03
  8
寸法
  6
CONTINUOUS
 62
     0
 10
-49.9625
 20
96.2
  1
500
 40
3.0
 72
     5
 11
-45.0875
 21
96.2
  0
ENDBLK
  0
BLOCK
  2
*DIM_0013
 70
    65
 10
0.0
 20
0.0
  0
LINE
  8
寸法
  6
BYBLOCK
 62
     0
 10
-32.48957
 20
78.144522
 11
-32.48957
 21
95.852232
  0
LINE
  8
寸法
  6
BYBLOCK
 62
     0
 10
-39.156238
 20
95.852232
 11
-32.48957
 21
95.852232
  0
POINT
  8
寸法
 62
     0
 10
-32.48957
 20
95.852232
  0
TEXT
  7
TextStyle03
  8
寸法
  6
CONTINUOUS
 62
     0
 10
-38.2875
 20
96.2
  1
200
 40
3.0
 72
     5
 11
-33.4125
 21
96.2
  0
ENDBLK
  0
BLOCK
  2
*DIM_0014
 70
    65
 10
0.0
 20
0.0
  0
LINE
  8
寸法
  6
BYBLOCK
 62
     0
 10
-118.974417
 20
55.977852
 11
-137.193537
 21
55.977852
  0
LINE
  8
寸法
  6
BYBLOCK
 62
     0
 10
-137.193537
 20
70.977852
 11
-137.193537
 21
55.977852
  0
POINT
  8
寸法
 62
     0
 10
-137.193537
 20
55.977852
  0
TEXT
  7
TextStyle03
  8
寸法
  6
CONTINUOUS
 62
     0
 10
-137.575
 20
61.0125
  1
450
 40
3.0
 50
90.0
 72
     5
 11
-137.575
 21
65.8875
  0
ENDBLK
  0
BLOCK
  2
*DIM_0015
 70
    65
 10
0.0
 20
0.0
  0
LINE
  8
寸法
  6
BYBLOCK
 62
     0
 10
-118.974417
 20
40.977852
 11
-137.193537
 21
40.977852
  0
LINE
  8
寸法
  6
BYBLOCK
 62
     0
 10
-137.193537
 20
55.977852
 11
-137.193537
 21
40.977852
  0
POINT
  8
寸法
 62
     0
 10
-137.193537
 20
40.977852
  0
TEXT
  7
TextStyle03
  8
寸法
  6
CONTINUOUS
 62
     0
 10
-137.575
 20
46.0125
  1
450
 40
3.0
 50
90.0
 72
     5
 11
-137.575
 21
50.8875
  0
ENDBLK
  0
BLOCK
  2
*DIM_0016
 70
    65
 10
0.0
 20
0.0
  0
LINE
  8
寸法
  6
BYBLOCK
 62
     0
 10
-118.974417
 20
25.977852
 11
-137.193537
 21
25.977852
  0
LINE
  8
寸法
  6
BYBLOCK
 62
     0
 10
-137.193537
 20
40.977852
 11
-137.193537
 21
25.977852
  0
POINT
  8
寸法
 62
     0
 10
-137.193537
 20
25.977852
  0
TEXT
  7
TextStyle03
  8
寸法
  6
CONTINUOUS
 62
     0
 10
-137.575
 20
31.0125
  1
450
 40
3.0
 50
90.0
 72
     5
 11
-137.575
 21
35.8875
  0
ENDBLK
  0
BLOCK
  2
*DIM_0017
 70
    65
 10
0.0
 20
0.0
  0
LINE
  8
寸法
  6
BYBLOCK
 62
     0
 10
-118.974417
 20
75.14452
 11
-137.193537
 21
75.14452
  0
LINE
  8
寸法
  6
BYBLOCK
 62
     0
 10
-118.974417
 20
70.977852
 11
-137.193537
 21
70.977852
  0
LINE
  8
寸法
  6
BYBLOCK
 62
     0
 10
-137.193537
 20
75.14452
 11
-137.193537
 21
70.977852
  0
POINT
  8
寸法
 62
     0
 10
-137.193537
 20
75.14452
  0
POINT
  8
寸法
 62
     0
 10
-137.193537
 20
70.977852
  0
TEXT
  7
TextStyle03
  8
寸法
  6
CONTINUOUS
 62
     0
 10
-137.575
 20
70.6125
  1
125
 40
3.0
 50
90.0
 72
     5
 11
-137.575
 21
75.4875
  0
ENDBLK
  0
BLOCK
  2
*DIM_0018
 70
    65
 10
0.0
 20
0.0
  0
LINE
  8
寸法
  6
BYBLOCK
 62
     0
 10
-118.974417
 20
21.811188
 11
-137.193537
 21
21.811188
  0
LINE
  8
寸法
  6
BYBLOCK
 62
     0
 10
-137.193537
 20
25.977852
 11
-137.193537
 21
21.811188
  0
POINT
  8
寸法
 62
     0
 10
-137.193537
 20
21.811188
  0
TEXT
  7
TextStyle03
  8
寸法
  6
CONTINUOUS
 62
     0
 10
-137.575
 20
21.4375
  1
125
 40
3.0
 50
90.0
 72
     5
 11
-137.575
 21
26.3125
  0
ENDBLK
  0
BLOCK
  2
*DIM_0019
 70
    65
 10
0.0
 20
0.0
  0
LINE
  8
寸法
  6
BYBLOCK
 62
     0
 10
98.26651
 20
42.562345
 11
98.26651
 21
37.841278
  0
LINE
  8
寸法
  6
BYBLOCK
 62
     0
 10
138.65295
 20
42.562345
 11
138.65295
 21
37.841278
  0
LINE
  8
寸法
  6
BYBLOCK
 62
     0
 10
98.26651
 20
37.841278
 11
138.65295
 21
37.841278
  0
POINT
  8
寸法
 62
     0
 10
98.26651
 20
37.841278
  0
POINT
  8
寸法
 62
     0
 10
138.65295
 20
37.841278
  0
TEXT
  7
TextStyle03
  8
寸法
  6
CONTINUOUS
 62
     0
 10
113.48125
 20
38.2
  1
1211.6
 40
3.0
 72
     5
 11
123.41875
 21
38.2
  0
ENDBLK
  0
BLOCK
  2
*DIM_0020
 70
    65
 10
0.0
 20
0.0
  0
LINE
  8
寸法
  6
BYBLOCK
 62
     0
 10
126.417878
 20
88.37423
 11
126.417878
 21
91.63923
  0
LINE
  8
寸法
  6
BYBLOCK
 62
     0
 10
138.65295
 20
88.37423
 11
138.65295
 21
91.63923
  0
LINE
  8
寸法
  6
BYBLOCK
 62
     0
 10
126.417878
 20
91.63923
 11
138.65295
 21
91.63923
  0
POINT
  8
寸法
 62
     0
 10
126.417878
 20
91.63923
  0
POINT
  8
寸法
 62
     0
 10
138.65295
 20
91.63923
  0
TEXT
  7
TextStyle03
  8
寸法
  6
CONTINUOUS
 62
     0
 10
128.4
 20
92.0
  1
367.1
 40
3.0
 72
     5
 11
136.65
 21
92.0
  0
ENDBLK
  0
BLOCK
  2
*DIM_0021
 70
    65
 10
0.0
 20
0.0
  0
LINE
  8
寸法
  6
BYBLOCK
 62
     0
 10
95.26651
 20
45.562345
 11
91.56613
 21
45.562345
  0
LINE
  8
寸法
  6
BYBLOCK
 62
     0
 10
123.417878
 20
85.37423
 11
91.56613
 21
85.37423
  0
LINE
  8
寸法
  6
BYBLOCK
 62
     0
 10
91.56613
 20
45.562345
 11
91.56613
 21
85.37423
  0
POINT
  8
寸法
 62
     0
 10
91.56613
 20
45.562345
  0
POINT
  8
寸法
 62
     0
 10
91.56613
 20
85.37423
  0
TEXT
  7
TextStyle03
  8
寸法
  6
CONTINUOUS
 62
     0
 10
91.175
 20
60.48125
  1
1194.4
 40
3.0
 50
90.0
 72
     5
 11
91.175
 21
70.41875
  0
ENDBLK
  0
BLOCK
  2
*DIM_0022
 70
    65
 10
0.0
 20
0.0
  0
LINE
  8
寸法
  6
BYBLOCK
 62
     0
 10
91.784138
 20
-15.338388
 11
91.784138
 21
-20.1295
  0
LINE
  8
寸法
  6
BYBLOCK
 62
     0
 10
147.390367
 20
-15.338388
 11
147.390367
 21
-20.1295
  0
LINE
  8
寸法
  6
BYBLOCK
 62
     0
 10
91.784138
 20
-20.1295
 11
147.390367
 21
-20.1295
  0
POINT
  8
寸法
 62
     0
 10
91.784138
 20
-20.1295
  0
POINT
  8
寸法
 62
     0
 10
147.390367
 20
-20.1295
  0
TEXT
  7
TextStyle03
  8
寸法
  6
CONTINUOUS
 62
     0
 10
114.60625
 20
-19.775
  1
1668.2
 40
3.0
 72
     5
 11
124.54375
 21
-19.775
  0
ENDBLK
  0
BLOCK
  2
*DIM_0023
 70
    65
 10
0.0
 20
0.0
  0
LINE
  8
寸法
  6
BYBLOCK
 62
     0
 10
88.784138
 20
-12.338388
 11
84.936595
 21
-12.338388
  0
LINE
  8
寸法
  6
BYBLOCK
 62
     0
 10
116.587253
 20
26.981
 11
84.936595
 21
26.981
  0
LINE
  8
寸法
  6
BYBLOCK
 62
     0
 10
84.936595
 20
-12.338388
 11
84.936595
 21
26.981
  0
POINT
  8
寸法
 62
     0
 10
84.936595
 20
-12.338388
  0
POINT
  8
寸法
 62
     0
 10
84.936595
 20
26.981
  0
TEXT
  7
TextStyle03
  8
寸法
  6
CONTINUOUS
 62
     0
 10
84.55
 20
2.33125
  1
1179.6
 40
3.0
 50
90.0
 72
     5
 11
84.55
 21
12.26875
  0
ENDBLK
  0
BLOCK
  2
*DIM_0024
 70
    65
 10
0.0
 20
0.0
  0
ARC
  8
寸法
  6
BYBLOCK
 62
     0
 10
98.26651
 20
45.562345
 40
22.067469
 50
0.0
 51
54.735501
  0
POINT
  8
寸法
 62
     0
 10
111.007202
 20
63.580335
  0
POINT
  8
寸法
 62
     0
 10
120.33398
 20
45.562345
  0
TEXT
  7
TextStyle03
  8
寸法
  6
CONTINUOUS
 62
     0
 10
115.120707
 20
61.772225
  1
54.7355
 40
3.0
 50
297.37
 72
     5
 11
120.465125
 21
51.448571
  0
TEXT
  7
TextStyle03
  8
寸法
  6
CONTINUOUS
 62
     0
 10
120.548115
 20
51.30144
  1
ﾟ
 40
3.0
 50
297.37
 41
0.5625
  0
ENDBLK
  0
BLOCK
  2
*DIM_0025
 70
    65
 10
0.0
 20
0.0
  0
ARC
  8
寸法
  6
BYBLOCK
 62
     0
 10
91.784138
 20
-12.338388
 40
16.06519
 50
0.0
 51
54.735506
  0
POINT
  8
寸法
 62
     0
 10
101.059403
 20
0.778767
  0
POINT
  8
寸法
 62
     0
 10
107.849328
 20
-12.338388
  0
TEXT
  7
TextStyle03
  8
寸法
  6
CONTINUOUS
 62
     0
 10
103.320707
 20
1.122225
  1
54.7355
 40
3.0
 50
297.37
 72
     5
 11
108.665125
 21
-9.201429
  0
TEXT
  7
TextStyle03
  8
寸法
  6
CONTINUOUS
 62
     0
 10
108.748115
 20
-9.37356
  1
ﾟ
 40
3.0
 50
297.37
 41
0.5625
  0
ENDBLK
  0
BLOCK
  2
*DIM_0026
 70
    65
 10
0.0
 20
0.0
  0
ARC
  8
寸法
  6
BYBLOCK
 62
     0
 10
147.390368
 20
-12.338388
 40
16.06519
 50
125.264494
 51
180.0
  0
POINT
  8
寸法
 62
     0
 10
138.115102
 20
0.778767
  0
POINT
  8
寸法
 62
     0
 10
131.325178
 20
-12.338388
  0
TEXT
  7
TextStyle03
  8
寸法
  6
CONTINUOUS
 62
     0
 10
129.709875
 20
-10.701429
  1
54.7355
 40
3.0
 50
62.63
 72
     5
 11
135.054293
 21
-0.377775
  0
TEXT
  7
TextStyle03
  8
寸法
  6
CONTINUOUS
 62
     0
 10
135.137283
 20
-0.230644
  1
ﾟ
 40
3.0
 50
62.63
 41
0.5625
  0
ENDBLK
  0
BLOCK
  2
*DIM_0027
 70
    65
 10
0.0
 20
0.0
  0
LINE
  8
寸法
  6
BYBLOCK
 62
     0
 10
-116.68957
 20
-87.983003
 11
-116.68957
 21
-38.296695
  0
LINE
  8
寸法
  6
BYBLOCK
 62
     0
 10
-28.28957
 20
-87.983003
 11
-28.28957
 21
-38.296695
  0
LINE
  8
寸法
  6
BYBLOCK
 62
     0
 10
-116.68957
 20
-38.296695
 11
-28.28957
 21
-38.296695
  0
POINT
  8
寸法
 62
     0
 10
-116.68957
 20
-38.296695
  0
POINT
  8
寸法
 62
     0
 10
-28.28957
 20
-38.296695
  0
TEXT
  7
TextStyle03
  8
寸法
  6
CONTINUOUS
 62
     0
 10
-75.78125
 20
-37.925
  1
2652
 40
3.0
 72
     5
 11
-69.21875
 21
-37.925
  0
ENDBLK
  0
BLOCK
  2
*DIM_0028
 70
    65
 10
0.0
 20
0.0
  0
LINE
  8
寸法
  6
BYBLOCK
 62
     0
 10
-116.68957
 20
-41.23533
 11
-116.68957
 21
-43.62927
  0
LINE
  8
寸法
  6
BYBLOCK
 62
     0
 10
-112.48957
 20
-41.23533
 11
-112.48957
 21
-43.62927
  0
LINE
  8
寸法
  6
BYBLOCK
 62
     0
 10
-116.68957
 20
-43.62927
 11
-112.48957
 21
-43.62927
  0
POINT
  8
寸法
 62
     0
 10
-116.68957
 20
-43.62927
  0
POINT
  8
寸法
 62
     0
 10
-112.48957
 20
-43.62927
  0
TEXT
  7
TextStyle03
  8
寸法
  6
CONTINUOUS
 62
     0
 10
-122.0875
 20
-43.275
  1
126
 40
3.0
 72
     5
 11
-117.2125
 21
-43.275
  0
ENDBLK
  0
BLOCK
  2
*DIM_0029
 70
    65
 10
0.0
 20
0.0
  0
LINE
  8
寸法
  6
BYBLOCK
 62
     0
 10
-28.28957
 20
-41.23533
 11
-28.28957
 21
-43.62927
  0
LINE
  8
寸法
  6
BYBLOCK
 62
     0
 10
-32.48957
 20
-43.62927
 11
-28.28957
 21
-43.62927
  0
POINT
  8
寸法
 62
     0
 10
-28.28957
 20
-43.62927
  0
TEXT
  7
TextStyle03
  8
寸法
  6
CONTINUOUS
 62
     0
 10
-27.7875
 20
-43.275
  1
126
 40
3.0
 72
     5
 11
-22.9125
 21
-43.275
  0
ENDBLK
  0
BLOCK
  2
*DIM_0030
 70
    65
 10
0.0
 20
0.0
  0
LINE
  8
寸法
  6
BYBLOCK
 62
     0
 10
-32.48957
 20
-41.23533
 11
-32.48957
 21
-43.62927
  0
LINE
  8
寸法
  6
BYBLOCK
 62
     0
 10
-112.48957
 20
-43.62927
 11
-32.48957
 21
-43.62927
  0
POINT
  8
寸法
 62
     0
 10
-32.48957
 20
-43.62927
  0
TEXT
  7
TextStyle03
  8
寸法
  6
CONTINUOUS
 62
     0
 10
-84.21875
 20
-43.275
  1
呼称寸法＝2400
 40
3.0
 72
     5
 11
-60.78125
 21
-43.275
  0
ENDBLK
  0
BLOCK
  2
*DIM_0031
 70
    65
 10
0.0
 20
0.0
  0
LINE
  8
寸法
  6
BYBLOCK
 62
     0
 10
-56.15624
 20
-59.998605
 11
-5.753082
 21
-59.998605
  0
LINE
  8
寸法
  6
BYBLOCK
 62
     0
 10
-5.753082
 20
-90.983003
 11
-5.753082
 21
-59.998605
  0
POINT
  8
寸法
 62
     0
 10
-5.753082
 20
-59.998605
  0
TEXT
  7
TextStyle03
  8
寸法
  6
CONTINUOUS
 62
     0
 10
-6.15
 20
-79.625
  1
929.5
 40
3.0
 50
90.0
 72
     5
 11
-6.15
 21
-71.375
  0
ENDBLK
  0
BLOCK
  2
*GRP_0032
 70
    65
 10
0.0
 20
0.0
  0
LINE
  8
補助線
  6
DOT
 62
    64
 10
110.63514
 20
-94.917795
 11
110.75898
 21
-95.029332
  0
LINE
  8
補助線
  6
DOT
 62
    64
 10
110.752828
 20
-94.911643
 11
110.641293
 21
-95.035483
  0
LINE
  8
補助線
  6
DOT
 62
    64
 10
100.04388
 20
-85.379307
 11
99.920035
 21
-85.267772
  0
LINE
  8
補助線
  6
DOT
 62
    64
 10
100.037723
 20
-85.261618
 11
99.926188
 21
-85.385462
  0
LINE
  8
補助線
  6
DOT
 62
    64
 10
89.328643
 20
-75.72943
 11
89.204795
 21
-75.6179
  0
LINE
  8
補助線
  6
DOT
 62
    64
 10
89.322482
 20
-75.611743
 11
89.210955
 21
-75.735588
  0
LINE
  8
型材断面
  6
DOT
 10
111.502427
 20
-94.577408
 11
111.539358
 21
-95.283547
  0
LINE
  8
型材断面
  6
DOT
 10
111.539358
 20
-95.283547
 11
111.093217
 21
-95.778932
  0
LINE
  8
型材断面
  6
DOT
 10
111.093217
 20
-95.778932
 11
110.387077
 21
-95.81586
  0
LINE
  8
型材断面
  6
DOT
 10
89.576692
 20
-74.831362
 11
88.870552
 21
-74.868305
  0
LINE
  8
型材断面
  6
DOT
 10
88.870552
 20
-74.868305
 11
88.424417
 21
-75.363692
  0
LINE
  8
型材断面
  6
DOT
 10
88.424417
 20
-75.363692
 11
88.461357
 21
-76.069833
  0
LINE
  8
型材断面
  6
DOT
 10
111.502427
 20
-94.577408
 11
89.576985
 21
-74.831347
  0
LINE
  8
型材断面
  6
DOT
 10
110.387077
 20
-95.81586
 11
88.461342
 21
-76.069548
  0
LINE
  8
ボルト／ビス
  6
DOT
 62
    64
 10
110.903123
 20
-94.744755
 11
110.998243
 21
-95.037618
  0
LINE
  8
ボルト／ビス
  6
DOT
 62
    64
 10
110.903123
 20
-94.744755
 11
110.60194
 21
-94.680705
  0
LINE
  8
ボルト／ビス
  6
DOT
 62
    64
 10
110.490998
 20
-95.202372
 11
110.79218
 21
-95.266423
  0
LINE
  8
ボルト／ビス
  6
DOT
 62
    64
 10
110.490998
 20
-95.202372
 11
110.395877
 21
-94.90951
  0
CIRCLE
  8
ボルト／ビス
  6
DOT
 62
    64
 10
110.69706
 20
-94.973563
 40
0.266668
  0
LINE
  8
ボルト／ビス
  6
DOT
 62
    64
 10
110.60194
 20
-94.680705
 11
110.395877
 21
-94.90951
  0
LINE
  8
ボルト／ビス
  6
DOT
 62
    64
 10
110.998243
 20
-95.037618
 11
110.79218
 21
-95.266423
  0
LINE
  8
ボルト／ビス
  6
DOT
 62
    64
 10
100.188023
 20
-85.094735
 11
99.886835
 21
-85.03068
  0
LINE
  8
ボルト／ビス
  6
DOT
 62
    64
 10
100.188023
 20
-85.094735
 11
100.283143
 21
-85.387593
  0
LINE
  8
ボルト／ビス
  6
DOT
 62
    64
 10
99.775893
 20
-85.552347
 11
99.680773
 21
-85.259487
  0
LINE
  8
ボルト／ビス
  6
DOT
 62
    64
 10
99.775893
 20
-85.552347
 11
100.077078
 21
-85.616398
  0
CIRCLE
  8
ボルト／ビス
  6
DOT
 62
    64
 10
99.981955
 20
-85.32354
 40
0.266668
  0
LINE
  8
ボルト／ビス
  6
DOT
 62
    64
 10
100.283143
 20
-85.387593
 11
100.077078
 21
-85.616398
  0
LINE
  8
ボルト／ビス
  6
DOT
 62
    64
 10
99.886835
 20
-85.03068
 11
99.680773
 21
-85.259487
  0
LINE
  8
ボルト／ビス
  6
DOT
 62
    64
 10
89.47278
 20
-75.444858
 11
89.171593
 21
-75.380807
  0
LINE
  8
ボルト／ビス
  6
DOT
 62
    64
 10
89.47278
 20
-75.444858
 11
89.5679
 21
-75.737713
  0
LINE
  8
ボルト／ビス
  6
DOT
 62
    64
 10
89.060657
 20
-75.902475
 11
88.965535
 21
-75.609617
  0
LINE
  8
ボルト／ビス
  6
DOT
 62
    64
 10
89.060657
 20
-75.902475
 11
89.361843
 21
-75.966522
  0
CIRCLE
  8
ボルト／ビス
  6
DOT
 62
    64
 10
89.266718
 20
-75.673665
 40
0.266668
  0
LINE
  8
ボルト／ビス
  6
DOT
 62
    64
 10
89.5679
 20
-75.737713
 11
89.361843
 21
-75.966522
  0
LINE
  8
ボルト／ビス
  6
DOT
 62
    64
 10
89.171593
 20
-75.380807
 11
88.965535
 21
-75.609617
  0
ENDBLK
  0
BLOCK
  2
*GRP_0033
 70
    65
 10
0.0
 20
0.0
  0
LINE
  8
補助線
  6
DOT
 62
    64
 10
89.328773
 20
-94.917795
 11
89.204932
 21
-95.029332
  0
LINE
  8
補助線
  6
DOT
 62
    64
 10
89.211085
 20
-94.911643
 11
89.322623
 21
-95.035483
  0
LINE
  8
補助線
  6
DOT
 62
    64
 10
99.920032
 20
-85.379307
 11
100.043878
 21
-85.267772
  0
LINE
  8
補助線
  6
DOT
 62
    64
 10
99.92619
 20
-85.261618
 11
100.037725
 21
-85.385462
  0
LINE
  8
補助線
  6
DOT
 62
    64
 10
110.635273
 20
-75.72943
 11
110.759117
 21
-75.6179
  0
LINE
  8
補助線
  6
DOT
 62
    64
 10
110.64143
 20
-75.611743
 11
110.752958
 21
-75.735588
  0
LINE
  8
型材断面
  6
DOT
 10
88.461485
 20
-94.577408
 11
88.424558
 21
-95.283547
  0
LINE
  8
型材断面
  6
DOT
 10
88.424558
 20
-95.283547
 11
88.870697
 21
-95.778932
  0
LINE
  8
型材断面
  6
DOT
 10
88.870697
 20
-95.778932
 11
89.576837
 21
-95.81586
  0
LINE
  8
型材断面
  6
DOT
 10
110.387222
 20
-74.831362
 11
111.093362
 21
-74.868305
  0
LINE
  8
型材断面
  6
DOT
 10
111.093362
 20
-74.868305
 11
111.539497
 21
-75.363692
  0
LINE
  8
型材断面
  6
DOT
 10
111.539497
 20
-75.363692
 11
111.502555
 21
-76.069833
  0
LINE
  8
型材断面
  6
DOT
 10
88.461485
 20
-94.577408
 11
110.386927
 21
-74.831347
  0
LINE
  8
型材断面
  6
DOT
 10
89.576837
 20
-95.81586
 11
111.50257
 21
-76.069548
  0
LINE
  8
ボルト／ビス
  6
DOT
 62
    64
 10
89.060793
 20
-94.744755
 11
88.96567
 21
-95.037618
  0
LINE
  8
ボルト／ビス
  6
DOT
 62
    64
 10
89.060793
 20
-94.744755
 11
89.361973
 21
-94.680705
  0
LINE
  8
ボルト／ビス
  6
DOT
 62
    64
 10
89.472915
 20
-95.202372
 11
89.171732
 21
-95.266423
  0
LINE
  8
ボルト／ビス
  6
DOT
 62
    64
 10
89.472915
 20
-95.202372
 11
89.568037
 21
-94.90951
  0
CIRCLE
  8
ボルト／ビス
  6
DOT
 62
    64
 10
89.266852
 20
-94.973563
 40
0.266668
  0
LINE
  8
ボルト／ビス
  6
DOT
 62
    64
 10
89.361973
 20
-94.680705
 11
89.568037
 21
-94.90951
  0
LINE
  8
ボルト／ビス
  6
DOT
 62
    64
 10
88.96567
 20
-95.037618
 11
89.171732
 21
-95.266423
  0
LINE
  8
ボルト／ビス
  6
DOT
 62
    64
 10
99.775893
 20
-85.094735
 11
100.077078
 21
-85.03068
  0
LINE
  8
ボルト／ビス
  6
DOT
 62
    64
 10
99.775893
 20
-85.094735
 11
99.68077
 21
-85.387593
  0
LINE
  8
ボルト／ビス
  6
DOT
 62
    64
 10
100.18802
 20
-85.552347
 11
100.28314
 21
-85.259487
  0
LINE
  8
ボルト／ビス
  6
DOT
 62
    64
 10
100.18802
 20
-85.552347
 11
99.886837
 21
-85.616398
  0
CIRCLE
  8
ボルト／ビス
  6
DOT
 62
    64
 10
99.981957
 20
-85.32354
 40
0.266668
  0
LINE
  8
ボルト／ビス
  6
DOT
 62
    64
 10
99.68077
 20
-85.387593
 11
99.886837
 21
-85.616398
  0
LINE
  8
ボルト／ビス
  6
DOT
 62
    64
 10
100.077078
 20
-85.03068
 11
100.28314
 21
-85.259487
  0
LINE
  8
ボルト／ビス
  6
DOT
 62
    64
 10
110.491132
 20
-75.444858
 11
110.79232
 21
-75.380807
  0
LINE
  8
ボルト／ビス
  6
DOT
 62
    64
 10
110.491132
 20
-75.444858
 11
110.396012
 21
-75.737713
  0
LINE
  8
ボルト／ビス
  6
DOT
 62
    64
 10
110.903257
 20
-75.902475
 11
110.998378
 21
-75.609617
  0
LINE
  8
ボルト／ビス
  6
DOT
 62
    64
 10
110.903257
 20
-75.902475
 11
110.60207
 21
-75.966522
  0
CIRCLE
  8
ボルト／ビス
  6
DOT
 62
    64
 10
110.697195
 20
-75.673665
 40
0.266668
  0
LINE
  8
ボルト／ビス
  6
DOT
 62
    64
 10
110.396012
 20
-75.737713
 11
110.60207
 21
-75.966522
  0
LINE
  8
ボルト／ビス
  6
DOT
 62
    64
 10
110.79232
 20
-75.380807
 11
110.998378
 21
-75.609617
  0
ENDBLK
  0
BLOCK
  2
*GRP_0034
 70
    65
 10
0.0
 20
0.0
  0
LINE
  8
補助線
  6
DOT
 62
    64
 10
33.972395
 20
-94.917795
 11
33.848555
 21
-95.029332
  0
LINE
  8
補助線
  6
DOT
 62
    64
 10
33.854708
 20
-94.911643
 11
33.966243
 21
-95.035483
  0
LINE
  8
補助線
  6
DOT
 62
    64
 10
44.563655
 20
-85.379307
 11
44.6875
 21
-85.267772
  0
LINE
  8
補助線
  6
DOT
 62
    64
 10
44.569813
 20
-85.261618
 11
44.681348
 21
-85.385462
  0
LINE
  8
補助線
  6
DOT
 62
    64
 10
55.278893
 20
-75.72943
 11
55.40274
 21
-75.6179
  0
LINE
  8
補助線
  6
DOT
 62
    64
 10
55.285052
 20
-75.611743
 11
55.39658
 21
-75.735588
  0
LINE
  8
型材断面
  6
DOT
 10
33.105107
 20
-94.577408
 11
33.068177
 21
-95.283547
  0
LINE
  8
型材断面
  6
DOT
 10
33.068177
 20
-95.283547
 11
33.514317
 21
-95.778932
  0
LINE
  8
型材断面
  6
DOT
 10
33.514317
 20
-95.778932
 11
34.220457
 21
-95.81586
  0
LINE
  8
型材断面
  6
DOT
 10
55.030842
 20
-74.831362
 11
55.736982
 21
-74.868305
  0
LINE
  8
型材断面
  6
DOT
 10
55.736982
 20
-74.868305
 11
56.183117
 21
-75.363692
  0
LINE
  8
型材断面
  6
DOT
 10
56.183117
 20
-75.363692
 11
56.146177
 21
-76.069833
  0
LINE
  8
型材断面
  6
DOT
 10
33.105107
 20
-94.577408
 11
55.03055
 21
-74.831347
  0
LINE
  8
型材断面
  6
DOT
 10
34.220457
 20
-95.81586
 11
56.146192
 21
-76.069548
  0
LINE
  8
ボルト／ビス
  6
DOT
 62
    64
 10
33.704413
 20
-94.744755
 11
33.609293
 21
-95.037618
  0
LINE
  8
ボルト／ビス
  6
DOT
 62
    64
 10
33.704413
 20
-94.744755
 11
34.005595
 21
-94.680705
  0
LINE
  8
ボルト／ビス
  6
DOT
 62
    64
 10
34.116538
 20
-95.202372
 11
33.815355
 21
-95.266423
  0
LINE
  8
ボルト／ビス
  6
DOT
 62
    64
 10
34.116538
 20
-95.202372
 11
34.211658
 21
-94.90951
  0
CIRCLE
  8
ボルト／ビス
  6
DOT
 62
    64
 10
33.910475
 20
-94.973563
 40
0.266668
  0
LINE
  8
ボルト／ビス
  6
DOT
 62
    64
 10
34.005595
 20
-94.680705
 11
34.211658
 21
-94.90951
  0
LINE
  8
ボルト／ビス
  6
DOT
 62
    64
 10
33.609293
 20
-95.037618
 11
33.815355
 21
-95.266423
  0
LINE
  8
ボルト／ビス
  6
DOT
 62
    64
 10
44.419513
 20
-85.094735
 11
44.7207
 21
-85.03068
  0
LINE
  8
ボルト／ビス
  6
DOT
 62
    64
 10
44.419513
 20
-85.094735
 11
44.324393
 21
-85.387593
  0
LINE
  8
ボルト／ビス
  6
DOT
 62
    64
 10
44.831643
 20
-85.552347
 11
44.926763
 21
-85.259487
  0
LINE
  8
ボルト／ビス
  6
DOT
 62
    64
 10
44.831643
 20
-85.552347
 11
44.530458
 21
-85.616398
  0
CIRCLE
  8
ボルト／ビス
  6
DOT
 62
    64
 10
44.62558
 20
-85.32354
 40
0.266668
  0
LINE
  8
ボルト／ビス
  6
DOT
 62
    64
 10
44.324393
 20
-85.387593
 11
44.530458
 21
-85.616398
  0
LINE
  8
ボルト／ビス
  6
DOT
 62
    64
 10
44.7207
 20
-85.03068
 11
44.926763
 21
-85.259487
  0
LINE
  8
ボルト／ビス
  6
DOT
 62
    64
 10
55.134755
 20
-75.444858
 11
55.435943
 21
-75.380807
  0
LINE
  8
ボルト／ビス
  6
DOT
 62
    64
 10
55.134755
 20
-75.444858
 11
55.039635
 21
-75.737713
  0
LINE
  8
ボルト／ビス
  6
DOT
 62
    64
 10
55.546877
 20
-75.902475
 11
55.642
 21
-75.609617
  0
LINE
  8
ボルト／ビス
  6
DOT
 62
    64
 10
55.546877
 20
-75.902475
 11
55.245693
 21
-75.966522
  0
CIRCLE
  8
ボルト／ビス
  6
DOT
 62
    64
 10
55.340818
 20
-75.673665
 40
0.266668
  0
LINE
  8
ボルト／ビス
  6
DOT
 62
    64
 10
55.039635
 20
-75.737713
 11
55.245693
 21
-75.966522
  0
LINE
  8
ボルト／ビス
  6
DOT
 62
    64
 10
55.435943
 20
-75.380807
 11
55.642
 21
-75.609617
  0
ENDBLK
  0
BLOCK
  2
*GRP_0035
 70
    65
 10
0.0
 20
0.0
  0
LINE
  8
補助線
  6
DOT
 62
    64
 10
55.278763
 20
-94.917795
 11
55.402602
 21
-95.029332
  0
LINE
  8
補助線
  6
DOT
 62
    64
 10
55.39645
 20
-94.911643
 11
55.284913
 21
-95.035483
  0
LINE
  8
補助線
  6
DOT
 62
    64
 10
44.687502
 20
-85.379307
 11
44.563658
 21
-85.267772
  0
LINE
  8
補助線
  6
DOT
 62
    64
 10
44.681345
 20
-85.261618
 11
44.56981
 21
-85.385462
  0
LINE
  8
補助線
  6
DOT
 62
    64
 10
33.972263
 20
-75.72943
 11
33.848417
 21
-75.6179
  0
LINE
  8
補助線
  6
DOT
 62
    64
 10
33.966105
 20
-75.611743
 11
33.854578
 21
-75.735588
  0
LINE
  8
型材断面
  6
DOT
 10
56.14605
 20
-94.577408
 11
56.182978
 21
-95.283547
  0
LINE
  8
型材断面
  6
DOT
 10
56.182978
 20
-95.283547
 11
55.736838
 21
-95.778932
  0
LINE
  8
型材断面
  6
DOT
 10
55.736838
 20
-95.778932
 11
55.030697
 21
-95.81586
  0
LINE
  8
型材断面
  6
DOT
 10
34.220312
 20
-74.831362
 11
33.514172
 21
-74.868305
  0
LINE
  8
型材断面
  6
DOT
 10
33.514172
 20
-74.868305
 11
33.068037
 21
-75.363692
  0
LINE
  8
型材断面
  6
DOT
 10
33.068037
 20
-75.363692
 11
33.10498
 21
-76.069833
  0
LINE
  8
型材断面
  6
DOT
 10
56.14605
 20
-94.577408
 11
34.220608
 21
-74.831347
  0
LINE
  8
型材断面
  6
DOT
 10
55.030697
 20
-95.81586
 11
33.104965
 21
-76.069548
  0
LINE
  8
ボルト／ビス
  6
DOT
 62
    64
 10
55.546743
 20
-94.744755
 11
55.641865
 21
-95.037618
  0
LINE
  8
ボルト／ビス
  6
DOT
 62
    64
 10
55.546743
 20
-94.744755
 11
55.245563
 21
-94.680705
  0
LINE
  8
ボルト／ビス
  6
DOT
 62
    64
 10
55.13462
 20
-95.202372
 11
55.435802
 21
-95.266423
  0
LINE
  8
ボルト／ビス
  6
DOT
 62
    64
 10
55.13462
 20
-95.202372
 11
55.039497
 21
-94.90951
  0
CIRCLE
  8
ボルト／ビス
  6
DOT
 62
    64
 10
55.340683
 20
-94.973563
 40
0.266668
  0
LINE
  8
ボルト／ビス
  6
DOT
 62
    64
 10
55.245563
 20
-94.680705
 11
55.039497
 21
-94.90951
  0
LINE
  8
ボルト／ビス
  6
DOT
 62
    64
 10
55.641865
 20
-95.037618
 11
55.435802
 21
-95.266423
  0
LINE
  8
ボルト／ビス
  6
DOT
 62
    64
 10
44.831643
 20
-85.094735
 11
44.530458
 21
-85.03068
  0
LINE
  8
ボルト／ビス
  6
DOT
 62
    64
 10
44.831643
 20
-85.094735
 11
44.926765
 21
-85.387593
  0
LINE
  8
ボルト／ビス
  6
DOT
 62
    64
 10
44.419515
 20
-85.552347
 11
44.324395
 21
-85.259487
  0
LINE
  8
ボルト／ビス
  6
DOT
 62
    64
 10
44.419515
 20
-85.552347
 11
44.720697
 21
-85.616398
  0
CIRCLE
  8
ボルト／ビス
  6
DOT
 62
    64
 10
44.625577
 20
-85.32354
 40
0.266668
  0
LINE
  8
ボルト／ビス
  6
DOT
 62
    64
 10
44.926765
 20
-85.387593
 11
44.720697
 21
-85.616398
  0
LINE
  8
ボルト／ビス
  6
DOT
 62
    64
 10
44.530458
 20
-85.03068
 11
44.324395
 21
-85.259487
  0
LINE
  8
ボルト／ビス
  6
DOT
 62
    64
 10
34.116403
 20
-75.444858
 11
33.815215
 21
-75.380807
  0
LINE
  8
ボルト／ビス
  6
DOT
 62
    64
 10
34.116403
 20
-75.444858
 11
34.211522
 21
-75.737713
  0
LINE
  8
ボルト／ビス
  6
DOT
 62
    64
 10
33.704277
 20
-75.902475
 11
33.609158
 21
-75.609617
  0
LINE
  8
ボルト／ビス
  6
DOT
 62
    64
 10
33.704277
 20
-75.902475
 11
34.005465
 21
-75.966522
  0
CIRCLE
  8
ボルト／ビス
  6
DOT
 62
    64
 10
33.91034
 20
-75.673665
 40
0.266668
  0
LINE
  8
ボルト／ビス
  6
DOT
 62
    64
 10
34.211522
 20
-75.737713
 11
34.005465
 21
-75.966522
  0
LINE
  8
ボルト／ビス
  6
DOT
 62
    64
 10
33.815215
 20
-75.380807
 11
33.609158
 21
-75.609617
  0
ENDBLK
  0
BLOCK
  2
*GRP_0036
 70
    65
 10
0.0
 20
0.0
  0
POLYLINE
  8
寸法
  6
BYBLOCK
 62
     0
 66
     1
  0
VERTEX
  8
寸法
 10
-36.257132
 20
57.992095
  0
VERTEX
  8
寸法
 10
-35.041348
 20
59.207883
  0
VERTEX
  8
寸法
 10
-23.62881
 20
59.207883
  0
SEQEND
  0
ENDBLK
  0
BLOCK
  2
*DIM_0037
 70
    65
 10
0.0
 20
0.0
  0
LINE
  8
寸法
  6
BYBLOCK
 62
     0
 10
-24.140327
 20
25.511188
 11
-17.319538
 21
25.511188
  0
LINE
  8
寸法
  6
BYBLOCK
 62
     0
 10
-17.319538
 20
21.811188
 11
-17.319538
 21
25.511188
  0
POINT
  8
寸法
 62
     0
 10
-17.319538
 20
21.811188
  0
POINT
  8
寸法
 62
     0
 10
-17.319538
 20
25.511188
  0
TEXT
  7
TextStyle03
  8
寸法
  6
CONTINUOUS
 62
     0
 10
-17.725
 20
15.9875
  1
111
 40
3.0
 50
90.0
 72
     5
 11
-17.725
 21
20.8625
  0
ENDBLK
  0
BLOCK
  2
*DIM_0038
 70
    65
 10
0.0
 20
0.0
  0
LINE
  8
寸法
  6
BYBLOCK
 62
     0
 10
-24.140327
 20
71.444522
 11
-17.319538
 21
71.444522
  0
LINE
  8
寸法
  6
BYBLOCK
 62
     0
 10
-17.319538
 20
75.144522
 11
-17.319538
 21
71.444522
  0
POINT
  8
寸法
 62
     0
 10
-17.319538
 20
75.144522
  0
POINT
  8
寸法
 62
     0
 10
-17.319538
 20
71.444522
  0
TEXT
  7
TextStyle03
  8
寸法
  6
CONTINUOUS
 62
     0
 10
-17.725
 20
76.1125
  1
111
 40
3.0
 50
90.0
 72
     5
 11
-17.725
 21
80.9875
  0
ENDBLK
  0
BLOCK
  2
*DIM_0039
 70
    65
 10
0.0
 20
0.0
  0
LINE
  8
寸法
  6
BYBLOCK
 62
     0
 10
120.9371
 20
-78.116335
 11
131.837782
 21
-78.116335
  0
LINE
  8
寸法
  6
BYBLOCK
 62
     0
 10
120.9371
 20
-93.116335
 11
131.837782
 21
-93.116335
  0
LINE
  8
寸法
  6
BYBLOCK
 62
     0
 10
131.837782
 20
-78.116335
 11
131.837782
 21
-93.116335
  0
POINT
  8
寸法
 62
     0
 10
131.837782
 20
-78.116335
  0
POINT
  8
寸法
 62
     0
 10
131.837782
 20
-93.116335
  0
TEXT
  7
TextStyle03
  8
寸法
  6
CONTINUOUS
 62
     0
 10
136.475
 20
-96.75625
  1
上昇　415以上
 40
3.0
 50
90.0
 72
     5
 11
136.475
 21
-75.19375
  0
ENDBLK
  0
BLOCK
  2
*DIM_0040
 70
    65
 10
0.0
 20
0.0
  0
LINE
  8
寸法
  6
CONTINUOUS
 10
-23.28957
 20
-90.983003
 11
-5.753082
 21
-90.983003
  0
LINE
  8
寸法
  6
CONTINUOUS
 10
-24.726387
 20
-97.516335
 11
-5.753082
 21
-97.516335
  0
LINE
  8
寸法
  6
CONTINUOUS
 10
-5.753082
 20
-90.983003
 11
-5.753082
 21
-97.516335
  0
POINT
  8
寸法
 10
-5.753082
 20
-90.983003
  0
POINT
  8
寸法
 10
-5.753082
 20
-97.516335
  0
TEXT
  7
TextStyle03
  8
寸法
  6
CONTINUOUS
 10
-2.775
 20
-96.6875
  1
196
 40
3.0
 50
90.0
 72
     5
 11
-2.775
 21
-91.8125
  0
ENDBLK
  0
BLOCK
  2
*DIM_0041
 70
    65
 10
0.0
 20
0.0
  0
LINE
  8
寸法
  6
CONTINUOUS
 10
55.867913
 20
12.611188
 11
55.867913
 21
-1.54452
  0
LINE
  8
寸法
  6
CONTINUOUS
 10
62.401245
 20
14.048005
 11
62.401245
 21
-1.54452
  0
LINE
  8
寸法
  6
CONTINUOUS
 10
55.867913
 20
-1.54452
 11
62.401245
 21
-1.54452
  0
POINT
  8
寸法
 10
55.867913
 20
-1.54452
  0
POINT
  8
寸法
 10
62.401245
 20
-1.54452
  0
TEXT
  7
TextStyle03
  8
寸法
  6
CONTINUOUS
 10
56.6875
 20
-4.55
  1
196
 40
3.0
 72
     5
 11
61.5625
 21
-4.55
  0
ENDBLK
  0
ENDSEC
  0
SECTION
  2
ENTITIES
  0
POLYLINE
  8
通り芯
  6
CONTINUOUS
 66
     1
 70
     1
  0
VERTEX
  8
通り芯
 10
-210.0
 20
-148.5
  0
VERTEX
  8
通り芯
 10
210.0
 20
-148.5
  0
VERTEX
  8
通り芯
 10
210.0
 20
148.5
  0
VERTEX
  8
通り芯
 10
-210.0
 20
148.5
  0
SEQEND
  0
INSERT
  2
*GRP_0001
  8
型材断面
  6
CONTINUOUS
 10
0.0
 20
0.0
  0
LINE
  8
型材断面
  6
CONTINUOUS
 62
    47
 10
55.867913
 20
17.611188
 11
58.001245
 21
17.611188
  0
LINE
  8
型材断面
  6
CONTINUOUS
 10
55.867913
 20
17.611188
 11
55.809048
 21
17.552323
  0
LINE
  8
型材断面
  6
CONTINUOUS
 62
    47
 10
58.001245
 20
18.177855
 11
58.517913
 21
18.177855
  0
LINE
  8
型材断面
  6
CONTINUOUS
 10
-116.689563
 20
17.611188
 11
-72.48957
 21
17.611188
  0
LINE
  8
型材断面
  6
CONTINUOUS
 10
-108.202852
 20
23.511188
 11
-73.73957
 21
23.511188
  0
LINE
  8
型材断面
  6
CONTINUOUS
 10
-107.986185
 20
23.727855
 11
-73.73957
 21
23.727855
  0
LINE
  8
型材断面
  6
CONTINUOUS
 10
-110.895435
 20
20.818607
 11
-73.73957
 21
20.818607
  0
LINE
  8
型材断面
  6
CONTINUOUS
 10
-110.848295
 20
20.865747
 11
-73.73957
 21
20.865747
  0
LINE
  8
型材断面
  6
CONTINUOUS
 10
-110.742847
 20
20.971192
 11
-73.73957
 21
20.971192
  0
LINE
  8
型材断面
  6
CONTINUOUS
 10
-110.592847
 20
21.121192
 11
-73.73957
 21
21.121192
  0
LINE
  8
型材断面
  6
CONTINUOUS
 10
55.809048
 20
17.552323
 11
24.883515
 21
48.477855
  0
LINE
  8
型材断面
  6
CONTINUOUS
 10
26.39953
 20
46.938245
 11
26.39953
 21
47.875365
  0
LINE
  8
型材断面
  6
CONTINUOUS
 10
25.797042
 20
48.477855
 11
26.39953
 21
47.875365
  0
LINE
  8
型材断面
  6
CONTINUOUS
 10
26.39953
 20
46.938245
 11
24.859922
 21
48.477855
  0
LINE
  8
型材断面
  6
CONTINUOUS
 10
26.39953
 20
50.017465
 11
26.39953
 21
49.080345
  0
LINE
  8
型材断面
  6
CONTINUOUS
 10
25.797042
 20
48.477855
 11
26.39953
 21
49.080345
  0
LINE
  8
型材断面
  6
CONTINUOUS
 10
26.39953
 20
50.017465
 11
24.859922
 21
48.477855
  0
LINE
  8
型材断面
  6
CONTINUOUS
 10
55.867913
 20
18.337145
 11
26.39953
 21
47.805525
  0
LINE
  8
型材断面
  6
CONTINUOUS
 10
55.867913
 20
17.611188
 11
55.867913
 21
48.477855
  0
LINE
  8
型材断面
  6
CONTINUOUS
 62
    47
 10
58.001245
 20
17.611188
 11
58.001245
 21
48.477855
  0
LINE
  8
型材断面
  6
CONTINUOUS
 62
    47
 10
58.517913
 20
18.177855
 11
58.517913
 21
48.477855
  0
LINE
  8
型材断面
  6
CONTINUOUS
 62
    47
 10
55.867913
 20
79.344522
 11
58.001245
 21
79.344522
  0
LINE
  8
型材断面
  6
CONTINUOUS
 10
55.867913
 20
79.344522
 11
55.809048
 21
79.403387
  0
LINE
  8
型材断面
  6
CONTINUOUS
 62
    47
 10
58.001245
 20
78.777855
 11
58.517913
 21
78.777855
  0
LINE
  8
型材断面
  6
CONTINUOUS
 10
55.809048
 20
79.403387
 11
24.883515
 21
48.477855
  0
LINE
  8
型材断面
  6
CONTINUOUS
 10
55.867913
 20
78.618565
 11
26.39953
 21
49.150185
  0
LINE
  8
型材断面
  6
CONTINUOUS
 10
55.867913
 20
79.344522
 11
55.867913
 21
48.477855
  0
LINE
  8
型材断面
  6
CONTINUOUS
 62
    47
 10
58.001245
 20
79.344522
 11
58.001245
 21
48.477855
  0
LINE
  8
型材断面
  6
CONTINUOUS
 62
    47
 10
58.517913
 20
78.777855
 11
58.517913
 21
48.477855
  0
LINE
  8
型材断面
  6
CONTINUOUS
 10
-116.689563
 20
17.611188
 11
-116.689563
 21
48.477855
  0
LINE
  8
型材断面
  6
CONTINUOUS
 10
-113.435005
 20
23.452455
 11
-113.435005
 21
48.477855
  0
LINE
  8
型材断面
  6
CONTINUOUS
 10
-113.482145
 20
23.405317
 11
-113.482145
 21
48.477855
  0
LINE
  8
型材断面
  6
CONTINUOUS
 10
-113.329558
 20
23.557902
 11
-113.329558
 21
48.477855
  0
LINE
  8
型材断面
  6
CONTINUOUS
 10
-113.179558
 20
23.707902
 11
-113.179558
 21
48.477855
  0
LINE
  8
型材断面
  6
CONTINUOUS
 10
-110.789563
 20
26.097897
 11
-110.789563
 21
48.477855
  0
LINE
  8
型材断面
  6
CONTINUOUS
 10
-110.572895
 20
26.314565
 11
-110.572895
 21
48.477855
  0
LINE
  8
型材断面
  6
CONTINUOUS
 10
-87.362503
 20
46.938248
 11
-87.362503
 21
47.875367
  0
LINE
  8
型材断面
  6
CONTINUOUS
 10
-87.362503
 20
46.938248
 11
-86.425382
 21
46.938248
  0
LINE
  8
型材断面
  6
CONTINUOUS
 10
-86.760015
 20
48.477855
 11
-87.362503
 21
47.875367
  0
LINE
  8
型材断面
  6
CONTINUOUS
 10
-87.362503
 20
46.938248
 11
-85.822895
 21
48.477855
  0
LINE
  8
型材断面
  6
CONTINUOUS
 10
-86.425382
 20
46.938248
 11
-86.080785
 21
47.282845
  0
LINE
  8
型材断面
  6
CONTINUOUS
 10
-86.080785
 20
47.282845
 11
-85.822895
 21
48.477855
  0
LINE
  8
型材断面
  6
CONTINUOUS
 10
-115.898605
 20
17.611188
 11
-86.571545
 21
46.938248
  0
LINE
  8
型材断面
  6
CONTINUOUS
 10
-116.689563
 20
18.402147
 11
-87.362503
 21
47.729205
  0
LINE
  8
型材断面
  6
CONTINUOUS
 10
-116.689563
 20
17.611188
 11
-87.362503
 21
46.938248
  0
LINE
  8
型材断面
  6
CONTINUOUS
 10
-84.061965
 20
47.362808
 11
-72.48957
 21
47.362808
  0
LINE
  8
型材断面
  6
CONTINUOUS
 10
-116.689563
 20
79.344522
 11
-72.48957
 21
79.344522
  0
LINE
  8
型材断面
  6
CONTINUOUS
 10
-108.202852
 20
73.444522
 11
-73.73957
 21
73.444522
  0
LINE
  8
型材断面
  6
CONTINUOUS
 10
-107.986185
 20
73.227855
 11
-73.73957
 21
73.227855
  0
LINE
  8
型材断面
  6
CONTINUOUS
 10
-110.895435
 20
76.137103
 11
-73.73957
 21
76.137103
  0
LINE
  8
型材断面
  6
CONTINUOUS
 10
-110.848295
 20
76.089962
 11
-73.73957
 21
76.089962
  0
LINE
  8
型材断面
  6
CONTINUOUS
 10
-110.742847
 20
75.984518
 11
-73.73957
 21
75.984518
  0
LINE
  8
型材断面
  6
CONTINUOUS
 10
-110.592847
 20
75.834518
 11
-73.73957
 21
75.834518
  0
LINE
  8
型材断面
  6
CONTINUOUS
 10
-116.689563
 20
79.344522
 11
-116.689563
 21
48.477855
  0
LINE
  8
型材断面
  6
CONTINUOUS
 10
-113.435005
 20
73.503255
 11
-113.435005
 21
48.477855
  0
LINE
  8
型材断面
  6
CONTINUOUS
 10
-113.482145
 20
73.550393
 11
-113.482145
 21
48.477855
  0
LINE
  8
型材断面
  6
CONTINUOUS
 10
-113.329558
 20
73.397808
 11
-113.329558
 21
48.477855
  0
LINE
  8
型材断面
  6
CONTINUOUS
 10
-113.179558
 20
73.247808
 11
-113.179558
 21
48.477855
  0
LINE
  8
型材断面
  6
CONTINUOUS
 10
-110.789563
 20
70.857812
 11
-110.789563
 21
48.477855
  0
LINE
  8
型材断面
  6
CONTINUOUS
 10
-110.572895
 20
70.641145
 11
-110.572895
 21
48.477855
  0
LINE
  8
型材断面
  6
CONTINUOUS
 10
-87.362503
 20
50.017462
 11
-87.362503
 21
49.080343
  0
LINE
  8
型材断面
  6
CONTINUOUS
 10
-87.362503
 20
50.017462
 11
-86.425382
 21
50.017462
  0
LINE
  8
型材断面
  6
CONTINUOUS
 10
-86.760015
 20
48.477855
 11
-87.362503
 21
49.080343
  0
LINE
  8
型材断面
  6
CONTINUOUS
 10
-87.362503
 20
50.017462
 11
-85.822895
 21
48.477855
  0
LINE
  8
型材断面
  6
CONTINUOUS
 10
-86.425382
 20
50.017462
 11
-86.080785
 21
49.672865
  0
LINE
  8
型材断面
  6
CONTINUOUS
 10
-86.080785
 20
49.672865
 11
-85.822895
 21
48.477855
  0
LINE
  8
型材断面
  6
CONTINUOUS
 10
-115.898605
 20
79.344522
 11
-86.571545
 21
50.017462
  0
LINE
  8
型材断面
  6
CONTINUOUS
 10
-116.689563
 20
78.553563
 11
-87.362503
 21
49.226505
  0
LINE
  8
型材断面
  6
CONTINUOUS
 10
-116.689563
 20
79.344522
 11
-87.362503
 21
50.017462
  0
LINE
  8
型材断面
  6
CONTINUOUS
 10
-84.061965
 20
49.592902
 11
-72.48957
 21
49.592902
  0
LINE
  8
型材断面
  6
CONTINUOUS
 10
-28.289577
 20
79.344522
 11
-72.48957
 21
79.344522
  0
LINE
  8
型材断面
  6
CONTINUOUS
 10
-36.776288
 20
73.444522
 11
-71.23957
 21
73.444522
  0
LINE
  8
型材断面
  6
CONTINUOUS
 10
-36.992955
 20
73.227855
 11
-71.23957
 21
73.227855
  0
LINE
  8
型材断面
  6
CONTINUOUS
 10
-34.083705
 20
76.137103
 11
-71.23957
 21
76.137103
  0
LINE
  8
型材断面
  6
CONTINUOUS
 10
-34.130845
 20
76.089962
 11
-71.23957
 21
76.089962
  0
LINE
  8
型材断面
  6
CONTINUOUS
 10
-34.236293
 20
75.984518
 11
-71.23957
 21
75.984518
  0
LINE
  8
型材断面
  6
CONTINUOUS
 10
-34.386293
 20
75.834518
 11
-71.23957
 21
75.834518
  0
LINE
  8
型材断面
  6
CONTINUOUS
 10
-28.289577
 20
79.344522
 11
-28.289577
 21
48.477855
  0
LINE
  8
型材断面
  6
CONTINUOUS
 10
-31.544135
 20
73.503255
 11
-31.544135
 21
48.477855
  0
LINE
  8
型材断面
  6
CONTINUOUS
 10
-31.496995
 20
73.550393
 11
-31.496995
 21
48.477855
  0
LINE
  8
型材断面
  6
CONTINUOUS
 10
-31.649582
 20
73.397808
 11
-31.649582
 21
48.477855
  0
LINE
  8
型材断面
  6
CONTINUOUS
 10
-31.799582
 20
73.247808
 11
-31.799582
 21
48.477855
  0
LINE
  8
型材断面
  6
CONTINUOUS
 10
-34.189577
 20
70.857812
 11
-34.189577
 21
48.477855
  0
LINE
  8
型材断面
  6
CONTINUOUS
 10
-34.406245
 20
70.641145
 11
-34.406245
 21
48.477855
  0
LINE
  8
型材断面
  6
CONTINUOUS
 10
-57.616637
 20
50.017462
 11
-57.616637
 21
49.080343
  0
LINE
  8
型材断面
  6
CONTINUOUS
 10
-57.616637
 20
50.017462
 11
-58.553758
 21
50.017462
  0
LINE
  8
型材断面
  6
CONTINUOUS
 10
-58.219125
 20
48.477855
 11
-57.616637
 21
49.080343
  0
LINE
  8
型材断面
  6
CONTINUOUS
 10
-57.616637
 20
50.017462
 11
-59.156245
 21
48.477855
  0
LINE
  8
型材断面
  6
CONTINUOUS
 10
-58.553758
 20
50.017462
 11
-58.898355
 21
49.672865
  0
LINE
  8
型材断面
  6
CONTINUOUS
 10
-58.898355
 20
49.672865
 11
-59.156245
 21
48.477855
  0
LINE
  8
型材断面
  6
CONTINUOUS
 10
-29.080535
 20
79.344522
 11
-58.407595
 21
50.017462
  0
LINE
  8
型材断面
  6
CONTINUOUS
 10
-28.289577
 20
78.553563
 11
-57.616637
 21
49.226505
  0
LINE
  8
型材断面
  6
CONTINUOUS
 10
-28.289577
 20
79.344522
 11
-57.616637
 21
50.017462
  0
LINE
  8
型材断面
  6
CONTINUOUS
 10
-60.917175
 20
49.592902
 11
-72.48957
 21
49.592902
  0
LINE
  8
型材断面
  6
CONTINUOUS
 10
-28.289577
 20
17.611188
 11
-72.48957
 21
17.611188
  0
LINE
  8
型材断面
  6
CONTINUOUS
 10
-36.776288
 20
23.511188
 11
-71.23957
 21
23.511188
  0
LINE
  8
型材断面
  6
CONTINUOUS
 10
-36.992955
 20
23.727855
 11
-71.23957
 21
23.727855
  0
LINE
  8
型材断面
  6
CONTINUOUS
 10
-34.083705
 20
20.818607
 11
-71.23957
 21
20.818607
  0
LINE
  8
型材断面
  6
CONTINUOUS
 10
-34.130845
 20
20.865747
 11
-71.23957
 21
20.865747
  0
LINE
  8
型材断面
  6
CONTINUOUS
 10
-34.236293
 20
20.971192
 11
-71.23957
 21
20.971192
  0
LINE
  8
型材断面
  6
CONTINUOUS
 10
-34.386293
 20
21.121192
 11
-71.23957
 21
21.121192
  0
LINE
  8
型材断面
  6
CONTINUOUS
 10
-28.289577
 20
17.611188
 11
-28.289577
 21
48.477855
  0
LINE
  8
型材断面
  6
CONTINUOUS
 10
-31.544135
 20
23.452455
 11
-31.544135
 21
48.477855
  0
LINE
  8
型材断面
  6
CONTINUOUS
 10
-31.496995
 20
23.405317
 11
-31.496995
 21
48.477855
  0
LINE
  8
型材断面
  6
CONTINUOUS
 10
-31.649582
 20
23.557902
 11
-31.649582
 21
48.477855
  0
LINE
  8
型材断面
  6
CONTINUOUS
 10
-31.799582
 20
23.707902
 11
-31.799582
 21
48.477855
  0
LINE
  8
型材断面
  6
CONTINUOUS
 10
-34.189577
 20
26.097897
 11
-34.189577
 21
48.477855
  0
LINE
  8
型材断面
  6
CONTINUOUS
 10
-34.406245
 20
26.314565
 11
-34.406245
 21
48.477855
  0
LINE
  8
型材断面
  6
CONTINUOUS
 10
-57.616637
 20
46.938248
 11
-57.616637
 21
47.875367
  0
LINE
  8
型材断面
  6
CONTINUOUS
 10
-57.616637
 20
46.938248
 11
-58.553758
 21
46.938248
  0
LINE
  8
型材断面
  6
CONTINUOUS
 10
-58.219125
 20
48.477855
 11
-57.616637
 21
47.875367
  0
LINE
  8
型材断面
  6
CONTINUOUS
 10
-57.616637
 20
46.938248
 11
-59.156245
 21
48.477855
  0
LINE
  8
型材断面
  6
CONTINUOUS
 10
-58.553758
 20
46.938248
 11
-58.898355
 21
47.282845
  0
LINE
  8
型材断面
  6
CONTINUOUS
 10
-58.898355
 20
47.282845
 11
-59.156245
 21
48.477855
  0
LINE
  8
型材断面
  6
CONTINUOUS
 10
-29.080535
 20
17.611188
 11
-58.407595
 21
46.938248
  0
LINE
  8
型材断面
  6
CONTINUOUS
 10
-28.289577
 20
18.402147
 11
-57.616637
 21
47.729205
  0
LINE
  8
型材断面
  6
CONTINUOUS
 10
-28.289577
 20
17.611188
 11
-57.616637
 21
46.938248
  0
LINE
  8
型材断面
  6
CONTINUOUS
 10
-60.917175
 20
47.362808
 11
-72.48957
 21
47.362808
  0
LINE
  8
型材断面
  6
CONTINUOUS
 62
    47
 10
-116.68957
 20
-90.983003
 11
-116.68957
 21
-93.116335
  0
LINE
  8
型材断面
  6
CONTINUOUS
 10
-116.68957
 20
-90.983003
 11
-116.748435
 21
-90.924137
  0
LINE
  8
型材断面
  6
CONTINUOUS
 62
    47
 10
-116.122902
 20
-93.116335
 11
-116.122902
 21
-93.633003
  0
LINE
  8
型材断面
  6
CONTINUOUS
 10
-116.68957
 20
-90.983003
 11
-72.48957
 21
-90.983003
  0
LINE
  8
型材断面
  6
CONTINUOUS
 62
    47
 10
-116.122902
 20
-93.633003
 11
-72.48957
 21
-93.633003
  0
LINE
  8
型材断面
  6
CONTINUOUS
 62
    47
 10
-116.68957
 20
-93.116335
 11
-72.48957
 21
-93.116335
  0
LINE
  8
型材断面
  6
CONTINUOUS
 10
-116.748435
 20
-90.924137
 11
-85.8229
 21
-59.998605
  0
LINE
  8
型材断面
  6
CONTINUOUS
 10
-115.963613
 20
-90.983003
 11
-86.49523
 21
-61.51462
  0
LINE
  8
型材断面
  6
CONTINUOUS
 10
-84.062038
 20
-61.115075
 11
-72.48957
 21
-61.115075
  0
LINE
  8
型材断面
  6
CONTINUOUS
 10
-86.088505
 20
-61.177675
 11
-72.48957
 21
-61.177675
  0
LINE
  8
型材断面
  6
CONTINUOUS
 10
-85.8229
 20
-59.998605
 11
-72.48957
 21
-59.998605
  0
LINE
  8
型材断面
  6
CONTINUOUS
 62
    47
 10
-28.28957
 20
-90.983003
 11
-28.28957
 21
-93.116335
  0
LINE
  8
型材断面
  6
CONTINUOUS
 10
-28.28957
 20
-90.983003
 11
-28.230705
 21
-90.924137
  0
LINE
  8
型材断面
  6
CONTINUOUS
 62
    47
 10
-28.856238
 20
-93.116335
 11
-28.856238
 21
-93.633003
  0
LINE
  8
型材断面
  6
CONTINUOUS
 10
-28.28957
 20
-90.983003
 11
-72.48957
 21
-90.983003
  0
LINE
  8
型材断面
  6
CONTINUOUS
 62
    47
 10
-28.856238
 20
-93.633003
 11
-72.48957
 21
-93.633003
  0
LINE
  8
型材断面
  6
CONTINUOUS
 62
    47
 10
-28.28957
 20
-93.116335
 11
-72.48957
 21
-93.116335
  0
LINE
  8
型材断面
  6
CONTINUOUS
 10
-28.230705
 20
-90.924137
 11
-59.15624
 21
-59.998605
  0
LINE
  8
型材断面
  6
CONTINUOUS
 10
-29.015528
 20
-90.983003
 11
-58.48391
 21
-61.51462
  0
LINE
  8
型材断面
  6
CONTINUOUS
 10
-60.917102
 20
-61.115075
 11
-72.48957
 21
-61.115075
  0
LINE
  8
型材断面
  6
CONTINUOUS
 10
-58.890635
 20
-61.177675
 11
-72.48957
 21
-61.177675
  0
LINE
  8
型材断面
  6
CONTINUOUS
 10
-59.15624
 20
-59.998605
 11
-72.48957
 21
-59.998605
  0
LINE
  8
型材断面
  6
CONTINUOUS
 62
    47
 10
28.103767
 20
-90.983003
 11
28.103767
 21
-93.116335
  0
LINE
  8
型材断面
  6
CONTINUOUS
 10
28.103767
 20
-90.983003
 11
28.044902
 21
-90.924137
  0
LINE
  8
型材断面
  6
CONTINUOUS
 62
    47
 10
28.670435
 20
-93.116335
 11
28.670435
 21
-93.633003
  0
LINE
  8
型材断面
  6
CONTINUOUS
 10
28.103767
 20
-90.983003
 11
72.303767
 21
-90.983003
  0
LINE
  8
型材断面
  6
CONTINUOUS
 62
    47
 10
28.670435
 20
-93.633003
 11
72.303767
 21
-93.633003
  0
LINE
  8
型材断面
  6
CONTINUOUS
 62
    47
 10
28.103767
 20
-93.116335
 11
72.303767
 21
-93.116335
  0
LINE
  8
型材断面
  6
CONTINUOUS
 10
28.044902
 20
-90.924137
 11
58.970437
 21
-59.998605
  0
LINE
  8
型材断面
  6
CONTINUOUS
 10
28.829725
 20
-90.983003
 11
58.298107
 21
-61.51462
  0
LINE
  8
型材断面
  6
CONTINUOUS
 10
60.7313
 20
-61.115075
 11
72.303767
 21
-61.115075
  0
LINE
  8
型材断面
  6
CONTINUOUS
 10
58.704832
 20
-61.177675
 11
72.303767
 21
-61.177675
  0
LINE
  8
型材断面
  6
CONTINUOUS
 10
58.970437
 20
-59.998605
 11
72.303767
 21
-59.998605
  0
LINE
  8
型材断面
  6
CONTINUOUS
 62
    47
 10
116.503767
 20
-90.983003
 11
116.503767
 21
-93.116335
  0
LINE
  8
型材断面
  6
CONTINUOUS
 10
116.503767
 20
-90.983003
 11
116.562632
 21
-90.924137
  0
LINE
  8
型材断面
  6
CONTINUOUS
 62
    47
 10
115.9371
 20
-93.116335
 11
115.9371
 21
-93.633003
  0
LINE
  8
型材断面
  6
CONTINUOUS
 10
116.503767
 20
-90.983003
 11
72.303767
 21
-90.983003
  0
LINE
  8
型材断面
  6
CONTINUOUS
 62
    47
 10
115.9371
 20
-93.633003
 11
72.303767
 21
-93.633003
  0
LINE
  8
型材断面
  6
CONTINUOUS
 62
    47
 10
116.503767
 20
-93.116335
 11
72.303767
 21
-93.116335
  0
LINE
  8
型材断面
  6
CONTINUOUS
 10
116.562632
 20
-90.924137
 11
85.637097
 21
-59.998605
  0
LINE
  8
型材断面
  6
CONTINUOUS
 10
115.77781
 20
-90.983003
 11
86.309427
 21
-61.51462
  0
LINE
  8
型材断面
  6
CONTINUOUS
 10
83.876235
 20
-61.115075
 11
72.303767
 21
-61.115075
  0
LINE
  8
型材断面
  6
CONTINUOUS
 10
85.902702
 20
-61.177675
 11
72.303767
 21
-61.177675
  0
LINE
  8
型材断面
  6
CONTINUOUS
 10
85.637097
 20
-59.998605
 11
72.303767
 21
-59.998605
  0
LINE
  8
型材断面
  6
DOT
 62
    47
 10
28.103767
 20
-75.983003
 11
28.103767
 21
-78.116335
  0
LINE
  8
型材断面
  6
DOT
 10
28.103767
 20
-75.983003
 11
28.044902
 21
-75.924137
  0
LINE
  8
型材断面
  6
DOT
 62
    47
 10
28.670435
 20
-78.116335
 11
28.670435
 21
-78.633003
  0
LINE
  8
型材断面
  6
DOT
 10
28.103767
 20
-75.983003
 11
72.303767
 21
-75.983003
  0
LINE
  8
型材断面
  6
DOT
 62
    47
 10
28.670435
 20
-78.633003
 11
72.303767
 21
-78.633003
  0
LINE
  8
型材断面
  6
DOT
 62
    47
 10
28.103767
 20
-78.116335
 11
72.303767
 21
-78.116335
  0
LINE
  8
型材断面
  6
DOT
 10
28.044902
 20
-75.924137
 11
58.970437
 21
-44.998605
  0
LINE
  8
型材断面
  6
DOT
 10
28.829725
 20
-75.983003
 11
58.298107
 21
-46.51462
  0
LINE
  8
型材断面
  6
DOT
 10
60.7313
 20
-46.115075
 11
72.303767
 21
-46.115075
  0
LINE
  8
型材断面
  6
DOT
 10
58.704832
 20
-46.177675
 11
72.303767
 21
-46.177675
  0
LINE
  8
型材断面
  6
DOT
 10
58.970437
 20
-44.998605
 11
72.303767
 21
-44.998605
  0
LINE
  8
型材断面
  6
DOT
 62
    47
 10
116.503767
 20
-75.983003
 11
116.503767
 21
-78.116335
  0
LINE
  8
型材断面
  6
DOT
 10
116.503767
 20
-75.983003
 11
116.562632
 21
-75.924137
  0
LINE
  8
型材断面
  6
DOT
 62
    47
 10
115.9371
 20
-78.116335
 11
115.9371
 21
-78.633003
  0
LINE
  8
型材断面
  6
DOT
 10
116.503767
 20
-75.983003
 11
72.303767
 21
-75.983003
  0
LINE
  8
型材断面
  6
DOT
 62
    47
 10
115.9371
 20
-78.633003
 11
72.303767
 21
-78.633003
  0
LINE
  8
型材断面
  6
DOT
 62
    47
 10
116.503767
 20
-78.116335
 11
72.303767
 21
-78.116335
  0
LINE
  8
型材断面
  6
DOT
 10
116.562632
 20
-75.924137
 11
85.637097
 21
-44.998605
  0
LINE
  8
型材断面
  6
DOT
 10
115.77781
 20
-75.983003
 11
86.309427
 21
-46.51462
  0
LINE
  8
型材断面
  6
DOT
 10
83.876235
 20
-46.115075
 11
72.303767
 21
-46.115075
  0
LINE
  8
型材断面
  6
DOT
 10
85.902702
 20
-46.177675
 11
72.303767
 21
-46.177675
  0
LINE
  8
型材断面
  6
DOT
 10
85.637097
 20
-44.998605
 11
72.303767
 21
-44.998605
  0
INSERT
  2
*GRP_0032
  8
型材断面
  6
DOT
 10
0.0
 20
0.0
  0
INSERT
  2
*GRP_0033
  8
型材断面
  6
DOT
 10
0.0
 20
0.0
  0
INSERT
  2
*GRP_0034
  8
型材断面
  6
DOT
 10
0.0
 20
0.0
  0
INSERT
  2
*GRP_0035
  8
型材断面
  6
DOT
 10
0.0
 20
0.0
  0
LINE
  8
型材断面
  6
DOT
 10
-37.590465
 20
73.444522
 11
-37.590465
 21
23.511188
  0
LINE
  8
型材断面
  6
DOT
 10
-36.257132
 20
73.444522
 11
-36.257132
 21
23.511188
  0
LINE
  8
型材断面
  6
DOT
 10
-107.388675
 20
73.444522
 11
-107.388675
 21
23.511188
  0
LINE
  8
型材断面
  6
DOT
 10
-108.722008
 20
73.444522
 11
-108.722008
 21
23.511188
  0
LINE
  8
型材断面
  6
CONTINUOUS
 10
-27.140327
 20
25.511188
 11
-24.54982
 21
26.107245
  0
LINE
  8
型材断面
  6
CONTINUOUS
 10
-27.140327
 20
25.511188
 11
-24.54982
 21
24.91513
  0
LINE
  8
型材断面
  6
CONTINUOUS
 10
-24.54982
 20
24.91513
 11
-24.54982
 21
26.107245
  0
LINE
  8
型材断面
  6
CONTINUOUS
 10
-27.140327
 20
71.444522
 11
-24.54982
 21
70.848465
  0
LINE
  8
型材断面
  6
CONTINUOUS
 10
-27.140327
 20
71.444522
 11
-24.54982
 21
72.04058
  0
LINE
  8
型材断面
  6
CONTINUOUS
 10
-24.54982
 20
72.04058
 11
-24.54982
 21
70.848465
  0
LINE
  8
型材断面
  6
CONTINUOUS
 10
-117.838813
 20
25.511188
 11
-120.42932
 21
26.107245
  0
LINE
  8
型材断面
  6
CONTINUOUS
 10
-117.838813
 20
25.511188
 11
-120.42932
 21
24.91513
  0
LINE
  8
型材断面
  6
CONTINUOUS
 10
-120.42932
 20
24.91513
 11
-120.42932
 21
26.107245
  0
LINE
  8
型材断面
  6
CONTINUOUS
 10
-117.838813
 20
71.444522
 11
-120.42932
 21
70.848465
  0
LINE
  8
型材断面
  6
CONTINUOUS
 10
-117.838813
 20
71.444522
 11
-120.42932
 21
72.04058
  0
LINE
  8
型材断面
  6
CONTINUOUS
 10
-120.42932
 20
72.04058
 11
-120.42932
 21
70.848465
  0
LINE
  8
型材断面
  6
CONTINUOUS
 10
-24.647008
 20
-5.74884
 11
-24.05095
 21
-8.339345
  0
LINE
  8
型材断面
  6
CONTINUOUS
 10
-24.647008
 20
-5.74884
 11
-25.243065
 21
-8.339345
  0
LINE
  8
型材断面
  6
CONTINUOUS
 10
-25.243065
 20
-8.339345
 11
-24.05095
 21
-8.339345
  0
LINE
  8
型材断面
  6
CONTINUOUS
 10
-28.003658
 20
-11.78329
 11
10.071655
 21
-11.78329
  0
LINE
  8
型材断面
  6
DASHDOT
 10
-112.48957
 20
75.144522
 11
-112.48957
 21
-97.643115
  0
LINE
  8
型材断面
  6
DASHDOT
 10
-72.48957
 20
75.144522
 11
-72.48957
 21
-97.643115
  0
LINE
  8
型材断面
  6
DASHDOT
 10
-32.48957
 20
75.144522
 11
-32.48957
 21
-97.643115
  0
LINE
  8
型材断面
  6
CONTINUOUS
 10
-114.752753
 20
-97.516335
 11
-114.752753
 21
-97.853
  0
LINE
  8
型材断面
  6
CONTINUOUS
 10
-115.252753
 20
-97.516335
 11
-115.252753
 21
-93.633003
  0
LINE
  8
型材断面
  6
CONTINUOUS
 10
-115.252753
 20
-97.516335
 11
-72.48957
 21
-97.516335
  0
LINE
  8
型材断面
  6
CONTINUOUS
 10
-114.752753
 20
-97.853
 11
-72.48957
 21
-97.853
  0
LINE
  8
型材断面
  6
CONTINUOUS
 10
-30.226387
 20
-97.516335
 11
-30.226387
 21
-97.853
  0
LINE
  8
型材断面
  6
CONTINUOUS
 10
-29.726387
 20
-97.516335
 11
-29.726387
 21
-93.633003
  0
LINE
  8
型材断面
  6
CONTINUOUS
 10
-29.726387
 20
-97.516335
 11
-72.48957
 21
-97.516335
  0
LINE
  8
型材断面
  6
CONTINUOUS
 10
-30.226387
 20
-97.853
 11
-72.48957
 21
-97.853
  0
LINE
  8
型材断面
  6
CONTINUOUS
 10
30.040585
 20
-97.516335
 11
30.040585
 21
-97.853
  0
LINE
  8
型材断面
  6
CONTINUOUS
 10
29.540585
 20
-97.516335
 11
29.540585
 21
-93.633003
  0
LINE
  8
型材断面
  6
CONTINUOUS
 10
29.540585
 20
-97.516335
 11
72.303767
 21
-97.516335
  0
LINE
  8
型材断面
  6
CONTINUOUS
 10
30.040585
 20
-97.853
 11
72.303767
 21
-97.853
  0
LINE
  8
型材断面
  6
CONTINUOUS
 10
114.56695
 20
-97.516335
 11
114.56695
 21
-97.853
  0
LINE
  8
型材断面
  6
CONTINUOUS
 10
115.06695
 20
-97.516335
 11
115.06695
 21
-93.633003
  0
LINE
  8
型材断面
  6
CONTINUOUS
 10
115.06695
 20
-97.516335
 11
72.303767
 21
-97.516335
  0
LINE
  8
型材断面
  6
CONTINUOUS
 10
114.56695
 20
-97.853
 11
72.303767
 21
-97.853
  0
LINE
  8
型材断面
  6
DASHDOT
 10
62.528025
 20
21.811188
 11
-112.48957
 21
21.811188
  0
LINE
  8
型材断面
  6
DASHDOT
 10
62.528025
 20
48.477855
 11
-112.48957
 21
48.477855
  0
LINE
  8
型材断面
  6
DASHDOT
 10
62.528025
 20
75.144522
 11
-112.48957
 21
75.144522
  0
LINE
  8
型材断面
  6
CONTINUOUS
 10
62.401245
 20
19.548005
 11
62.73791
 21
19.548005
  0
LINE
  8
型材断面
  6
CONTINUOUS
 10
62.401245
 20
19.048005
 11
58.517913
 21
19.048005
  0
LINE
  8
型材断面
  6
CONTINUOUS
 10
62.73791
 20
19.548005
 11
62.73791
 21
48.477855
  0
LINE
  8
型材断面
  6
CONTINUOUS
 10
62.401245
 20
19.048005
 11
62.401245
 21
48.477855
  0
LINE
  8
型材断面
  6
CONTINUOUS
 10
62.401245
 20
77.407705
 11
62.73791
 21
77.407705
  0
LINE
  8
型材断面
  6
CONTINUOUS
 10
62.401245
 20
77.907705
 11
58.517913
 21
77.907705
  0
LINE
  8
型材断面
  6
CONTINUOUS
 10
62.73791
 20
77.407705
 11
62.73791
 21
48.477855
  0
LINE
  8
型材断面
  6
CONTINUOUS
 10
62.401245
 20
77.907705
 11
62.401245
 21
48.477855
  0
LINE
  8
ゴム等
  6
CONTINUOUS
 10
54.76141
 20
21.693385
 11
55.097307
 21
20.38622
  0
LINE
  8
ゴム等
  6
CONTINUOUS
 10
55.097307
 20
20.38622
 11
55.149028
 21
20.14704
  0
LINE
  8
ゴム等
  6
CONTINUOUS
 10
55.149028
 20
20.14704
 11
55.867913
 21
18.337145
  0
LINE
  8
ゴム等
  6
CONTINUOUS
 10
-112.641972
 20
19.072068
 11
-113.91463
 21
18.431708
  0
LINE
  8
ゴム等
  6
CONTINUOUS
 10
-113.91463
 20
18.431708
 11
-114.100115
 21
18.315933
  0
LINE
  8
ゴム等
  6
CONTINUOUS
 10
-114.1538
 20
18.30651
 11
-115.898605
 21
17.611188
  0
LINE
  8
ゴム等
  6
CONTINUOUS
 10
-115.228683
 20
21.658777
 11
-115.869045
 21
20.386123
  0
LINE
  8
ゴム等
  6
CONTINUOUS
 10
-115.869045
 20
20.386123
 11
-115.984818
 21
20.200638
  0
LINE
  8
ゴム等
  6
CONTINUOUS
 10
-115.99424
 20
20.146953
 11
-116.689563
 21
18.402147
  0
LINE
  8
ゴム等
  6
CONTINUOUS
 10
-114.1538
 20
18.30651
 11
-72.48957
 21
18.30651
  0
LINE
  8
ゴム等
  6
CONTINUOUS
 10
-113.91463
 20
18.431708
 11
-72.48957
 21
18.431708
  0
LINE
  8
ゴム等
  6
CONTINUOUS
 10
-73.022902
 20
18.431708
 11
-73.73957
 21
19.072068
  0
LINE
  8
ゴム等
  6
CONTINUOUS
 10
-112.641972
 20
19.072068
 11
-73.73957
 21
19.072068
  0
LINE
  8
ゴム等
  6
CONTINUOUS
 10
55.149028
 20
20.14704
 11
26.81821
 21
48.477855
  0
LINE
  8
ゴム等
  6
CONTINUOUS
 10
55.097307
 20
20.38622
 11
27.00567
 21
48.477855
  0
LINE
  8
ゴム等
  6
CONTINUOUS
 10
54.76141
 20
21.693385
 11
27.976937
 21
48.477855
  0
LINE
  8
ゴム等
  6
CONTINUOUS
 10
54.76141
 20
21.693385
 11
54.76141
 21
48.477855
  0
LINE
  8
ゴム等
  6
CONTINUOUS
 10
55.149028
 20
20.14704
 11
55.149028
 21
48.477855
  0
LINE
  8
ゴム等
  6
CONTINUOUS
 10
54.76141
 20
75.262325
 11
55.097307
 21
76.56949
  0
LINE
  8
ゴム等
  6
CONTINUOUS
 10
55.097307
 20
76.56949
 11
55.149028
 21
76.80867
  0
LINE
  8
ゴム等
  6
CONTINUOUS
 10
55.149028
 20
76.80867
 11
55.867913
 21
78.618565
  0
LINE
  8
ゴム等
  6
CONTINUOUS
 10
55.149028
 20
76.80867
 11
26.81821
 21
48.477855
  0
LINE
  8
ゴム等
  6
CONTINUOUS
 10
55.097307
 20
76.56949
 11
27.00567
 21
48.477855
  0
LINE
  8
ゴム等
  6
CONTINUOUS
 10
54.76141
 20
75.262325
 11
27.976937
 21
48.477855
  0
LINE
  8
ゴム等
  6
CONTINUOUS
 10
54.76141
 20
75.262325
 11
54.76141
 21
48.477855
  0
LINE
  8
ゴム等
  6
CONTINUOUS
 10
55.149028
 20
76.80867
 11
55.149028
 21
48.477855
  0
LINE
  8
ゴム等
  6
CONTINUOUS
 10
-115.869045
 20
20.386123
 11
-115.869045
 21
48.477855
  0
LINE
  8
ゴム等
  6
CONTINUOUS
 10
-115.99424
 20
20.146953
 11
-115.99424
 21
48.477855
  0
LINE
  8
ゴム等
  6
CONTINUOUS
 10
-115.228683
 20
21.658777
 11
-115.228683
 21
48.477855
  0
LINE
  8
ゴム等
  6
CONTINUOUS
 10
-86.080785
 20
47.282845
 11
-84.061965
 21
47.282845
  0
LINE
  8
ゴム等
  6
CONTINUOUS
 10
-84.061965
 20
47.282845
 11
-84.061965
 21
48.477855
  0
LINE
  8
ゴム等
  6
CONTINUOUS
 10
-115.228683
 20
21.658777
 11
-88.409605
 21
48.477855
  0
LINE
  8
ゴム等
  6
CONTINUOUS
 10
-115.869045
 20
20.386123
 11
-87.77731
 21
48.477855
  0
LINE
  8
ゴム等
  6
CONTINUOUS
 10
-115.99424
 20
20.146953
 11
-87.663335
 21
48.477855
  0
LINE
  8
ゴム等
  6
CONTINUOUS
 10
-113.91463
 20
18.431708
 11
-85.58602
 21
46.760315
  0
LINE
  8
ゴム等
  6
CONTINUOUS
 10
-114.1538
 20
18.30651
 11
-85.639678
 21
46.82063
  0
LINE
  8
ゴム等
  6
CONTINUOUS
 10
-112.641972
 20
19.072068
 11
-85.28805
 21
46.42599
  0
LINE
  8
ゴム等
  6
CONTINUOUS
 10
-73.022902
 20
18.431708
 11
-73.022902
 21
47.362808
  0
LINE
  8
ゴム等
  6
CONTINUOUS
 10
-73.73957
 20
19.072068
 11
-73.73957
 21
46.42599
  0
LINE
  8
ゴム等
  6
CONTINUOUS
 10
-85.58602
 20
46.760315
 11
-73.022902
 21
46.760315
  0
LINE
  8
ゴム等
  6
CONTINUOUS
 10
-85.639678
 20
46.82063
 11
-73.022902
 21
46.82063
  0
LINE
  8
ゴム等
  6
CONTINUOUS
 10
-85.28805
 20
46.42599
 11
-73.73957
 21
46.42599
  0
LINE
  8
ゴム等
  6
CONTINUOUS
 10
-112.641972
 20
77.883642
 11
-113.91463
 21
78.524002
  0
LINE
  8
ゴム等
  6
CONTINUOUS
 10
-113.91463
 20
78.524002
 11
-114.100115
 21
78.639777
  0
LINE
  8
ゴム等
  6
CONTINUOUS
 10
-114.1538
 20
78.6492
 11
-115.898605
 21
79.344522
  0
LINE
  8
ゴム等
  6
CONTINUOUS
 10
-115.228683
 20
75.296932
 11
-115.869045
 21
76.569587
  0
LINE
  8
ゴム等
  6
CONTINUOUS
 10
-115.869045
 20
76.569587
 11
-115.984818
 21
76.755072
  0
LINE
  8
ゴム等
  6
CONTINUOUS
 10
-115.99424
 20
76.808757
 11
-116.689563
 21
78.553563
  0
LINE
  8
ゴム等
  6
CONTINUOUS
 10
-114.1538
 20
78.6492
 11
-72.48957
 21
78.6492
  0
LINE
  8
ゴム等
  6
CONTINUOUS
 10
-113.91463
 20
78.524002
 11
-72.48957
 21
78.524002
  0
LINE
  8
ゴム等
  6
CONTINUOUS
 10
-73.022902
 20
78.524002
 11
-73.73957
 21
77.883642
  0
LINE
  8
ゴム等
  6
CONTINUOUS
 10
-112.641972
 20
77.883642
 11
-73.73957
 21
77.883642
  0
LINE
  8
ゴム等
  6
CONTINUOUS
 10
-115.869045
 20
76.569587
 11
-115.869045
 21
48.477855
  0
LINE
  8
ゴム等
  6
CONTINUOUS
 10
-115.99424
 20
76.808757
 11
-115.99424
 21
48.477855
  0
LINE
  8
ゴム等
  6
CONTINUOUS
 10
-115.228683
 20
75.296932
 11
-115.228683
 21
48.477855
  0
LINE
  8
ゴム等
  6
CONTINUOUS
 10
-86.080785
 20
49.672865
 11
-84.061965
 21
49.672865
  0
LINE
  8
ゴム等
  6
CONTINUOUS
 10
-84.061965
 20
49.672865
 11
-84.061965
 21
48.477855
  0
LINE
  8
ゴム等
  6
CONTINUOUS
 10
-115.228683
 20
75.296932
 11
-88.409605
 21
48.477855
  0
LINE
  8
ゴム等
  6
CONTINUOUS
 10
-115.869045
 20
76.569587
 11
-87.77731
 21
48.477855
  0
LINE
  8
ゴム等
  6
CONTINUOUS
 10
-115.99424
 20
76.808757
 11
-87.663335
 21
48.477855
  0
LINE
  8
ゴム等
  6
CONTINUOUS
 10
-113.91463
 20
78.524002
 11
-85.58602
 21
50.195395
  0
LINE
  8
ゴム等
  6
CONTINUOUS
 10
-114.1538
 20
78.6492
 11
-85.639678
 21
50.13508
  0
LINE
  8
ゴム等
  6
CONTINUOUS
 10
-112.641972
 20
77.883642
 11
-85.28805
 21
50.52972
  0
LINE
  8
ゴム等
  6
CONTINUOUS
 10
-73.022902
 20
78.524002
 11
-73.022902
 21
49.592902
  0
LINE
  8
ゴム等
  6
CONTINUOUS
 10
-73.73957
 20
77.883642
 11
-73.73957
 21
50.52972
  0
LINE
  8
ゴム等
  6
CONTINUOUS
 10
-85.58602
 20
50.195395
 11
-73.022902
 21
50.195395
  0
LINE
  8
ゴム等
  6
CONTINUOUS
 10
-85.639678
 20
50.13508
 11
-73.022902
 21
50.13508
  0
LINE
  8
ゴム等
  6
CONTINUOUS
 10
-85.28805
 20
50.52972
 11
-73.73957
 21
50.52972
  0
LINE
  8
ゴム等
  6
CONTINUOUS
 10
-32.337168
 20
77.883642
 11
-31.06451
 21
78.524002
  0
LINE
  8
ゴム等
  6
CONTINUOUS
 10
-31.06451
 20
78.524002
 11
-30.879025
 21
78.639777
  0
LINE
  8
ゴム等
  6
CONTINUOUS
 10
-30.82534
 20
78.6492
 11
-29.080535
 21
79.344522
  0
LINE
  8
ゴム等
  6
CONTINUOUS
 10
-29.750457
 20
75.296932
 11
-29.110095
 21
76.569587
  0
LINE
  8
ゴム等
  6
CONTINUOUS
 10
-29.110095
 20
76.569587
 11
-28.994322
 21
76.755072
  0
LINE
  8
ゴム等
  6
CONTINUOUS
 10
-28.9849
 20
76.808757
 11
-28.289577
 21
78.553563
  0
LINE
  8
ゴム等
  6
CONTINUOUS
 10
-30.82534
 20
78.6492
 11
-72.48957
 21
78.6492
  0
LINE
  8
ゴム等
  6
CONTINUOUS
 10
-31.06451
 20
78.524002
 11
-72.48957
 21
78.524002
  0
LINE
  8
ゴム等
  6
CONTINUOUS
 10
-71.956238
 20
78.524002
 11
-71.23957
 21
77.883642
  0
LINE
  8
ゴム等
  6
CONTINUOUS
 10
-32.337168
 20
77.883642
 11
-71.23957
 21
77.883642
  0
LINE
  8
ゴム等
  6
CONTINUOUS
 10
-29.110095
 20
76.569587
 11
-29.110095
 21
48.477855
  0
LINE
  8
ゴム等
  6
CONTINUOUS
 10
-28.9849
 20
76.808757
 11
-28.9849
 21
48.477855
  0
LINE
  8
ゴム等
  6
CONTINUOUS
 10
-29.750457
 20
75.296932
 11
-29.750457
 21
48.477855
  0
LINE
  8
ゴム等
  6
CONTINUOUS
 10
-58.898355
 20
49.672865
 11
-60.917175
 21
49.672865
  0
LINE
  8
ゴム等
  6
CONTINUOUS
 10
-60.917175
 20
49.672865
 11
-60.917175
 21
48.477855
  0
LINE
  8
ゴム等
  6
CONTINUOUS
 10
-29.750457
 20
75.296932
 11
-56.569535
 21
48.477855
  0
LINE
  8
ゴム等
  6
CONTINUOUS
 10
-29.110095
 20
76.569587
 11
-57.20183
 21
48.477855
  0
LINE
  8
ゴム等
  6
CONTINUOUS
 10
-28.9849
 20
76.808757
 11
-57.315805
 21
48.477855
  0
LINE
  8
ゴム等
  6
CONTINUOUS
 10
-31.06451
 20
78.524002
 11
-59.39312
 21
50.195395
  0
LINE
  8
ゴム等
  6
CONTINUOUS
 10
-30.82534
 20
78.6492
 11
-59.339462
 21
50.13508
  0
LINE
  8
ゴム等
  6
CONTINUOUS
 10
-32.337168
 20
77.883642
 11
-59.69109
 21
50.52972
  0
LINE
  8
ゴム等
  6
CONTINUOUS
 10
-71.956238
 20
78.524002
 11
-71.956238
 21
49.592902
  0
LINE
  8
ゴム等
  6
CONTINUOUS
 10
-71.23957
 20
77.883642
 11
-71.23957
 21
50.52972
  0
LINE
  8
ゴム等
  6
CONTINUOUS
 10
-59.39312
 20
50.195395
 11
-71.956238
 21
50.195395
  0
LINE
  8
ゴム等
  6
CONTINUOUS
 10
-59.339462
 20
50.13508
 11
-71.956238
 21
50.13508
  0
LINE
  8
ゴム等
  6
CONTINUOUS
 10
-59.69109
 20
50.52972
 11
-71.23957
 21
50.52972
  0
LINE
  8
ゴム等
  6
CONTINUOUS
 10
-32.337168
 20
19.072068
 11
-31.06451
 21
18.431708
  0
LINE
  8
ゴム等
  6
CONTINUOUS
 10
-31.06451
 20
18.431708
 11
-30.879025
 21
18.315933
  0
LINE
  8
ゴム等
  6
CONTINUOUS
 10
-30.82534
 20
18.30651
 11
-29.080535
 21
17.611188
  0
LINE
  8
ゴム等
  6
CONTINUOUS
 10
-29.750457
 20
21.658777
 11
-29.110095
 21
20.386123
  0
LINE
  8
ゴム等
  6
CONTINUOUS
 10
-29.110095
 20
20.386123
 11
-28.994322
 21
20.200638
  0
LINE
  8
ゴム等
  6
CONTINUOUS
 10
-28.9849
 20
20.146953
 11
-28.289577
 21
18.402147
  0
LINE
  8
ゴム等
  6
CONTINUOUS
 10
-30.82534
 20
18.30651
 11
-72.48957
 21
18.30651
  0
LINE
  8
ゴム等
  6
CONTINUOUS
 10
-31.06451
 20
18.431708
 11
-72.48957
 21
18.431708
  0
LINE
  8
ゴム等
  6
CONTINUOUS
 10
-71.956238
 20
18.431708
 11
-71.23957
 21
19.072068
  0
LINE
  8
ゴム等
  6
CONTINUOUS
 10
-32.337168
 20
19.072068
 11
-71.23957
 21
19.072068
  0
LINE
  8
ゴム等
  6
CONTINUOUS
 10
-29.110095
 20
20.386123
 11
-29.110095
 21
48.477855
  0
LINE
  8
ゴム等
  6
CONTINUOUS
 10
-28.9849
 20
20.146953
 11
-28.9849
 21
48.477855
  0
LINE
  8
ゴム等
  6
CONTINUOUS
 10
-29.750457
 20
21.658777
 11
-29.750457
 21
48.477855
  0
LINE
  8
ゴム等
  6
CONTINUOUS
 10
-58.898355
 20
47.282845
 11
-60.917175
 21
47.282845
  0
LINE
  8
ゴム等
  6
CONTINUOUS
 10
-60.917175
 20
47.282845
 11
-60.917175
 21
48.477855
  0
LINE
  8
ゴム等
  6
CONTINUOUS
 10
-29.750457
 20
21.658777
 11
-56.569535
 21
48.477855
  0
LINE
  8
ゴム等
  6
CONTINUOUS
 10
-29.110095
 20
20.386123
 11
-57.20183
 21
48.477855
  0
LINE
  8
ゴム等
  6
CONTINUOUS
 10
-28.9849
 20
20.146953
 11
-57.315805
 21
48.477855
  0
LINE
  8
ゴム等
  6
CONTINUOUS
 10
-31.06451
 20
18.431708
 11
-59.39312
 21
46.760315
  0
LINE
  8
ゴム等
  6
CONTINUOUS
 10
-30.82534
 20
18.30651
 11
-59.339462
 21
46.82063
  0
LINE
  8
ゴム等
  6
CONTINUOUS
 10
-32.337168
 20
19.072068
 11
-59.69109
 21
46.42599
  0
LINE
  8
ゴム等
  6
CONTINUOUS
 10
-71.956238
 20
18.431708
 11
-71.956238
 21
47.362808
  0
LINE
  8
ゴム等
  6
CONTINUOUS
 10
-71.23957
 20
19.072068
 11
-71.23957
 21
46.42599
  0
LINE
  8
ゴム等
  6
CONTINUOUS
 10
-59.39312
 20
46.760315
 11
-71.956238
 21
46.760315
  0
LINE
  8
ゴム等
  6
CONTINUOUS
 10
-59.339462
 20
46.82063
 11
-71.956238
 21
46.82063
  0
LINE
  8
ゴム等
  6
CONTINUOUS
 10
-59.69109
 20
46.42599
 11
-71.23957
 21
46.42599
  0
LINE
  8
ゴム等
  6
CONTINUOUS
 10
-112.60737
 20
-89.876497
 11
-113.914535
 21
-90.212395
  0
LINE
  8
ゴム等
  6
CONTINUOUS
 10
-113.914535
 20
-90.212395
 11
-114.153718
 21
-90.264115
  0
LINE
  8
ゴム等
  6
CONTINUOUS
 10
-114.153718
 20
-90.264115
 11
-115.963613
 21
-90.983003
  0
LINE
  8
ゴム等
  6
CONTINUOUS
 10
-113.914535
 20
-90.212395
 11
-72.48957
 21
-90.212395
  0
LINE
  8
ゴム等
  6
CONTINUOUS
 10
-114.153718
 20
-90.264115
 11
-72.48957
 21
-90.264115
  0
LINE
  8
ゴム等
  6
CONTINUOUS
 10
-73.022902
 20
-90.212395
 11
-73.73957
 21
-89.876497
  0
LINE
  8
ゴム等
  6
CONTINUOUS
 10
-112.60737
 20
-89.876497
 11
-73.73957
 21
-89.876497
  0
LINE
  8
ゴム等
  6
CONTINUOUS
 10
-85.728705
 20
-59.880755
 11
-84.062038
 21
-59.880755
  0
LINE
  8
ゴム等
  6
CONTINUOUS
 10
-84.062038
 20
-59.880755
 11
-84.062038
 21
-61.122905
  0
LINE
  8
ゴム等
  6
CONTINUOUS
 10
-85.986595
 20
-61.075765
 11
-84.062038
 21
-61.075765
  0
LINE
  8
ゴム等
  6
CONTINUOUS
 10
-84.062038
 20
-61.122905
 11
-86.033735
 21
-61.122905
  0
LINE
  8
ゴム等
  6
CONTINUOUS
 10
-87.362572
 20
-61.51462
 11
-86.425453
 21
-61.51462
  0
LINE
  8
ゴム等
  6
CONTINUOUS
 10
-87.362572
 20
-61.51462
 11
-85.728705
 21
-59.880755
  0
LINE
  8
ゴム等
  6
CONTINUOUS
 10
-86.425453
 20
-61.51462
 11
-85.986595
 21
-61.075765
  0
LINE
  8
ゴム等
  6
CONTINUOUS
 10
-85.769582
 20
-61.879918
 11
-85.693303
 21
-61.991097
  0
LINE
  8
ゴム等
  6
CONTINUOUS
 10
-85.693303
 20
-61.991097
 11
-85.365925
 21
-62.63499
  0
LINE
  8
ゴム等
  6
CONTINUOUS
 10
-85.769582
 20
-61.879918
 11
-86.13346
 21
-61.22263
  0
LINE
  8
ゴム等
  6
CONTINUOUS
 10
-114.153718
 20
-90.264115
 11
-85.756467
 21
-61.866865
  0
LINE
  8
ゴム等
  6
CONTINUOUS
 10
-113.914535
 20
-90.212395
 11
-85.693282
 21
-61.991137
  0
LINE
  8
ゴム等
  6
CONTINUOUS
 10
-112.60737
 20
-89.876497
 11
-85.365905
 21
-62.635033
  0
LINE
  8
ゴム等
  6
CONTINUOUS
 10
-73.022902
 20
-90.212395
 11
-73.022902
 21
-61.177675
  0
LINE
  8
ゴム等
  6
CONTINUOUS
 10
-73.73957
 20
-89.876497
 11
-73.73957
 21
-62.63499
  0
LINE
  8
ゴム等
  6
CONTINUOUS
 10
-85.365925
 20
-62.63499
 11
-73.73957
 21
-62.63499
  0
LINE
  8
ゴム等
  6
CONTINUOUS
 10
-85.769582
 20
-61.879918
 11
-73.022902
 21
-61.879918
  0
LINE
  8
ゴム等
  6
CONTINUOUS
 10
-85.693303
 20
-61.991097
 11
-73.022902
 21
-61.991097
  0
LINE
  8
ゴム等
  6
CONTINUOUS
 10
-32.37177
 20
-89.876497
 11
-31.064605
 21
-90.212395
  0
LINE
  8
ゴム等
  6
CONTINUOUS
 10
-31.064605
 20
-90.212395
 11
-30.825422
 21
-90.264115
  0
LINE
  8
ゴム等
  6
CONTINUOUS
 10
-30.825422
 20
-90.264115
 11
-29.015528
 21
-90.983003
  0
LINE
  8
ゴム等
  6
CONTINUOUS
 10
-31.064605
 20
-90.212395
 11
-72.48957
 21
-90.212395
  0
LINE
  8
ゴム等
  6
CONTINUOUS
 10
-30.825422
 20
-90.264115
 11
-72.48957
 21
-90.264115
  0
LINE
  8
ゴム等
  6
CONTINUOUS
 10
-71.956238
 20
-90.212395
 11
-71.23957
 21
-89.876497
  0
LINE
  8
ゴム等
  6
CONTINUOUS
 10
-32.37177
 20
-89.876497
 11
-71.23957
 21
-89.876497
  0
LINE
  8
ゴム等
  6
CONTINUOUS
 10
-59.250435
 20
-59.880755
 11
-60.917102
 21
-59.880755
  0
LINE
  8
ゴム等
  6
CONTINUOUS
 10
-60.917102
 20
-59.880755
 11
-60.917102
 21
-61.122905
  0
LINE
  8
ゴム等
  6
CONTINUOUS
 10
-58.992545
 20
-61.075765
 11
-60.917102
 21
-61.075765
  0
LINE
  8
ゴム等
  6
CONTINUOUS
 10
-60.917102
 20
-61.122905
 11
-58.945405
 21
-61.122905
  0
LINE
  8
ゴム等
  6
CONTINUOUS
 10
-57.616568
 20
-61.51462
 11
-58.553687
 21
-61.51462
  0
LINE
  8
ゴム等
  6
CONTINUOUS
 10
-57.616568
 20
-61.51462
 11
-59.250435
 21
-59.880755
  0
LINE
  8
ゴム等
  6
CONTINUOUS
 10
-58.553687
 20
-61.51462
 11
-58.992545
 21
-61.075765
  0
LINE
  8
ゴム等
  6
CONTINUOUS
 10
-59.209558
 20
-61.879918
 11
-59.285837
 21
-61.991097
  0
LINE
  8
ゴム等
  6
CONTINUOUS
 10
-59.285837
 20
-61.991097
 11
-59.613215
 21
-62.63499
  0
LINE
  8
ゴム等
  6
CONTINUOUS
 10
-59.209558
 20
-61.879918
 11
-58.84568
 21
-61.22263
  0
LINE
  8
ゴム等
  6
CONTINUOUS
 10
-30.825422
 20
-90.264115
 11
-59.222673
 21
-61.866865
  0
LINE
  8
ゴム等
  6
CONTINUOUS
 10
-31.064605
 20
-90.212395
 11
-59.285858
 21
-61.991137
  0
LINE
  8
ゴム等
  6
CONTINUOUS
 10
-32.37177
 20
-89.876497
 11
-59.613235
 21
-62.635033
  0
LINE
  8
ゴム等
  6
CONTINUOUS
 10
-71.956238
 20
-90.212395
 11
-71.956238
 21
-61.177675
  0
LINE
  8
ゴム等
  6
CONTINUOUS
 10
-71.23957
 20
-89.876497
 11
-71.23957
 21
-62.63499
  0
LINE
  8
ゴム等
  6
CONTINUOUS
 10
-59.613215
 20
-62.63499
 11
-71.23957
 21
-62.63499
  0
LINE
  8
ゴム等
  6
CONTINUOUS
 10
-59.209558
 20
-61.879918
 11
-71.956238
 21
-61.879918
  0
LINE
  8
ゴム等
  6
CONTINUOUS
 10
-59.285837
 20
-61.991097
 11
-71.956238
 21
-61.991097
  0
LINE
  8
ゴム等
  6
CONTINUOUS
 10
32.185967
 20
-89.876497
 11
30.878802
 21
-90.212395
  0
LINE
  8
ゴム等
  6
CONTINUOUS
 10
30.878802
 20
-90.212395
 11
30.63962
 21
-90.264115
  0
LINE
  8
ゴム等
  6
CONTINUOUS
 10
30.63962
 20
-90.264115
 11
28.829725
 21
-90.983003
  0
LINE
  8
ゴム等
  6
CONTINUOUS
 10
30.878802
 20
-90.212395
 11
72.303767
 21
-90.212395
  0
LINE
  8
ゴム等
  6
CONTINUOUS
 10
30.63962
 20
-90.264115
 11
72.303767
 21
-90.264115
  0
LINE
  8
ゴム等
  6
CONTINUOUS
 10
71.770435
 20
-90.212395
 11
71.053767
 21
-89.876497
  0
LINE
  8
ゴム等
  6
CONTINUOUS
 10
32.185967
 20
-89.876497
 11
71.053767
 21
-89.876497
  0
LINE
  8
ゴム等
  6
CONTINUOUS
 10
59.064632
 20
-59.880755
 11
60.7313
 21
-59.880755
  0
LINE
  8
ゴム等
  6
CONTINUOUS
 10
60.7313
 20
-59.880755
 11
60.7313
 21
-61.122905
  0
LINE
  8
ゴム等
  6
CONTINUOUS
 10
58.806742
 20
-61.075765
 11
60.7313
 21
-61.075765
  0
LINE
  8
ゴム等
  6
CONTINUOUS
 10
60.7313
 20
-61.122905
 11
58.759603
 21
-61.122905
  0
LINE
  8
ゴム等
  6
CONTINUOUS
 10
57.430765
 20
-61.51462
 11
58.367885
 21
-61.51462
  0
LINE
  8
ゴム等
  6
CONTINUOUS
 10
57.430765
 20
-61.51462
 11
59.064632
 21
-59.880755
  0
LINE
  8
ゴム等
  6
CONTINUOUS
 10
58.367885
 20
-61.51462
 11
58.806742
 21
-61.075765
  0
LINE
  8
ゴム等
  6
CONTINUOUS
 10
59.023755
 20
-61.879918
 11
59.100035
 21
-61.991097
  0
LINE
  8
ゴム等
  6
CONTINUOUS
 10
59.100035
 20
-61.991097
 11
59.427412
 21
-62.63499
  0
LINE
  8
ゴム等
  6
CONTINUOUS
 10
59.023755
 20
-61.879918
 11
58.659878
 21
-61.22263
  0
LINE
  8
ゴム等
  6
CONTINUOUS
 10
30.63962
 20
-90.264115
 11
59.03687
 21
-61.866865
  0
LINE
  8
ゴム等
  6
CONTINUOUS
 10
30.878802
 20
-90.212395
 11
59.100055
 21
-61.991137
  0
LINE
  8
ゴム等
  6
CONTINUOUS
 10
32.185967
 20
-89.876497
 11
59.427433
 21
-62.635033
  0
LINE
  8
ゴム等
  6
CONTINUOUS
 10
71.770435
 20
-90.212395
 11
71.770435
 21
-61.177675
  0
LINE
  8
ゴム等
  6
CONTINUOUS
 10
71.053767
 20
-89.876497
 11
71.053767
 21
-62.63499
  0
LINE
  8
ゴム等
  6
CONTINUOUS
 10
59.427412
 20
-62.63499
 11
71.053767
 21
-62.63499
  0
LINE
  8
ゴム等
  6
CONTINUOUS
 10
59.023755
 20
-61.879918
 11
71.770435
 21
-61.879918
  0
LINE
  8
ゴム等
  6
CONTINUOUS
 10
59.100035
 20
-61.991097
 11
71.770435
 21
-61.991097
  0
LINE
  8
ゴム等
  6
CONTINUOUS
 10
112.421567
 20
-89.876497
 11
113.728732
 21
-90.212395
  0
LINE
  8
ゴム等
  6
CONTINUOUS
 10
113.728732
 20
-90.212395
 11
113.967915
 21
-90.264115
  0
LINE
  8
ゴム等
  6
CONTINUOUS
 10
113.967915
 20
-90.264115
 11
115.77781
 21
-90.983003
  0
LINE
  8
ゴム等
  6
CONTINUOUS
 10
113.728732
 20
-90.212395
 11
72.303767
 21
-90.212395
  0
LINE
  8
ゴム等
  6
CONTINUOUS
 10
113.967915
 20
-90.264115
 11
72.303767
 21
-90.264115
  0
LINE
  8
ゴム等
  6
CONTINUOUS
 10
72.8371
 20
-90.212395
 11
73.553767
 21
-89.876497
  0
LINE
  8
ゴム等
  6
CONTINUOUS
 10
112.421567
 20
-89.876497
 11
73.553767
 21
-89.876497
  0
LINE
  8
ゴム等
  6
CONTINUOUS
 10
85.542902
 20
-59.880755
 11
83.876235
 21
-59.880755
  0
LINE
  8
ゴム等
  6
CONTINUOUS
 10
83.876235
 20
-59.880755
 11
83.876235
 21
-61.122905
  0
LINE
  8
ゴム等
  6
CONTINUOUS
 10
85.800792
 20
-61.075765
 11
83.876235
 21
-61.075765
  0
LINE
  8
ゴム等
  6
CONTINUOUS
 10
83.876235
 20
-61.122905
 11
85.847933
 21
-61.122905
  0
LINE
  8
ゴム等
  6
CONTINUOUS
 10
87.17677
 20
-61.51462
 11
86.23965
 21
-61.51462
  0
LINE
  8
ゴム等
  6
CONTINUOUS
 10
87.17677
 20
-61.51462
 11
85.542902
 21
-59.880755
  0
LINE
  8
ゴム等
  6
CONTINUOUS
 10
86.23965
 20
-61.51462
 11
85.800792
 21
-61.075765
  0
LINE
  8
ゴム等
  6
CONTINUOUS
 10
85.58378
 20
-61.879918
 11
85.5075
 21
-61.991097
  0
LINE
  8
ゴム等
  6
CONTINUOUS
 10
85.5075
 20
-61.991097
 11
85.180122
 21
-62.63499
  0
LINE
  8
ゴム等
  6
CONTINUOUS
 10
85.58378
 20
-61.879918
 11
85.947658
 21
-61.22263
  0
LINE
  8
ゴム等
  6
CONTINUOUS
 10
113.967915
 20
-90.264115
 11
85.570665
 21
-61.866865
  0
LINE
  8
ゴム等
  6
CONTINUOUS
 10
113.728732
 20
-90.212395
 11
85.50748
 21
-61.991137
  0
LINE
  8
ゴム等
  6
CONTINUOUS
 10
112.421567
 20
-89.876497
 11
85.180103
 21
-62.635033
  0
LINE
  8
ゴム等
  6
CONTINUOUS
 10
72.8371
 20
-90.212395
 11
72.8371
 21
-61.177675
  0
LINE
  8
ゴム等
  6
CONTINUOUS
 10
73.553767
 20
-89.876497
 11
73.553767
 21
-62.63499
  0
LINE
  8
ゴム等
  6
CONTINUOUS
 10
85.180122
 20
-62.63499
 11
73.553767
 21
-62.63499
  0
LINE
  8
ゴム等
  6
CONTINUOUS
 10
85.58378
 20
-61.879918
 11
72.8371
 21
-61.879918
  0
LINE
  8
ゴム等
  6
CONTINUOUS
 10
85.5075
 20
-61.991097
 11
72.8371
 21
-61.991097
  0
LINE
  8
ゴム等
  6
DOT
 10
32.185967
 20
-74.876497
 11
30.878802
 21
-75.212395
  0
LINE
  8
ゴム等
  6
DOT
 10
30.878802
 20
-75.212395
 11
30.63962
 21
-75.264115
  0
LINE
  8
ゴム等
  6
DOT
 10
30.63962
 20
-75.264115
 11
28.829725
 21
-75.983003
  0
LINE
  8
ゴム等
  6
DOT
 10
30.878802
 20
-75.212395
 11
72.303767
 21
-75.212395
  0
LINE
  8
ゴム等
  6
DOT
 10
30.63962
 20
-75.264115
 11
72.303767
 21
-75.264115
  0
LINE
  8
ゴム等
  6
DOT
 10
71.770435
 20
-75.212395
 11
71.053767
 21
-74.876497
  0
LINE
  8
ゴム等
  6
DOT
 10
32.185967
 20
-74.876497
 11
71.053767
 21
-74.876497
  0
LINE
  8
ゴム等
  6
DOT
 10
59.064632
 20
-44.880755
 11
60.7313
 21
-44.880755
  0
LINE
  8
ゴム等
  6
DOT
 10
60.7313
 20
-44.880755
 11
60.7313
 21
-46.122905
  0
LINE
  8
ゴム等
  6
DOT
 10
58.806742
 20
-46.075765
 11
60.7313
 21
-46.075765
  0
LINE
  8
ゴム等
  6
DOT
 10
60.7313
 20
-46.122905
 11
58.759603
 21
-46.122905
  0
LINE
  8
ゴム等
  6
DOT
 10
57.430765
 20
-46.51462
 11
58.367885
 21
-46.51462
  0
LINE
  8
ゴム等
  6
DOT
 10
57.430765
 20
-46.51462
 11
59.064632
 21
-44.880755
  0
LINE
  8
ゴム等
  6
DOT
 10
58.367885
 20
-46.51462
 11
58.806742
 21
-46.075765
  0
LINE
  8
ゴム等
  6
DOT
 10
59.023755
 20
-46.879918
 11
59.100035
 21
-46.991097
  0
LINE
  8
ゴム等
  6
DOT
 10
59.100035
 20
-46.991097
 11
59.427412
 21
-47.63499
  0
LINE
  8
ゴム等
  6
DOT
 10
59.023755
 20
-46.879918
 11
58.659878
 21
-46.22263
  0
LINE
  8
ゴム等
  6
DOT
 10
30.63962
 20
-75.264115
 11
59.03687
 21
-46.866865
  0
LINE
  8
ゴム等
  6
DOT
 10
30.878802
 20
-75.212395
 11
59.100055
 21
-46.991137
  0
LINE
  8
ゴム等
  6
DOT
 10
32.185967
 20
-74.876497
 11
59.427433
 21
-47.635033
  0
LINE
  8
ゴム等
  6
DOT
 10
71.770435
 20
-75.212395
 11
71.770435
 21
-46.177675
  0
LINE
  8
ゴム等
  6
DOT
 10
71.053767
 20
-74.876497
 11
71.053767
 21
-47.63499
  0
LINE
  8
ゴム等
  6
DOT
 10
59.427412
 20
-47.63499
 11
71.053767
 21
-47.63499
  0
LINE
  8
ゴム等
  6
DOT
 10
59.023755
 20
-46.879918
 11
71.770435
 21
-46.879918
  0
LINE
  8
ゴム等
  6
DOT
 10
59.100035
 20
-46.991097
 11
71.770435
 21
-46.991097
  0
LINE
  8
ゴム等
  6
DOT
 10
112.421567
 20
-74.876497
 11
113.728732
 21
-75.212395
  0
LINE
  8
ゴム等
  6
DOT
 10
113.728732
 20
-75.212395
 11
113.967915
 21
-75.264115
  0
LINE
  8
ゴム等
  6
DOT
 10
113.967915
 20
-75.264115
 11
115.77781
 21
-75.983003
  0
LINE
  8
ゴム等
  6
DOT
 10
113.728732
 20
-75.212395
 11
72.303767
 21
-75.212395
  0
LINE
  8
ゴム等
  6
DOT
 10
113.967915
 20
-75.264115
 11
72.303767
 21
-75.264115
  0
LINE
  8
ゴム等
  6
DOT
 10
72.8371
 20
-75.212395
 11
73.553767
 21
-74.876497
  0
LINE
  8
ゴム等
  6
DOT
 10
112.421567
 20
-74.876497
 11
73.553767
 21
-74.876497
  0
LINE
  8
ゴム等
  6
DOT
 10
85.542902
 20
-44.880755
 11
83.876235
 21
-44.880755
  0
LINE
  8
ゴム等
  6
DOT
 10
83.876235
 20
-44.880755
 11
83.876235
 21
-46.122905
  0
LINE
  8
ゴム等
  6
DOT
 10
85.800792
 20
-46.075765
 11
83.876235
 21
-46.075765
  0
LINE
  8
ゴム等
  6
DOT
 10
83.876235
 20
-46.122905
 11
85.847933
 21
-46.122905
  0
LINE
  8
ゴム等
  6
DOT
 10
87.17677
 20
-46.51462
 11
86.23965
 21
-46.51462
  0
LINE
  8
ゴム等
  6
DOT
 10
87.17677
 20
-46.51462
 11
85.542902
 21
-44.880755
  0
LINE
  8
ゴム等
  6
DOT
 10
86.23965
 20
-46.51462
 11
85.800792
 21
-46.075765
  0
LINE
  8
ゴム等
  6
DOT
 10
85.58378
 20
-46.879918
 11
85.5075
 21
-46.991097
  0
LINE
  8
ゴム等
  6
DOT
 10
85.5075
 20
-46.991097
 11
85.180122
 21
-47.63499
  0
LINE
  8
ゴム等
  6
DOT
 10
85.58378
 20
-46.879918
 11
85.947658
 21
-46.22263
  0
LINE
  8
ゴム等
  6
DOT
 10
113.967915
 20
-75.264115
 11
85.570665
 21
-46.866865
  0
LINE
  8
ゴム等
  6
DOT
 10
113.728732
 20
-75.212395
 11
85.50748
 21
-46.991137
  0
LINE
  8
ゴム等
  6
DOT
 10
112.421567
 20
-74.876497
 11
85.180103
 21
-47.635033
  0
LINE
  8
ゴム等
  6
DOT
 10
72.8371
 20
-75.212395
 11
72.8371
 21
-46.177675
  0
LINE
  8
ゴム等
  6
DOT
 10
73.553767
 20
-74.876497
 11
73.553767
 21
-47.63499
  0
LINE
  8
ゴム等
  6
DOT
 10
85.180122
 20
-47.63499
 11
73.553767
 21
-47.63499
  0
LINE
  8
ゴム等
  6
DOT
 10
85.58378
 20
-46.879918
 11
72.8371
 21
-46.879918
  0
LINE
  8
ゴム等
  6
DOT
 10
85.5075
 20
-46.991097
 11
72.8371
 21
-46.991097
  0
LINE
  8
ゴム等
  6
CONTINUOUS
 10
55.097307
 20
20.38622
 11
55.097307
 21
48.477855
  0
LINE
  8
ゴム等
  6
CONTINUOUS
 10
55.097307
 20
76.56949
 11
55.097307
 21
48.477855
  0
CIRCLE
  8
ボルト／ビス
  6
DOT
 10
30.613552
 20
-79.463562
 40
0.166668
  0
CIRCLE
  8
ボルト／ビス
  6
DOT
 10
30.613552
 20
-79.463562
 40
0.133333
  0
CIRCLE
  8
ボルト／ビス
  6
CONTINUOUS
 10
-114.586085
 20
-94.463562
 40
0.166668
  0
CIRCLE
  8
ボルト／ビス
  6
CONTINUOUS
 10
-114.586085
 20
-94.463562
 40
0.133333
  0
CIRCLE
  8
ボルト／ビス
  6
CONTINUOUS
 10
-114.586085
 20
-96.606898
 40
0.166668
  0
CIRCLE
  8
ボルト／ビス
  6
CONTINUOUS
 10
-114.586085
 20
-96.606898
 40
0.133333
  0
CIRCLE
  8
ボルト／ビス
  6
CONTINUOUS
 10
-30.393055
 20
-94.463562
 40
0.166668
  0
CIRCLE
  8
ボルト／ビス
  6
CONTINUOUS
 10
-30.393055
 20
-94.463562
 40
0.133333
  0
CIRCLE
  8
ボルト／ビス
  6
CONTINUOUS
 10
-30.393055
 20
-96.606898
 40
0.166668
  0
CIRCLE
  8
ボルト／ビス
  6
CONTINUOUS
 10
-30.393055
 20
-96.606898
 40
0.133333
  0
CIRCLE
  8
ボルト／ビス
  6
CONTINUOUS
 10
30.207252
 20
-94.463562
 40
0.166668
  0
CIRCLE
  8
ボルト／ビス
  6
CONTINUOUS
 10
30.207252
 20
-94.463562
 40
0.133333
  0
CIRCLE
  8
ボルト／ビス
  6
CONTINUOUS
 10
30.207252
 20
-96.606898
 40
0.166668
  0
CIRCLE
  8
ボルト／ビス
  6
CONTINUOUS
 10
30.207252
 20
-96.606898
 40
0.133333
  0
CIRCLE
  8
ボルト／ビス
  6
CONTINUOUS
 10
114.400282
 20
-94.463562
 40
0.166668
  0
CIRCLE
  8
ボルト／ビス
  6
CONTINUOUS
 10
114.400282
 20
-94.463562
 40
0.133333
  0
CIRCLE
  8
ボルト／ビス
  6
CONTINUOUS
 10
114.400282
 20
-96.606898
 40
0.166668
  0
CIRCLE
  8
ボルト／ビス
  6
CONTINUOUS
 10
114.400282
 20
-96.606898
 40
0.133333
  0
CIRCLE
  8
ボルト／ビス
  6
CONTINUOUS
 10
59.348473
 20
19.714673
 40
0.166668
  0
CIRCLE
  8
ボルト／ビス
  6
CONTINUOUS
 10
59.348473
 20
19.714673
 40
0.133333
  0
CIRCLE
  8
ボルト／ビス
  6
CONTINUOUS
 10
61.491807
 20
19.714673
 40
0.166668
  0
CIRCLE
  8
ボルト／ビス
  6
CONTINUOUS
 10
61.491807
 20
19.714673
 40
0.133333
  0
CIRCLE
  8
ボルト／ビス
  6
CONTINUOUS
 10
59.348473
 20
77.241037
 40
0.166668
  0
CIRCLE
  8
ボルト／ビス
  6
CONTINUOUS
 10
59.348473
 20
77.241037
 40
0.133333
  0
CIRCLE
  8
ボルト／ビス
  6
CONTINUOUS
 10
61.491807
 20
77.241037
 40
0.166668
  0
CIRCLE
  8
ボルト／ビス
  6
CONTINUOUS
 10
61.491807
 20
77.241037
 40
0.133333
  0
TEXT
  7
TextStyle03
  8
文字
  6
CONTINUOUS
 10
-137.55
 20
96.5
  1
アンカーピッチ
 40
3.0
 72
     5
 11
-114.3
 21
96.5
  0
TEXT
  7
TextStyle03
  8
文字
  6
CONTINUOUS
 10
-136.975
 20
-4.725
  1
アンカーピッチ
 40
3.0
 50
90.0
 72
     5
 11
-136.975
 21
18.525
  0
TEXT
  7
TextStyle03
  8
文字
  6
CONTINUOUS
 10
-21.6
 20
0.175
  1
は排水穴位置を示す
 40
3.0
 72
     5
 11
8.4
 21
0.175
  0
TEXT
  7
TextStyle03
  8
文字
  6
CONTINUOUS
 10
155.175
 20
13.175
  1
×　２枚
 40
4.0
 72
     5
 11
172.675
 21
13.175
  0
TEXT
  7
TextStyle03
  8
文字
  6
CONTINUOUS
 10
155.175
 20
60.0
  1
×　右２枚
 40
4.0
 72
     5
 11
177.175
 21
60.0
  0
TEXT
  7
TextStyle03
  8
文字
  6
CONTINUOUS
 10
155.175
 20
55.5
  1
×　左２枚
 40
4.0
 72
     5
 11
177.175
 21
55.5
  0
TEXT
  7
TextStyle03
  8
文字
  6
CONTINUOUS
 10
-22.7
 20
57.8
  1
バランスステー
 40
3.0
 72
     5
 11
0.55
 21
57.8
  0
TEXT
  7
TextStyle03
  8
文字
  6
CONTINUOUS
 10
-21.8
 20
-7.05
  1
はケーシング位置を示す
 40
3.0
 72
     5
 11
14.95
 21
-7.05
  0
TEXT
  7
TextStyle03
  8
文字
  6
CONTINUOUS
 10
-21.8
 20
-10.425
  1
４ヶ所中1ヶ所に設定
 40
3.0
 72
     5
 11
9.8875
 21
-10.425
  0
TEXT
  7
TextStyle03
  8
文字
  6
CONTINUOUS
 10
-27.9
 20
-16.025
  1
アームユニット数　４ヶ所
 40
3.0
 72
     5
 11
12.225
 21
-16.025
  0
TEXT
  7
TextStyle03
  8
文字
  6
CONTINUOUS
 10
54.8
 20
123.025
  1
シリーズ：ＤＦＹ
 40
5.0
 72
     5
 11
99.175
 21
123.025
  0
TEXT
  7
TextStyle03
  8
文字
  6
CONTINUOUS
 10
54.8
 20
117.4
  1
　　　　　山型四角錘（上下可動）1600×2400タイプ
 40
5.0
 72
     5
 11
189.175
 21
117.4
  0
TEXT
  7
TextStyle03
  8
文字
  6
CONTINUOUS
 10
54.8
 20
111.775
  1
図面名　：外観姿図
 40
5.0
 72
     5
 11
104.8
 21
111.775
  0
TEXT
  7
TextStyle03
  8
文字
  6
CONTINUOUS
 10
54.8
 20
106.15
  1

 40
5.0
 41
1.125
  0
TEXT
  7
TextStyle03
  8
文字
  6
CONTINUOUS
 10
54.8
 20
100.525
  1
ＮＳコード：ＮＳ４Ｙ
 40
5.0
 72
     5
 11
110.425
 21
100.525
  0
INSERT
  2
*DIM_0002
  8
寸法
  6
CONTINUOUS
 10
0.0
 20
0.0
  0
INSERT
  2
*DIM_0003
  8
寸法
  6
CONTINUOUS
 10
0.0
 20
0.0
  0
INSERT
  2
*DIM_0004
  8
寸法
  6
CONTINUOUS
 10
0.0
 20
0.0
  0
INSERT
  2
*DIM_0005
  8
寸法
  6
CONTINUOUS
 10
0.0
 20
0.0
  0
INSERT
  2
*DIM_0006
  8
寸法
  6
CONTINUOUS
 10
0.0
 20
0.0
  0
LINE
  8
寸法
  6
CONTINUOUS
 10
-47.48957
 20
17.611188
 11
-46.113937
 21
15.228522
  0
LINE
  8
寸法
  6
CONTINUOUS
 10
-47.48957
 20
17.611188
 11
-48.865203
 21
15.228522
  0
LINE
  8
寸法
  6
CONTINUOUS
 10
-48.865203
 20
15.228522
 11
-46.113937
 21
15.228522
  0
LINE
  8
寸法
  6
CONTINUOUS
 10
-97.48957
 20
17.611188
 11
-98.865203
 21
15.228522
  0
LINE
  8
寸法
  6
CONTINUOUS
 10
-97.48957
 20
17.611188
 11
-96.113937
 21
15.228522
  0
LINE
  8
寸法
  6
CONTINUOUS
 10
-96.113937
 20
15.228522
 11
-98.865203
 21
15.228522
  0
INSERT
  2
*DIM_0007
  8
寸法
  6
CONTINUOUS
 10
0.0
 20
0.0
  0
LINE
  8
寸法
  6
CONTINUOUS
 10
-47.48957
 20
79.344522
 11
-46.113937
 21
81.727188
  0
LINE
  8
寸法
  6
CONTINUOUS
 10
-47.48957
 20
79.344522
 11
-48.865203
 21
81.727188
  0
LINE
  8
寸法
  6
CONTINUOUS
 10
-48.865203
 20
81.727188
 11
-46.113937
 21
81.727188
  0
LINE
  8
寸法
  6
CONTINUOUS
 10
-97.48957
 20
79.344522
 11
-98.865203
 21
81.727188
  0
LINE
  8
寸法
  6
CONTINUOUS
 10
-97.48957
 20
79.344522
 11
-96.113937
 21
81.727188
  0
LINE
  8
寸法
  6
CONTINUOUS
 10
-96.113937
 20
81.727188
 11
-98.865203
 21
81.727188
  0
LINE
  8
寸法
  6
CONTINUOUS
 10
-28.289577
 20
48.477855
 11
-25.906912
 21
47.102223
  0
LINE
  8
寸法
  6
CONTINUOUS
 10
-28.289577
 20
48.477855
 11
-25.906912
 21
49.853487
  0
LINE
  8
寸法
  6
CONTINUOUS
 10
-25.906912
 20
49.853487
 11
-25.906912
 21
47.102223
  0
LINE
  8
寸法
  6
CONTINUOUS
 10
-116.689563
 20
48.477855
 11
-119.072228
 21
47.102223
  0
LINE
  8
寸法
  6
CONTINUOUS
 10
-116.689563
 20
48.477855
 11
-119.072228
 21
49.853487
  0
LINE
  8
寸法
  6
CONTINUOUS
 10
-119.072228
 20
49.853487
 11
-119.072228
 21
47.102223
  0
INSERT
  2
*DIM_0008
  8
寸法
  6
CONTINUOUS
 10
0.0
 20
0.0
  0
INSERT
  2
*DIM_0009
  8
寸法
  6
CONTINUOUS
 10
0.0
 20
0.0
  0
INSERT
  2
*DIM_0010
  8
寸法
  6
CONTINUOUS
 10
0.0
 20
0.0
  0
INSERT
  2
*DIM_0011
  8
寸法
  6
CONTINUOUS
 10
0.0
 20
0.0
  0
INSERT
  2
*DIM_0012
  8
寸法
  6
CONTINUOUS
 10
0.0
 20
0.0
  0
INSERT
  2
*DIM_0013
  8
寸法
  6
CONTINUOUS
 10
0.0
 20
0.0
  0
INSERT
  2
*DIM_0014
  8
寸法
  6
CONTINUOUS
 10
0.0
 20
0.0
  0
INSERT
  2
*DIM_0015
  8
寸法
  6
CONTINUOUS
 10
0.0
 20
0.0
  0
INSERT
  2
*DIM_0016
  8
寸法
  6
CONTINUOUS
 10
0.0
 20
0.0
  0
INSERT
  2
*DIM_0017
  8
寸法
  6
CONTINUOUS
 10
0.0
 20
0.0
  0
INSERT
  2
*DIM_0018
  8
寸法
  6
CONTINUOUS
 10
0.0
 20
0.0
  0
LINE
  8
寸法
  6
CONTINUOUS
 10
-24.65417
 20
2.613172
 11
-23.278538
 21
0.230508
  0
LINE
  8
寸法
  6
CONTINUOUS
 10
-24.65417
 20
2.613172
 11
-26.029803
 21
0.230508
  0
LINE
  8
寸法
  6
CONTINUOUS
 10
-26.029803
 20
0.230508
 11
-23.278538
 21
0.230508
  0
LINE
  8
寸法
  6
CONTINUOUS
 10
-28.003658
 20
-1.421447
 11
10.071655
 21
-1.421447
  0
INSERT
  2
*DIM_0019
  8
寸法
  6
CONTINUOUS
 10
0.0
 20
0.0
  0
INSERT
  2
*DIM_0020
  8
寸法
  6
CONTINUOUS
 10
0.0
 20
0.0
  0
INSERT
  2
*DIM_0021
  8
寸法
  6
CONTINUOUS
 10
0.0
 20
0.0
  0
INSERT
  2
*DIM_0022
  8
寸法
  6
CONTINUOUS
 10
0.0
 20
0.0
  0
INSERT
  2
*DIM_0023
  8
寸法
  6
CONTINUOUS
 10
0.0
 20
0.0
  0
INSERT
  2
*DIM_0024
  8
寸法
  6
CONTINUOUS
 10
0.0
 20
0.0
  0
INSERT
  2
*DIM_0025
  8
寸法
  6
CONTINUOUS
 10
0.0
 20
0.0
  0
INSERT
  2
*DIM_0026
  8
寸法
  6
CONTINUOUS
 10
0.0
 20
0.0
  0
INSERT
  2
*DIM_0027
  8
寸法
  6
CONTINUOUS
 10
0.0
 20
0.0
  0
INSERT
  2
*DIM_0028
  8
寸法
  6
CONTINUOUS
 10
0.0
 20
0.0
  0
INSERT
  2
*DIM_0029
  8
寸法
  6
CONTINUOUS
 10
0.0
 20
0.0
  0
INSERT
  2
*DIM_0030
  8
寸法
  6
CONTINUOUS
 10
0.0
 20
0.0
  0
INSERT
  2
*DIM_0031
  8
寸法
  6
CONTINUOUS
 10
0.0
 20
0.0
  0
INSERT
  2
*GRP_0036
  8
寸法
  6
CONTINUOUS
 10
0.0
 20
0.0
  0
INSERT
  2
*DIM_0037
  8
寸法
  6
CONTINUOUS
 10
0.0
 20
0.0
  0
INSERT
  2
*DIM_0038
  8
寸法
  6
CONTINUOUS
 10
0.0
 20
0.0
  0
LINE
  8
寸法
  6
CONTINUOUS
 10
-28.003658
 20
-17.662828
 11
10.071655
 21
-17.662828
  0
INSERT
  2
*DIM_0039
  8
寸法
  6
CONTINUOUS
 10
0.0
 20
0.0
  0
INSERT
  2
*DIM_0040
  8
寸法
  6
CONTINUOUS
 10
0.0
 20
0.0
  0
INSERT
  2
*DIM_0041
  8
寸法
  6
CONTINUOUS
 10
0.0
 20
0.0
  0
LINE
  8
曲げ物
  6
CONTINUOUS
 10
138.65295
 20
45.562345
 11
138.65295
 21
85.37423
  0
LINE
  8
曲げ物
  6
CONTINUOUS
 10
138.65295
 20
85.37423
 11
126.417878
 21
85.37423
  0
LINE
  8
曲げ物
  6
CONTINUOUS
 10
126.417878
 20
85.37423
 11
98.26651
 21
45.562345
  0
LINE
  8
曲げ物
  6
CONTINUOUS
 10
138.65295
 20
45.562345
 11
98.26651
 21
45.562345
  0
LINE
  8
曲げ物
  6
CONTINUOUS
 10
91.784138
 20
-12.338388
 11
147.390367
 21
-12.338388
  0
LINE
  8
曲げ物
  6
CONTINUOUS
 10
91.784138
 20
-12.338388
 11
119.587253
 21
26.981
  0
LINE
  8
曲げ物
  6
CONTINUOUS
 10
147.390367
 20
-12.338388
 11
119.587253
 21
26.981
  0
LINE
  8
曲げ物
  6
CONTINUOUS
 10
115.452503
 20
-1.572498
 11
123.313823
 21
6.288823
  0
LINE
  8
曲げ物
  6
CONTINUOUS
 10
121.13639
 20
2.78438
 11
118.956945
 21
0.604935
  0
LINE
  8
曲げ物
  6
CONTINUOUS
 10
119.80938
 20
4.11139
 11
117.629935
 21
1.931945
  0
LINE
  8
曲げ物
  6
CONTINUOUS
 10
123.702503
 20
61.41781
 11
131.563823
 21
69.27913
  0
LINE
  8
曲げ物
  6
CONTINUOUS
 10
129.38639
 20
65.774688
 11
127.206945
 21
63.595242
  0
LINE
  8
曲げ物
  6
CONTINUOUS
 10
128.05938
 20
67.101698
 11
125.879935
 21
64.922252
  0
ENDSEC
  0
EOF
