  0
SECTION
  2
HEADER
  9
$EXTMIN
 10
-210.0
 20
-148.5
  9
$EXTMAX
 10
210.0
 20
148.5
  9
$PDMODE
 70
    32
  9
$PDSIZE
 40
1.5
  9
$LTSCALE
 40
10.0
  0
ENDSEC
  0
SECTION
  2
TABLES
  0
TABLE
  2
LTYPE
 70
    15
  0
LTYPE
  2
CONTINUOUS
 70
    64
  3
実線
 72
    65
 73
     0
 40
0.0
  0
LTYPE
  2
DASHED
 70
    64
  3
破線A
 72
    65
 73
     2
 40
0.6
 49
0.4
 49
-0.2
  0
LTYPE
  2
DASHEDX2
 70
    64
  3
破線B
 72
    65
 73
     2
 40
1.3
 49
0.9
 49
-0.4
  0
LTYPE
  2
DASHDOT
 70
    64
  3
１点鎖線A
 72
    65
 73
     4
 40
0.5375
 49
0.375
 49
-0.05
 49
0.0625
 49
-0.05
  0
LTYPE
  2
DASHDOTX2
 70
    64
  3
１点鎖線B
 72
    65
 73
     4
 40
1.075
 49
0.75
 49
-0.1
 49
0.125
 49
-0.1
  0
LTYPE
  2
DIVIDE2
 70
    64
  3
２点鎖線A
 72
    65
 73
     6
 40
0.5125
 49
0.3
 49
-0.0375
 49
0.05
 49
-0.0375
 49
0.05
 49
-0.0375
  0
LTYPE
  2
DIVIDE
 70
    64
  3
２点鎖線B
 72
    65
 73
     6
 40
1.05
 49
0.55
 49
-0.1
 49
0.1
 49
-0.1
 49
0.1
 49
-0.1
  0
LTYPE
  2
DOT
 70
    64
  3
点線A
 72
    65
 73
     2
 40
0.1125
 49
0.0625
 49
-0.05
  0
LTYPE
  2
DOTX2
 70
    64
  3
点線B
 72
    65
 73
     2
 40
0.275
 49
0.15
 49
-0.125
  0
LTYPE
  2
CONTINUOUS
 70
    64
  3
実線
 72
    65
 73
     0
 40
0.0
  0
LTYPE
  2
CONTINUOUS
 70
    64
  3
実線
 72
    65
 73
     0
 40
0.0
  0
LTYPE
  2
CONTINUOUS
 70
    64
  3
実線
 72
    65
 73
     0
 40
0.0
  0
LTYPE
  2
CONTINUOUS
 70
    64
  3
実線
 72
    65
 73
     0
 40
0.0
  0
LTYPE
  2
CONTINUOUS
 70
    64
  3
実線
 72
    65
 73
     0
 40
0.0
  0
LTYPE
  2
CONTINUOUS
 70
    64
  3
実線
 72
    65
 73
     0
 40
0.0
  0
ENDTAB
  0
TABLE
  2
LAYER
 70
    34
  0
LAYER
  2
通り芯
 70
     0
 62
    15
  6
CONTINUOUS
  0
LAYER
  2
補助線
 70
     0
 62
    16
  6
DOT
  0
LAYER
  2
躯体
 70
     0
 62
    31
  6
CONTINUOUS
  0
LAYER
  2
型材
 70
     0
 62
    32
  6
CONTINUOUS
  0
LAYER
  2
型材断面
 70
     0
 62
    47
  6
CONTINUOUS
  0
LAYER
  2
ガラス
 70
     0
 62
    48
  6
CONTINUOUS
  0
LAYER
  2
ゴム等
 70
     0
 62
    63
  6
CONTINUOUS
  0
LAYER
  2
ボルト／ビス
 70
     0
 62
    64
  6
CONTINUOUS
  0
LAYER
  2
文字
 70
     0
 62
    79
  6
CONTINUOUS
  0
LAYER
  2
寸法
 70
     0
 62
    80
  6
CONTINUOUS
  0
LAYER
  2
ﾊｯﾁﾝｸﾞ
 70
     0
 62
    95
  6
CONTINUOUS
  0
LAYER
  2
別途部材
 70
     0
 62
    96
  6
CONTINUOUS
  0
LAYER
  2
曲げ物
 70
     0
 62
   111
  6
CONTINUOUS
  0
LAYER
  2
鉄骨等
 70
     0
 62
   112
  6
CONTINUOUS
  0
LAYER
  2
St
 70
     0
 62
   127
  6
CONTINUOUS
  0
LAYER
  2
その他部品等
 70
     0
 62
   128
  6
CONTINUOUS
  0
LAYER
  2
ｶﾞｽｹｯﾄ
 70
     0
 62
   143
  6
CONTINUOUS
  0
LAYER
  2
ｽｹｯﾁ
 70
     0
 62
    14
  6
CONTINUOUS
  0
LAYER
  2
0
 70
     0
 62
    17
  6
CONTINUOUS
  0
LAYER
  2
1
 70
     0
 62
    30
  6
CONTINUOUS
  0
LAYER
  2
4
 70
     0
 62
    33
  6
CONTINUOUS
  0
LAYER
  2
ﾚｲﾔ3
 70
     0
 62
    46
  6
CONTINUOUS
  0
LAYER
  2
外形線
 70
     0
 62
    49
  6
CONTINUOUS
  0
LAYER
  2
部品
 70
     0
 62
    14
  6
CONTINUOUS
  0
LAYER
  2
サッシ芯
 70
     0
 62
    17
  6
DASHDOTX2
  0
LAYER
  2
寸法線
 70
     0
 62
    62
  6
CONTINUOUS
  0
LAYER
  2
姿図外形線
 70
     0
 62
    65
  6
CONTINUOUS
  0
LAYER
  2
姿補助線
 70
     0
 62
    30
  6
CONTINUOUS
  0
LAYER
  2
透視線
 70
     0
 62
    78
  6
DOT
  0
LAYER
  2
用紙
 70
     0
 62
    81
  6
CONTINUOUS
  0
LAYER
  2
実線図枠
 70
     0
 62
    94
  6
CONTINUOUS
  0
LAYER
  2
補助図枠
 70
     0
 62
    97
  6
CONTINUOUS
  0
LAYER
  2
建具記号
 70
     0
 62
   110
  6
CONTINUOUS
  0
LAYER
  2
補助文字
 70
     0
 62
   113
  6
CONTINUOUS
  0
ENDTAB
  0
TABLE
  2
STYLE
 70
    10
  0
STYLE
  2
STANDARD
 70
     0
 40
1.0
 41
1.0
 42
1.0
 50
0.0
 71
     0
  3
TXT
  4
BIGFONT
  0
STYLE
  2
TATE
 70
     4
 40
1.0
 41
1.0
 42
1.0
 50
0.0
 71
     0
  3
TXT
  4
BIGFONT
  0
STYLE
  2
TextStyle03
 70
     0
 40
1.0
 41
1.0
 42
1.0
 50
0.0
 71
     0
  3
MONOTXT
  4
BIGFONT
  0
STYLE
  2
TextStyle04
 70
     0
 40
1.0
 41
1.0
 42
1.0
 50
0.0
 71
     0
  3
MONOTXT
  4
BIGFONT
  0
STYLE
  2
TextStyle05
 70
     0
 40
1.0
 41
1.0
 42
1.0
 50
0.0
 71
     0
  3
MONOTXT
  4
BIGFONT
  0
STYLE
  2
TextStyle06
 70
     0
 40
1.0
 41
1.0
 42
1.0
 50
0.0
 71
     0
  3
MONOTXT
  4
BIGFONT
  0
STYLE
  2
TextStyle07
 70
     0
 40
1.0
 41
1.0
 42
1.0
 50
0.0
 71
     0
  3
MONOTXT
  4
BIGFONT
  0
STYLE
  2
TextStyle08
 70
     0
 40
1.0
 41
1.0
 42
1.0
 50
0.0
 71
     0
  3
MONOTXT
  4
BIGFONT
  0
STYLE
  2
TextStyle09
 70
     0
 40
1.0
 41
1.0
 42
1.0
 50
0.0
 71
     0
  3
MONOTXT
  4
BIGFONT
  0
STYLE
  2
TextStyle10
 70
     0
 40
1.0
 41
1.0
 42
1.0
 50
0.0
 71
     0
  3
MONOTXT
  4
BIGFONT
  0
ENDTAB
  0
ENDSEC
  0
SECTION
  2
BLOCKS
  0
BLOCK
  2
*GRP_0001
 70
    65
 10
0.0
 20
0.0
  0
LINE
  8
型材断面
  6
CONTINUOUS
 10
195.0
 20
133.5
 11
195.0
 21
-133.5
  0
LINE
  8
型材断面
  6
CONTINUOUS
 10
195.0
 20
-133.5
 11
-185.0
 21
-133.5
  0
LINE
  8
型材断面
  6
CONTINUOUS
 10
-185.0
 20
-133.5
 11
-185.0
 21
133.5
  0
LINE
  8
型材断面
  6
CONTINUOUS
 10
195.0
 20
133.5
 11
-185.0
 21
133.5
  0
LINE
  8
型材断面
  6
CONTINUOUS
 10
145.0
 20
-133.5
 11
145.0
 21
-118.5
  0
LINE
  8
型材断面
  6
CONTINUOUS
 10
195.0
 20
-118.5
 11
145.0
 21
-118.5
  0
ENDBLK
  0
BLOCK
  2
*GRP_0002
 70
    65
 10
0.0
 20
0.0
  0
LINE
  8
補助線
  6
BYBLOCK
 62
    64
 10
24.917002
 20
-92.743105
 11
25.140387
 21
-92.855345
  0
LINE
  8
補助線
  6
BYBLOCK
 62
    64
 10
25.084815
 20
-92.687533
 11
24.972575
 21
-92.910917
  0
LINE
  8
補助線
  6
BYBLOCK
 62
    64
 10
10.262643
 20
-85.380385
 11
10.03925
 21
-85.268145
  0
LINE
  8
補助線
  6
BYBLOCK
 62
    64
 10
10.207063
 20
-85.212568
 11
10.094828
 21
-85.435958
  0
LINE
  8
補助線
  6
BYBLOCK
 62
    64
 10
-4.615147
 20
-77.905495
 11
-4.838537
 21
-77.793263
  0
LINE
  8
補助線
  6
BYBLOCK
 62
    64
 10
-4.670725
 20
-77.737683
 11
-4.78296
 21
-77.961072
  0
LINE
  8
型材断面
  6
CONTINUOUS
 10
26.036658
 20
-91.90675
 11
26.370115
 21
-92.913627
  0
LINE
  8
型材断面
  6
CONTINUOUS
 10
26.370115
 20
-92.913627
 11
25.92117
 21
-93.807187
  0
LINE
  8
型材断面
  6
CONTINUOUS
 10
25.92117
 20
-93.807187
 11
24.914293
 21
-94.140645
  0
LINE
  8
型材断面
  6
CONTINUOUS
 10
-4.612447
 20
-76.507955
 11
-5.61932
 21
-76.84142
  0
LINE
  8
型材断面
  6
CONTINUOUS
 10
-5.61932
 20
-76.84142
 11
-6.068268
 21
-77.734983
  0
LINE
  8
型材断面
  6
CONTINUOUS
 10
-6.068268
 20
-77.734983
 11
-5.7348
 21
-78.741857
  0
LINE
  8
型材断面
  6
CONTINUOUS
 10
26.036658
 20
-91.90675
 11
-4.612332
 21
-76.507915
  0
LINE
  8
型材断面
  6
CONTINUOUS
 10
24.914293
 20
-94.140645
 11
-5.734835
 21
-78.74175
  0
LINE
  8
ボルト／ビス
  6
CONTINUOUS
 62
    64
 10
25.236053
 20
-92.386507
 11
25.489797
 21
-92.772445
  0
LINE
  8
ボルト／ビス
  6
CONTINUOUS
 62
    64
 10
25.236053
 20
-92.386507
 11
24.774952
 21
-92.41329
  0
LINE
  8
ボルト／ビス
  6
CONTINUOUS
 62
    64
 10
24.821337
 20
-93.211942
 11
25.282438
 21
-93.18516
  0
LINE
  8
ボルト／ビス
  6
CONTINUOUS
 62
    64
 10
24.821337
 20
-93.211942
 11
24.567592
 21
-92.826005
  0
CIRCLE
  8
ボルト／ビス
  6
CONTINUOUS
 62
    64
 10
25.028695
 20
-92.799225
 40
0.4
  0
LINE
  8
ボルト／ビス
  6
CONTINUOUS
 62
    64
 10
24.774952
 20
-92.41329
 11
24.567592
 21
-92.826005
  0
LINE
  8
ボルト／ビス
  6
CONTINUOUS
 62
    64
 10
25.489797
 20
-92.772445
 11
25.282438
 21
-93.18516
  0
LINE
  8
ボルト／ビス
  6
CONTINUOUS
 62
    64
 10
10.358305
 20
-84.911547
 11
9.8972
 21
-84.938325
  0
LINE
  8
ボルト／ビス
  6
CONTINUOUS
 62
    64
 10
10.358305
 20
-84.911547
 11
10.61205
 21
-85.297483
  0
LINE
  8
ボルト／ビス
  6
CONTINUOUS
 62
    64
 10
9.943585
 20
-85.73698
 11
9.689842
 21
-85.351045
  0
LINE
  8
ボルト／ビス
  6
CONTINUOUS
 62
    64
 10
9.943585
 20
-85.73698
 11
10.404688
 21
-85.7102
  0
CIRCLE
  8
ボルト／ビス
  6
CONTINUOUS
 62
    64
 10
10.150943
 20
-85.324265
 40
0.4
  0
LINE
  8
ボルト／ビス
  6
CONTINUOUS
 62
    64
 10
10.61205
 20
-85.297483
 11
10.404688
 21
-85.7102
  0
LINE
  8
ボルト／ビス
  6
CONTINUOUS
 62
    64
 10
9.8972
 20
-84.938325
 11
9.689842
 21
-85.351045
  0
LINE
  8
ボルト／ビス
  6
CONTINUOUS
 62
    64
 10
-4.519485
 20
-77.436657
 11
-4.98059
 21
-77.46344
  0
LINE
  8
ボルト／ビス
  6
CONTINUOUS
 62
    64
 10
-4.519485
 20
-77.436657
 11
-4.265743
 21
-77.822595
  0
LINE
  8
ボルト／ビス
  6
CONTINUOUS
 62
    64
 10
-4.934202
 20
-78.262095
 11
-5.187945
 21
-77.876158
  0
LINE
  8
ボルト／ビス
  6
CONTINUOUS
 62
    64
 10
-4.934202
 20
-78.262095
 11
-4.473095
 21
-78.235312
  0
CIRCLE
  8
ボルト／ビス
  6
CONTINUOUS
 62
    64
 10
-4.72684
 20
-77.849377
 40
0.4
  0
LINE
  8
ボルト／ビス
  6
CONTINUOUS
 62
    64
 10
-4.265743
 20
-77.822595
 11
-4.473095
 21
-78.235312
  0
LINE
  8
ボルト／ビス
  6
CONTINUOUS
 62
    64
 10
-4.98059
 20
-77.46344
 11
-5.187945
 21
-77.876158
  0
ENDBLK
  0
BLOCK
  2
*GRP_0003
 70
    65
 10
0.0
 20
0.0
  0
LINE
  8
補助線
  6
BYBLOCK
 62
    64
 10
-4.615113
 20
-92.743105
 11
-4.838497
 21
-92.855345
  0
LINE
  8
補助線
  6
BYBLOCK
 62
    64
 10
-4.782925
 20
-92.687533
 11
-4.670685
 21
-92.910917
  0
LINE
  8
補助線
  6
BYBLOCK
 62
    64
 10
10.039248
 20
-85.380385
 11
10.26264
 21
-85.268145
  0
LINE
  8
補助線
  6
BYBLOCK
 62
    64
 10
10.094828
 20
-85.212568
 11
10.207063
 21
-85.435958
  0
LINE
  8
補助線
  6
BYBLOCK
 62
    64
 10
24.917037
 20
-77.905495
 11
25.140428
 21
-77.793263
  0
LINE
  8
補助線
  6
BYBLOCK
 62
    64
 10
24.972615
 20
-77.737683
 11
25.08485
 21
-77.961072
  0
LINE
  8
型材断面
  6
CONTINUOUS
 10
-5.734767
 20
-91.90675
 11
-6.068225
 21
-92.913627
  0
LINE
  8
型材断面
  6
CONTINUOUS
 10
-6.068225
 20
-92.913627
 11
-5.61928
 21
-93.807187
  0
LINE
  8
型材断面
  6
CONTINUOUS
 10
-5.61928
 20
-93.807187
 11
-4.612403
 21
-94.140645
  0
LINE
  8
型材断面
  6
CONTINUOUS
 10
24.914337
 20
-76.507955
 11
25.92121
 21
-76.84142
  0
LINE
  8
型材断面
  6
CONTINUOUS
 10
25.92121
 20
-76.84142
 11
26.370157
 21
-77.734983
  0
LINE
  8
型材断面
  6
CONTINUOUS
 10
26.370157
 20
-77.734983
 11
26.03669
 21
-78.741857
  0
LINE
  8
型材断面
  6
CONTINUOUS
 10
-5.734767
 20
-91.90675
 11
24.914222
 21
-76.507915
  0
LINE
  8
型材断面
  6
CONTINUOUS
 10
-4.612403
 20
-94.140645
 11
26.036725
 21
-78.74175
  0
LINE
  8
ボルト／ビス
  6
CONTINUOUS
 62
    64
 10
-4.934163
 20
-92.386507
 11
-5.187907
 21
-92.772445
  0
LINE
  8
ボルト／ビス
  6
CONTINUOUS
 62
    64
 10
-4.934163
 20
-92.386507
 11
-4.473063
 21
-92.41329
  0
LINE
  8
ボルト／ビス
  6
CONTINUOUS
 62
    64
 10
-4.519448
 20
-93.211942
 11
-4.980548
 21
-93.18516
  0
LINE
  8
ボルト／ビス
  6
CONTINUOUS
 62
    64
 10
-4.519448
 20
-93.211942
 11
-4.265703
 21
-92.826005
  0
CIRCLE
  8
ボルト／ビス
  6
CONTINUOUS
 62
    64
 10
-4.726805
 20
-92.799225
 40
0.4
  0
LINE
  8
ボルト／ビス
  6
CONTINUOUS
 62
    64
 10
-4.473063
 20
-92.41329
 11
-4.265703
 21
-92.826005
  0
LINE
  8
ボルト／ビス
  6
CONTINUOUS
 62
    64
 10
-5.187907
 20
-92.772445
 11
-4.980548
 21
-93.18516
  0
LINE
  8
ボルト／ビス
  6
CONTINUOUS
 62
    64
 10
9.943585
 20
-84.911547
 11
10.40469
 21
-84.938325
  0
LINE
  8
ボルト／ビス
  6
CONTINUOUS
 62
    64
 10
9.943585
 20
-84.911547
 11
9.68984
 21
-85.297483
  0
LINE
  8
ボルト／ビス
  6
CONTINUOUS
 62
    64
 10
10.358305
 20
-85.73698
 11
10.612047
 21
-85.351045
  0
LINE
  8
ボルト／ビス
  6
CONTINUOUS
 62
    64
 10
10.358305
 20
-85.73698
 11
9.897202
 21
-85.7102
  0
CIRCLE
  8
ボルト／ビス
  6
CONTINUOUS
 62
    64
 10
10.150948
 20
-85.324265
 40
0.4
  0
LINE
  8
ボルト／ビス
  6
CONTINUOUS
 62
    64
 10
9.68984
 20
-85.297483
 11
9.897202
 21
-85.7102
  0
LINE
  8
ボルト／ビス
  6
CONTINUOUS
 62
    64
 10
10.40469
 20
-84.938325
 11
10.612047
 21
-85.351045
  0
LINE
  8
ボルト／ビス
  6
CONTINUOUS
 62
    64
 10
24.821375
 20
-77.436657
 11
25.28248
 21
-77.46344
  0
LINE
  8
ボルト／ビス
  6
CONTINUOUS
 62
    64
 10
24.821375
 20
-77.436657
 11
24.567633
 21
-77.822595
  0
LINE
  8
ボルト／ビス
  6
CONTINUOUS
 62
    64
 10
25.236093
 20
-78.262095
 11
25.489835
 21
-77.876158
  0
LINE
  8
ボルト／ビス
  6
CONTINUOUS
 62
    64
 10
25.236093
 20
-78.262095
 11
24.774985
 21
-78.235312
  0
CIRCLE
  8
ボルト／ビス
  6
CONTINUOUS
 62
    64
 10
25.02873
 20
-77.849377
 40
0.4
  0
LINE
  8
ボルト／ビス
  6
CONTINUOUS
 62
    64
 10
24.567633
 20
-77.822595
 11
24.774985
 21
-78.235312
  0
LINE
  8
ボルト／ビス
  6
CONTINUOUS
 62
    64
 10
25.28248
 20
-77.46344
 11
25.489835
 21
-77.876158
  0
ENDBLK
  0
BLOCK
  2
*DIM_0004
 70
    65
 10
0.0
 20
0.0
  0
LINE
  8
寸法
  6
BYBLOCK
 62
     0
 10
-128.198748
 20
-85.813382
 11
-128.198748
 21
-33.377287
  0
LINE
  8
寸法
  6
BYBLOCK
 62
     0
 10
-121.898747
 20
-33.377287
 11
-128.198748
 21
-33.377287
  0
POINT
  8
寸法
 62
     0
 10
-121.898747
 20
-33.377287
  0
POINT
  8
寸法
 62
     0
 10
-128.198748
 20
-33.377287
  0
TEXT
  7
TextStyle03
  8
寸法
  6
CONTINUOUS
 62
     0
 10
-127.5125
 20
-33.0
  1
126
 40
3.0
 72
     5
 11
-122.6375
 21
-33.0
  0
ENDBLK
  0
BLOCK
  2
*DIM_0005
 70
    65
 10
0.0
 20
0.0
  0
LINE
  8
寸法
  6
BYBLOCK
 62
     0
 10
-101.898747
 20
-59.301397
 11
-101.898747
 21
-52.688047
  0
LINE
  8
寸法
  6
BYBLOCK
 62
     0
 10
-96.898747
 20
-59.301397
 11
-96.898747
 21
-52.688047
  0
LINE
  8
寸法
  6
BYBLOCK
 62
     0
 10
-101.898747
 20
-52.688047
 11
-96.898747
 21
-52.688047
  0
POINT
  8
寸法
 62
     0
 10
-101.898747
 20
-52.688047
  0
POINT
  8
寸法
 62
     0
 10
-96.898747
 20
-52.688047
  0
TEXT
  7
TextStyle03
  8
寸法
  6
CONTINUOUS
 62
     0
 10
-101.8625
 20
-52.325
  1
100
 40
3.0
 72
     5
 11
-96.9875
 21
-52.325
  0
ENDBLK
  0
BLOCK
  2
*DIM_0006
 70
    65
 10
0.0
 20
0.0
  0
LINE
  8
寸法
  6
BYBLOCK
 62
     0
 10
-89.42168
 20
-57.801433
 11
-88.700288
 21
-57.801433
  0
LINE
  8
寸法
  6
BYBLOCK
 62
     0
 10
-95.898747
 20
-60.301397
 11
-88.700288
 21
-60.301397
  0
LINE
  8
寸法
  6
BYBLOCK
 62
     0
 10
-88.700288
 20
-57.801433
 11
-88.700288
 21
-60.301397
  0
POINT
  8
寸法
 62
     0
 10
-88.700288
 20
-57.801433
  0
POINT
  8
寸法
 62
     0
 10
-88.700288
 20
-60.301397
  0
TEXT
  7
TextStyle03
  8
寸法
  6
CONTINUOUS
 62
     0
 10
-85.725
 20
-60.64375
  1
50
 40
3.0
 50
90.0
 72
     5
 11
-85.725
 21
-57.45625
  0
ENDBLK
  0
BLOCK
  2
*DIM_0007
 70
    65
 10
0.0
 20
0.0
  0
LINE
  8
寸法
  6
BYBLOCK
 62
     0
 10
-98.398747
 20
-57.801433
 11
-50.32295
 21
-57.801433
  0
LINE
  8
寸法
  6
BYBLOCK
 62
     0
 10
-50.32295
 20
-86.813382
 11
-50.32295
 21
-57.801433
  0
POINT
  8
寸法
 62
     0
 10
-50.32295
 20
-86.813382
  0
POINT
  8
寸法
 62
     0
 10
-50.32295
 20
-57.801433
  0
TEXT
  7
TextStyle03
  8
寸法
  6
CONTINUOUS
 62
     0
 10
-50.7
 20
-76.45
  1
580.2
 40
3.0
 50
90.0
 72
     5
 11
-50.7
 21
-68.2
  0
ENDBLK
  0
BLOCK
  2
*DIM_0008
 70
    65
 10
0.0
 20
0.0
  0
LINE
  8
寸法
  6
BYBLOCK
 62
     0
 10
-121.898747
 20
-33.377287
 11
-76.898747
 21
-33.377287
  0
POINT
  8
寸法
 62
     0
 10
-121.898747
 20
-33.377287
  0
POINT
  8
寸法
 62
     0
 10
-76.898747
 20
-33.377287
  0
TEXT
  7
TextStyle03
  8
寸法
  6
CONTINUOUS
 62
     0
 10
-110.275
 20
-33.025
  1
呼称寸法　900
 40
3.0
 72
     5
 11
-88.525
 21
-33.025
  0
ENDBLK
  0
BLOCK
  2
*DIM_0009
 70
    65
 10
0.0
 20
0.0
  0
LINE
  8
寸法
  6
BYBLOCK
 62
     0
 10
-70.598747
 20
-85.813382
 11
-70.598747
 21
-33.377287
  0
LINE
  8
寸法
  6
BYBLOCK
 62
     0
 10
-76.898747
 20
-33.377287
 11
-70.598747
 21
-33.377287
  0
POINT
  8
寸法
 62
     0
 10
-70.598747
 20
-33.377287
  0
TEXT
  7
TextStyle03
  8
寸法
  6
CONTINUOUS
 62
     0
 10
-76.1875
 20
-33.025
  1
126
 40
3.0
 72
     5
 11
-71.3125
 21
-33.025
  0
ENDBLK
  0
BLOCK
  2
*DIM_0010
 70
    65
 10
0.0
 20
0.0
  0
LINE
  8
寸法
  6
BYBLOCK
 62
     0
 10
-101.898747
 20
32.033028
 11
-101.898747
 21
39.705432
  0
LINE
  8
寸法
  6
BYBLOCK
 62
     0
 10
-96.898747
 20
32.033028
 11
-96.898747
 21
39.705432
  0
LINE
  8
寸法
  6
BYBLOCK
 62
     0
 10
-101.898747
 20
39.705432
 11
-96.898747
 21
39.705432
  0
POINT
  8
寸法
 62
     0
 10
-101.898747
 20
39.705432
  0
POINT
  8
寸法
 62
     0
 10
-96.898747
 20
39.705432
  0
TEXT
  7
TextStyle03
  8
寸法
  6
CONTINUOUS
 62
     0
 10
-101.8625
 20
40.05
  1
100
 40
3.0
 72
     5
 11
-96.9875
 21
40.05
  0
ENDBLK
  0
BLOCK
  2
*GRP_0011
 70
    65
 10
0.0
 20
0.0
  0
POLYLINE
  8
寸法
  6
CONTINUOUS
 62
     0
 66
     1
  0
VERTEX
  8
寸法
 10
-79.000993
 20
19.21232
  0
VERTEX
  8
寸法
 10
-75.319798
 20
15.531125
  0
VERTEX
  8
寸法
 10
-52.47722
 20
15.531125
  0
SEQEND
  0
ENDBLK
  0
BLOCK
  2
*DIM_0012
 70
    65
 10
0.0
 20
0.0
  0
LINE
  8
寸法
  6
BYBLOCK
 62
     0
 10
-75.898747
 20
51.716028
 11
-59.038835
 21
51.716028
  0
LINE
  8
寸法
  6
BYBLOCK
 62
     0
 10
-67.874873
 20
46.16603
 11
-59.038835
 21
46.16603
  0
LINE
  8
寸法
  6
BYBLOCK
 62
     0
 10
-59.038835
 20
51.716028
 11
-59.038835
 21
46.16603
  0
POINT
  8
寸法
 62
     0
 10
-59.038835
 20
51.716028
  0
POINT
  8
寸法
 62
     0
 10
-59.038835
 20
46.16603
  0
TEXT
  7
TextStyle03
  8
寸法
  6
CONTINUOUS
 62
     0
 10
-59.4
 20
46.4875
  1
111
 40
3.0
 50
90.0
 72
     5
 11
-59.4
 21
51.3625
  0
ENDBLK
  0
BLOCK
  2
*DIM_0013
 70
    65
 10
0.0
 20
0.0
  0
LINE
  8
寸法
  6
BYBLOCK
 62
     0
 10
-75.898747
 20
6.716028
 11
-59.038835
 21
6.716028
  0
LINE
  8
寸法
  6
BYBLOCK
 62
     0
 10
-67.874873
 20
12.266025
 11
-59.038835
 21
12.266025
  0
LINE
  8
寸法
  6
BYBLOCK
 62
     0
 10
-59.038835
 20
6.716028
 11
-59.038835
 21
12.266025
  0
POINT
  8
寸法
 62
     0
 10
-59.038835
 20
6.716028
  0
POINT
  8
寸法
 62
     0
 10
-59.038835
 20
12.266025
  0
TEXT
  7
TextStyle03
  8
寸法
  6
CONTINUOUS
 62
     0
 10
-59.4
 20
7.0375
  1
111
 40
3.0
 50
90.0
 72
     5
 11
-59.4
 21
11.9125
  0
ENDBLK
  0
BLOCK
  2
*DIM_0014
 70
    65
 10
0.0
 20
0.0
  0
LINE
  8
寸法
  6
BYBLOCK
 62
     0
 10
-114.398747
 20
52.716028
 11
-114.398747
 21
70.655042
  0
LINE
  8
寸法
  6
BYBLOCK
 62
     0
 10
-84.398747
 20
52.716028
 11
-84.398747
 21
70.655042
  0
LINE
  8
寸法
  6
BYBLOCK
 62
     0
 10
-114.398747
 20
70.655042
 11
-84.398747
 21
70.655042
  0
POINT
  8
寸法
 62
     0
 10
-114.398747
 20
70.655042
  0
POINT
  8
寸法
 62
     0
 10
-84.398747
 20
70.655042
  0
TEXT
  7
TextStyle03
  8
寸法
  6
CONTINUOUS
 62
     0
 10
-101.8375
 20
71.025
  1
600
 40
3.0
 72
     5
 11
-96.9625
 21
71.025
  0
ENDBLK
  0
BLOCK
  2
*DIM_0015
 70
    65
 10
0.0
 20
0.0
  0
LINE
  8
寸法
  6
BYBLOCK
 62
     0
 10
-122.898747
 20
51.716028
 11
-145.80699
 21
51.716028
  0
LINE
  8
寸法
  6
BYBLOCK
 62
     0
 10
-122.898747
 20
29.216028
 11
-145.80699
 21
29.216028
  0
LINE
  8
寸法
  6
BYBLOCK
 62
     0
 10
-145.80699
 20
51.716028
 11
-145.80699
 21
29.216028
  0
POINT
  8
寸法
 62
     0
 10
-145.80699
 20
51.716028
  0
POINT
  8
寸法
 62
     0
 10
-145.80699
 20
29.216028
  0
TEXT
  7
TextStyle03
  8
寸法
  6
CONTINUOUS
 62
     0
 10
-146.175
 20
38.0125
  1
450
 40
3.0
 50
90.0
 72
     5
 11
-146.175
 21
42.8875
  0
ENDBLK
  0
BLOCK
  2
*DIM_0016
 70
    65
 10
0.0
 20
0.0
  0
LINE
  8
寸法
  6
BYBLOCK
 62
     0
 10
-122.898747
 20
6.716028
 11
-145.80699
 21
6.716028
  0
LINE
  8
寸法
  6
BYBLOCK
 62
     0
 10
-145.80699
 20
29.216028
 11
-145.80699
 21
6.716028
  0
POINT
  8
寸法
 62
     0
 10
-145.80699
 20
6.716028
  0
TEXT
  7
TextStyle03
  8
寸法
  6
CONTINUOUS
 62
     0
 10
-146.175
 20
15.5125
  1
450
 40
3.0
 50
90.0
 72
     5
 11
-146.175
 21
20.3875
  0
ENDBLK
  0
BLOCK
  2
*DIM_0017
 70
    65
 10
0.0
 20
0.0
  0
LINE
  8
寸法
  6
BYBLOCK
 62
     0
 10
121.970663
 20
-88.202017
 11
121.970663
 21
-97.030485
  0
LINE
  8
寸法
  6
BYBLOCK
 62
     0
 10
170.315662
 20
-88.202017
 11
170.315662
 21
-97.030485
  0
LINE
  8
寸法
  6
BYBLOCK
 62
     0
 10
121.970663
 20
-97.030485
 11
170.315662
 21
-97.030485
  0
POINT
  8
寸法
 62
     0
 10
121.970663
 20
-97.030485
  0
POINT
  8
寸法
 62
     0
 10
170.315662
 20
-97.030485
  0
TEXT
  7
TextStyle03
  8
寸法
  6
CONTINUOUS
 62
     0
 10
142.0
 20
-96.675
  1
966.9
 40
3.0
 72
     5
 11
150.25
 21
-96.675
  0
ENDBLK
  0
BLOCK
  2
*DIM_0018
 70
    65
 10
0.0
 20
0.0
  0
LINE
  8
寸法
  6
BYBLOCK
 62
     0
 10
173.315662
 20
-85.202017
 11
182.302208
 21
-85.202017
  0
LINE
  8
寸法
  6
BYBLOCK
 62
     0
 10
149.143165
 20
-51.017085
 11
182.302208
 21
-51.017085
  0
LINE
  8
寸法
  6
BYBLOCK
 62
     0
 10
182.302208
 20
-85.202017
 11
182.302208
 21
-51.017085
  0
POINT
  8
寸法
 62
     0
 10
182.302208
 20
-85.202017
  0
POINT
  8
寸法
 62
     0
 10
182.302208
 20
-51.017085
  0
TEXT
  7
TextStyle03
  8
寸法
  6
CONTINUOUS
 62
     0
 10
181.925
 20
-72.25
  1
683.7
 40
3.0
 50
90.0
 72
     5
 11
181.925
 21
-64.0
  0
ENDBLK
  0
BLOCK
  2
*DIM_0019
 70
    65
 10
0.0
 20
0.0
  0
LINE
  8
寸法
  6
BYBLOCK
 62
     0
 10
37.313697
 20
-90.013382
 11
49.37279
 21
-90.013382
  0
LINE
  8
寸法
  6
BYBLOCK
 62
     0
 10
37.313697
 20
-79.013382
 11
49.37279
 21
-79.013382
  0
LINE
  8
寸法
  6
BYBLOCK
 62
     0
 10
49.37279
 20
-90.013382
 11
49.37279
 21
-79.013382
  0
POINT
  8
寸法
 62
     0
 10
49.37279
 20
-90.013382
  0
POINT
  8
寸法
 62
     0
 10
49.37279
 20
-79.013382
  0
TEXT
  7
TextStyle03
  8
寸法
  6
CONTINUOUS
 62
     0
 10
53.75
 20
-93.84375
  1
上昇159以上
 40
3.0
 50
90.0
 72
     5
 11
53.75
 21
-75.65625
  0
ENDBLK
  0
BLOCK
  2
*DIM_0020
 70
    65
 10
0.0
 20
0.0
  0
LINE
  8
寸法
  6
CONTINUOUS
 10
-65.598747
 20
-86.813382
 11
-50.32295
 21
-86.813382
  0
LINE
  8
寸法
  6
CONTINUOUS
 10
-67.75397
 20
-96.613382
 11
-50.32295
 21
-96.613382
  0
LINE
  8
寸法
  6
CONTINUOUS
 10
-50.32295
 20
-86.813382
 11
-50.32295
 21
-96.613382
  0
POINT
  8
寸法
 10
-50.32295
 20
-86.813382
  0
POINT
  8
寸法
 10
-50.32295
 20
-96.613382
  0
TEXT
  7
TextStyle03
  8
寸法
  6
CONTINUOUS
 10
-50.7
 20
-94.1625
  1
196
 40
3.0
 50
90.0
 72
     5
 11
-50.7
 21
-89.2875
  0
ENDBLK
  0
ENDSEC
  0
SECTION
  2
ENTITIES
  0
POLYLINE
  8
通り芯
  6
CONTINUOUS
 66
     1
 70
     1
  0
VERTEX
  8
通り芯
 10
-210.0
 20
-148.5
  0
VERTEX
  8
通り芯
 10
210.0
 20
-148.5
  0
VERTEX
  8
通り芯
 10
210.0
 20
148.5
  0
VERTEX
  8
通り芯
 10
-210.0
 20
148.5
  0
SEQEND
  0
INSERT
  2
*GRP_0001
  8
型材断面
  6
CONTINUOUS
 10
0.0
 20
0.0
  0
ARC
  8
型材断面
  6
CONTINUOUS
 62
    47
 10
-127.33375
 20
-90.773383
 40
0.015
 50
180.0
 51
270.0
  0
ARC
  8
型材断面
  6
CONTINUOUS
 62
    47
 10
-128.18375
 20
-89.998383
 40
0.015
 50
180.0
 51
270.0
  0
LINE
  8
型材断面
  6
CONTINUOUS
 62
    47
 10
-128.198748
 20
-89.998383
 11
-128.198748
 21
-86.813382
  0
LINE
  8
型材断面
  6
CONTINUOUS
 62
    47
 10
-127.348745
 20
-90.40338
 11
-127.333745
 21
-90.38838
  0
LINE
  8
型材断面
  6
CONTINUOUS
 62
    47
 10
-127.333745
 20
-90.38838
 11
-127.348745
 21
-90.373383
  0
LINE
  8
型材断面
  6
CONTINUOUS
 62
    47
 10
-127.348745
 20
-90.773383
 11
-127.348745
 21
-90.40338
  0
LINE
  8
型材断面
  6
CONTINUOUS
 10
-128.198748
 20
-86.813382
 11
-128.287045
 21
-86.725085
  0
LINE
  8
型材断面
  6
CONTINUOUS
 62
    47
 10
-127.348745
 20
-90.373383
 11
-127.348745
 21
-90.01338
  0
LINE
  8
型材断面
  6
CONTINUOUS
 10
-129.922623
 20
12.266025
 11
-133.808382
 21
13.16011
  0
LINE
  8
型材断面
  6
CONTINUOUS
 10
-129.922623
 20
12.266025
 11
-133.808382
 21
11.37194
  0
LINE
  8
型材断面
  6
CONTINUOUS
 10
-133.808382
 20
11.37194
 11
-133.808382
 21
13.16011
  0
LINE
  8
型材断面
  6
CONTINUOUS
 10
-128.198748
 20
0.416028
 11
-128.198748
 21
21.716028
  0
LINE
  8
型材断面
  6
CONTINUOUS
 10
-99.398747
 20
-57.801433
 11
-99.398747
 21
-59.102315
  0
LINE
  8
型材断面
  6
CONTINUOUS
 10
-99.398747
 20
-57.801433
 11
-99.398747
 21
-59.102315
  0
LINE
  8
型材断面
  6
CONTINUOUS
 10
-99.398747
 20
-57.801433
 11
-99.398747
 21
-59.102315
  0
LINE
  8
型材断面
  6
CONTINUOUS
 10
-99.398747
 20
-57.801433
 11
-99.398747
 21
-59.102315
  0
LINE
  8
型材断面
  6
CONTINUOUS
 10
-99.398747
 20
-57.801397
 11
-101.898747
 21
-60.301397
  0
LINE
  8
型材断面
  6
CONTINUOUS
 10
-99.398747
 20
-59.20708
 11
-100.493067
 21
-60.301397
  0
LINE
  8
型材断面
  6
CONTINUOUS
 10
-101.898747
 20
-60.301397
 11
-100.493067
 21
-60.301397
  0
LINE
  8
型材断面
  6
CONTINUOUS
 10
-96.898747
 20
-60.301397
 11
-98.304428
 21
-60.301397
  0
LINE
  8
型材断面
  6
CONTINUOUS
 10
-99.398747
 20
-59.20708
 11
-98.304428
 21
-60.301397
  0
LINE
  8
型材断面
  6
CONTINUOUS
 10
-99.398747
 20
-57.801397
 11
-96.898747
 21
-60.301397
  0
LINE
  8
型材断面
  6
CONTINUOUS
 10
-128.287045
 20
-86.725085
 11
-101.863363
 21
-60.301397
  0
LINE
  8
型材断面
  6
CONTINUOUS
 10
-127.109813
 20
-86.813382
 11
-100.59783
 21
-60.301397
  0
LINE
  8
型材断面
  6
CONTINUOUS
 10
-128.198748
 20
-86.813382
 11
-99.398747
 21
-86.813382
  0
LINE
  8
型材断面
  6
CONTINUOUS
 62
    47
 10
-128.183748
 20
-90.01338
 11
-99.398747
 21
-90.01338
  0
LINE
  8
型材断面
  6
CONTINUOUS
 62
    47
 10
-127.333745
 20
-90.788382
 11
-99.398747
 21
-90.788382
  0
ARC
  8
型材断面
  6
CONTINUOUS
 62
    47
 10
-71.463746
 20
-90.773383
 40
0.015
 50
270.0
 51
360.0
  0
ARC
  8
型材断面
  6
CONTINUOUS
 62
    47
 10
-70.613746
 20
-89.998383
 40
0.015
 50
270.0
 51
360.0
  0
LINE
  8
型材断面
  6
CONTINUOUS
 62
    47
 10
-70.598747
 20
-89.998383
 11
-70.598747
 21
-86.813382
  0
LINE
  8
型材断面
  6
CONTINUOUS
 62
    47
 10
-71.44875
 20
-90.40338
 11
-71.46375
 21
-90.38838
  0
LINE
  8
型材断面
  6
CONTINUOUS
 62
    47
 10
-71.46375
 20
-90.38838
 11
-71.44875
 21
-90.373383
  0
LINE
  8
型材断面
  6
CONTINUOUS
 62
    47
 10
-71.44875
 20
-90.773383
 11
-71.44875
 21
-90.40338
  0
LINE
  8
型材断面
  6
CONTINUOUS
 10
-70.598747
 20
-86.813382
 11
-70.51045
 21
-86.725085
  0
LINE
  8
型材断面
  6
CONTINUOUS
 62
    47
 10
-71.44875
 20
-90.373383
 11
-71.44875
 21
-90.01338
  0
LINE
  8
型材断面
  6
CONTINUOUS
 10
-70.51045
 20
-86.725085
 11
-96.934133
 21
-60.301397
  0
LINE
  8
型材断面
  6
CONTINUOUS
 10
-71.687683
 20
-86.813382
 11
-98.199665
 21
-60.301397
  0
LINE
  8
型材断面
  6
CONTINUOUS
 10
-70.598747
 20
-86.813382
 11
-99.398747
 21
-86.813382
  0
LINE
  8
型材断面
  6
CONTINUOUS
 62
    47
 10
-70.613748
 20
-90.01338
 11
-99.398747
 21
-90.01338
  0
LINE
  8
型材断面
  6
CONTINUOUS
 62
    47
 10
-71.46375
 20
-90.788382
 11
-99.398747
 21
-90.788382
  0
LINE
  8
型材断面
  6
CONTINUOUS
 10
-44.439203
 20
5.837107
 11
-46.682647
 21
1.951347
  0
LINE
  8
型材断面
  6
CONTINUOUS
 10
-44.439203
 20
5.837107
 11
-42.195758
 21
1.951347
  0
LINE
  8
型材断面
  6
CONTINUOUS
 10
-42.195758
 20
1.951347
 11
-46.682647
 21
1.951347
  0
LINE
  8
型材断面
  6
CONTINUOUS
 10
-44.439203
 20
-1.85244
 11
-43.545118
 21
-5.7382
  0
LINE
  8
型材断面
  6
CONTINUOUS
 10
-44.439203
 20
-1.85244
 11
-45.333288
 21
-5.7382
  0
LINE
  8
型材断面
  6
CONTINUOUS
 10
-45.333288
 20
-5.7382
 11
-43.545118
 21
-5.7382
  0
LINE
  8
型材断面
  6
CONTINUOUS
 10
-53.473082
 20
0.543455
 11
-0.816403
 21
0.543455
  0
LINE
  8
型材断面
  6
CONTINUOUS
 10
-53.473082
 20
-10.656538
 11
-0.816403
 21
-10.656538
  0
LINE
  8
型材断面
  6
CONTINUOUS
 10
-53.473082
 20
-17.496483
 11
-0.816403
 21
-17.496483
  0
LINE
  8
型材断面
  6
DASHDOT
 10
-121.898747
 20
6.716028
 11
-76.898747
 21
6.716028
  0
LINE
  8
型材断面
  6
DASHDOT
 10
-121.898747
 20
51.716028
 11
-76.898747
 21
51.716028
  0
LINE
  8
型材断面
  6
DASHDOTX2
 10
-121.898747
 20
29.216028
 11
-76.898747
 21
29.216028
  0
LINE
  8
型材断面
  6
CONTINUOUS
 10
-128.198748
 20
0.416028
 11
-99.398747
 21
0.416028
  0
LINE
  8
型材断面
  6
CONTINUOUS
 10
-100.804428
 20
29.216028
 11
-101.898747
 21
30.310345
  0
LINE
  8
型材断面
  6
CONTINUOUS
 10
-101.898747
 20
30.310345
 11
-101.898747
 21
31.716025
  0
LINE
  8
型材断面
  6
CONTINUOUS
 10
-100.493067
 20
31.716028
 11
-101.898747
 21
31.716025
  0
LINE
  8
型材断面
  6
CONTINUOUS
 10
-99.398747
 20
30.621708
 11
-100.49307
 21
31.716028
  0
LINE
  8
型材断面
  6
CONTINUOUS
 10
-99.398747
 20
29.216028
 11
-101.898747
 21
31.716025
  0
LINE
  8
型材断面
  6
CONTINUOUS
 10
-100.804428
 20
29.216028
 11
-101.898747
 21
28.12171
  0
LINE
  8
型材断面
  6
CONTINUOUS
 10
-101.898747
 20
28.12171
 11
-101.898747
 21
26.71603
  0
LINE
  8
型材断面
  6
CONTINUOUS
 10
-100.493067
 20
26.716028
 11
-101.898747
 21
26.71603
  0
LINE
  8
型材断面
  6
CONTINUOUS
 10
-99.398747
 20
27.810347
 11
-100.49307
 21
26.716028
  0
LINE
  8
型材断面
  6
CONTINUOUS
 10
-99.398747
 20
29.216028
 11
-101.898747
 21
26.71603
  0
LINE
  8
型材断面
  6
CONTINUOUS
 10
-97.993062
 20
29.216028
 11
-96.898743
 21
28.12171
  0
LINE
  8
型材断面
  6
CONTINUOUS
 10
-96.898743
 20
28.12171
 11
-96.898743
 21
26.71603
  0
LINE
  8
型材断面
  6
CONTINUOUS
 10
-98.304422
 20
26.716028
 11
-96.898743
 21
26.71603
  0
LINE
  8
型材断面
  6
CONTINUOUS
 10
-99.398743
 20
27.810347
 11
-98.30442
 21
26.716028
  0
LINE
  8
型材断面
  6
CONTINUOUS
 10
-99.398743
 20
29.216028
 11
-96.898743
 21
26.71603
  0
LINE
  8
型材断面
  6
CONTINUOUS
 10
-97.993062
 20
29.216028
 11
-96.898743
 21
30.310345
  0
LINE
  8
型材断面
  6
CONTINUOUS
 10
-96.898743
 20
30.310345
 11
-96.898743
 21
31.716025
  0
LINE
  8
型材断面
  6
CONTINUOUS
 10
-98.304422
 20
31.716028
 11
-96.898743
 21
31.716025
  0
LINE
  8
型材断面
  6
CONTINUOUS
 10
-99.398743
 20
30.621708
 11
-98.30442
 21
31.716028
  0
LINE
  8
型材断面
  6
CONTINUOUS
 10
-99.398743
 20
29.216028
 11
-96.898743
 21
31.716025
  0
LINE
  8
型材断面
  6
CONTINUOUS
 10
-128.198748
 20
1.602468
 11
-101.898747
 21
27.902465
  0
LINE
  8
型材断面
  6
CONTINUOUS
 10
-128.198748
 20
0.416028
 11
-101.898747
 21
26.71603
  0
LINE
  8
型材断面
  6
CONTINUOUS
 10
-127.01231
 20
0.416028
 11
-100.71231
 21
26.716028
  0
LINE
  8
型材断面
  6
CONTINUOUS
 10
-128.198748
 20
21.716028
 11
-128.198748
 21
29.216028
  0
LINE
  8
型材断面
  6
CONTINUOUS
 10
-128.198748
 20
58.016028
 11
-128.198748
 21
36.716028
  0
LINE
  8
型材断面
  6
CONTINUOUS
 10
-128.198748
 20
58.016028
 11
-99.398747
 21
58.016028
  0
LINE
  8
型材断面
  6
CONTINUOUS
 10
-128.198748
 20
56.829587
 11
-101.898747
 21
30.52959
  0
LINE
  8
型材断面
  6
CONTINUOUS
 10
-128.198748
 20
58.016028
 11
-101.898747
 21
31.716025
  0
LINE
  8
型材断面
  6
CONTINUOUS
 10
-127.01231
 20
58.016028
 11
-100.71231
 21
31.716028
  0
LINE
  8
型材断面
  6
CONTINUOUS
 10
-128.198748
 20
36.716028
 11
-128.198748
 21
29.216028
  0
LINE
  8
型材断面
  6
CONTINUOUS
 10
-70.598747
 20
58.016028
 11
-70.598747
 21
36.716028
  0
LINE
  8
型材断面
  6
CONTINUOUS
 10
-70.598747
 20
58.016028
 11
-99.398747
 21
58.016028
  0
LINE
  8
型材断面
  6
CONTINUOUS
 10
-70.598747
 20
56.829587
 11
-96.898747
 21
30.52959
  0
LINE
  8
型材断面
  6
CONTINUOUS
 10
-70.598747
 20
58.016028
 11
-96.898747
 21
31.716025
  0
LINE
  8
型材断面
  6
CONTINUOUS
 10
-71.785185
 20
58.016028
 11
-98.085185
 21
31.716028
  0
LINE
  8
型材断面
  6
CONTINUOUS
 10
-70.598747
 20
36.716028
 11
-70.598747
 21
29.216028
  0
LINE
  8
型材断面
  6
CONTINUOUS
 10
-70.598747
 20
0.416028
 11
-70.598747
 21
21.716028
  0
LINE
  8
型材断面
  6
CONTINUOUS
 10
-70.598747
 20
0.416028
 11
-99.398747
 21
0.416028
  0
LINE
  8
型材断面
  6
CONTINUOUS
 10
-70.598747
 20
1.602468
 11
-96.898747
 21
27.902465
  0
LINE
  8
型材断面
  6
CONTINUOUS
 10
-70.598747
 20
0.416028
 11
-96.898747
 21
26.71603
  0
LINE
  8
型材断面
  6
CONTINUOUS
 10
-71.785185
 20
0.416028
 11
-98.085185
 21
26.716028
  0
LINE
  8
型材断面
  6
CONTINUOUS
 10
-70.598747
 20
21.716028
 11
-70.598747
 21
29.216028
  0
LINE
  8
型材断面
  6
DOT
 10
-81.000993
 20
51.716028
 11
-81.000993
 21
6.716028
  0
LINE
  8
型材断面
  6
DOT
 10
-79.000993
 20
51.716028
 11
-79.000993
 21
6.716028
  0
LINE
  8
型材断面
  6
CONTINUOUS
 10
-129.922623
 20
46.16603
 11
-133.808382
 21
45.271945
  0
LINE
  8
型材断面
  6
CONTINUOUS
 10
-129.922623
 20
46.16603
 11
-133.808382
 21
47.060115
  0
LINE
  8
型材断面
  6
CONTINUOUS
 10
-133.808382
 20
47.060115
 11
-133.808382
 21
45.271945
  0
LINE
  8
型材断面
  6
CONTINUOUS
 10
-68.874873
 20
12.266025
 11
-64.989113
 21
13.16011
  0
LINE
  8
型材断面
  6
CONTINUOUS
 10
-68.874873
 20
12.266025
 11
-64.989113
 21
11.37194
  0
LINE
  8
型材断面
  6
CONTINUOUS
 10
-64.989113
 20
11.37194
 11
-64.989113
 21
13.16011
  0
LINE
  8
型材断面
  6
CONTINUOUS
 10
-68.874873
 20
46.16603
 11
-64.989113
 21
45.271945
  0
LINE
  8
型材断面
  6
CONTINUOUS
 10
-68.874873
 20
46.16603
 11
-64.989113
 21
47.060115
  0
LINE
  8
型材断面
  6
CONTINUOUS
 10
-64.989113
 20
47.060115
 11
-64.989113
 21
45.271945
  0
LINE
  8
型材断面
  6
CONTINUOUS
 10
-99.398747
 20
59.739903
 11
-101.642192
 21
63.625662
  0
LINE
  8
型材断面
  6
CONTINUOUS
 10
-99.398747
 20
59.739903
 11
-97.155303
 21
63.625662
  0
LINE
  8
型材断面
  6
CONTINUOUS
 10
-97.155303
 20
63.625662
 11
-101.642192
 21
63.625662
  0
LINE
  8
型材断面
  6
CONTINUOUS
 10
-99.398747
 20
-1.307848
 11
-101.642192
 21
-5.193607
  0
LINE
  8
型材断面
  6
CONTINUOUS
 10
-99.398747
 20
-1.307848
 11
-97.155303
 21
-5.193607
  0
LINE
  8
型材断面
  6
CONTINUOUS
 10
-97.155303
 20
-5.193607
 11
-101.642192
 21
-5.193607
  0
LINE
  8
型材断面
  6
CONTINUOUS
 10
-68.874873
 20
29.216028
 11
-64.989113
 21
31.459473
  0
LINE
  8
型材断面
  6
CONTINUOUS
 10
-68.874873
 20
29.216028
 11
-64.989113
 21
26.972582
  0
LINE
  8
型材断面
  6
CONTINUOUS
 10
-64.989113
 20
26.972582
 11
-64.989113
 21
31.459473
  0
LINE
  8
型材断面
  6
CONTINUOUS
 10
-129.922623
 20
29.216028
 11
-133.808382
 21
31.459473
  0
LINE
  8
型材断面
  6
CONTINUOUS
 10
-129.922623
 20
29.216028
 11
-133.808382
 21
26.972582
  0
LINE
  8
型材断面
  6
CONTINUOUS
 10
-133.808382
 20
26.972582
 11
-133.808382
 21
31.459473
  0
ARC
  8
型材断面
  6
CONTINUOUS
 62
    47
 10
-20.406307
 20
-90.773383
 40
0.015
 50
180.0
 51
270.0
  0
ARC
  8
型材断面
  6
CONTINUOUS
 62
    47
 10
-21.256307
 20
-89.998383
 40
0.015
 50
180.0
 51
270.0
  0
LINE
  8
型材断面
  6
CONTINUOUS
 62
    47
 10
-21.271305
 20
-89.998383
 11
-21.271305
 21
-86.813382
  0
LINE
  8
型材断面
  6
CONTINUOUS
 62
    47
 10
-20.421303
 20
-90.40338
 11
-20.406303
 21
-90.38838
  0
LINE
  8
型材断面
  6
CONTINUOUS
 62
    47
 10
-20.406303
 20
-90.38838
 11
-20.421303
 21
-90.373383
  0
LINE
  8
型材断面
  6
CONTINUOUS
 62
    47
 10
-20.421303
 20
-90.773383
 11
-20.421303
 21
-90.40338
  0
LINE
  8
型材断面
  6
CONTINUOUS
 10
-21.271305
 20
-86.813382
 11
-21.359602
 21
-86.725085
  0
LINE
  8
型材断面
  6
CONTINUOUS
 62
    47
 10
-20.421303
 20
-90.373383
 11
-20.421303
 21
-90.01338
  0
LINE
  8
型材断面
  6
CONTINUOUS
 10
7.528695
 20
-57.801433
 11
7.528695
 21
-59.102315
  0
LINE
  8
型材断面
  6
CONTINUOUS
 10
7.528695
 20
-57.801433
 11
7.528695
 21
-59.102315
  0
LINE
  8
型材断面
  6
CONTINUOUS
 10
7.528695
 20
-57.801433
 11
7.528695
 21
-59.102315
  0
LINE
  8
型材断面
  6
CONTINUOUS
 10
7.528695
 20
-57.801433
 11
7.528695
 21
-59.102315
  0
LINE
  8
型材断面
  6
CONTINUOUS
 10
7.528695
 20
-57.801397
 11
5.028695
 21
-60.301397
  0
LINE
  8
型材断面
  6
CONTINUOUS
 10
7.528695
 20
-59.20708
 11
6.434375
 21
-60.301397
  0
LINE
  8
型材断面
  6
CONTINUOUS
 10
5.028695
 20
-60.301397
 11
6.434375
 21
-60.301397
  0
LINE
  8
型材断面
  6
CONTINUOUS
 10
10.028695
 20
-60.301397
 11
8.623015
 21
-60.301397
  0
LINE
  8
型材断面
  6
CONTINUOUS
 10
7.528695
 20
-59.20708
 11
8.623015
 21
-60.301397
  0
LINE
  8
型材断面
  6
CONTINUOUS
 10
7.528695
 20
-57.801397
 11
10.028695
 21
-60.301397
  0
LINE
  8
型材断面
  6
CONTINUOUS
 10
-21.359602
 20
-86.725085
 11
5.06408
 21
-60.301397
  0
LINE
  8
型材断面
  6
CONTINUOUS
 10
-20.18237
 20
-86.813382
 11
6.329613
 21
-60.301397
  0
LINE
  8
型材断面
  6
CONTINUOUS
 10
-21.271305
 20
-86.813382
 11
7.528695
 21
-86.813382
  0
LINE
  8
型材断面
  6
CONTINUOUS
 62
    47
 10
-21.256305
 20
-90.01338
 11
7.528695
 21
-90.01338
  0
LINE
  8
型材断面
  6
CONTINUOUS
 62
    47
 10
-20.406303
 20
-90.788382
 11
7.528695
 21
-90.788382
  0
ARC
  8
型材断面
  6
CONTINUOUS
 62
    47
 10
35.463696
 20
-90.773383
 40
0.015
 50
270.0
 51
360.0
  0
ARC
  8
型材断面
  6
CONTINUOUS
 62
    47
 10
36.313696
 20
-89.998383
 40
0.015
 50
270.0
 51
360.0
  0
LINE
  8
型材断面
  6
CONTINUOUS
 62
    47
 10
36.328695
 20
-89.998383
 11
36.328695
 21
-86.813382
  0
LINE
  8
型材断面
  6
CONTINUOUS
 62
    47
 10
35.478693
 20
-90.40338
 11
35.463693
 21
-90.38838
  0
LINE
  8
型材断面
  6
CONTINUOUS
 62
    47
 10
35.463693
 20
-90.38838
 11
35.478693
 21
-90.373383
  0
LINE
  8
型材断面
  6
CONTINUOUS
 62
    47
 10
35.478693
 20
-90.773383
 11
35.478693
 21
-90.40338
  0
LINE
  8
型材断面
  6
CONTINUOUS
 10
36.328695
 20
-86.813382
 11
36.416993
 21
-86.725085
  0
LINE
  8
型材断面
  6
CONTINUOUS
 62
    47
 10
35.478693
 20
-90.373383
 11
35.478693
 21
-90.01338
  0
LINE
  8
型材断面
  6
CONTINUOUS
 10
36.416993
 20
-86.725085
 11
9.99331
 21
-60.301397
  0
LINE
  8
型材断面
  6
CONTINUOUS
 10
35.23976
 20
-86.813382
 11
8.727778
 21
-60.301397
  0
LINE
  8
型材断面
  6
CONTINUOUS
 10
36.328695
 20
-86.813382
 11
7.528695
 21
-86.813382
  0
LINE
  8
型材断面
  6
CONTINUOUS
 62
    47
 10
36.313695
 20
-90.01338
 11
7.528695
 21
-90.01338
  0
LINE
  8
型材断面
  6
CONTINUOUS
 62
    47
 10
35.463693
 20
-90.788382
 11
7.528695
 21
-90.788382
  0
INSERT
  2
*GRP_0002
  8
型材断面
  6
CONTINUOUS
 10
0.0
 20
0.0
  0
INSERT
  2
*GRP_0003
  8
型材断面
  6
CONTINUOUS
 10
0.0
 20
0.0
  0
ARC
  8
型材断面
  6
DOT
 62
    47
 10
-20.406307
 20
-79.773383
 40
0.015
 50
180.0
 51
270.0
  0
ARC
  8
型材断面
  6
DOT
 62
    47
 10
-21.256307
 20
-78.998383
 40
0.015
 50
180.0
 51
270.0
  0
LINE
  8
型材断面
  6
DOT
 62
    47
 10
-21.271305
 20
-78.998383
 11
-21.271305
 21
-75.813382
  0
LINE
  8
型材断面
  6
DOT
 62
    47
 10
-20.421303
 20
-79.40338
 11
-20.406303
 21
-79.38838
  0
LINE
  8
型材断面
  6
DOT
 62
    47
 10
-20.406303
 20
-79.38838
 11
-20.421303
 21
-79.373383
  0
LINE
  8
型材断面
  6
DOT
 62
    47
 10
-20.421303
 20
-79.773383
 11
-20.421303
 21
-79.40338
  0
LINE
  8
型材断面
  6
DOT
 10
-21.271305
 20
-75.813382
 11
-21.359602
 21
-75.725085
  0
LINE
  8
型材断面
  6
DOT
 62
    47
 10
-20.421303
 20
-79.373383
 11
-20.421303
 21
-79.01338
  0
LINE
  8
型材断面
  6
DOT
 10
7.528695
 20
-46.801433
 11
7.528695
 21
-48.102315
  0
LINE
  8
型材断面
  6
DOT
 10
7.528695
 20
-46.801433
 11
7.528695
 21
-48.102315
  0
LINE
  8
型材断面
  6
DOT
 10
7.528695
 20
-46.801433
 11
7.528695
 21
-48.102315
  0
LINE
  8
型材断面
  6
DOT
 10
7.528695
 20
-46.801433
 11
7.528695
 21
-48.102315
  0
LINE
  8
型材断面
  6
DOT
 10
7.528695
 20
-46.801397
 11
5.028695
 21
-49.301397
  0
LINE
  8
型材断面
  6
DOT
 10
7.528695
 20
-48.20708
 11
6.434375
 21
-49.301397
  0
LINE
  8
型材断面
  6
DOT
 10
5.028695
 20
-49.301397
 11
6.434375
 21
-49.301397
  0
LINE
  8
型材断面
  6
DOT
 10
10.028695
 20
-49.301397
 11
8.623015
 21
-49.301397
  0
LINE
  8
型材断面
  6
DOT
 10
7.528695
 20
-48.20708
 11
8.623015
 21
-49.301397
  0
LINE
  8
型材断面
  6
DOT
 10
7.528695
 20
-46.801397
 11
10.028695
 21
-49.301397
  0
LINE
  8
型材断面
  6
DOT
 10
-21.359602
 20
-75.725085
 11
5.06408
 21
-49.301397
  0
LINE
  8
型材断面
  6
DOT
 10
-20.18237
 20
-75.813382
 11
6.329613
 21
-49.301397
  0
LINE
  8
型材断面
  6
DOT
 10
-21.271305
 20
-75.813382
 11
7.528695
 21
-75.813382
  0
LINE
  8
型材断面
  6
DOT
 62
    47
 10
-21.256305
 20
-79.01338
 11
7.528695
 21
-79.01338
  0
LINE
  8
型材断面
  6
DOT
 62
    47
 10
-20.406303
 20
-79.788382
 11
7.528695
 21
-79.788382
  0
ARC
  8
型材断面
  6
DOT
 62
    47
 10
35.463696
 20
-79.773383
 40
0.015
 50
270.0
 51
360.0
  0
ARC
  8
型材断面
  6
DOT
 62
    47
 10
36.313696
 20
-78.998383
 40
0.015
 50
270.0
 51
360.0
  0
LINE
  8
型材断面
  6
DOT
 62
    47
 10
36.328695
 20
-78.998383
 11
36.328695
 21
-75.813382
  0
LINE
  8
型材断面
  6
DOT
 62
    47
 10
35.478693
 20
-79.40338
 11
35.463693
 21
-79.38838
  0
LINE
  8
型材断面
  6
DOT
 62
    47
 10
35.463693
 20
-79.38838
 11
35.478693
 21
-79.373383
  0
LINE
  8
型材断面
  6
DOT
 62
    47
 10
35.478693
 20
-79.773383
 11
35.478693
 21
-79.40338
  0
LINE
  8
型材断面
  6
DOT
 10
36.328695
 20
-75.813382
 11
36.416993
 21
-75.725085
  0
LINE
  8
型材断面
  6
DOT
 62
    47
 10
35.478693
 20
-79.373383
 11
35.478693
 21
-79.01338
  0
LINE
  8
型材断面
  6
DOT
 10
36.416993
 20
-75.725085
 11
9.99331
 21
-49.301397
  0
LINE
  8
型材断面
  6
DOT
 10
35.23976
 20
-75.813382
 11
8.727778
 21
-49.301397
  0
LINE
  8
型材断面
  6
DOT
 10
36.328695
 20
-75.813382
 11
7.528695
 21
-75.813382
  0
LINE
  8
型材断面
  6
DOT
 62
    47
 10
36.313695
 20
-79.01338
 11
7.528695
 21
-79.01338
  0
LINE
  8
型材断面
  6
DOT
 62
    47
 10
35.463693
 20
-79.788382
 11
7.528695
 21
-79.788382
  0
POLYLINE
  8
型材断面
  6
CONTINUOUS
 66
     1
 70
     1
  0
VERTEX
  8
型材断面
 10
-90.07028
 20
-6.001868
  0
VERTEX
  8
型材断面
 10
-108.625493
 20
-6.001868
  0
VERTEX
  8
型材断面
 10
-108.625493
 20
-10.793902
  0
VERTEX
  8
型材断面
 10
-90.07028
 20
-10.793902
  0
SEQEND
  0
POLYLINE
  8
型材断面
  6
CONTINUOUS
 66
     1
 70
     1
  0
VERTEX
  8
型材断面
 10
-90.07028
 20
69.259575
  0
VERTEX
  8
型材断面
 10
-108.625493
 20
69.259575
  0
VERTEX
  8
型材断面
 10
-108.625493
 20
64.46754
  0
VERTEX
  8
型材断面
 10
-90.07028
 20
64.46754
  0
SEQEND
  0
LINE
  8
型材断面
  6
CONTINUOUS
 10
108.01038
 20
-56.083095
 11
131.942002
 21
-56.083095
  0
LINE
  8
型材断面
  6
CONTINUOUS
 10
-53.473082
 20
-24.336427
 11
-0.816403
 21
-24.336427
  0
LINE
  8
型材断面
  6
DASHDOT
 10
-76.898747
 20
-96.818555
 11
-76.898747
 21
51.716028
  0
LINE
  8
型材断面
  6
DASHDOT
 10
-99.398747
 20
-96.818555
 11
-99.398747
 21
51.716028
  0
LINE
  8
型材断面
  6
DASHDOT
 10
-121.898747
 20
-96.818555
 11
-121.898747
 21
51.716028
  0
LINE
  8
型材断面
  6
CONTINUOUS
 10
-125.293525
 20
-96.613382
 11
-125.293525
 21
-97.118383
  0
LINE
  8
型材断面
  6
CONTINUOUS
 10
-126.043525
 20
-96.613382
 11
-125.293525
 21
-96.613382
  0
LINE
  8
型材断面
  6
CONTINUOUS
 10
-126.043525
 20
-96.613382
 11
-126.043525
 21
-90.788382
  0
LINE
  8
型材断面
  6
CONTINUOUS
 10
-99.398747
 20
-96.613382
 11
-126.043525
 21
-96.613382
  0
LINE
  8
型材断面
  6
CONTINUOUS
 10
-99.398747
 20
-97.118383
 11
-125.293525
 21
-97.118383
  0
LINE
  8
型材断面
  6
CONTINUOUS
 10
-73.50397
 20
-96.613382
 11
-73.50397
 21
-97.118383
  0
LINE
  8
型材断面
  6
CONTINUOUS
 10
-72.75397
 20
-96.613382
 11
-73.50397
 21
-96.613382
  0
LINE
  8
型材断面
  6
CONTINUOUS
 10
-72.75397
 20
-96.613382
 11
-72.75397
 21
-90.788382
  0
LINE
  8
型材断面
  6
CONTINUOUS
 10
-99.398747
 20
-96.613382
 11
-72.75397
 21
-96.613382
  0
LINE
  8
型材断面
  6
CONTINUOUS
 10
-99.398747
 20
-97.118383
 11
-73.50397
 21
-97.118383
  0
LINE
  8
型材断面
  6
CONTINUOUS
 10
-18.366082
 20
-96.613382
 11
-18.366082
 21
-97.118383
  0
LINE
  8
型材断面
  6
CONTINUOUS
 10
-19.116082
 20
-96.613382
 11
-18.366082
 21
-96.613382
  0
LINE
  8
型材断面
  6
CONTINUOUS
 10
-19.116082
 20
-96.613382
 11
-19.116082
 21
-90.788382
  0
LINE
  8
型材断面
  6
CONTINUOUS
 10
7.528695
 20
-96.613382
 11
-19.116082
 21
-96.613382
  0
LINE
  8
型材断面
  6
CONTINUOUS
 10
7.528695
 20
-97.118383
 11
-18.366082
 21
-97.118383
  0
LINE
  8
型材断面
  6
CONTINUOUS
 10
33.423473
 20
-96.613382
 11
33.423473
 21
-97.118383
  0
LINE
  8
型材断面
  6
CONTINUOUS
 10
34.173473
 20
-96.613382
 11
33.423473
 21
-96.613382
  0
LINE
  8
型材断面
  6
CONTINUOUS
 10
34.173473
 20
-96.613382
 11
34.173473
 21
-90.788382
  0
LINE
  8
型材断面
  6
CONTINUOUS
 10
7.528695
 20
-96.613382
 11
34.173473
 21
-96.613382
  0
LINE
  8
型材断面
  6
CONTINUOUS
 10
7.528695
 20
-97.118383
 11
33.423473
 21
-97.118383
  0
LINE
  8
ガラス
  6
CONTINUOUS
 10
-97.40148
 20
15.729895
 11
-101.274115
 21
11.85726
  0
LINE
  8
ガラス
  6
CONTINUOUS
 10
-98.281802
 20
14.131538
 11
-99.675757
 21
12.737582
  0
LINE
  8
ガラス
  6
CONTINUOUS
 10
-98.999838
 20
14.849573
 11
-100.393793
 21
13.455617
  0
LINE
  8
ガラス
  6
CONTINUOUS
 10
-81.345405
 20
31.1417
 11
-85.21804
 21
27.269065
  0
LINE
  8
ガラス
  6
CONTINUOUS
 10
-82.225727
 20
29.543342
 11
-83.619682
 21
28.149388
  0
LINE
  8
ガラス
  6
CONTINUOUS
 10
-82.943762
 20
30.261377
 11
-84.337717
 21
28.867423
  0
LINE
  8
ガラス
  6
CONTINUOUS
 10
-113.589502
 20
31.1417
 11
-117.462137
 21
27.269065
  0
LINE
  8
ガラス
  6
CONTINUOUS
 10
-114.469825
 20
29.543342
 11
-115.86378
 21
28.149388
  0
LINE
  8
ガラス
  6
CONTINUOUS
 10
-115.18786
 20
30.261377
 11
-116.581815
 21
28.867423
  0
LINE
  8
ガラス
  6
CONTINUOUS
 10
-97.40148
 20
-75.052225
 11
-101.274115
 21
-78.92486
  0
LINE
  8
ガラス
  6
CONTINUOUS
 10
-98.281802
 20
-76.650583
 11
-99.675757
 21
-78.044538
  0
LINE
  8
ガラス
  6
CONTINUOUS
 10
-98.999838
 20
-75.932547
 11
-100.393793
 21
-77.326502
  0
LINE
  8
ガラス
  6
CONTINUOUS
 10
-97.40148
 20
47.90368
 11
-101.274115
 21
44.031045
  0
LINE
  8
ガラス
  6
CONTINUOUS
 10
-98.281802
 20
46.305322
 11
-99.675757
 21
44.911368
  0
LINE
  8
ガラス
  6
CONTINUOUS
 10
-98.999838
 20
47.023358
 11
-100.393793
 21
45.629402
  0
LINE
  8
ゴム等
  6
CONTINUOUS
 10
-122.07545
 20
-85.153625
 11
-124.036197
 21
-85.65747
  0
LINE
  8
ゴム等
  6
CONTINUOUS
 10
-124.036197
 20
-85.65747
 11
-124.39497
 21
-85.73505
  0
LINE
  8
ゴム等
  6
CONTINUOUS
 10
-124.39497
 20
-85.73505
 11
-127.109813
 21
-86.813382
  0
LINE
  8
ゴム等
  6
CONTINUOUS
 10
-122.127362
 20
2.60735
 11
-124.036348
 21
1.646808
  0
LINE
  8
ゴム等
  6
CONTINUOUS
 10
-124.036348
 20
1.646808
 11
-124.314575
 21
1.473148
  0
LINE
  8
ゴム等
  6
CONTINUOUS
 10
-124.395103
 20
1.459013
 11
-127.01231
 21
0.416028
  0
LINE
  8
ゴム等
  6
CONTINUOUS
 10
-126.007427
 20
6.487413
 11
-126.96797
 21
4.57843
  0
LINE
  8
ゴム等
  6
CONTINUOUS
 10
-126.96797
 20
4.57843
 11
-127.14163
 21
4.300202
  0
LINE
  8
ゴム等
  6
CONTINUOUS
 10
-127.155765
 20
4.219675
 11
-128.198748
 21
1.602468
  0
LINE
  8
ゴム等
  6
CONTINUOUS
 10
-126.96797
 20
4.57843
 11
-126.96797
 21
21.716028
  0
LINE
  8
ゴム等
  6
CONTINUOUS
 10
-127.155765
 20
4.219675
 11
-127.155765
 21
21.716028
  0
LINE
  8
ゴム等
  6
CONTINUOUS
 10
-126.007427
 20
6.487413
 11
-126.007427
 21
21.716028
  0
LINE
  8
ゴム等
  6
CONTINUOUS
 10
-124.036197
 20
-85.65747
 11
-99.398747
 21
-61.02002
  0
LINE
  8
ゴム等
  6
CONTINUOUS
 10
-124.39497
 20
-85.73505
 11
-99.398747
 21
-60.738828
  0
LINE
  8
ゴム等
  6
CONTINUOUS
 10
-122.07545
 20
-85.153625
 11
-99.398747
 21
-62.476923
  0
LINE
  8
ゴム等
  6
CONTINUOUS
 10
-124.39497
 20
-85.73505
 11
-99.398747
 21
-85.73505
  0
LINE
  8
ゴム等
  6
CONTINUOUS
 10
-124.036197
 20
-85.65747
 11
-99.398747
 21
-85.65747
  0
LINE
  8
ゴム等
  6
CONTINUOUS
 10
-122.07545
 20
-85.153625
 11
-99.398747
 21
-85.153625
  0
LINE
  8
ゴム等
  6
CONTINUOUS
 10
-76.722045
 20
-85.153625
 11
-74.761297
 21
-85.65747
  0
LINE
  8
ゴム等
  6
CONTINUOUS
 10
-74.761297
 20
-85.65747
 11
-74.402525
 21
-85.73505
  0
LINE
  8
ゴム等
  6
CONTINUOUS
 10
-74.402525
 20
-85.73505
 11
-71.687683
 21
-86.813382
  0
LINE
  8
ゴム等
  6
CONTINUOUS
 10
-74.761297
 20
-85.65747
 11
-99.398747
 21
-61.02002
  0
LINE
  8
ゴム等
  6
CONTINUOUS
 10
-74.402525
 20
-85.73505
 11
-99.398747
 21
-60.738828
  0
LINE
  8
ゴム等
  6
CONTINUOUS
 10
-76.722045
 20
-85.153625
 11
-99.398747
 21
-62.476923
  0
LINE
  8
ゴム等
  6
CONTINUOUS
 10
-74.402525
 20
-85.73505
 11
-99.398747
 21
-85.73505
  0
LINE
  8
ゴム等
  6
CONTINUOUS
 10
-74.761297
 20
-85.65747
 11
-99.398747
 21
-85.65747
  0
LINE
  8
ゴム等
  6
CONTINUOUS
 10
-76.722045
 20
-85.153625
 11
-99.398747
 21
-85.153625
  0
LINE
  8
ゴム等
  6
CONTINUOUS
 10
-124.395103
 20
1.459013
 11
-99.398747
 21
1.459013
  0
LINE
  8
ゴム等
  6
CONTINUOUS
 10
-124.036348
 20
1.646808
 11
-99.398747
 21
1.646808
  0
LINE
  8
ゴム等
  6
CONTINUOUS
 10
-122.127362
 20
2.60735
 11
-99.398747
 21
2.60735
  0
LINE
  8
ゴム等
  6
CONTINUOUS
 10
-126.007427
 20
6.487413
 11
-103.278813
 21
29.216028
  0
LINE
  8
ゴム等
  6
CONTINUOUS
 10
-126.96797
 20
4.57843
 11
-102.330372
 21
29.216028
  0
LINE
  8
ゴム等
  6
CONTINUOUS
 10
-127.155765
 20
4.219675
 11
-102.159412
 21
29.216028
  0
LINE
  8
ゴム等
  6
CONTINUOUS
 10
-124.036348
 20
1.646808
 11
-99.398747
 21
26.284408
  0
LINE
  8
ゴム等
  6
CONTINUOUS
 10
-124.395103
 20
1.459013
 11
-99.398747
 21
26.455367
  0
LINE
  8
ゴム等
  6
CONTINUOUS
 10
-122.127362
 20
2.60735
 11
-99.398747
 21
25.335965
  0
LINE
  8
ゴム等
  6
CONTINUOUS
 10
-126.96797
 20
21.716028
 11
-126.96797
 21
29.216028
  0
LINE
  8
ゴム等
  6
CONTINUOUS
 10
-127.155765
 20
21.716028
 11
-127.155765
 21
29.216028
  0
LINE
  8
ゴム等
  6
CONTINUOUS
 10
-126.007427
 20
21.716028
 11
-126.007427
 21
29.216028
  0
LINE
  8
ゴム等
  6
CONTINUOUS
 10
-122.127362
 20
55.824705
 11
-124.036348
 21
56.785247
  0
LINE
  8
ゴム等
  6
CONTINUOUS
 10
-124.036348
 20
56.785247
 11
-124.314575
 21
56.958907
  0
LINE
  8
ゴム等
  6
CONTINUOUS
 10
-124.395103
 20
56.973042
 11
-127.01231
 21
58.016028
  0
LINE
  8
ゴム等
  6
CONTINUOUS
 10
-126.007427
 20
51.944643
 11
-126.96797
 21
53.853625
  0
LINE
  8
ゴム等
  6
CONTINUOUS
 10
-126.96797
 20
53.853625
 11
-127.14163
 21
54.131853
  0
LINE
  8
ゴム等
  6
CONTINUOUS
 10
-127.155765
 20
54.21238
 11
-128.198748
 21
56.829587
  0
LINE
  8
ゴム等
  6
CONTINUOUS
 10
-126.96797
 20
53.853625
 11
-126.96797
 21
36.716028
  0
LINE
  8
ゴム等
  6
CONTINUOUS
 10
-127.155765
 20
54.21238
 11
-127.155765
 21
36.716028
  0
LINE
  8
ゴム等
  6
CONTINUOUS
 10
-126.007427
 20
51.944643
 11
-126.007427
 21
36.716028
  0
LINE
  8
ゴム等
  6
CONTINUOUS
 10
-124.395103
 20
56.973042
 11
-99.398747
 21
56.973042
  0
LINE
  8
ゴム等
  6
CONTINUOUS
 10
-124.036348
 20
56.785247
 11
-99.398747
 21
56.785247
  0
LINE
  8
ゴム等
  6
CONTINUOUS
 10
-122.127362
 20
55.824705
 11
-99.398747
 21
55.824705
  0
LINE
  8
ゴム等
  6
CONTINUOUS
 10
-126.007427
 20
51.944643
 11
-103.278813
 21
29.216028
  0
LINE
  8
ゴム等
  6
CONTINUOUS
 10
-126.96797
 20
53.853625
 11
-102.330372
 21
29.216028
  0
LINE
  8
ゴム等
  6
CONTINUOUS
 10
-127.155765
 20
54.21238
 11
-102.159412
 21
29.216028
  0
LINE
  8
ゴム等
  6
CONTINUOUS
 10
-124.036348
 20
56.785247
 11
-99.398747
 21
32.147647
  0
LINE
  8
ゴム等
  6
CONTINUOUS
 10
-124.395103
 20
56.973042
 11
-99.398747
 21
31.976687
  0
LINE
  8
ゴム等
  6
CONTINUOUS
 10
-122.127362
 20
55.824705
 11
-99.398747
 21
33.09609
  0
LINE
  8
ゴム等
  6
CONTINUOUS
 10
-126.96797
 20
36.716028
 11
-126.96797
 21
29.216028
  0
LINE
  8
ゴム等
  6
CONTINUOUS
 10
-127.155765
 20
36.716028
 11
-127.155765
 21
29.216028
  0
LINE
  8
ゴム等
  6
CONTINUOUS
 10
-126.007427
 20
36.716028
 11
-126.007427
 21
29.216028
  0
LINE
  8
ゴム等
  6
CONTINUOUS
 10
-76.670132
 20
55.824705
 11
-74.761147
 21
56.785247
  0
LINE
  8
ゴム等
  6
CONTINUOUS
 10
-74.761147
 20
56.785247
 11
-74.48292
 21
56.958907
  0
LINE
  8
ゴム等
  6
CONTINUOUS
 10
-74.402393
 20
56.973042
 11
-71.785185
 21
58.016028
  0
LINE
  8
ゴム等
  6
CONTINUOUS
 10
-72.790067
 20
51.944643
 11
-71.829525
 21
53.853625
  0
LINE
  8
ゴム等
  6
CONTINUOUS
 10
-71.829525
 20
53.853625
 11
-71.655865
 21
54.131853
  0
LINE
  8
ゴム等
  6
CONTINUOUS
 10
-71.64173
 20
54.21238
 11
-70.598747
 21
56.829587
  0
LINE
  8
ゴム等
  6
CONTINUOUS
 10
-71.829525
 20
53.853625
 11
-71.829525
 21
36.716028
  0
LINE
  8
ゴム等
  6
CONTINUOUS
 10
-71.64173
 20
54.21238
 11
-71.64173
 21
36.716028
  0
LINE
  8
ゴム等
  6
CONTINUOUS
 10
-72.790067
 20
51.944643
 11
-72.790067
 21
36.716028
  0
LINE
  8
ゴム等
  6
CONTINUOUS
 10
-74.402393
 20
56.973042
 11
-99.398747
 21
56.973042
  0
LINE
  8
ゴム等
  6
CONTINUOUS
 10
-74.761147
 20
56.785247
 11
-99.398747
 21
56.785247
  0
LINE
  8
ゴム等
  6
CONTINUOUS
 10
-76.670132
 20
55.824705
 11
-99.398747
 21
55.824705
  0
LINE
  8
ゴム等
  6
CONTINUOUS
 10
-72.790067
 20
51.944643
 11
-95.518682
 21
29.216028
  0
LINE
  8
ゴム等
  6
CONTINUOUS
 10
-71.829525
 20
53.853625
 11
-96.467123
 21
29.216028
  0
LINE
  8
ゴム等
  6
CONTINUOUS
 10
-71.64173
 20
54.21238
 11
-96.638083
 21
29.216028
  0
LINE
  8
ゴム等
  6
CONTINUOUS
 10
-74.761147
 20
56.785247
 11
-99.398747
 21
32.147647
  0
LINE
  8
ゴム等
  6
CONTINUOUS
 10
-74.402393
 20
56.973042
 11
-99.398747
 21
31.976687
  0
LINE
  8
ゴム等
  6
CONTINUOUS
 10
-76.670132
 20
55.824705
 11
-99.398747
 21
33.09609
  0
LINE
  8
ゴム等
  6
CONTINUOUS
 10
-71.829525
 20
36.716028
 11
-71.829525
 21
29.216028
  0
LINE
  8
ゴム等
  6
CONTINUOUS
 10
-71.64173
 20
36.716028
 11
-71.64173
 21
29.216028
  0
LINE
  8
ゴム等
  6
CONTINUOUS
 10
-72.790067
 20
36.716028
 11
-72.790067
 21
29.216028
  0
LINE
  8
ゴム等
  6
CONTINUOUS
 10
-76.670132
 20
2.60735
 11
-74.761147
 21
1.646808
  0
LINE
  8
ゴム等
  6
CONTINUOUS
 10
-74.761147
 20
1.646808
 11
-74.48292
 21
1.473148
  0
LINE
  8
ゴム等
  6
CONTINUOUS
 10
-74.402393
 20
1.459013
 11
-71.785185
 21
0.416028
  0
LINE
  8
ゴム等
  6
CONTINUOUS
 10
-72.790067
 20
6.487413
 11
-71.829525
 21
4.57843
  0
LINE
  8
ゴム等
  6
CONTINUOUS
 10
-71.829525
 20
4.57843
 11
-71.655865
 21
4.300202
  0
LINE
  8
ゴム等
  6
CONTINUOUS
 10
-71.64173
 20
4.219675
 11
-70.598747
 21
1.602468
  0
LINE
  8
ゴム等
  6
CONTINUOUS
 10
-71.829525
 20
4.57843
 11
-71.829525
 21
21.716028
  0
LINE
  8
ゴム等
  6
CONTINUOUS
 10
-71.64173
 20
4.219675
 11
-71.64173
 21
21.716028
  0
LINE
  8
ゴム等
  6
CONTINUOUS
 10
-72.790067
 20
6.487413
 11
-72.790067
 21
21.716028
  0
LINE
  8
ゴム等
  6
CONTINUOUS
 10
-74.402393
 20
1.459013
 11
-99.398747
 21
1.459013
  0
LINE
  8
ゴム等
  6
CONTINUOUS
 10
-74.761147
 20
1.646808
 11
-99.398747
 21
1.646808
  0
LINE
  8
ゴム等
  6
CONTINUOUS
 10
-76.670132
 20
2.60735
 11
-99.398747
 21
2.60735
  0
LINE
  8
ゴム等
  6
CONTINUOUS
 10
-72.790067
 20
6.487413
 11
-95.518682
 21
29.216028
  0
LINE
  8
ゴム等
  6
CONTINUOUS
 10
-71.829525
 20
4.57843
 11
-96.467123
 21
29.216028
  0
LINE
  8
ゴム等
  6
CONTINUOUS
 10
-71.64173
 20
4.219675
 11
-96.638083
 21
29.216028
  0
LINE
  8
ゴム等
  6
CONTINUOUS
 10
-74.761147
 20
1.646808
 11
-99.398747
 21
26.284408
  0
LINE
  8
ゴム等
  6
CONTINUOUS
 10
-74.402393
 20
1.459013
 11
-99.398747
 21
26.455367
  0
LINE
  8
ゴム等
  6
CONTINUOUS
 10
-76.670132
 20
2.60735
 11
-99.398747
 21
25.335965
  0
LINE
  8
ゴム等
  6
CONTINUOUS
 10
-71.829525
 20
21.716028
 11
-71.829525
 21
29.216028
  0
LINE
  8
ゴム等
  6
CONTINUOUS
 10
-71.64173
 20
21.716028
 11
-71.64173
 21
29.216028
  0
LINE
  8
ゴム等
  6
CONTINUOUS
 10
-72.790067
 20
21.716028
 11
-72.790067
 21
29.216028
  0
LINE
  8
ゴム等
  6
CONTINUOUS
 10
-15.148008
 20
-85.153625
 11
-17.108755
 21
-85.65747
  0
LINE
  8
ゴム等
  6
CONTINUOUS
 10
-17.108755
 20
-85.65747
 11
-17.467527
 21
-85.73505
  0
LINE
  8
ゴム等
  6
CONTINUOUS
 10
-17.467527
 20
-85.73505
 11
-20.18237
 21
-86.813382
  0
LINE
  8
ゴム等
  6
CONTINUOUS
 10
-17.108755
 20
-85.65747
 11
7.528695
 21
-61.02002
  0
LINE
  8
ゴム等
  6
CONTINUOUS
 10
-17.467527
 20
-85.73505
 11
7.528695
 21
-60.738828
  0
LINE
  8
ゴム等
  6
CONTINUOUS
 10
-15.148008
 20
-85.153625
 11
7.528695
 21
-62.476923
  0
LINE
  8
ゴム等
  6
CONTINUOUS
 10
-17.467527
 20
-85.73505
 11
7.528695
 21
-85.73505
  0
LINE
  8
ゴム等
  6
CONTINUOUS
 10
-17.108755
 20
-85.65747
 11
7.528695
 21
-85.65747
  0
LINE
  8
ゴム等
  6
CONTINUOUS
 10
-15.148008
 20
-85.153625
 11
7.528695
 21
-85.153625
  0
LINE
  8
ゴム等
  6
CONTINUOUS
 10
30.205398
 20
-85.153625
 11
32.166145
 21
-85.65747
  0
LINE
  8
ゴム等
  6
CONTINUOUS
 10
32.166145
 20
-85.65747
 11
32.524918
 21
-85.73505
  0
LINE
  8
ゴム等
  6
CONTINUOUS
 10
32.524918
 20
-85.73505
 11
35.23976
 21
-86.813382
  0
LINE
  8
ゴム等
  6
CONTINUOUS
 10
32.166145
 20
-85.65747
 11
7.528695
 21
-61.02002
  0
LINE
  8
ゴム等
  6
CONTINUOUS
 10
32.524918
 20
-85.73505
 11
7.528695
 21
-60.738828
  0
LINE
  8
ゴム等
  6
CONTINUOUS
 10
30.205398
 20
-85.153625
 11
7.528695
 21
-62.476923
  0
LINE
  8
ゴム等
  6
CONTINUOUS
 10
32.524918
 20
-85.73505
 11
7.528695
 21
-85.73505
  0
LINE
  8
ゴム等
  6
CONTINUOUS
 10
32.166145
 20
-85.65747
 11
7.528695
 21
-85.65747
  0
LINE
  8
ゴム等
  6
CONTINUOUS
 10
30.205398
 20
-85.153625
 11
7.528695
 21
-85.153625
  0
LINE
  8
ゴム等
  6
DOT
 10
-15.148008
 20
-74.153625
 11
-17.108755
 21
-74.65747
  0
LINE
  8
ゴム等
  6
DOT
 10
-17.108755
 20
-74.65747
 11
-17.467527
 21
-74.73505
  0
LINE
  8
ゴム等
  6
DOT
 10
-17.467527
 20
-74.73505
 11
-20.18237
 21
-75.813382
  0
LINE
  8
ゴム等
  6
DOT
 10
-17.108755
 20
-74.65747
 11
7.528695
 21
-50.02002
  0
LINE
  8
ゴム等
  6
DOT
 10
-17.467527
 20
-74.73505
 11
7.528695
 21
-49.738828
  0
LINE
  8
ゴム等
  6
DOT
 10
-15.148008
 20
-74.153625
 11
7.528695
 21
-51.476923
  0
LINE
  8
ゴム等
  6
DOT
 10
-17.467527
 20
-74.73505
 11
7.528695
 21
-74.73505
  0
LINE
  8
ゴム等
  6
DOT
 10
-17.108755
 20
-74.65747
 11
7.528695
 21
-74.65747
  0
LINE
  8
ゴム等
  6
DOT
 10
-15.148008
 20
-74.153625
 11
7.528695
 21
-74.153625
  0
LINE
  8
ゴム等
  6
DOT
 10
30.205398
 20
-74.153625
 11
32.166145
 21
-74.65747
  0
LINE
  8
ゴム等
  6
DOT
 10
32.166145
 20
-74.65747
 11
32.524918
 21
-74.73505
  0
LINE
  8
ゴム等
  6
DOT
 10
32.524918
 20
-74.73505
 11
35.23976
 21
-75.813382
  0
LINE
  8
ゴム等
  6
DOT
 10
32.166145
 20
-74.65747
 11
7.528695
 21
-50.02002
  0
LINE
  8
ゴム等
  6
DOT
 10
32.524918
 20
-74.73505
 11
7.528695
 21
-49.738828
  0
LINE
  8
ゴム等
  6
DOT
 10
30.205398
 20
-74.153625
 11
7.528695
 21
-51.476923
  0
LINE
  8
ゴム等
  6
DOT
 10
32.524918
 20
-74.73505
 11
7.528695
 21
-74.73505
  0
LINE
  8
ゴム等
  6
DOT
 10
32.166145
 20
-74.65747
 11
7.528695
 21
-74.65747
  0
LINE
  8
ゴム等
  6
DOT
 10
30.205398
 20
-74.153625
 11
7.528695
 21
-74.153625
  0
CIRCLE
  8
ボルト／ビス
  6
CONTINUOUS
 10
-125.043525
 20
-92.034225
 40
0.25
  0
CIRCLE
  8
ボルト／ビス
  6
CONTINUOUS
 10
-125.043525
 20
-92.034225
 40
0.2
  0
CIRCLE
  8
ボルト／ビス
  6
CONTINUOUS
 10
-125.043525
 20
-95.249225
 40
0.25
  0
CIRCLE
  8
ボルト／ビス
  6
CONTINUOUS
 10
-125.043525
 20
-95.249225
 40
0.2
  0
CIRCLE
  8
ボルト／ビス
  6
CONTINUOUS
 10
-73.75397
 20
-92.034225
 40
0.25
  0
CIRCLE
  8
ボルト／ビス
  6
CONTINUOUS
 10
-73.75397
 20
-92.034225
 40
0.2
  0
CIRCLE
  8
ボルト／ビス
  6
CONTINUOUS
 10
-73.75397
 20
-95.249225
 40
0.25
  0
CIRCLE
  8
ボルト／ビス
  6
CONTINUOUS
 10
-73.75397
 20
-95.249225
 40
0.2
  0
CIRCLE
  8
ボルト／ビス
  6
CONTINUOUS
 10
-18.116082
 20
-92.034225
 40
0.25
  0
CIRCLE
  8
ボルト／ビス
  6
CONTINUOUS
 10
-18.116082
 20
-92.034225
 40
0.2
  0
CIRCLE
  8
ボルト／ビス
  6
CONTINUOUS
 10
-18.116082
 20
-95.249225
 40
0.25
  0
CIRCLE
  8
ボルト／ビス
  6
CONTINUOUS
 10
-18.116082
 20
-95.249225
 40
0.2
  0
CIRCLE
  8
ボルト／ビス
  6
CONTINUOUS
 10
33.173473
 20
-92.034225
 40
0.25
  0
CIRCLE
  8
ボルト／ビス
  6
CONTINUOUS
 10
33.173473
 20
-92.034225
 40
0.2
  0
CIRCLE
  8
ボルト／ビス
  6
CONTINUOUS
 10
33.173473
 20
-95.249225
 40
0.25
  0
CIRCLE
  8
ボルト／ビス
  6
CONTINUOUS
 10
33.173473
 20
-95.249225
 40
0.2
  0
TEXT
  7
TextStyle03
  8
文字
  6
CONTINUOUS
 10
-40.15
 20
2.275
  1
は排水穴位置を示す
 40
3.0
 72
     5
 11
-10.15
 21
2.275
  0
TEXT
  7
TextStyle03
  8
文字
  6
CONTINUOUS
 10
-40.15
 20
-5.575
  1
はケーシング位置を示す
 40
3.0
 72
     5
 11
-3.4
 21
-5.575
  0
TEXT
  7
TextStyle03
  8
文字
  6
CONTINUOUS
 10
-40.15
 20
-8.95
  1
４ヶ所中1ヶ所に設定
 40
3.0
 72
     5
 11
-8.4625
 21
-8.95
  0
TEXT
  7
TextStyle03
  8
文字
  6
CONTINUOUS
 10
-51.7
 20
14.1
  1
ﾊﾞﾗﾝｽｽﾃｰ
 40
3.0
 72
     5
 11
-38.3875
 21
14.1
  0
TEXT
  7
TextStyle03
  8
文字
  6
CONTINUOUS
 10
-128.275
 20
74.925
  1
アンカーピッチ
 40
3.0
 72
     5
 11
-105.025
 21
74.925
  0
TEXT
  7
TextStyle03
  8
文字
  6
CONTINUOUS
 10
-151.925
 20
-3.175
  1
アンカーピッチ
 40
3.0
 50
90.0
 72
     5
 11
-151.925
 21
20.075
  0
TEXT
  7
TextStyle03
  8
文字
  6
CONTINUOUS
 10
-45.75
 20
-16.1
  1
アンカー数量　６ヶ所
 40
3.0
 72
     5
 11
-12.375
 21
-16.1
  0
TEXT
  7
TextStyle03
  8
文字
  6
CONTINUOUS
 10
-107.65
 20
-9.8
  1
可動装置側
 40
3.0
 72
     5
 11
-91.15
 21
-9.8
  0
TEXT
  7
TextStyle03
  8
文字
  6
CONTINUOUS
 10
-107.65
 20
65.45
  1
可動装置側
 40
3.0
 72
     5
 11
-91.15
 21
65.45
  0
TEXT
  7
TextStyle03
  8
文字
  6
CONTINUOUS
 10
153.15
 20
-82.8
  1
×４枚
 40
3.0
 72
     5
 11
162.9
 21
-82.8
  0
TEXT
  7
TextStyle03
  8
文字
  6
CONTINUOUS
 10
111.575
 20
-54.85
  1
ガラス寸法
 40
3.0
 72
     5
 11
128.075
 21
-54.85
  0
TEXT
  7
TextStyle03
  8
文字
  6
CONTINUOUS
 10
-45.775
 20
-22.925
  1
アームユニット数　２ヶ所
 40
3.0
 72
     5
 11
-5.65
 21
-22.925
  0
TEXT
  7
TextStyle03
  8
文字
  6
CONTINUOUS
 10
70.05
 20
97.375
  1
ＮＳコード：ＮＳ４Ｇ
 40
5.0
 72
     5
 11
125.675
 21
97.375
  0
TEXT
  7
TextStyle03
  8
文字
  6
CONTINUOUS
 10
71.65
 20
120.5
  1
シリーズ：ＤＦ４
 40
5.0
 72
     5
 11
116.025
 21
120.5
  0
TEXT
  7
TextStyle03
  8
文字
  6
CONTINUOUS
 10
71.65
 20
114.875
  1
　　　　　四角錘（上下可動）900×900タイプ
 40
5.0
 72
     5
 11
189.15
 21
114.875
  0
TEXT
  7
TextStyle03
  8
文字
  6
CONTINUOUS
 10
71.65
 20
109.25
  1
図面名　：外観姿図
 40
5.0
 72
     5
 11
121.65
 21
109.25
  0
TEXT
  7
TextStyle03
  8
文字
  6
CONTINUOUS
 10
71.65
 20
103.625
  1
　　　　　　
 40
5.0
 72
     5
 11
104.775
 21
103.625
  0
INSERT
  2
*DIM_0004
  8
寸法
  6
CONTINUOUS
 10
0.0
 20
0.0
  0
INSERT
  2
*DIM_0005
  8
寸法
  6
CONTINUOUS
 10
0.0
 20
0.0
  0
INSERT
  2
*DIM_0006
  8
寸法
  6
CONTINUOUS
 10
0.0
 20
0.0
  0
INSERT
  2
*DIM_0007
  8
寸法
  6
CONTINUOUS
 10
0.0
 20
0.0
  0
INSERT
  2
*DIM_0008
  8
寸法
  6
CONTINUOUS
 10
0.0
 20
0.0
  0
INSERT
  2
*DIM_0009
  8
寸法
  6
CONTINUOUS
 10
0.0
 20
0.0
  0
INSERT
  2
*DIM_0010
  8
寸法
  6
CONTINUOUS
 10
0.0
 20
0.0
  0
INSERT
  2
*GRP_0011
  8
寸法
  6
CONTINUOUS
 10
0.0
 20
0.0
  0
INSERT
  2
*DIM_0012
  8
寸法
  6
CONTINUOUS
 10
0.0
 20
0.0
  0
INSERT
  2
*DIM_0013
  8
寸法
  6
CONTINUOUS
 10
0.0
 20
0.0
  0
INSERT
  2
*DIM_0014
  8
寸法
  6
CONTINUOUS
 10
0.0
 20
0.0
  0
INSERT
  2
*DIM_0015
  8
寸法
  6
CONTINUOUS
 10
0.0
 20
0.0
  0
INSERT
  2
*DIM_0016
  8
寸法
  6
CONTINUOUS
 10
0.0
 20
0.0
  0
CIRCLE
  8
寸法
  6
CONTINUOUS
 10
-140.917105
 20
29.216028
 40
1.73792
  0
INSERT
  2
*DIM_0017
  8
寸法
  6
CONTINUOUS
 10
0.0
 20
0.0
  0
INSERT
  2
*DIM_0018
  8
寸法
  6
CONTINUOUS
 10
0.0
 20
0.0
  0
INSERT
  2
*DIM_0019
  8
寸法
  6
CONTINUOUS
 10
0.0
 20
0.0
  0
INSERT
  2
*DIM_0020
  8
寸法
  6
CONTINUOUS
 10
0.0
 20
0.0
  0
LINE
  8
曲げ物
  6
CONTINUOUS
 10
170.315662
 20
-85.202017
 11
121.970663
 21
-85.202017
  0
LINE
  8
曲げ物
  6
CONTINUOUS
 10
121.970663
 20
-85.202017
 11
146.143165
 21
-51.017085
  0
LINE
  8
曲げ物
  6
CONTINUOUS
 10
170.315662
 20
-85.202017
 11
146.143165
 21
-51.017085
  0
ENDSEC
  0
EOF
