  0
SECTION
  2
HEADER
  9
$EXTMIN
 10
-210.0
 20
-148.5
  9
$EXTMAX
 10
210.0
 20
148.5
  9
$PDMODE
 70
    32
  9
$PDSIZE
 40
1.5
  9
$LTSCALE
 40
10.0
  0
ENDSEC
  0
SECTION
  2
TABLES
  0
TABLE
  2
LTYPE
 70
    15
  0
LTYPE
  2
CONTINUOUS
 70
    64
  3
実線
 72
    65
 73
     0
 40
0.0
  0
LTYPE
  2
DASHED
 70
    64
  3
破線A
 72
    65
 73
     2
 40
0.6
 49
0.4
 49
-0.2
  0
LTYPE
  2
DASHEDX2
 70
    64
  3
破線B
 72
    65
 73
     2
 40
1.3
 49
0.9
 49
-0.4
  0
LTYPE
  2
DASHDOT
 70
    64
  3
１点鎖線A
 72
    65
 73
     4
 40
0.5375
 49
0.375
 49
-0.05
 49
0.0625
 49
-0.05
  0
LTYPE
  2
DASHDOTX2
 70
    64
  3
１点鎖線B
 72
    65
 73
     4
 40
1.075
 49
0.75
 49
-0.1
 49
0.125
 49
-0.1
  0
LTYPE
  2
DIVIDE2
 70
    64
  3
２点鎖線A
 72
    65
 73
     6
 40
0.5125
 49
0.3
 49
-0.0375
 49
0.05
 49
-0.0375
 49
0.05
 49
-0.0375
  0
LTYPE
  2
DIVIDE
 70
    64
  3
２点鎖線B
 72
    65
 73
     6
 40
1.05
 49
0.55
 49
-0.1
 49
0.1
 49
-0.1
 49
0.1
 49
-0.1
  0
LTYPE
  2
DOT
 70
    64
  3
点線A
 72
    65
 73
     2
 40
0.1125
 49
0.0625
 49
-0.05
  0
LTYPE
  2
DOTX2
 70
    64
  3
点線B
 72
    65
 73
     2
 40
0.275
 49
0.15
 49
-0.125
  0
LTYPE
  2
CONTINUOUS
 70
    64
  3
実線
 72
    65
 73
     0
 40
0.0
  0
LTYPE
  2
CONTINUOUS
 70
    64
  3
実線
 72
    65
 73
     0
 40
0.0
  0
LTYPE
  2
CONTINUOUS
 70
    64
  3
実線
 72
    65
 73
     0
 40
0.0
  0
LTYPE
  2
CONTINUOUS
 70
    64
  3
実線
 72
    65
 73
     0
 40
0.0
  0
LTYPE
  2
CONTINUOUS
 70
    64
  3
実線
 72
    65
 73
     0
 40
0.0
  0
LTYPE
  2
CONTINUOUS
 70
    64
  3
実線
 72
    65
 73
     0
 40
0.0
  0
ENDTAB
  0
TABLE
  2
LAYER
 70
    34
  0
LAYER
  2
通り芯
 70
     0
 62
    15
  6
CONTINUOUS
  0
LAYER
  2
補助線
 70
     0
 62
    16
  6
DOT
  0
LAYER
  2
躯体
 70
     0
 62
    31
  6
CONTINUOUS
  0
LAYER
  2
型材
 70
     0
 62
    32
  6
CONTINUOUS
  0
LAYER
  2
型材断面
 70
     0
 62
    47
  6
CONTINUOUS
  0
LAYER
  2
ガラス
 70
     0
 62
    48
  6
CONTINUOUS
  0
LAYER
  2
ゴム等
 70
     0
 62
    63
  6
CONTINUOUS
  0
LAYER
  2
ボルト／ビス
 70
     0
 62
    64
  6
CONTINUOUS
  0
LAYER
  2
文字
 70
     0
 62
    79
  6
CONTINUOUS
  0
LAYER
  2
寸法
 70
     0
 62
    80
  6
CONTINUOUS
  0
LAYER
  2
ﾊｯﾁﾝｸﾞ
 70
     0
 62
    95
  6
CONTINUOUS
  0
LAYER
  2
別途部材
 70
     0
 62
    96
  6
CONTINUOUS
  0
LAYER
  2
曲げ物
 70
     0
 62
   111
  6
CONTINUOUS
  0
LAYER
  2
鉄骨等
 70
     0
 62
   112
  6
CONTINUOUS
  0
LAYER
  2
St
 70
     0
 62
   127
  6
CONTINUOUS
  0
LAYER
  2
その他部品等
 70
     0
 62
   128
  6
CONTINUOUS
  0
LAYER
  2
ｶﾞｽｹｯﾄ
 70
     0
 62
   143
  6
CONTINUOUS
  0
LAYER
  2
ｽｹｯﾁ
 70
     0
 62
    14
  6
CONTINUOUS
  0
LAYER
  2
0
 70
     0
 62
    17
  6
CONTINUOUS
  0
LAYER
  2
1
 70
     0
 62
    30
  6
CONTINUOUS
  0
LAYER
  2
4
 70
     0
 62
    33
  6
CONTINUOUS
  0
LAYER
  2
ﾚｲﾔ3
 70
     0
 62
    46
  6
CONTINUOUS
  0
LAYER
  2
外形線
 70
     0
 62
    49
  6
CONTINUOUS
  0
LAYER
  2
部品
 70
     0
 62
    14
  6
CONTINUOUS
  0
LAYER
  2
サッシ芯
 70
     0
 62
    17
  6
DASHDOTX2
  0
LAYER
  2
寸法線
 70
     0
 62
    62
  6
CONTINUOUS
  0
LAYER
  2
姿図外形線
 70
     0
 62
    65
  6
CONTINUOUS
  0
LAYER
  2
姿補助線
 70
     0
 62
    30
  6
CONTINUOUS
  0
LAYER
  2
透視線
 70
     0
 62
    78
  6
DOT
  0
LAYER
  2
用紙
 70
     0
 62
    81
  6
CONTINUOUS
  0
LAYER
  2
実線図枠
 70
     0
 62
    94
  6
CONTINUOUS
  0
LAYER
  2
補助図枠
 70
     0
 62
    97
  6
CONTINUOUS
  0
LAYER
  2
建具記号
 70
     0
 62
   110
  6
CONTINUOUS
  0
LAYER
  2
補助文字
 70
     0
 62
   113
  6
CONTINUOUS
  0
ENDTAB
  0
TABLE
  2
STYLE
 70
    10
  0
STYLE
  2
STANDARD
 70
     0
 40
1.0
 41
1.0
 42
1.0
 50
0.0
 71
     0
  3
TXT
  4
BIGFONT
  0
STYLE
  2
TATE
 70
     4
 40
1.0
 41
1.0
 42
1.0
 50
0.0
 71
     0
  3
TXT
  4
BIGFONT
  0
STYLE
  2
TextStyle03
 70
     0
 40
1.0
 41
1.0
 42
1.0
 50
0.0
 71
     0
  3
MONOTXT
  4
BIGFONT
  0
STYLE
  2
TextStyle04
 70
     0
 40
1.0
 41
1.0
 42
1.0
 50
0.0
 71
     0
  3
MONOTXT
  4
BIGFONT
  0
STYLE
  2
TextStyle05
 70
     0
 40
1.0
 41
1.0
 42
1.0
 50
0.0
 71
     0
  3
MONOTXT
  4
BIGFONT
  0
STYLE
  2
TextStyle06
 70
     0
 40
1.0
 41
1.0
 42
1.0
 50
0.0
 71
     0
  3
MONOTXT
  4
BIGFONT
  0
STYLE
  2
TextStyle07
 70
     0
 40
1.0
 41
1.0
 42
1.0
 50
0.0
 71
     0
  3
MONOTXT
  4
BIGFONT
  0
STYLE
  2
TextStyle08
 70
     0
 40
1.0
 41
1.0
 42
1.0
 50
0.0
 71
     0
  3
MONOTXT
  4
BIGFONT
  0
STYLE
  2
TextStyle09
 70
     0
 40
1.0
 41
1.0
 42
1.0
 50
0.0
 71
     0
  3
MONOTXT
  4
BIGFONT
  0
STYLE
  2
TextStyle10
 70
     0
 40
1.0
 41
1.0
 42
1.0
 50
0.0
 71
     0
  3
MONOTXT
  4
BIGFONT
  0
ENDTAB
  0
ENDSEC
  0
SECTION
  2
BLOCKS
  0
BLOCK
  2
*GRP_0001
 70
    65
 10
0.0
 20
0.0
  0
LINE
  8
型材断面
  6
CONTINUOUS
 10
195.0
 20
133.5
 11
195.0
 21
-133.5
  0
LINE
  8
型材断面
  6
CONTINUOUS
 10
195.0
 20
-133.5
 11
-185.0
 21
-133.5
  0
LINE
  8
型材断面
  6
CONTINUOUS
 10
-185.0
 20
-133.5
 11
-185.0
 21
133.5
  0
LINE
  8
型材断面
  6
CONTINUOUS
 10
195.0
 20
133.5
 11
-185.0
 21
133.5
  0
LINE
  8
型材断面
  6
CONTINUOUS
 10
145.0
 20
-133.5
 11
145.0
 21
-118.5
  0
LINE
  8
型材断面
  6
CONTINUOUS
 10
195.0
 20
-118.5
 11
145.0
 21
-118.5
  0
ENDBLK
  0
BLOCK
  2
*DIM_0002
 70
    65
 10
0.0
 20
0.0
  0
LINE
  8
寸法
  6
BYBLOCK
 62
     0
 10
-27.43443
 20
92.674247
 11
-6.885002
 21
92.674247
  0
LINE
  8
寸法
  6
BYBLOCK
 62
     0
 10
-19.410555
 20
87.124247
 11
-6.885002
 21
87.124247
  0
LINE
  8
寸法
  6
BYBLOCK
 62
     0
 10
-6.885002
 20
92.674247
 11
-6.885002
 21
87.124247
  0
POINT
  8
寸法
 62
     0
 10
-6.885002
 20
92.674247
  0
POINT
  8
寸法
 62
     0
 10
-6.885002
 20
87.124247
  0
TEXT
  7
TextStyle03
  8
寸法
  6
CONTINUOUS
 62
     0
 10
-7.3
 20
87.4375
  1
111
 40
3.0
 50
90.0
 72
     5
 11
-7.3
 21
92.3125
  0
ENDBLK
  0
BLOCK
  2
*DIM_0003
 70
    65
 10
0.0
 20
0.0
  0
LINE
  8
寸法
  6
BYBLOCK
 62
     0
 10
-27.43443
 20
-7.325757
 11
-6.885002
 21
-7.325757
  0
LINE
  8
寸法
  6
BYBLOCK
 62
     0
 10
-19.410555
 20
-1.775757
 11
-6.885002
 21
-1.775757
  0
LINE
  8
寸法
  6
BYBLOCK
 62
     0
 10
-6.885002
 20
-7.325757
 11
-6.885002
 21
-1.775757
  0
POINT
  8
寸法
 62
     0
 10
-6.885002
 20
-7.325757
  0
POINT
  8
寸法
 62
     0
 10
-6.885002
 20
-1.775757
  0
TEXT
  7
TextStyle03
  8
寸法
  6
CONTINUOUS
 62
     0
 10
-7.275
 20
-7.0125
  1
111
 40
3.0
 50
90.0
 72
     5
 11
-7.275
 21
-2.1375
  0
ENDBLK
  0
BLOCK
  2
*GRP_0004
 70
    65
 10
0.0
 20
0.0
  0
POLYLINE
  8
寸法
  6
BYBLOCK
 62
     0
 66
     1
  0
VERTEX
  8
寸法
 10
-30.989525
 20
18.958217
  0
VERTEX
  8
寸法
 10
-24.573023
 20
12.541715
  0
VERTEX
  8
寸法
 10
-18.665895
 20
12.541715
  0
SEQEND
  0
ENDBLK
  0
BLOCK
  2
*DIM_0005
 70
    65
 10
0.0
 20
0.0
  0
LINE
  8
寸法
  6
CONTINUOUS
 62
     0
 10
-76.750185
 20
-44.343215
 11
-2.166423
 21
-44.343215
  0
LINE
  8
寸法
  6
CONTINUOUS
 62
     0
 10
-2.166423
 20
-100.855165
 11
-2.166423
 21
-44.343215
  0
POINT
  8
寸法
 62
     0
 10
-2.166423
 20
-100.855165
  0
POINT
  8
寸法
 62
     0
 10
-2.166423
 20
-44.343215
  0
TEXT
  7
TextStyle03
  8
寸法
  6
CONTINUOUS
 62
     0
 10
-2.55
 20
-77.56875
  1
1130.2
 40
3.0
 50
90.0
 72
     5
 11
-2.55
 21
-67.63125
  0
ENDBLK
  0
BLOCK
  2
*DIM_0006
 70
    65
 10
0.0
 20
0.0
  0
LINE
  8
寸法
  6
CONTINUOUS
 62
     0
 10
-127.750185
 20
-34.773415
 11
-127.750185
 21
-31.493875
  0
LINE
  8
寸法
  6
CONTINUOUS
 62
     0
 10
-27.750185
 20
-34.773415
 11
-27.750185
 21
-31.493875
  0
LINE
  8
寸法
  6
CONTINUOUS
 62
     0
 10
-127.750185
 20
-31.493875
 11
-27.750185
 21
-31.493875
  0
POINT
  8
寸法
 62
     0
 10
-127.750185
 20
-31.493875
  0
POINT
  8
寸法
 62
     0
 10
-27.750185
 20
-31.493875
  0
TEXT
  7
TextStyle03
  8
寸法
  6
CONTINUOUS
 62
     0
 10
-89.49375
 20
-31.125
  1
呼称寸法　2000
 40
3.0
 72
     5
 11
-66.05625
 21
-31.125
  0
ENDBLK
  0
BLOCK
  2
*DIM_0007
 70
    65
 10
0.0
 20
0.0
  0
LINE
  8
寸法
  6
BYBLOCK
 62
     0
 10
-21.450185
 20
-99.855165
 11
-21.450185
 21
-31.493875
  0
LINE
  8
寸法
  6
BYBLOCK
 62
     0
 10
-27.750185
 20
-31.493875
 11
-21.450185
 21
-31.493875
  0
POINT
  8
寸法
 62
     0
 10
-27.750185
 20
-31.493875
  0
POINT
  8
寸法
 62
     0
 10
-21.450185
 20
-31.493875
  0
TEXT
  7
TextStyle03
  8
寸法
  6
CONTINUOUS
 62
     0
 10
-27.0625
 20
-31.125
  1
126
 40
3.0
 72
     5
 11
-22.1875
 21
-31.125
  0
ENDBLK
  0
BLOCK
  2
*DIM_0008
 70
    65
 10
0.0
 20
0.0
  0
LINE
  8
寸法
  6
BYBLOCK
 62
     0
 10
-134.050185
 20
-99.855165
 11
-134.050185
 21
-31.493875
  0
LINE
  8
寸法
  6
BYBLOCK
 62
     0
 10
-127.750185
 20
-31.493875
 11
-134.050185
 21
-31.493875
  0
POINT
  8
寸法
 62
     0
 10
-127.750185
 20
-31.493875
  0
POINT
  8
寸法
 62
     0
 10
-134.050185
 20
-31.493875
  0
TEXT
  7
TextStyle03
  8
寸法
  6
CONTINUOUS
 62
     0
 10
-133.3625
 20
-31.125
  1
126
 40
3.0
 72
     5
 11
-128.4875
 21
-31.125
  0
ENDBLK
  0
BLOCK
  2
*DIM_0009
 70
    65
 10
0.0
 20
0.0
  0
LINE
  8
寸法
  6
BYBLOCK
 62
     0
 10
-80.250185
 20
-45.84318
 11
-80.250185
 21
-39.22983
  0
LINE
  8
寸法
  6
BYBLOCK
 62
     0
 10
-75.250185
 20
-45.84318
 11
-75.250185
 21
-39.22983
  0
LINE
  8
寸法
  6
BYBLOCK
 62
     0
 10
-80.250185
 20
-39.22983
 11
-75.250185
 21
-39.22983
  0
POINT
  8
寸法
 62
     0
 10
-80.250185
 20
-39.22983
  0
POINT
  8
寸法
 62
     0
 10
-75.250185
 20
-39.22983
  0
TEXT
  7
TextStyle03
  8
寸法
  6
CONTINUOUS
 62
     0
 10
-80.1875
 20
-38.85
  1
100
 40
3.0
 72
     5
 11
-75.3125
 21
-38.85
  0
ENDBLK
  0
BLOCK
  2
*DIM_0010
 70
    65
 10
0.0
 20
0.0
  0
LINE
  8
寸法
  6
BYBLOCK
 62
     0
 10
-67.773117
 20
-44.343215
 11
-67.051725
 21
-44.343215
  0
LINE
  8
寸法
  6
BYBLOCK
 62
     0
 10
-74.250185
 20
-46.84318
 11
-67.051725
 21
-46.84318
  0
LINE
  8
寸法
  6
BYBLOCK
 62
     0
 10
-67.051725
 20
-44.343215
 11
-67.051725
 21
-46.84318
  0
POINT
  8
寸法
 62
     0
 10
-67.051725
 20
-44.343215
  0
POINT
  8
寸法
 62
     0
 10
-67.051725
 20
-46.84318
  0
TEXT
  7
TextStyle03
  8
寸法
  6
CONTINUOUS
 62
     0
 10
-64.05
 20
-47.16875
  1
50
 40
3.0
 50
90.0
 72
     5
 11
-64.05
 21
-43.98125
  0
ENDBLK
  0
BLOCK
  2
*GRP_0011
 70
    65
 10
0.0
 20
0.0
  0
LINE
  8
別途部材
  6
DOT
 10
113.063185
 20
-78.414952
 11
113.703185
 21
-78.414952
  0
LINE
  8
別途部材
  6
DOT
 10
112.913185
 20
-78.414952
 11
112.273185
 21
-78.414952
  0
LINE
  8
別途部材
  6
DOT
 10
112.273185
 20
-78.414952
 11
112.273185
 21
-78.78109
  0
LINE
  8
別途部材
  6
DOT
 10
112.273185
 20
-78.78109
 11
112.913185
 21
-78.78109
  0
LINE
  8
別途部材
  6
DOT
 10
112.913185
 20
-78.414952
 11
112.913185
 21
-78.78109
  0
LINE
  8
別途部材
  6
DOT
 10
112.913185
 20
-78.693145
 11
112.273185
 21
-78.693145
  0
LINE
  8
別途部材
  6
DOT
 10
112.913185
 20
-78.754955
 11
112.273185
 21
-78.754955
  0
LINE
  8
別途部材
  6
DOT
 10
113.063185
 20
-78.78109
 11
113.703185
 21
-78.78109
  0
LINE
  8
別途部材
  6
DOT
 10
113.703185
 20
-78.693145
 11
113.063185
 21
-78.693145
  0
LINE
  8
別途部材
  6
DOT
 10
113.703185
 20
-78.414952
 11
113.703185
 21
-78.78109
  0
LINE
  8
別途部材
  6
DOT
 10
113.063185
 20
-78.414952
 11
113.063185
 21
-78.78109
  0
LINE
  8
別途部材
  6
DOT
 10
113.063185
 20
-78.754953
 11
113.703185
 21
-78.754953
  0
LINE
  8
別途部材
  6
DOT
 10
112.123185
 20
-78.849953
 11
113.853185
 21
-78.849953
  0
LINE
  8
別途部材
  6
DOT
 10
112.123185
 20
-78.814955
 11
113.853185
 21
-78.814955
  0
LINE
  8
別途部材
  6
DOT
 10
112.123185
 20
-78.639952
 11
112.123185
 21
-78.849953
  0
LINE
  8
別途部材
  6
DOT
 10
113.853185
 20
-78.639952
 11
113.853185
 21
-78.849953
  0
LINE
  8
別途部材
  6
DOT
 10
112.123185
 20
-78.364955
 11
112.123185
 21
-78.639952
  0
LINE
  8
別途部材
  6
DOT
 10
113.853185
 20
-78.364955
 11
113.853185
 21
-78.639952
  0
LINE
  8
別途部材
  6
DOT
 10
113.853185
 20
-78.364955
 11
113.353185
 21
-78.364955
  0
LINE
  8
別途部材
  6
DOT
 10
113.353185
 20
-78.364955
 11
112.123185
 21
-78.364955
  0
ENDBLK
  0
BLOCK
  2
*GRP_0012
 70
    65
 10
0.0
 20
0.0
  0
LINE
  8
別途部材
  6
DOT
 10
112.913185
 20
-78.414952
 11
112.273185
 21
-78.414952
  0
LINE
  8
別途部材
  6
DOT
 10
113.063185
 20
-78.414952
 11
113.703185
 21
-78.414952
  0
LINE
  8
別途部材
  6
DOT
 10
113.703185
 20
-78.414952
 11
113.703185
 21
-78.78109
  0
LINE
  8
別途部材
  6
DOT
 10
113.703185
 20
-78.78109
 11
113.063185
 21
-78.78109
  0
LINE
  8
別途部材
  6
DOT
 10
113.063185
 20
-78.414952
 11
113.063185
 21
-78.78109
  0
LINE
  8
別途部材
  6
DOT
 10
113.063185
 20
-78.693145
 11
113.703185
 21
-78.693145
  0
LINE
  8
別途部材
  6
DOT
 10
113.063185
 20
-78.754955
 11
113.703185
 21
-78.754955
  0
LINE
  8
別途部材
  6
DOT
 10
112.913185
 20
-78.78109
 11
112.273185
 21
-78.78109
  0
LINE
  8
別途部材
  6
DOT
 10
112.273185
 20
-78.693145
 11
112.913185
 21
-78.693145
  0
LINE
  8
別途部材
  6
DOT
 10
112.273185
 20
-78.414952
 11
112.273185
 21
-78.78109
  0
LINE
  8
別途部材
  6
DOT
 10
112.913185
 20
-78.414952
 11
112.913185
 21
-78.78109
  0
LINE
  8
別途部材
  6
DOT
 10
112.913185
 20
-78.754953
 11
112.273185
 21
-78.754953
  0
LINE
  8
別途部材
  6
DOT
 10
113.853185
 20
-78.849953
 11
112.123185
 21
-78.849953
  0
LINE
  8
別途部材
  6
DOT
 10
113.853185
 20
-78.814955
 11
112.123185
 21
-78.814955
  0
LINE
  8
別途部材
  6
DOT
 10
113.853185
 20
-78.639952
 11
113.853185
 21
-78.849953
  0
LINE
  8
別途部材
  6
DOT
 10
112.123185
 20
-78.639952
 11
112.123185
 21
-78.849953
  0
LINE
  8
別途部材
  6
DOT
 10
113.853185
 20
-78.364955
 11
113.853185
 21
-78.639952
  0
LINE
  8
別途部材
  6
DOT
 10
112.123185
 20
-78.364955
 11
112.123185
 21
-78.639952
  0
LINE
  8
別途部材
  6
DOT
 10
112.123185
 20
-78.364955
 11
112.623185
 21
-78.364955
  0
LINE
  8
別途部材
  6
DOT
 10
112.623185
 20
-78.364955
 11
113.853185
 21
-78.364955
  0
ENDBLK
  0
BLOCK
  2
*GRP_0013
 70
    65
 10
0.0
 20
0.0
  0
LINE
  8
別途部材
  6
DOT
 10
112.913185
 20
-78.414952
 11
112.273185
 21
-78.414952
  0
LINE
  8
別途部材
  6
DOT
 10
113.063185
 20
-78.414952
 11
113.703185
 21
-78.414952
  0
LINE
  8
別途部材
  6
DOT
 10
113.703185
 20
-78.414952
 11
113.703185
 21
-78.78109
  0
LINE
  8
別途部材
  6
DOT
 10
113.703185
 20
-78.78109
 11
113.063185
 21
-78.78109
  0
LINE
  8
別途部材
  6
DOT
 10
113.063185
 20
-78.414952
 11
113.063185
 21
-78.78109
  0
LINE
  8
別途部材
  6
DOT
 10
113.063185
 20
-78.693145
 11
113.703185
 21
-78.693145
  0
LINE
  8
別途部材
  6
DOT
 10
113.063185
 20
-78.754955
 11
113.703185
 21
-78.754955
  0
LINE
  8
別途部材
  6
DOT
 10
112.913185
 20
-78.78109
 11
112.273185
 21
-78.78109
  0
LINE
  8
別途部材
  6
DOT
 10
112.273185
 20
-78.693145
 11
112.913185
 21
-78.693145
  0
LINE
  8
別途部材
  6
DOT
 10
112.273185
 20
-78.414952
 11
112.273185
 21
-78.78109
  0
LINE
  8
別途部材
  6
DOT
 10
112.913185
 20
-78.414952
 11
112.913185
 21
-78.78109
  0
LINE
  8
別途部材
  6
DOT
 10
112.913185
 20
-78.754953
 11
112.273185
 21
-78.754953
  0
LINE
  8
別途部材
  6
DOT
 10
113.853185
 20
-78.849953
 11
112.123185
 21
-78.849953
  0
LINE
  8
別途部材
  6
DOT
 10
113.853185
 20
-78.814955
 11
112.123185
 21
-78.814955
  0
LINE
  8
別途部材
  6
DOT
 10
113.853185
 20
-78.639952
 11
113.853185
 21
-78.849953
  0
LINE
  8
別途部材
  6
DOT
 10
112.123185
 20
-78.639952
 11
112.123185
 21
-78.849953
  0
LINE
  8
別途部材
  6
DOT
 10
113.853185
 20
-78.364955
 11
113.853185
 21
-78.639952
  0
LINE
  8
別途部材
  6
DOT
 10
112.123185
 20
-78.364955
 11
112.123185
 21
-78.639952
  0
LINE
  8
別途部材
  6
DOT
 10
112.123185
 20
-78.364955
 11
112.623185
 21
-78.364955
  0
LINE
  8
別途部材
  6
DOT
 10
112.623185
 20
-78.364955
 11
113.853185
 21
-78.364955
  0
ENDBLK
  0
BLOCK
  2
*GRP_0014
 70
    65
 10
0.0
 20
0.0
  0
LINE
  8
別途部材
  6
DOT
 10
113.063185
 20
-78.414952
 11
113.703185
 21
-78.414952
  0
LINE
  8
別途部材
  6
DOT
 10
112.913185
 20
-78.414952
 11
112.273185
 21
-78.414952
  0
LINE
  8
別途部材
  6
DOT
 10
112.273185
 20
-78.414952
 11
112.273185
 21
-78.78109
  0
LINE
  8
別途部材
  6
DOT
 10
112.273185
 20
-78.78109
 11
112.913185
 21
-78.78109
  0
LINE
  8
別途部材
  6
DOT
 10
112.913185
 20
-78.414952
 11
112.913185
 21
-78.78109
  0
LINE
  8
別途部材
  6
DOT
 10
112.913185
 20
-78.693145
 11
112.273185
 21
-78.693145
  0
LINE
  8
別途部材
  6
DOT
 10
112.913185
 20
-78.754955
 11
112.273185
 21
-78.754955
  0
LINE
  8
別途部材
  6
DOT
 10
113.063185
 20
-78.78109
 11
113.703185
 21
-78.78109
  0
LINE
  8
別途部材
  6
DOT
 10
113.703185
 20
-78.693145
 11
113.063185
 21
-78.693145
  0
LINE
  8
別途部材
  6
DOT
 10
113.703185
 20
-78.414952
 11
113.703185
 21
-78.78109
  0
LINE
  8
別途部材
  6
DOT
 10
113.063185
 20
-78.414952
 11
113.063185
 21
-78.78109
  0
LINE
  8
別途部材
  6
DOT
 10
113.063185
 20
-78.754953
 11
113.703185
 21
-78.754953
  0
LINE
  8
別途部材
  6
DOT
 10
112.123185
 20
-78.849953
 11
113.853185
 21
-78.849953
  0
LINE
  8
別途部材
  6
DOT
 10
112.123185
 20
-78.814955
 11
113.853185
 21
-78.814955
  0
LINE
  8
別途部材
  6
DOT
 10
112.123185
 20
-78.639952
 11
112.123185
 21
-78.849953
  0
LINE
  8
別途部材
  6
DOT
 10
113.853185
 20
-78.639952
 11
113.853185
 21
-78.849953
  0
LINE
  8
別途部材
  6
DOT
 10
112.123185
 20
-78.364955
 11
112.123185
 21
-78.639952
  0
LINE
  8
別途部材
  6
DOT
 10
113.853185
 20
-78.364955
 11
113.853185
 21
-78.639952
  0
LINE
  8
別途部材
  6
DOT
 10
113.853185
 20
-78.364955
 11
113.353185
 21
-78.364955
  0
LINE
  8
別途部材
  6
DOT
 10
113.353185
 20
-78.364955
 11
112.123185
 21
-78.364955
  0
ENDBLK
  0
BLOCK
  2
*GRP_0015
 70
    65
 10
0.0
 20
0.0
  0
LINE
  8
別途部材
  6
DOT
 10
112.913185
 20
-78.414952
 11
112.273185
 21
-78.414952
  0
LINE
  8
別途部材
  6
DOT
 10
113.063185
 20
-78.414952
 11
113.703185
 21
-78.414952
  0
LINE
  8
別途部材
  6
DOT
 10
113.703185
 20
-78.414952
 11
113.703185
 21
-78.78109
  0
LINE
  8
別途部材
  6
DOT
 10
113.703185
 20
-78.78109
 11
113.063185
 21
-78.78109
  0
LINE
  8
別途部材
  6
DOT
 10
113.063185
 20
-78.414952
 11
113.063185
 21
-78.78109
  0
LINE
  8
別途部材
  6
DOT
 10
113.063185
 20
-78.693145
 11
113.703185
 21
-78.693145
  0
LINE
  8
別途部材
  6
DOT
 10
113.063185
 20
-78.754955
 11
113.703185
 21
-78.754955
  0
LINE
  8
別途部材
  6
DOT
 10
112.913185
 20
-78.78109
 11
112.273185
 21
-78.78109
  0
LINE
  8
別途部材
  6
DOT
 10
112.273185
 20
-78.693145
 11
112.913185
 21
-78.693145
  0
LINE
  8
別途部材
  6
DOT
 10
112.273185
 20
-78.414952
 11
112.273185
 21
-78.78109
  0
LINE
  8
別途部材
  6
DOT
 10
112.913185
 20
-78.414952
 11
112.913185
 21
-78.78109
  0
LINE
  8
別途部材
  6
DOT
 10
112.913185
 20
-78.754953
 11
112.273185
 21
-78.754953
  0
LINE
  8
別途部材
  6
DOT
 10
113.853185
 20
-78.849953
 11
112.123185
 21
-78.849953
  0
LINE
  8
別途部材
  6
DOT
 10
113.853185
 20
-78.814955
 11
112.123185
 21
-78.814955
  0
LINE
  8
別途部材
  6
DOT
 10
113.853185
 20
-78.639952
 11
113.853185
 21
-78.849953
  0
LINE
  8
別途部材
  6
DOT
 10
112.123185
 20
-78.639952
 11
112.123185
 21
-78.849953
  0
LINE
  8
別途部材
  6
DOT
 10
113.853185
 20
-78.364955
 11
113.853185
 21
-78.639952
  0
LINE
  8
別途部材
  6
DOT
 10
112.123185
 20
-78.364955
 11
112.123185
 21
-78.639952
  0
LINE
  8
別途部材
  6
DOT
 10
112.123185
 20
-78.364955
 11
112.623185
 21
-78.364955
  0
LINE
  8
別途部材
  6
DOT
 10
112.623185
 20
-78.364955
 11
113.853185
 21
-78.364955
  0
ENDBLK
  0
BLOCK
  2
*GRP_0016
 70
    65
 10
0.0
 20
0.0
  0
LINE
  8
別途部材
  6
DOT
 10
113.063185
 20
-78.414952
 11
113.703185
 21
-78.414952
  0
LINE
  8
別途部材
  6
DOT
 10
112.913185
 20
-78.414952
 11
112.273185
 21
-78.414952
  0
LINE
  8
別途部材
  6
DOT
 10
112.273185
 20
-78.414952
 11
112.273185
 21
-78.78109
  0
LINE
  8
別途部材
  6
DOT
 10
112.273185
 20
-78.78109
 11
112.913185
 21
-78.78109
  0
LINE
  8
別途部材
  6
DOT
 10
112.913185
 20
-78.414952
 11
112.913185
 21
-78.78109
  0
LINE
  8
別途部材
  6
DOT
 10
112.913185
 20
-78.693145
 11
112.273185
 21
-78.693145
  0
LINE
  8
別途部材
  6
DOT
 10
112.913185
 20
-78.754955
 11
112.273185
 21
-78.754955
  0
LINE
  8
別途部材
  6
DOT
 10
113.063185
 20
-78.78109
 11
113.703185
 21
-78.78109
  0
LINE
  8
別途部材
  6
DOT
 10
113.703185
 20
-78.693145
 11
113.063185
 21
-78.693145
  0
LINE
  8
別途部材
  6
DOT
 10
113.703185
 20
-78.414952
 11
113.703185
 21
-78.78109
  0
LINE
  8
別途部材
  6
DOT
 10
113.063185
 20
-78.414952
 11
113.063185
 21
-78.78109
  0
LINE
  8
別途部材
  6
DOT
 10
113.063185
 20
-78.754953
 11
113.703185
 21
-78.754953
  0
LINE
  8
別途部材
  6
DOT
 10
112.123185
 20
-78.849953
 11
113.853185
 21
-78.849953
  0
LINE
  8
別途部材
  6
DOT
 10
112.123185
 20
-78.814955
 11
113.853185
 21
-78.814955
  0
LINE
  8
別途部材
  6
DOT
 10
112.123185
 20
-78.639952
 11
112.123185
 21
-78.849953
  0
LINE
  8
別途部材
  6
DOT
 10
113.853185
 20
-78.639952
 11
113.853185
 21
-78.849953
  0
LINE
  8
別途部材
  6
DOT
 10
112.123185
 20
-78.364955
 11
112.123185
 21
-78.639952
  0
LINE
  8
別途部材
  6
DOT
 10
113.853185
 20
-78.364955
 11
113.853185
 21
-78.639952
  0
LINE
  8
別途部材
  6
DOT
 10
113.853185
 20
-78.364955
 11
113.353185
 21
-78.364955
  0
LINE
  8
別途部材
  6
DOT
 10
113.353185
 20
-78.364955
 11
112.123185
 21
-78.364955
  0
ENDBLK
  0
BLOCK
  2
*GRP_0017
 70
    65
 10
0.0
 20
0.0
  0
LINE
  8
別途部材
  6
DOT
 10
113.063185
 20
-78.414952
 11
113.703185
 21
-78.414952
  0
LINE
  8
別途部材
  6
DOT
 10
112.913185
 20
-78.414952
 11
112.273185
 21
-78.414952
  0
LINE
  8
別途部材
  6
DOT
 10
112.273185
 20
-78.414952
 11
112.273185
 21
-78.78109
  0
LINE
  8
別途部材
  6
DOT
 10
112.273185
 20
-78.78109
 11
112.913185
 21
-78.78109
  0
LINE
  8
別途部材
  6
DOT
 10
112.913185
 20
-78.414952
 11
112.913185
 21
-78.78109
  0
LINE
  8
別途部材
  6
DOT
 10
112.913185
 20
-78.693145
 11
112.273185
 21
-78.693145
  0
LINE
  8
別途部材
  6
DOT
 10
112.913185
 20
-78.754955
 11
112.273185
 21
-78.754955
  0
LINE
  8
別途部材
  6
DOT
 10
113.063185
 20
-78.78109
 11
113.703185
 21
-78.78109
  0
LINE
  8
別途部材
  6
DOT
 10
113.703185
 20
-78.693145
 11
113.063185
 21
-78.693145
  0
LINE
  8
別途部材
  6
DOT
 10
113.703185
 20
-78.414952
 11
113.703185
 21
-78.78109
  0
LINE
  8
別途部材
  6
DOT
 10
113.063185
 20
-78.414952
 11
113.063185
 21
-78.78109
  0
LINE
  8
別途部材
  6
DOT
 10
113.063185
 20
-78.754953
 11
113.703185
 21
-78.754953
  0
LINE
  8
別途部材
  6
DOT
 10
112.123185
 20
-78.849953
 11
113.853185
 21
-78.849953
  0
LINE
  8
別途部材
  6
DOT
 10
112.123185
 20
-78.814955
 11
113.853185
 21
-78.814955
  0
LINE
  8
別途部材
  6
DOT
 10
112.123185
 20
-78.639952
 11
112.123185
 21
-78.849953
  0
LINE
  8
別途部材
  6
DOT
 10
113.853185
 20
-78.639952
 11
113.853185
 21
-78.849953
  0
LINE
  8
別途部材
  6
DOT
 10
112.123185
 20
-78.364955
 11
112.123185
 21
-78.639952
  0
LINE
  8
別途部材
  6
DOT
 10
113.853185
 20
-78.364955
 11
113.853185
 21
-78.639952
  0
LINE
  8
別途部材
  6
DOT
 10
113.853185
 20
-78.364955
 11
113.353185
 21
-78.364955
  0
LINE
  8
別途部材
  6
DOT
 10
113.353185
 20
-78.364955
 11
112.123185
 21
-78.364955
  0
ENDBLK
  0
BLOCK
  2
*GRP_0018
 70
    65
 10
0.0
 20
0.0
  0
LINE
  8
別途部材
  6
DOT
 10
112.913185
 20
-78.414952
 11
112.273185
 21
-78.414952
  0
LINE
  8
別途部材
  6
DOT
 10
113.063185
 20
-78.414952
 11
113.703185
 21
-78.414952
  0
LINE
  8
別途部材
  6
DOT
 10
113.703185
 20
-78.414952
 11
113.703185
 21
-78.78109
  0
LINE
  8
別途部材
  6
DOT
 10
113.703185
 20
-78.78109
 11
113.063185
 21
-78.78109
  0
LINE
  8
別途部材
  6
DOT
 10
113.063185
 20
-78.414952
 11
113.063185
 21
-78.78109
  0
LINE
  8
別途部材
  6
DOT
 10
113.063185
 20
-78.693145
 11
113.703185
 21
-78.693145
  0
LINE
  8
別途部材
  6
DOT
 10
113.063185
 20
-78.754955
 11
113.703185
 21
-78.754955
  0
LINE
  8
別途部材
  6
DOT
 10
112.913185
 20
-78.78109
 11
112.273185
 21
-78.78109
  0
LINE
  8
別途部材
  6
DOT
 10
112.273185
 20
-78.693145
 11
112.913185
 21
-78.693145
  0
LINE
  8
別途部材
  6
DOT
 10
112.273185
 20
-78.414952
 11
112.273185
 21
-78.78109
  0
LINE
  8
別途部材
  6
DOT
 10
112.913185
 20
-78.414952
 11
112.913185
 21
-78.78109
  0
LINE
  8
別途部材
  6
DOT
 10
112.913185
 20
-78.754953
 11
112.273185
 21
-78.754953
  0
LINE
  8
別途部材
  6
DOT
 10
113.853185
 20
-78.849953
 11
112.123185
 21
-78.849953
  0
LINE
  8
別途部材
  6
DOT
 10
113.853185
 20
-78.814955
 11
112.123185
 21
-78.814955
  0
LINE
  8
別途部材
  6
DOT
 10
113.853185
 20
-78.639952
 11
113.853185
 21
-78.849953
  0
LINE
  8
別途部材
  6
DOT
 10
112.123185
 20
-78.639952
 11
112.123185
 21
-78.849953
  0
LINE
  8
別途部材
  6
DOT
 10
113.853185
 20
-78.364955
 11
113.853185
 21
-78.639952
  0
LINE
  8
別途部材
  6
DOT
 10
112.123185
 20
-78.364955
 11
112.123185
 21
-78.639952
  0
LINE
  8
別途部材
  6
DOT
 10
112.123185
 20
-78.364955
 11
112.623185
 21
-78.364955
  0
LINE
  8
別途部材
  6
DOT
 10
112.623185
 20
-78.364955
 11
113.853185
 21
-78.364955
  0
ENDBLK
  0
BLOCK
  2
*GRP_0019
 70
    65
 10
0.0
 20
0.0
  0
LINE
  8
補助線
  6
BYBLOCK
 62
    64
 10
160.895245
 20
-106.757355
 11
161.081005
 21
-106.92466
  0
LINE
  8
補助線
  6
BYBLOCK
 62
    64
 10
161.071777
 20
-106.748128
 11
160.904472
 21
-106.933888
  0
LINE
  8
補助線
  6
BYBLOCK
 62
    64
 10
145.008355
 20
-92.449625
 11
144.822588
 21
-92.28232
  0
LINE
  8
補助線
  6
BYBLOCK
 62
    64
 10
144.99912
 20
-92.273088
 11
144.831818
 21
-92.458857
  0
LINE
  8
補助線
  6
BYBLOCK
 62
    64
 10
128.935498
 20
-77.974808
 11
128.749727
 21
-77.807513
  0
LINE
  8
補助線
  6
BYBLOCK
 62
    64
 10
128.92626
 20
-77.798275
 11
128.758967
 21
-77.984045
  0
LINE
  8
型材断面
  6
CONTINUOUS
 10
162.196177
 20
-106.246773
 11
162.25157
 21
-107.305983
  0
LINE
  8
型材断面
  6
CONTINUOUS
 10
162.25157
 20
-107.305983
 11
161.58236
 21
-108.04906
  0
LINE
  8
型材断面
  6
CONTINUOUS
 10
161.58236
 20
-108.04906
 11
160.52315
 21
-108.104453
  0
LINE
  8
型材断面
  6
CONTINUOUS
 10
129.307573
 20
-76.627705
 11
128.248363
 21
-76.68312
  0
LINE
  8
型材断面
  6
CONTINUOUS
 10
128.248363
 20
-76.68312
 11
127.57916
 21
-77.4262
  0
LINE
  8
型材断面
  6
CONTINUOUS
 10
127.57916
 20
-77.4262
 11
127.634572
 21
-78.48541
  0
LINE
  8
型材断面
  6
CONTINUOUS
 10
162.196177
 20
-106.246773
 11
129.308013
 21
-76.627682
  0
LINE
  8
型材断面
  6
CONTINUOUS
 10
160.52315
 20
-108.104453
 11
127.63455
 21
-78.484985
  0
LINE
  8
ボルト／ビス
  6
CONTINUOUS
 62
    64
 10
161.297218
 20
-106.497795
 11
161.4399
 21
-106.937087
  0
LINE
  8
ボルト／ビス
  6
CONTINUOUS
 62
    64
 10
161.297218
 20
-106.497795
 11
160.845445
 21
-106.40172
  0
LINE
  8
ボルト／ビス
  6
CONTINUOUS
 62
    64
 10
160.679033
 20
-107.18422
 11
161.130805
 21
-107.280295
  0
LINE
  8
ボルト／ビス
  6
CONTINUOUS
 62
    64
 10
160.679033
 20
-107.18422
 11
160.53635
 21
-106.744927
  0
CIRCLE
  8
ボルト／ビス
  6
CONTINUOUS
 62
    64
 10
160.988125
 20
-106.841007
 40
0.4
  0
LINE
  8
ボルト／ビス
  6
CONTINUOUS
 62
    64
 10
160.845445
 20
-106.40172
 11
160.53635
 21
-106.744927
  0
LINE
  8
ボルト／ビス
  6
CONTINUOUS
 62
    64
 10
161.4399
 20
-106.937087
 11
161.130805
 21
-107.280295
  0
LINE
  8
ボルト／ビス
  6
CONTINUOUS
 62
    64
 10
145.224568
 20
-92.022765
 11
144.772788
 21
-91.926682
  0
LINE
  8
ボルト／ビス
  6
CONTINUOUS
 62
    64
 10
145.224568
 20
-92.022765
 11
145.36725
 21
-92.46205
  0
LINE
  8
ボルト／ビス
  6
CONTINUOUS
 62
    64
 10
144.606375
 20
-92.709183
 11
144.463695
 21
-92.269892
  0
LINE
  8
ボルト／ビス
  6
CONTINUOUS
 62
    64
 10
144.606375
 20
-92.709183
 11
145.05815
 21
-92.80526
  0
CIRCLE
  8
ボルト／ビス
  6
CONTINUOUS
 62
    64
 10
144.915467
 20
-92.365973
 40
0.4
  0
LINE
  8
ボルト／ビス
  6
CONTINUOUS
 62
    64
 10
145.36725
 20
-92.46205
 11
145.05815
 21
-92.80526
  0
LINE
  8
ボルト／ビス
  6
CONTINUOUS
 62
    64
 10
144.772788
 20
-91.926682
 11
144.463695
 21
-92.269892
  0
LINE
  8
ボルト／ビス
  6
CONTINUOUS
 62
    64
 10
129.151705
 20
-77.547948
 11
128.699925
 21
-77.451872
  0
LINE
  8
ボルト／ビス
  6
CONTINUOUS
 62
    64
 10
129.151705
 20
-77.547948
 11
129.294385
 21
-77.987233
  0
LINE
  8
ボルト／ビス
  6
CONTINUOUS
 62
    64
 10
128.53352
 20
-78.234375
 11
128.390838
 21
-77.795088
  0
LINE
  8
ボルト／ビス
  6
CONTINUOUS
 62
    64
 10
128.53352
 20
-78.234375
 11
128.9853
 21
-78.330447
  0
CIRCLE
  8
ボルト／ビス
  6
CONTINUOUS
 62
    64
 10
128.842613
 20
-77.89116
 40
0.4
  0
LINE
  8
ボルト／ビス
  6
CONTINUOUS
 62
    64
 10
129.294385
 20
-77.987233
 11
128.9853
 21
-78.330447
  0
LINE
  8
ボルト／ビス
  6
CONTINUOUS
 62
    64
 10
128.699925
 20
-77.451872
 11
128.390838
 21
-77.795088
  0
ENDBLK
  0
BLOCK
  2
*GRP_0020
 70
    65
 10
0.0
 20
0.0
  0
LINE
  8
補助線
  6
BYBLOCK
 62
    64
 10
128.935695
 20
-106.757355
 11
128.749935
 21
-106.92466
  0
LINE
  8
補助線
  6
BYBLOCK
 62
    64
 10
128.759162
 20
-106.748128
 11
128.926468
 21
-106.933888
  0
LINE
  8
補助線
  6
BYBLOCK
 62
    64
 10
144.822585
 20
-92.449625
 11
145.008353
 21
-92.28232
  0
LINE
  8
補助線
  6
BYBLOCK
 62
    64
 10
144.83182
 20
-92.273088
 11
144.999122
 21
-92.458857
  0
LINE
  8
補助線
  6
BYBLOCK
 62
    64
 10
160.895443
 20
-77.974808
 11
161.081213
 21
-77.807513
  0
LINE
  8
補助線
  6
BYBLOCK
 62
    64
 10
160.90468
 20
-77.798275
 11
161.071973
 21
-77.984045
  0
LINE
  8
型材断面
  6
CONTINUOUS
 10
127.634763
 20
-106.246773
 11
127.57937
 21
-107.305983
  0
LINE
  8
型材断面
  6
CONTINUOUS
 10
127.57937
 20
-107.305983
 11
128.24858
 21
-108.04906
  0
LINE
  8
型材断面
  6
CONTINUOUS
 10
128.24858
 20
-108.04906
 11
129.30779
 21
-108.104453
  0
LINE
  8
型材断面
  6
CONTINUOUS
 10
160.523367
 20
-76.627705
 11
161.582577
 21
-76.68312
  0
LINE
  8
型材断面
  6
CONTINUOUS
 10
161.582577
 20
-76.68312
 11
162.25178
 21
-77.4262
  0
LINE
  8
型材断面
  6
CONTINUOUS
 10
162.25178
 20
-77.4262
 11
162.196368
 21
-78.48541
  0
LINE
  8
型材断面
  6
CONTINUOUS
 10
127.634763
 20
-106.246773
 11
160.522927
 21
-76.627682
  0
LINE
  8
型材断面
  6
CONTINUOUS
 10
129.30779
 20
-108.104453
 11
162.19639
 21
-78.484985
  0
LINE
  8
ボルト／ビス
  6
CONTINUOUS
 62
    64
 10
128.533722
 20
-106.497795
 11
128.39104
 21
-106.937087
  0
LINE
  8
ボルト／ビス
  6
CONTINUOUS
 62
    64
 10
128.533722
 20
-106.497795
 11
128.985495
 21
-106.40172
  0
LINE
  8
ボルト／ビス
  6
CONTINUOUS
 62
    64
 10
129.151908
 20
-107.18422
 11
128.700135
 21
-107.280295
  0
LINE
  8
ボルト／ビス
  6
CONTINUOUS
 62
    64
 10
129.151908
 20
-107.18422
 11
129.29459
 21
-106.744927
  0
CIRCLE
  8
ボルト／ビス
  6
CONTINUOUS
 62
    64
 10
128.842815
 20
-106.841007
 40
0.4
  0
LINE
  8
ボルト／ビス
  6
CONTINUOUS
 62
    64
 10
128.985495
 20
-106.40172
 11
129.29459
 21
-106.744927
  0
LINE
  8
ボルト／ビス
  6
CONTINUOUS
 62
    64
 10
128.39104
 20
-106.937087
 11
128.700135
 21
-107.280295
  0
LINE
  8
ボルト／ビス
  6
CONTINUOUS
 62
    64
 10
144.606372
 20
-92.022765
 11
145.058152
 21
-91.926682
  0
LINE
  8
ボルト／ビス
  6
CONTINUOUS
 62
    64
 10
144.606372
 20
-92.022765
 11
144.46369
 21
-92.46205
  0
LINE
  8
ボルト／ビス
  6
CONTINUOUS
 62
    64
 10
145.224565
 20
-92.709183
 11
145.367245
 21
-92.269892
  0
LINE
  8
ボルト／ビス
  6
CONTINUOUS
 62
    64
 10
145.224565
 20
-92.709183
 11
144.77279
 21
-92.80526
  0
CIRCLE
  8
ボルト／ビス
  6
CONTINUOUS
 62
    64
 10
144.915473
 20
-92.365973
 40
0.4
  0
LINE
  8
ボルト／ビス
  6
CONTINUOUS
 62
    64
 10
144.46369
 20
-92.46205
 11
144.77279
 21
-92.80526
  0
LINE
  8
ボルト／ビス
  6
CONTINUOUS
 62
    64
 10
145.058152
 20
-91.926682
 11
145.367245
 21
-92.269892
  0
LINE
  8
ボルト／ビス
  6
CONTINUOUS
 62
    64
 10
160.679235
 20
-77.547948
 11
161.131015
 21
-77.451872
  0
LINE
  8
ボルト／ビス
  6
CONTINUOUS
 62
    64
 10
160.679235
 20
-77.547948
 11
160.536555
 21
-77.987233
  0
LINE
  8
ボルト／ビス
  6
CONTINUOUS
 62
    64
 10
161.29742
 20
-78.234375
 11
161.440102
 21
-77.795088
  0
LINE
  8
ボルト／ビス
  6
CONTINUOUS
 62
    64
 10
161.29742
 20
-78.234375
 11
160.84564
 21
-78.330447
  0
CIRCLE
  8
ボルト／ビス
  6
CONTINUOUS
 62
    64
 10
160.988328
 20
-77.89116
 40
0.4
  0
LINE
  8
ボルト／ビス
  6
CONTINUOUS
 62
    64
 10
160.536555
 20
-77.987233
 11
160.84564
 21
-78.330447
  0
LINE
  8
ボルト／ビス
  6
CONTINUOUS
 62
    64
 10
161.131015
 20
-77.451872
 11
161.440102
 21
-77.795088
  0
ENDBLK
  0
BLOCK
  2
*GRP_0021
 70
    65
 10
0.0
 20
0.0
  0
LINE
  8
補助線
  6
BYBLOCK
 62
    64
 10
65.081125
 20
-106.757355
 11
64.895365
 21
-106.92466
  0
LINE
  8
補助線
  6
BYBLOCK
 62
    64
 10
64.904593
 20
-106.748128
 11
65.071897
 21
-106.933888
  0
LINE
  8
補助線
  6
BYBLOCK
 62
    64
 10
80.968015
 20
-92.449625
 11
81.153782
 21
-92.28232
  0
LINE
  8
補助線
  6
BYBLOCK
 62
    64
 10
80.97725
 20
-92.273088
 11
81.144552
 21
-92.458857
  0
LINE
  8
補助線
  6
BYBLOCK
 62
    64
 10
97.040872
 20
-77.974808
 11
97.226642
 21
-77.807513
  0
LINE
  8
補助線
  6
BYBLOCK
 62
    64
 10
97.05011
 20
-77.798275
 11
97.217403
 21
-77.984045
  0
LINE
  8
型材断面
  6
CONTINUOUS
 10
63.780192
 20
-106.246773
 11
63.7248
 21
-107.305983
  0
LINE
  8
型材断面
  6
CONTINUOUS
 10
63.7248
 20
-107.305983
 11
64.39401
 21
-108.04906
  0
LINE
  8
型材断面
  6
CONTINUOUS
 10
64.39401
 20
-108.04906
 11
65.45322
 21
-108.104453
  0
LINE
  8
型材断面
  6
CONTINUOUS
 10
96.668798
 20
-76.627705
 11
97.728008
 21
-76.68312
  0
LINE
  8
型材断面
  6
CONTINUOUS
 10
97.728008
 20
-76.68312
 11
98.39721
 21
-77.4262
  0
LINE
  8
型材断面
  6
CONTINUOUS
 10
98.39721
 20
-77.4262
 11
98.341798
 21
-78.48541
  0
LINE
  8
型材断面
  6
CONTINUOUS
 10
63.780192
 20
-106.246773
 11
96.668357
 21
-76.627682
  0
LINE
  8
型材断面
  6
CONTINUOUS
 10
65.45322
 20
-108.104453
 11
98.34182
 21
-78.484985
  0
LINE
  8
ボルト／ビス
  6
CONTINUOUS
 62
    64
 10
64.679153
 20
-106.497795
 11
64.53647
 21
-106.937087
  0
LINE
  8
ボルト／ビス
  6
CONTINUOUS
 62
    64
 10
64.679153
 20
-106.497795
 11
65.130925
 21
-106.40172
  0
LINE
  8
ボルト／ビス
  6
CONTINUOUS
 62
    64
 10
65.297337
 20
-107.18422
 11
64.845565
 21
-107.280295
  0
LINE
  8
ボルト／ビス
  6
CONTINUOUS
 62
    64
 10
65.297337
 20
-107.18422
 11
65.44002
 21
-106.744927
  0
CIRCLE
  8
ボルト／ビス
  6
CONTINUOUS
 62
    64
 10
64.988245
 20
-106.841007
 40
0.4
  0
LINE
  8
ボルト／ビス
  6
CONTINUOUS
 62
    64
 10
65.130925
 20
-106.40172
 11
65.44002
 21
-106.744927
  0
LINE
  8
ボルト／ビス
  6
CONTINUOUS
 62
    64
 10
64.53647
 20
-106.937087
 11
64.845565
 21
-107.280295
  0
LINE
  8
ボルト／ビス
  6
CONTINUOUS
 62
    64
 10
80.751802
 20
-92.022765
 11
81.203583
 21
-91.926682
  0
LINE
  8
ボルト／ビス
  6
CONTINUOUS
 62
    64
 10
80.751802
 20
-92.022765
 11
80.60912
 21
-92.46205
  0
LINE
  8
ボルト／ビス
  6
CONTINUOUS
 62
    64
 10
81.369995
 20
-92.709183
 11
81.512675
 21
-92.269892
  0
LINE
  8
ボルト／ビス
  6
CONTINUOUS
 62
    64
 10
81.369995
 20
-92.709183
 11
80.91822
 21
-92.80526
  0
CIRCLE
  8
ボルト／ビス
  6
CONTINUOUS
 62
    64
 10
81.060902
 20
-92.365973
 40
0.4
  0
LINE
  8
ボルト／ビス
  6
CONTINUOUS
 62
    64
 10
80.60912
 20
-92.46205
 11
80.91822
 21
-92.80526
  0
LINE
  8
ボルト／ビス
  6
CONTINUOUS
 62
    64
 10
81.203583
 20
-91.926682
 11
81.512675
 21
-92.269892
  0
LINE
  8
ボルト／ビス
  6
CONTINUOUS
 62
    64
 10
96.824665
 20
-77.547948
 11
97.276445
 21
-77.451872
  0
LINE
  8
ボルト／ビス
  6
CONTINUOUS
 62
    64
 10
96.824665
 20
-77.547948
 11
96.681985
 21
-77.987233
  0
LINE
  8
ボルト／ビス
  6
CONTINUOUS
 62
    64
 10
97.44285
 20
-78.234375
 11
97.585533
 21
-77.795088
  0
LINE
  8
ボルト／ビス
  6
CONTINUOUS
 62
    64
 10
97.44285
 20
-78.234375
 11
96.99107
 21
-78.330447
  0
CIRCLE
  8
ボルト／ビス
  6
CONTINUOUS
 62
    64
 10
97.133757
 20
-77.89116
 40
0.4
  0
LINE
  8
ボルト／ビス
  6
CONTINUOUS
 62
    64
 10
96.681985
 20
-77.987233
 11
96.99107
 21
-78.330447
  0
LINE
  8
ボルト／ビス
  6
CONTINUOUS
 62
    64
 10
97.276445
 20
-77.451872
 11
97.585533
 21
-77.795088
  0
ENDBLK
  0
BLOCK
  2
*GRP_0022
 70
    65
 10
0.0
 20
0.0
  0
LINE
  8
補助線
  6
BYBLOCK
 62
    64
 10
97.040675
 20
-106.757355
 11
97.226435
 21
-106.92466
  0
LINE
  8
補助線
  6
BYBLOCK
 62
    64
 10
97.217208
 20
-106.748128
 11
97.049902
 21
-106.933888
  0
LINE
  8
補助線
  6
BYBLOCK
 62
    64
 10
81.153785
 20
-92.449625
 11
80.968017
 21
-92.28232
  0
LINE
  8
補助線
  6
BYBLOCK
 62
    64
 10
81.14455
 20
-92.273088
 11
80.977247
 21
-92.458857
  0
LINE
  8
補助線
  6
BYBLOCK
 62
    64
 10
65.080927
 20
-77.974808
 11
64.895157
 21
-77.807513
  0
LINE
  8
補助線
  6
BYBLOCK
 62
    64
 10
65.07169
 20
-77.798275
 11
64.904398
 21
-77.984045
  0
LINE
  8
型材断面
  6
CONTINUOUS
 10
98.341607
 20
-106.246773
 11
98.397
 21
-107.305983
  0
LINE
  8
型材断面
  6
CONTINUOUS
 10
98.397
 20
-107.305983
 11
97.72779
 21
-108.04906
  0
LINE
  8
型材断面
  6
CONTINUOUS
 10
97.72779
 20
-108.04906
 11
96.66858
 21
-108.104453
  0
LINE
  8
型材断面
  6
CONTINUOUS
 10
65.453002
 20
-76.627705
 11
64.393793
 21
-76.68312
  0
LINE
  8
型材断面
  6
CONTINUOUS
 10
64.393793
 20
-76.68312
 11
63.72459
 21
-77.4262
  0
LINE
  8
型材断面
  6
CONTINUOUS
 10
63.72459
 20
-77.4262
 11
63.780003
 21
-78.48541
  0
LINE
  8
型材断面
  6
CONTINUOUS
 10
98.341607
 20
-106.246773
 11
65.453442
 21
-76.627682
  0
LINE
  8
型材断面
  6
CONTINUOUS
 10
96.66858
 20
-108.104453
 11
63.77998
 21
-78.484985
  0
LINE
  8
ボルト／ビス
  6
CONTINUOUS
 62
    64
 10
97.442648
 20
-106.497795
 11
97.58533
 21
-106.937087
  0
LINE
  8
ボルト／ビス
  6
CONTINUOUS
 62
    64
 10
97.442648
 20
-106.497795
 11
96.990875
 21
-106.40172
  0
LINE
  8
ボルト／ビス
  6
CONTINUOUS
 62
    64
 10
96.824462
 20
-107.18422
 11
97.276235
 21
-107.280295
  0
LINE
  8
ボルト／ビス
  6
CONTINUOUS
 62
    64
 10
96.824462
 20
-107.18422
 11
96.68178
 21
-106.744927
  0
CIRCLE
  8
ボルト／ビス
  6
CONTINUOUS
 62
    64
 10
97.133555
 20
-106.841007
 40
0.4
  0
LINE
  8
ボルト／ビス
  6
CONTINUOUS
 62
    64
 10
96.990875
 20
-106.40172
 11
96.68178
 21
-106.744927
  0
LINE
  8
ボルト／ビス
  6
CONTINUOUS
 62
    64
 10
97.58533
 20
-106.937087
 11
97.276235
 21
-107.280295
  0
LINE
  8
ボルト／ビス
  6
CONTINUOUS
 62
    64
 10
81.369997
 20
-92.022765
 11
80.918217
 21
-91.926682
  0
LINE
  8
ボルト／ビス
  6
CONTINUOUS
 62
    64
 10
81.369997
 20
-92.022765
 11
81.51268
 21
-92.46205
  0
LINE
  8
ボルト／ビス
  6
CONTINUOUS
 62
    64
 10
80.751805
 20
-92.709183
 11
80.609125
 21
-92.269892
  0
LINE
  8
ボルト／ビス
  6
CONTINUOUS
 62
    64
 10
80.751805
 20
-92.709183
 11
81.20358
 21
-92.80526
  0
CIRCLE
  8
ボルト／ビス
  6
CONTINUOUS
 62
    64
 10
81.060897
 20
-92.365973
 40
0.4
  0
LINE
  8
ボルト／ビス
  6
CONTINUOUS
 62
    64
 10
81.51268
 20
-92.46205
 11
81.20358
 21
-92.80526
  0
LINE
  8
ボルト／ビス
  6
CONTINUOUS
 62
    64
 10
80.918217
 20
-91.926682
 11
80.609125
 21
-92.269892
  0
LINE
  8
ボルト／ビス
  6
CONTINUOUS
 62
    64
 10
65.297135
 20
-77.547948
 11
64.845355
 21
-77.451872
  0
LINE
  8
ボルト／ビス
  6
CONTINUOUS
 62
    64
 10
65.297135
 20
-77.547948
 11
65.439815
 21
-77.987233
  0
LINE
  8
ボルト／ビス
  6
CONTINUOUS
 62
    64
 10
64.67895
 20
-78.234375
 11
64.536268
 21
-77.795088
  0
LINE
  8
ボルト／ビス
  6
CONTINUOUS
 62
    64
 10
64.67895
 20
-78.234375
 11
65.13073
 21
-78.330447
  0
CIRCLE
  8
ボルト／ビス
  6
CONTINUOUS
 62
    64
 10
64.988042
 20
-77.89116
 40
0.4
  0
LINE
  8
ボルト／ビス
  6
CONTINUOUS
 62
    64
 10
65.439815
 20
-77.987233
 11
65.13073
 21
-78.330447
  0
LINE
  8
ボルト／ビス
  6
CONTINUOUS
 62
    64
 10
64.845355
 20
-77.451872
 11
64.536268
 21
-77.795088
  0
ENDBLK
  0
BLOCK
  2
*DIM_0023
 70
    65
 10
0.0
 20
0.0
  0
LINE
  8
寸法
  6
BYBLOCK
 62
     0
 10
-112.750185
 20
117.929245
 11
-112.750185
 21
128.86
  0
LINE
  8
寸法
  6
BYBLOCK
 62
     0
 10
-77.750185
 20
117.929245
 11
-77.750185
 21
128.86
  0
LINE
  8
寸法
  6
BYBLOCK
 62
     0
 10
-112.750185
 20
128.86
 11
-77.750185
 21
128.86
  0
POINT
  8
寸法
 62
     0
 10
-112.750185
 20
128.86
  0
POINT
  8
寸法
 62
     0
 10
-77.750185
 20
128.86
  0
TEXT
  7
TextStyle03
  8
寸法
  6
CONTINUOUS
 62
     0
 10
-97.7125
 20
129.225
  1
700
 40
3.0
 72
     5
 11
-92.8375
 21
129.225
  0
ENDBLK
  0
BLOCK
  2
*DIM_0024
 70
    65
 10
0.0
 20
0.0
  0
LINE
  8
寸法
  6
BYBLOCK
 62
     0
 10
-42.750185
 20
117.929245
 11
-42.750185
 21
128.86
  0
LINE
  8
寸法
  6
BYBLOCK
 62
     0
 10
-77.750185
 20
128.86
 11
-42.750185
 21
128.86
  0
POINT
  8
寸法
 62
     0
 10
-42.750185
 20
128.86
  0
TEXT
  7
TextStyle03
  8
寸法
  6
CONTINUOUS
 62
     0
 10
-62.7125
 20
129.225
  1
700
 40
3.0
 72
     5
 11
-57.8375
 21
129.225
  0
ENDBLK
  0
BLOCK
  2
*GRP_0025
 70
    65
 10
0.0
 20
0.0
  0
POLYLINE
  8
寸法
  6
BYBLOCK
 62
     0
 66
     1
  0
VERTEX
  8
寸法
 10
-124.510845
 20
69.855272
  0
VERTEX
  8
寸法
 10
-130.927348
 20
76.271775
  0
VERTEX
  8
寸法
 10
-136.834475
 20
76.271775
  0
SEQEND
  0
ENDBLK
  0
BLOCK
  2
*DIM_0026
 70
    65
 10
0.0
 20
0.0
  0
LINE
  8
寸法
  6
BYBLOCK
 62
     0
 10
-153.005185
 20
77.674245
 11
-163.93594
 21
77.674247
  0
LINE
  8
寸法
  6
BYBLOCK
 62
     0
 10
-153.005188
 20
42.674245
 11
-163.935942
 21
42.674247
  0
LINE
  8
寸法
  6
BYBLOCK
 62
     0
 10
-163.93594
 20
77.674247
 11
-163.935942
 21
42.674247
  0
POINT
  8
寸法
 62
     0
 10
-163.93594
 20
77.674247
  0
POINT
  8
寸法
 62
     0
 10
-163.935942
 20
42.674247
  0
TEXT
  7
TextStyle03
  8
寸法
  6
CONTINUOUS
 62
     0
 10
-164.325
 20
57.7125
  1
700
 40
3.0
 50
90.0
 72
     5
 11
-164.325
 21
62.5875
  0
ENDBLK
  0
BLOCK
  2
*DIM_0027
 70
    65
 10
0.0
 20
0.0
  0
LINE
  8
寸法
  6
BYBLOCK
 62
     0
 10
-153.005188
 20
42.674245
 11
-163.935942
 21
42.67425
  0
LINE
  8
寸法
  6
BYBLOCK
 62
     0
 10
-153.00519
 20
7.674245
 11
-163.935945
 21
7.67425
  0
LINE
  8
寸法
  6
BYBLOCK
 62
     0
 10
-163.935942
 20
42.67425
 11
-163.935945
 21
7.67425
  0
POINT
  8
寸法
 62
     0
 10
-163.935945
 20
7.67425
  0
TEXT
  7
TextStyle03
  8
寸法
  6
CONTINUOUS
 62
     0
 10
-164.325
 20
22.7125
  1
700
 40
3.0
 50
90.0
 72
     5
 11
-164.325
 21
27.5875
  0
ENDBLK
  0
BLOCK
  2
*DIM_0028
 70
    65
 10
0.0
 20
0.0
  0
LINE
  8
寸法
  6
BYBLOCK
 62
     0
 10
116.187378
 20
11.037867
 11
116.187378
 21
-0.362323
  0
LINE
  8
寸法
  6
BYBLOCK
 62
     0
 10
166.707378
 20
11.037867
 11
166.707378
 21
-0.362323
  0
LINE
  8
寸法
  6
BYBLOCK
 62
     0
 10
116.187378
 20
-0.362323
 11
166.707378
 21
-0.362323
  0
POINT
  8
寸法
 62
     0
 10
116.187378
 20
-0.362323
  0
POINT
  8
寸法
 62
     0
 10
166.707378
 20
-0.362323
  0
TEXT
  7
TextStyle03
  8
寸法
  6
CONTINUOUS
 62
     0
 10
136.45625
 20
0.0
  1
1010.4
 40
3.0
 72
     5
 11
146.39375
 21
0.0
  0
ENDBLK
  0
BLOCK
  2
*DIM_0029
 70
    65
 10
0.0
 20
0.0
  0
LINE
  8
寸法
  6
BYBLOCK
 62
     0
 10
169.707378
 20
14.037867
 11
179.69309
 21
14.037867
  0
LINE
  8
寸法
  6
BYBLOCK
 62
     0
 10
169.707378
 20
85.483627
 11
179.69309
 21
85.483627
  0
LINE
  8
寸法
  6
BYBLOCK
 62
     0
 10
179.69309
 20
14.037867
 11
179.69309
 21
85.483627
  0
POINT
  8
寸法
 62
     0
 10
179.69309
 20
14.037867
  0
POINT
  8
寸法
 62
     0
 10
179.69309
 20
85.483627
  0
TEXT
  7
TextStyle03
  8
寸法
  6
CONTINUOUS
 62
     0
 10
179.3
 20
44.78125
  1
1428.9
 40
3.0
 50
90.0
 72
     5
 11
179.3
 21
54.71875
  0
ENDBLK
  0
BLOCK
  2
*DIM_0030
 70
    65
 10
0.0
 20
0.0
  0
LINE
  8
寸法
  6
BYBLOCK
 62
     0
 10
170.273185
 20
-79.055163
 11
182.836815
 21
-79.055163
  0
LINE
  8
寸法
  6
BYBLOCK
 62
     0
 10
170.273185
 20
-104.055165
 11
182.836815
 21
-104.055165
  0
LINE
  8
寸法
  6
BYBLOCK
 62
     0
 10
182.836815
 20
-79.055163
 11
182.836815
 21
-104.055165
  0
POINT
  8
寸法
 62
     0
 10
182.836815
 20
-79.055163
  0
POINT
  8
寸法
 62
     0
 10
182.836815
 20
-104.055165
  0
TEXT
  7
TextStyle03
  8
寸法
  6
CONTINUOUS
 62
     0
 10
182.45
 20
-102.35625
  1
上昇　436以上
 40
3.0
 50
90.0
 72
     5
 11
182.45
 21
-80.79375
  0
ENDBLK
  0
BLOCK
  2
*DIM_0031
 70
    65
 10
0.0
 20
0.0
  0
LINE
  8
寸法
  6
CONTINUOUS
 10
-16.450185
 20
-100.855165
 11
-2.166423
 21
-100.855165
  0
LINE
  8
寸法
  6
CONTINUOUS
 10
-18.605408
 20
-110.655165
 11
-2.166423
 21
-110.655165
  0
LINE
  8
寸法
  6
CONTINUOUS
 10
-2.166423
 20
-100.855165
 11
-2.166423
 21
-110.655165
  0
POINT
  8
寸法
 10
-2.166423
 20
-100.855165
  0
POINT
  8
寸法
 10
-2.166423
 20
-110.655165
  0
TEXT
  7
TextStyle03
  8
寸法
  6
CONTINUOUS
 10
-2.55
 20
-108.2125
  1
196
 40
3.0
 50
90.0
 72
     5
 11
-2.55
 21
-103.3375
  0
ENDBLK
  0
ENDSEC
  0
SECTION
  2
ENTITIES
  0
POLYLINE
  8
通り芯
  6
CONTINUOUS
 66
     1
 70
     1
  0
VERTEX
  8
通り芯
 10
-210.0
 20
-148.5
  0
VERTEX
  8
通り芯
 10
210.0
 20
-148.5
  0
VERTEX
  8
通り芯
 10
210.0
 20
148.5
  0
VERTEX
  8
通り芯
 10
-210.0
 20
148.5
  0
SEQEND
  0
INSERT
  2
*GRP_0001
  8
型材断面
  6
CONTINUOUS
 10
0.0
 20
0.0
  0
ARC
  8
型材断面
  6
CONTINUOUS
 62
    47
 10
-133.185186
 20
-104.815165
 40
0.015
 50
180.0
 51
270.0
  0
ARC
  8
型材断面
  6
CONTINUOUS
 62
    47
 10
-134.035186
 20
-104.040165
 40
0.015
 50
180.0
 51
270.0
  0
LINE
  8
型材断面
  6
CONTINUOUS
 62
    47
 10
-134.050185
 20
-104.040165
 11
-134.050185
 21
-100.855165
  0
LINE
  8
型材断面
  6
CONTINUOUS
 62
    47
 10
-133.200183
 20
-104.445162
 11
-133.185182
 21
-104.430163
  0
LINE
  8
型材断面
  6
CONTINUOUS
 62
    47
 10
-133.185182
 20
-104.430163
 11
-133.200183
 21
-104.415165
  0
LINE
  8
型材断面
  6
CONTINUOUS
 62
    47
 10
-133.200183
 20
-104.815165
 11
-133.200183
 21
-104.445162
  0
LINE
  8
型材断面
  6
CONTINUOUS
 10
-134.050185
 20
-100.855165
 11
-134.138483
 21
-100.766867
  0
LINE
  8
型材断面
  6
CONTINUOUS
 62
    47
 10
-133.200183
 20
-104.415165
 11
-133.200183
 21
-104.055163
  0
LINE
  8
型材断面
  6
CONTINUOUS
 10
-135.77406
 20
-1.775757
 11
-139.65982
 21
-0.881672
  0
LINE
  8
型材断面
  6
CONTINUOUS
 10
-135.77406
 20
-1.775757
 11
-139.65982
 21
-2.669842
  0
LINE
  8
型材断面
  6
CONTINUOUS
 10
-139.65982
 20
-2.669842
 11
-139.65982
 21
-0.881672
  0
LINE
  8
型材断面
  6
CONTINUOUS
 10
-77.750185
 20
-44.343215
 11
-77.750185
 21
-45.644098
  0
LINE
  8
型材断面
  6
CONTINUOUS
 10
-77.750185
 20
-44.343215
 11
-77.750185
 21
-45.644098
  0
LINE
  8
型材断面
  6
CONTINUOUS
 10
-77.750185
 20
-44.343215
 11
-77.750185
 21
-45.644098
  0
LINE
  8
型材断面
  6
CONTINUOUS
 10
-77.750185
 20
-44.343215
 11
-77.750185
 21
-45.644098
  0
LINE
  8
型材断面
  6
CONTINUOUS
 10
-77.750185
 20
-44.34318
 11
-80.250185
 21
-46.84318
  0
LINE
  8
型材断面
  6
CONTINUOUS
 10
-77.750185
 20
-45.748862
 11
-78.844505
 21
-46.84318
  0
LINE
  8
型材断面
  6
CONTINUOUS
 10
-80.250185
 20
-46.84318
 11
-78.844505
 21
-46.84318
  0
LINE
  8
型材断面
  6
CONTINUOUS
 10
-75.250185
 20
-46.84318
 11
-76.655865
 21
-46.84318
  0
LINE
  8
型材断面
  6
CONTINUOUS
 10
-77.750185
 20
-45.748862
 11
-76.655865
 21
-46.84318
  0
LINE
  8
型材断面
  6
CONTINUOUS
 10
-77.750185
 20
-44.34318
 11
-75.250185
 21
-46.84318
  0
LINE
  8
型材断面
  6
CONTINUOUS
 10
-134.138483
 20
-100.766867
 11
-80.214797
 21
-46.84318
  0
LINE
  8
型材断面
  6
CONTINUOUS
 10
-132.96125
 20
-100.855165
 11
-78.94927
 21
-46.84318
  0
LINE
  8
型材断面
  6
CONTINUOUS
 10
-134.050185
 20
-100.855165
 11
-77.750185
 21
-100.855165
  0
LINE
  8
型材断面
  6
CONTINUOUS
 62
    47
 10
-133.185182
 20
-104.830165
 11
-77.750185
 21
-104.830165
  0
LINE
  8
型材断面
  6
CONTINUOUS
 62
    47
 10
-134.035185
 20
-104.055163
 11
-77.750185
 21
-104.055163
  0
ARC
  8
型材断面
  6
CONTINUOUS
 62
    47
 10
-22.315184
 20
-104.815165
 40
0.015
 50
270.0
 51
360.0
  0
ARC
  8
型材断面
  6
CONTINUOUS
 62
    47
 10
-21.465184
 20
-104.040165
 40
0.015
 50
270.0
 51
360.0
  0
LINE
  8
型材断面
  6
CONTINUOUS
 62
    47
 10
-21.450185
 20
-104.040165
 11
-21.450185
 21
-100.855165
  0
LINE
  8
型材断面
  6
CONTINUOUS
 62
    47
 10
-22.300187
 20
-104.445162
 11
-22.315187
 21
-104.430163
  0
LINE
  8
型材断面
  6
CONTINUOUS
 62
    47
 10
-22.315187
 20
-104.430163
 11
-22.300187
 21
-104.415165
  0
LINE
  8
型材断面
  6
CONTINUOUS
 62
    47
 10
-22.300187
 20
-104.815165
 11
-22.300187
 21
-104.445162
  0
LINE
  8
型材断面
  6
CONTINUOUS
 10
-21.450185
 20
-100.855165
 11
-21.361888
 21
-100.766867
  0
LINE
  8
型材断面
  6
CONTINUOUS
 62
    47
 10
-22.300187
 20
-104.415165
 11
-22.300187
 21
-104.055163
  0
LINE
  8
型材断面
  6
CONTINUOUS
 10
-21.361888
 20
-100.766867
 11
-75.285573
 21
-46.84318
  0
LINE
  8
型材断面
  6
CONTINUOUS
 10
-22.53912
 20
-100.855165
 11
-76.5511
 21
-46.84318
  0
LINE
  8
型材断面
  6
CONTINUOUS
 10
-21.450185
 20
-100.855165
 11
-77.750185
 21
-100.855165
  0
LINE
  8
型材断面
  6
CONTINUOUS
 62
    47
 10
-22.315187
 20
-104.830165
 11
-77.750185
 21
-104.830165
  0
LINE
  8
型材断面
  6
CONTINUOUS
 62
    47
 10
-21.465185
 20
-104.055163
 11
-77.750185
 21
-104.055163
  0
LINE
  8
型材断面
  6
DASHDOT
 10
-127.750185
 20
-7.325755
 11
-27.750185
 21
-7.325755
  0
LINE
  8
型材断面
  6
CONTINUOUS
 10
-134.050185
 20
-13.625755
 11
-77.750185
 21
-13.625755
  0
LINE
  8
型材断面
  6
DASHDOT
 10
-127.750185
 20
42.674245
 11
-27.750185
 21
42.674245
  0
LINE
  8
型材断面
  6
DASHDOT
 10
-127.750185
 20
92.674245
 11
-27.750185
 21
92.674245
  0
LINE
  8
型材断面
  6
CONTINUOUS
 10
-134.050185
 20
-13.625755
 11
-134.050185
 21
42.674245
  0
LINE
  8
型材断面
  6
CONTINUOUS
 10
-79.155865
 20
42.674245
 11
-80.250185
 21
41.579927
  0
LINE
  8
型材断面
  6
CONTINUOUS
 10
-80.250185
 20
41.579927
 11
-80.250185
 21
40.174247
  0
LINE
  8
型材断面
  6
CONTINUOUS
 10
-78.844505
 20
40.174245
 11
-80.250185
 21
40.174247
  0
LINE
  8
型材断面
  6
CONTINUOUS
 10
-77.750185
 20
41.268565
 11
-78.844507
 21
40.174245
  0
LINE
  8
型材断面
  6
CONTINUOUS
 10
-77.750185
 20
42.674245
 11
-80.250185
 21
40.174247
  0
LINE
  8
型材断面
  6
CONTINUOUS
 10
-134.050185
 20
-12.439315
 11
-80.250185
 21
41.360683
  0
LINE
  8
型材断面
  6
CONTINUOUS
 10
-134.050185
 20
-13.625755
 11
-80.250185
 21
40.174247
  0
LINE
  8
型材断面
  6
CONTINUOUS
 10
-132.863748
 20
-13.625755
 11
-79.06375
 21
40.174245
  0
LINE
  8
型材断面
  6
CONTINUOUS
 10
-77.750185
 20
-15.34963
 11
-79.99363
 21
-19.23539
  0
LINE
  8
型材断面
  6
CONTINUOUS
 10
-77.750185
 20
-15.34963
 11
-75.50674
 21
-19.23539
  0
LINE
  8
型材断面
  6
CONTINUOUS
 10
-75.50674
 20
-19.23539
 11
-79.99363
 21
-19.23539
  0
LINE
  8
型材断面
  6
CONTINUOUS
 10
-135.774063
 20
42.674245
 11
-139.659822
 21
40.4308
  0
LINE
  8
型材断面
  6
CONTINUOUS
 10
-135.774063
 20
42.674245
 11
-139.659822
 21
44.91769
  0
LINE
  8
型材断面
  6
CONTINUOUS
 10
-139.659822
 20
44.91769
 11
-139.659822
 21
40.4308
  0
LINE
  8
型材断面
  6
CONTINUOUS
 10
-135.77406
 20
87.124247
 11
-139.65982
 21
86.230163
  0
LINE
  8
型材断面
  6
CONTINUOUS
 10
-135.77406
 20
87.124247
 11
-139.65982
 21
88.018333
  0
LINE
  8
型材断面
  6
CONTINUOUS
 10
-139.65982
 20
88.018333
 11
-139.65982
 21
86.230163
  0
LINE
  8
型材断面
  6
CONTINUOUS
 10
-134.050185
 20
98.974245
 11
-77.750185
 21
98.974245
  0
LINE
  8
型材断面
  6
CONTINUOUS
 10
-134.050185
 20
98.974245
 11
-134.050185
 21
42.674245
  0
LINE
  8
型材断面
  6
CONTINUOUS
 10
-79.155865
 20
42.674245
 11
-80.250185
 21
43.768563
  0
LINE
  8
型材断面
  6
CONTINUOUS
 10
-80.250185
 20
43.768563
 11
-80.250185
 21
45.174243
  0
LINE
  8
型材断面
  6
CONTINUOUS
 10
-78.844505
 20
45.174245
 11
-80.250185
 21
45.174243
  0
LINE
  8
型材断面
  6
CONTINUOUS
 10
-77.750185
 20
44.079925
 11
-78.844507
 21
45.174245
  0
LINE
  8
型材断面
  6
CONTINUOUS
 10
-77.750185
 20
42.674245
 11
-80.250185
 21
45.174243
  0
LINE
  8
型材断面
  6
CONTINUOUS
 10
-134.050185
 20
97.787805
 11
-80.250185
 21
43.987808
  0
LINE
  8
型材断面
  6
CONTINUOUS
 10
-134.050185
 20
98.974245
 11
-80.250185
 21
45.174243
  0
LINE
  8
型材断面
  6
CONTINUOUS
 10
-132.863748
 20
98.974245
 11
-79.06375
 21
45.174245
  0
LINE
  8
型材断面
  6
CONTINUOUS
 10
-77.750185
 20
100.69812
 11
-79.99363
 21
104.58388
  0
LINE
  8
型材断面
  6
CONTINUOUS
 10
-77.750185
 20
100.69812
 11
-75.50674
 21
104.58388
  0
LINE
  8
型材断面
  6
CONTINUOUS
 10
-75.50674
 20
104.58388
 11
-79.99363
 21
104.58388
  0
LINE
  8
型材断面
  6
CONTINUOUS
 10
-19.72631
 20
-1.775757
 11
-15.84055
 21
-0.881672
  0
LINE
  8
型材断面
  6
CONTINUOUS
 10
-19.72631
 20
-1.775757
 11
-15.84055
 21
-2.669842
  0
LINE
  8
型材断面
  6
CONTINUOUS
 10
-15.84055
 20
-2.669842
 11
-15.84055
 21
-0.881672
  0
LINE
  8
型材断面
  6
CONTINUOUS
 10
-21.450185
 20
-13.625755
 11
-77.750185
 21
-13.625755
  0
LINE
  8
型材断面
  6
CONTINUOUS
 10
-21.450185
 20
-13.625755
 11
-21.450185
 21
42.674245
  0
LINE
  8
型材断面
  6
CONTINUOUS
 10
-76.344505
 20
42.674245
 11
-75.250185
 21
41.579927
  0
LINE
  8
型材断面
  6
CONTINUOUS
 10
-75.250185
 20
41.579927
 11
-75.250185
 21
40.174247
  0
LINE
  8
型材断面
  6
CONTINUOUS
 10
-76.655865
 20
40.174245
 11
-75.250185
 21
40.174247
  0
LINE
  8
型材断面
  6
CONTINUOUS
 10
-77.750185
 20
41.268565
 11
-76.655862
 21
40.174245
  0
LINE
  8
型材断面
  6
CONTINUOUS
 10
-77.750185
 20
42.674245
 11
-75.250185
 21
40.174247
  0
LINE
  8
型材断面
  6
CONTINUOUS
 10
-21.450185
 20
-12.439315
 11
-75.250185
 21
41.360683
  0
LINE
  8
型材断面
  6
CONTINUOUS
 10
-21.450185
 20
-13.625755
 11
-75.250185
 21
40.174247
  0
LINE
  8
型材断面
  6
CONTINUOUS
 10
-22.636622
 20
-13.625755
 11
-76.43662
 21
40.174245
  0
LINE
  8
型材断面
  6
CONTINUOUS
 10
-19.726307
 20
42.674245
 11
-15.840547
 21
40.4308
  0
LINE
  8
型材断面
  6
CONTINUOUS
 10
-19.726307
 20
42.674245
 11
-15.840547
 21
44.91769
  0
LINE
  8
型材断面
  6
CONTINUOUS
 10
-15.840547
 20
44.91769
 11
-15.840547
 21
40.4308
  0
LINE
  8
型材断面
  6
CONTINUOUS
 10
-19.72631
 20
87.124247
 11
-15.84055
 21
86.230163
  0
LINE
  8
型材断面
  6
CONTINUOUS
 10
-19.72631
 20
87.124247
 11
-15.84055
 21
88.018333
  0
LINE
  8
型材断面
  6
CONTINUOUS
 10
-15.84055
 20
88.018333
 11
-15.84055
 21
86.230163
  0
LINE
  8
型材断面
  6
CONTINUOUS
 10
-21.450185
 20
98.974245
 11
-77.750185
 21
98.974245
  0
LINE
  8
型材断面
  6
CONTINUOUS
 10
-21.450185
 20
98.974245
 11
-21.450185
 21
42.674245
  0
LINE
  8
型材断面
  6
CONTINUOUS
 10
-76.344505
 20
42.674245
 11
-75.250185
 21
43.768563
  0
LINE
  8
型材断面
  6
CONTINUOUS
 10
-75.250185
 20
43.768563
 11
-75.250185
 21
45.174243
  0
LINE
  8
型材断面
  6
CONTINUOUS
 10
-76.655865
 20
45.174245
 11
-75.250185
 21
45.174243
  0
LINE
  8
型材断面
  6
CONTINUOUS
 10
-77.750185
 20
44.079925
 11
-76.655862
 21
45.174245
  0
LINE
  8
型材断面
  6
CONTINUOUS
 10
-77.750185
 20
42.674245
 11
-75.250185
 21
45.174243
  0
LINE
  8
型材断面
  6
CONTINUOUS
 10
-21.450185
 20
97.787805
 11
-75.250185
 21
43.987808
  0
LINE
  8
型材断面
  6
CONTINUOUS
 10
-21.450185
 20
98.974245
 11
-75.250185
 21
45.174243
  0
LINE
  8
型材断面
  6
CONTINUOUS
 10
-22.636622
 20
98.974245
 11
-76.43662
 21
45.174245
  0
LINE
  8
型材断面
  6
DOT
 10
-32.766423
 20
92.674245
 11
-32.766423
 21
-7.325755
  0
LINE
  8
型材断面
  6
DOT
 10
-30.766423
 20
92.674245
 11
-30.766423
 21
-7.325755
  0
LINE
  8
型材断面
  6
DOT
 10
-122.733947
 20
92.674245
 11
-122.733947
 21
-7.325755
  0
LINE
  8
型材断面
  6
DOT
 10
-124.733947
 20
92.674245
 11
-124.733947
 21
-7.325755
  0
LINE
  8
型材断面
  6
CONTINUOUS
 10
10.516347
 20
-1.556797
 11
8.272903
 21
-5.442558
  0
LINE
  8
型材断面
  6
CONTINUOUS
 10
10.516347
 20
-1.556797
 11
12.759793
 21
-5.442558
  0
LINE
  8
型材断面
  6
CONTINUOUS
 10
12.759793
 20
-5.442558
 11
8.272903
 21
-5.442558
  0
LINE
  8
型材断面
  6
CONTINUOUS
 10
10.516347
 20
-9.246345
 11
11.410433
 21
-13.132105
  0
LINE
  8
型材断面
  6
CONTINUOUS
 10
10.516347
 20
-9.246345
 11
9.622263
 21
-13.132105
  0
LINE
  8
型材断面
  6
CONTINUOUS
 10
9.622263
 20
-13.132105
 11
11.410433
 21
-13.132105
  0
LINE
  8
型材断面
  6
CONTINUOUS
 10
1.482467
 20
-6.85045
 11
54.139148
 21
-6.85045
  0
LINE
  8
型材断面
  6
CONTINUOUS
 10
1.482467
 20
-18.050443
 11
54.139148
 21
-18.050443
  0
LINE
  8
型材断面
  6
CONTINUOUS
 10
1.482467
 20
-24.890387
 11
54.139148
 21
-24.890387
  0
ARC
  8
型材断面
  6
CONTINUOUS
 62
    47
 10
57.553183
 20
-104.815165
 40
0.015
 50
180.0
 51
270.0
  0
ARC
  8
型材断面
  6
CONTINUOUS
 62
    47
 10
56.703183
 20
-104.040165
 40
0.015
 50
180.0
 51
270.0
  0
LINE
  8
型材断面
  6
CONTINUOUS
 62
    47
 10
56.688185
 20
-104.040165
 11
56.688185
 21
-100.855165
  0
LINE
  8
型材断面
  6
CONTINUOUS
 62
    47
 10
57.538187
 20
-104.445162
 11
57.553188
 21
-104.430163
  0
LINE
  8
型材断面
  6
CONTINUOUS
 62
    47
 10
57.553188
 20
-104.430163
 11
57.538187
 21
-104.415165
  0
LINE
  8
型材断面
  6
CONTINUOUS
 62
    47
 10
57.538187
 20
-104.815165
 11
57.538187
 21
-104.445162
  0
LINE
  8
型材断面
  6
CONTINUOUS
 10
56.688185
 20
-100.855165
 11
56.599887
 21
-100.766867
  0
LINE
  8
型材断面
  6
CONTINUOUS
 62
    47
 10
57.538187
 20
-104.415165
 11
57.538187
 21
-104.055163
  0
LINE
  8
型材断面
  6
CONTINUOUS
 10
112.988185
 20
-44.343215
 11
112.988185
 21
-45.644098
  0
LINE
  8
型材断面
  6
CONTINUOUS
 10
112.988185
 20
-44.343215
 11
112.988185
 21
-45.644098
  0
LINE
  8
型材断面
  6
CONTINUOUS
 10
112.988185
 20
-44.343215
 11
112.988185
 21
-45.644098
  0
LINE
  8
型材断面
  6
CONTINUOUS
 10
112.988185
 20
-44.343215
 11
112.988185
 21
-45.644098
  0
LINE
  8
型材断面
  6
CONTINUOUS
 10
112.988185
 20
-44.34318
 11
110.488185
 21
-46.84318
  0
LINE
  8
型材断面
  6
CONTINUOUS
 10
112.988185
 20
-45.748862
 11
111.893865
 21
-46.84318
  0
LINE
  8
型材断面
  6
CONTINUOUS
 10
110.488185
 20
-46.84318
 11
111.893865
 21
-46.84318
  0
LINE
  8
型材断面
  6
CONTINUOUS
 10
115.488185
 20
-46.84318
 11
114.082505
 21
-46.84318
  0
LINE
  8
型材断面
  6
CONTINUOUS
 10
112.988185
 20
-45.748862
 11
114.082505
 21
-46.84318
  0
LINE
  8
型材断面
  6
CONTINUOUS
 10
112.988185
 20
-44.34318
 11
115.488185
 21
-46.84318
  0
LINE
  8
型材断面
  6
CONTINUOUS
 10
56.599887
 20
-100.766867
 11
110.523573
 21
-46.84318
  0
LINE
  8
型材断面
  6
CONTINUOUS
 10
57.77712
 20
-100.855165
 11
111.7891
 21
-46.84318
  0
LINE
  8
型材断面
  6
CONTINUOUS
 10
56.688185
 20
-100.855165
 11
112.988185
 21
-100.855165
  0
LINE
  8
型材断面
  6
CONTINUOUS
 62
    47
 10
57.553188
 20
-104.830165
 11
112.988185
 21
-104.830165
  0
LINE
  8
型材断面
  6
CONTINUOUS
 62
    47
 10
56.703185
 20
-104.055163
 11
112.988185
 21
-104.055163
  0
ARC
  8
型材断面
  6
CONTINUOUS
 62
    47
 10
168.423186
 20
-104.815165
 40
0.015
 50
270.0
 51
360.0
  0
ARC
  8
型材断面
  6
CONTINUOUS
 62
    47
 10
169.273186
 20
-104.040165
 40
0.015
 50
270.0
 51
360.0
  0
LINE
  8
型材断面
  6
CONTINUOUS
 62
    47
 10
169.288185
 20
-104.040165
 11
169.288185
 21
-100.855165
  0
LINE
  8
型材断面
  6
CONTINUOUS
 62
    47
 10
168.438183
 20
-104.445162
 11
168.423183
 21
-104.430163
  0
LINE
  8
型材断面
  6
CONTINUOUS
 62
    47
 10
168.423183
 20
-104.430163
 11
168.438183
 21
-104.415165
  0
LINE
  8
型材断面
  6
CONTINUOUS
 62
    47
 10
168.438183
 20
-104.815165
 11
168.438183
 21
-104.445162
  0
LINE
  8
型材断面
  6
CONTINUOUS
 10
169.288185
 20
-100.855165
 11
169.376483
 21
-100.766867
  0
LINE
  8
型材断面
  6
CONTINUOUS
 62
    47
 10
168.438183
 20
-104.415165
 11
168.438183
 21
-104.055163
  0
LINE
  8
型材断面
  6
CONTINUOUS
 10
169.376483
 20
-100.766867
 11
115.452798
 21
-46.84318
  0
LINE
  8
型材断面
  6
CONTINUOUS
 10
168.19925
 20
-100.855165
 11
114.18727
 21
-46.84318
  0
LINE
  8
型材断面
  6
CONTINUOUS
 10
169.288185
 20
-100.855165
 11
112.988185
 21
-100.855165
  0
LINE
  8
型材断面
  6
CONTINUOUS
 62
    47
 10
168.423183
 20
-104.830165
 11
112.988185
 21
-104.830165
  0
LINE
  8
型材断面
  6
CONTINUOUS
 62
    47
 10
169.273185
 20
-104.055163
 11
112.988185
 21
-104.055163
  0
ARC
  8
型材断面
  6
DOT
 62
    47
 10
57.553183
 20
-79.815162
 40
0.015
 50
180.0
 51
270.0
  0
ARC
  8
型材断面
  6
DOT
 62
    47
 10
56.703183
 20
-79.040162
 40
0.015
 50
180.0
 51
270.0
  0
LINE
  8
型材断面
  6
DOT
 62
    47
 10
56.688185
 20
-79.040163
 11
56.688185
 21
-75.855163
  0
LINE
  8
型材断面
  6
DOT
 62
    47
 10
57.538187
 20
-79.44516
 11
57.553188
 21
-79.43016
  0
LINE
  8
型材断面
  6
DOT
 62
    47
 10
57.553188
 20
-79.43016
 11
57.538187
 21
-79.415163
  0
LINE
  8
型材断面
  6
DOT
 62
    47
 10
57.538187
 20
-79.815163
 11
57.538187
 21
-79.44516
  0
LINE
  8
型材断面
  6
DOT
 10
56.688185
 20
-75.855163
 11
56.599887
 21
-75.766865
  0
LINE
  8
型材断面
  6
DOT
 62
    47
 10
57.538187
 20
-79.415163
 11
57.538187
 21
-79.05516
  0
LINE
  8
型材断面
  6
DOT
 10
112.988185
 20
-19.343213
 11
112.988185
 21
-20.644095
  0
LINE
  8
型材断面
  6
DOT
 10
112.988185
 20
-19.343213
 11
112.988185
 21
-20.644095
  0
LINE
  8
型材断面
  6
DOT
 10
112.988185
 20
-19.343213
 11
112.988185
 21
-20.644095
  0
LINE
  8
型材断面
  6
DOT
 10
112.988185
 20
-19.343213
 11
112.988185
 21
-20.644095
  0
LINE
  8
型材断面
  6
DOT
 10
112.988185
 20
-19.343178
 11
110.488185
 21
-21.843178
  0
LINE
  8
型材断面
  6
DOT
 10
112.988185
 20
-20.74886
 11
111.893865
 21
-21.843178
  0
LINE
  8
型材断面
  6
DOT
 10
110.488185
 20
-21.843178
 11
111.893865
 21
-21.843178
  0
LINE
  8
型材断面
  6
DOT
 10
115.488185
 20
-21.843178
 11
114.082505
 21
-21.843178
  0
LINE
  8
型材断面
  6
DOT
 10
112.988185
 20
-20.74886
 11
114.082505
 21
-21.843178
  0
LINE
  8
型材断面
  6
DOT
 10
112.988185
 20
-19.343178
 11
115.488185
 21
-21.843178
  0
LINE
  8
型材断面
  6
DOT
 10
56.599887
 20
-75.766865
 11
110.523573
 21
-21.843178
  0
LINE
  8
型材断面
  6
DOT
 10
57.77712
 20
-75.855163
 11
111.7891
 21
-21.843178
  0
INSERT
  2
*GRP_0011
  8
型材断面
  6
DOT
 10
0.0
 20
0.0
  0
INSERT
  2
*GRP_0012
  8
型材断面
  6
DOT
 10
0.0
 20
0.0
  0
INSERT
  2
*GRP_0013
  8
型材断面
  6
DOT
 10
0.0
 20
0.0
  0
INSERT
  2
*GRP_0014
  8
型材断面
  6
DOT
 10
0.0
 20
0.0
  0
LINE
  8
型材断面
  6
DOT
 10
56.688185
 20
-75.855163
 11
112.988185
 21
-75.855163
  0
LINE
  8
型材断面
  6
DOT
 62
    47
 10
57.553188
 20
-79.830163
 11
112.988185
 21
-79.830163
  0
LINE
  8
型材断面
  6
DOT
 62
    47
 10
56.703185
 20
-79.05516
 11
112.988185
 21
-79.05516
  0
ARC
  8
型材断面
  6
DOT
 62
    47
 10
168.423186
 20
-79.815162
 40
0.015
 50
270.0
 51
360.0
  0
ARC
  8
型材断面
  6
DOT
 62
    47
 10
169.273186
 20
-79.040162
 40
0.015
 50
270.0
 51
360.0
  0
LINE
  8
型材断面
  6
DOT
 62
    47
 10
169.288185
 20
-79.040163
 11
169.288185
 21
-75.855163
  0
LINE
  8
型材断面
  6
DOT
 62
    47
 10
168.438183
 20
-79.44516
 11
168.423183
 21
-79.43016
  0
LINE
  8
型材断面
  6
DOT
 62
    47
 10
168.423183
 20
-79.43016
 11
168.438183
 21
-79.415163
  0
LINE
  8
型材断面
  6
DOT
 62
    47
 10
168.438183
 20
-79.815163
 11
168.438183
 21
-79.44516
  0
LINE
  8
型材断面
  6
DOT
 10
169.288185
 20
-75.855163
 11
169.376483
 21
-75.766865
  0
LINE
  8
型材断面
  6
DOT
 62
    47
 10
168.438183
 20
-79.415163
 11
168.438183
 21
-79.05516
  0
LINE
  8
型材断面
  6
DOT
 10
169.376483
 20
-75.766865
 11
115.452798
 21
-21.843178
  0
LINE
  8
型材断面
  6
DOT
 10
168.19925
 20
-75.855163
 11
114.18727
 21
-21.843178
  0
INSERT
  2
*GRP_0015
  8
型材断面
  6
DOT
 10
0.0
 20
0.0
  0
INSERT
  2
*GRP_0016
  8
型材断面
  6
DOT
 10
0.0
 20
0.0
  0
INSERT
  2
*GRP_0017
  8
型材断面
  6
DOT
 10
0.0
 20
0.0
  0
INSERT
  2
*GRP_0018
  8
型材断面
  6
DOT
 10
0.0
 20
0.0
  0
LINE
  8
型材断面
  6
DOT
 10
169.288185
 20
-75.855163
 11
112.988185
 21
-75.855163
  0
LINE
  8
型材断面
  6
DOT
 62
    47
 10
168.423183
 20
-79.830163
 11
112.988185
 21
-79.830163
  0
LINE
  8
型材断面
  6
DOT
 62
    47
 10
169.273185
 20
-79.05516
 11
112.988185
 21
-79.05516
  0
INSERT
  2
*GRP_0019
  8
型材断面
  6
CONTINUOUS
 10
0.0
 20
0.0
  0
INSERT
  2
*GRP_0020
  8
型材断面
  6
CONTINUOUS
 10
0.0
 20
0.0
  0
INSERT
  2
*GRP_0021
  8
型材断面
  6
CONTINUOUS
 10
0.0
 20
0.0
  0
INSERT
  2
*GRP_0022
  8
型材断面
  6
CONTINUOUS
 10
0.0
 20
0.0
  0
POLYLINE
  8
型材断面
  6
CONTINUOUS
 66
     1
 70
     1
  0
VERTEX
  8
型材断面
 10
-68.343787
 20
-20.054853
  0
VERTEX
  8
型材断面
 10
-86.899
 20
-20.054853
  0
VERTEX
  8
型材断面
 10
-86.899
 20
-24.846887
  0
VERTEX
  8
型材断面
 10
-68.343787
 20
-24.846887
  0
SEQEND
  0
POLYLINE
  8
型材断面
  6
CONTINUOUS
 66
     1
 70
     1
  0
VERTEX
  8
型材断面
 10
-68.343787
 20
110.279602
  0
VERTEX
  8
型材断面
 10
-86.899
 20
110.279602
  0
VERTEX
  8
型材断面
 10
-86.899
 20
105.487567
  0
VERTEX
  8
型材断面
 10
-68.343787
 20
105.487567
  0
SEQEND
  0
LINE
  8
型材断面
  6
CONTINUOUS
 10
118.056735
 20
71.152485
 11
141.988357
 21
71.152485
  0
LINE
  8
型材断面
  6
CONTINUOUS
 10
1.482467
 20
-31.730332
 11
54.139148
 21
-31.730332
  0
LINE
  8
型材断面
  6
DASHDOT
 10
-127.750185
 20
-110.860337
 11
-127.750185
 21
92.674245
  0
LINE
  8
型材断面
  6
DASHDOT
 10
-27.750185
 20
-110.860337
 11
-27.750185
 21
92.674245
  0
LINE
  8
型材断面
  6
DASHDOT
 10
-77.750185
 20
-110.860337
 11
-77.750185
 21
92.674245
  0
LINE
  8
型材断面
  6
CONTINUOUS
 10
-131.144963
 20
-110.655165
 11
-131.144963
 21
-111.160165
  0
LINE
  8
型材断面
  6
CONTINUOUS
 10
-131.894963
 20
-110.655165
 11
-131.144963
 21
-110.655165
  0
LINE
  8
型材断面
  6
CONTINUOUS
 10
-131.894963
 20
-110.655165
 11
-131.894963
 21
-104.830165
  0
LINE
  8
型材断面
  6
CONTINUOUS
 10
-131.894963
 20
-110.655165
 11
-77.750185
 21
-110.655165
  0
LINE
  8
型材断面
  6
CONTINUOUS
 10
-131.144963
 20
-111.160165
 11
-77.750185
 21
-111.160165
  0
LINE
  8
型材断面
  6
CONTINUOUS
 10
-24.355408
 20
-110.655165
 11
-24.355408
 21
-111.160165
  0
LINE
  8
型材断面
  6
CONTINUOUS
 10
-23.605408
 20
-110.655165
 11
-24.355408
 21
-110.655165
  0
LINE
  8
型材断面
  6
CONTINUOUS
 10
-23.605408
 20
-110.655165
 11
-23.605408
 21
-104.830165
  0
LINE
  8
型材断面
  6
CONTINUOUS
 10
-23.605408
 20
-110.655165
 11
-77.750185
 21
-110.655165
  0
LINE
  8
型材断面
  6
CONTINUOUS
 10
-24.355408
 20
-111.160165
 11
-77.750185
 21
-111.160165
  0
LINE
  8
型材断面
  6
CONTINUOUS
 10
59.593407
 20
-110.655165
 11
59.593407
 21
-111.160165
  0
LINE
  8
型材断面
  6
CONTINUOUS
 10
58.843407
 20
-110.655165
 11
59.593407
 21
-110.655165
  0
LINE
  8
型材断面
  6
CONTINUOUS
 10
58.843407
 20
-110.655165
 11
58.843407
 21
-104.830165
  0
LINE
  8
型材断面
  6
CONTINUOUS
 10
58.843407
 20
-110.655165
 11
112.988185
 21
-110.655165
  0
LINE
  8
型材断面
  6
CONTINUOUS
 10
59.593407
 20
-111.160165
 11
112.988185
 21
-111.160165
  0
LINE
  8
型材断面
  6
CONTINUOUS
 10
166.382963
 20
-110.655165
 11
166.382963
 21
-111.160165
  0
LINE
  8
型材断面
  6
CONTINUOUS
 10
167.132963
 20
-110.655165
 11
166.382963
 21
-110.655165
  0
LINE
  8
型材断面
  6
CONTINUOUS
 10
167.132963
 20
-110.655165
 11
167.132963
 21
-104.830165
  0
LINE
  8
型材断面
  6
CONTINUOUS
 10
167.132963
 20
-110.655165
 11
112.988185
 21
-110.655165
  0
LINE
  8
型材断面
  6
CONTINUOUS
 10
166.382963
 20
-111.160165
 11
112.988185
 21
-111.160165
  0
LINE
  8
ガラス
  6
CONTINUOUS
 10
-86.930325
 20
74.035193
 11
-90.80296
 21
70.162558
  0
LINE
  8
ガラス
  6
CONTINUOUS
 10
-88.528683
 20
73.15487
 11
-89.922638
 21
71.760915
  0
LINE
  8
ガラス
  6
CONTINUOUS
 10
-64.676722
 20
74.035193
 11
-68.549358
 21
70.162558
  0
LINE
  8
ガラス
  6
CONTINUOUS
 10
-66.27508
 20
73.15487
 11
-67.669035
 21
71.760915
  0
LINE
  8
ガラス
  6
CONTINUOUS
 10
-86.930325
 20
13.625007
 11
-90.80296
 21
9.752372
  0
LINE
  8
ガラス
  6
CONTINUOUS
 10
-88.528683
 20
12.744685
 11
-89.922638
 21
11.35073
  0
LINE
  8
ガラス
  6
CONTINUOUS
 10
-64.676722
 20
13.625007
 11
-68.549358
 21
9.752372
  0
LINE
  8
ガラス
  6
CONTINUOUS
 10
-66.27508
 20
12.744685
 11
-67.669035
 21
11.35073
  0
LINE
  8
ガラス
  6
CONTINUOUS
 10
-44.643925
 20
32.178015
 11
-48.51656
 21
28.30538
  0
LINE
  8
ガラス
  6
CONTINUOUS
 10
-46.242282
 20
31.297693
 11
-47.636237
 21
29.903737
  0
LINE
  8
ガラス
  6
CONTINUOUS
 10
-44.643925
 20
56.270468
 11
-48.51656
 21
52.397833
  0
LINE
  8
ガラス
  6
CONTINUOUS
 10
-46.242282
 20
55.390145
 11
-47.636237
 21
53.99619
  0
LINE
  8
ガラス
  6
CONTINUOUS
 10
-109.88609
 20
32.178015
 11
-113.758725
 21
28.30538
  0
LINE
  8
ガラス
  6
CONTINUOUS
 10
-111.484447
 20
31.297693
 11
-112.878402
 21
29.903737
  0
LINE
  8
ガラス
  6
CONTINUOUS
 10
-109.88609
 20
56.270468
 11
-113.758725
 21
52.397833
  0
LINE
  8
ガラス
  6
CONTINUOUS
 10
-111.484447
 20
55.390145
 11
-112.878402
 21
53.99619
  0
LINE
  8
ガラス
  6
CONTINUOUS
 10
-91.35434
 20
-79.662935
 11
-95.226975
 21
-83.53557
  0
LINE
  8
ガラス
  6
CONTINUOUS
 10
-92.234663
 20
-81.261293
 11
-93.628618
 21
-82.655248
  0
LINE
  8
ガラス
  6
CONTINUOUS
 10
-92.952697
 20
-80.543257
 11
-94.346652
 21
-81.937212
  0
LINE
  8
ガラス
  6
CONTINUOUS
 10
-59.927495
 20
-79.662935
 11
-63.80013
 21
-83.53557
  0
LINE
  8
ガラス
  6
CONTINUOUS
 10
-60.807817
 20
-81.261293
 11
-62.201772
 21
-82.655248
  0
LINE
  8
ガラス
  6
CONTINUOUS
 10
-61.525853
 20
-80.543257
 11
-62.919808
 21
-81.937212
  0
LINE
  8
ガラス
  6
CONTINUOUS
 10
-65.557045
 20
72.436835
 11
-66.951
 21
71.04288
  0
LINE
  8
ガラス
  6
CONTINUOUS
 10
-87.810647
 20
72.436835
 11
-89.204602
 21
71.04288
  0
LINE
  8
ガラス
  6
CONTINUOUS
 10
-110.766413
 20
54.67211
 11
-112.160368
 21
53.278155
  0
LINE
  8
ガラス
  6
CONTINUOUS
 10
-110.766413
 20
30.579658
 11
-112.160368
 21
29.185702
  0
LINE
  8
ガラス
  6
CONTINUOUS
 10
-87.810647
 20
12.02665
 11
-89.204602
 21
10.632695
  0
LINE
  8
ガラス
  6
CONTINUOUS
 10
-65.557045
 20
12.02665
 11
-66.951
 21
10.632695
  0
LINE
  8
ガラス
  6
CONTINUOUS
 10
-45.524248
 20
30.579658
 11
-46.918203
 21
29.185702
  0
LINE
  8
ガラス
  6
CONTINUOUS
 10
-45.524248
 20
54.67211
 11
-46.918203
 21
53.278155
  0
LINE
  8
ゴム等
  6
CONTINUOUS
 10
-127.9788
 20
-11.434433
 11
-129.887785
 21
-12.394975
  0
LINE
  8
ゴム等
  6
CONTINUOUS
 10
-129.887785
 20
-12.394975
 11
-130.166013
 21
-12.568635
  0
LINE
  8
ゴム等
  6
CONTINUOUS
 10
-130.24654
 20
-12.58277
 11
-132.863748
 21
-13.625755
  0
LINE
  8
ゴム等
  6
CONTINUOUS
 10
-131.858865
 20
-7.55437
 11
-132.819408
 21
-9.463353
  0
LINE
  8
ゴム等
  6
CONTINUOUS
 10
-132.819408
 20
-9.463353
 11
-132.993067
 21
-9.74158
  0
LINE
  8
ゴム等
  6
CONTINUOUS
 10
-133.007203
 20
-9.822108
 11
-134.050185
 21
-12.439315
  0
LINE
  8
ゴム等
  6
CONTINUOUS
 10
-127.926887
 20
-99.195407
 11
-129.887635
 21
-99.699252
  0
LINE
  8
ゴム等
  6
CONTINUOUS
 10
-129.887635
 20
-99.699252
 11
-130.246407
 21
-99.776832
  0
LINE
  8
ゴム等
  6
CONTINUOUS
 10
-130.246407
 20
-99.776832
 11
-132.96125
 21
-100.855165
  0
LINE
  8
ゴム等
  6
CONTINUOUS
 10
-77.750185
 20
-45.644098
 11
-77.750185
 21
-49.018703
  0
LINE
  8
ゴム等
  6
CONTINUOUS
 10
-77.750185
 20
-45.644098
 11
-77.750185
 21
-49.018703
  0
LINE
  8
ゴム等
  6
CONTINUOUS
 10
-77.750185
 20
-45.644098
 11
-77.750185
 21
-49.018703
  0
LINE
  8
ゴム等
  6
CONTINUOUS
 10
-77.750185
 20
-45.644098
 11
-77.750185
 21
-49.018703
  0
LINE
  8
ゴム等
  6
CONTINUOUS
 10
-77.750185
 20
-45.644098
 11
-77.750185
 21
-49.018703
  0
LINE
  8
ゴム等
  6
CONTINUOUS
 10
-77.750185
 20
-45.644098
 11
-77.750185
 21
-49.018703
  0
LINE
  8
ゴム等
  6
CONTINUOUS
 10
-77.750185
 20
-45.644098
 11
-77.750185
 21
-49.018703
  0
LINE
  8
ゴム等
  6
CONTINUOUS
 10
-77.750185
 20
-45.644098
 11
-77.750185
 21
-49.018703
  0
LINE
  8
ゴム等
  6
CONTINUOUS
 10
-129.887635
 20
-99.699252
 11
-77.750185
 21
-47.5618
  0
LINE
  8
ゴム等
  6
CONTINUOUS
 10
-130.246407
 20
-99.776832
 11
-77.750185
 21
-47.280608
  0
LINE
  8
ゴム等
  6
CONTINUOUS
 10
-129.887635
 20
-99.699252
 11
-77.750185
 21
-99.699252
  0
LINE
  8
ゴム等
  6
CONTINUOUS
 10
-130.246407
 20
-99.776832
 11
-77.750185
 21
-99.776832
  0
LINE
  8
ゴム等
  6
CONTINUOUS
 10
-27.573482
 20
-99.195407
 11
-25.612735
 21
-99.699252
  0
LINE
  8
ゴム等
  6
CONTINUOUS
 10
-25.612735
 20
-99.699252
 11
-25.253963
 21
-99.776832
  0
LINE
  8
ゴム等
  6
CONTINUOUS
 10
-25.253963
 20
-99.776832
 11
-22.53912
 21
-100.855165
  0
LINE
  8
ゴム等
  6
CONTINUOUS
 10
-25.612735
 20
-99.699252
 11
-77.750185
 21
-47.5618
  0
LINE
  8
ゴム等
  6
CONTINUOUS
 10
-25.253963
 20
-99.776832
 11
-77.750185
 21
-47.280608
  0
LINE
  8
ゴム等
  6
CONTINUOUS
 10
-25.612735
 20
-99.699252
 11
-77.750185
 21
-99.699252
  0
LINE
  8
ゴム等
  6
CONTINUOUS
 10
-25.253963
 20
-99.776832
 11
-77.750185
 21
-99.776832
  0
LINE
  8
ゴム等
  6
CONTINUOUS
 10
-129.887785
 20
-12.394975
 11
-77.750185
 21
-12.394975
  0
LINE
  8
ゴム等
  6
CONTINUOUS
 10
-130.24654
 20
-12.58277
 11
-77.750185
 21
-12.58277
  0
LINE
  8
ゴム等
  6
CONTINUOUS
 10
-132.819408
 20
-9.463353
 11
-132.819408
 21
42.674245
  0
LINE
  8
ゴム等
  6
CONTINUOUS
 10
-133.007203
 20
-9.822108
 11
-133.007203
 21
42.674245
  0
LINE
  8
ゴム等
  6
CONTINUOUS
 10
-133.007203
 20
-9.822108
 11
-80.510847
 21
42.674245
  0
LINE
  8
ゴム等
  6
CONTINUOUS
 10
-132.819408
 20
-9.463353
 11
-80.681808
 21
42.674245
  0
LINE
  8
ゴム等
  6
CONTINUOUS
 10
-129.887785
 20
-12.394975
 11
-77.750185
 21
39.742622
  0
LINE
  8
ゴム等
  6
CONTINUOUS
 10
-130.24654
 20
-12.58277
 11
-77.750185
 21
39.913582
  0
LINE
  8
ゴム等
  6
CONTINUOUS
 10
-127.9788
 20
96.782922
 11
-129.887785
 21
97.743465
  0
LINE
  8
ゴム等
  6
CONTINUOUS
 10
-129.887785
 20
97.743465
 11
-130.166013
 21
97.917125
  0
LINE
  8
ゴム等
  6
CONTINUOUS
 10
-130.24654
 20
97.93126
 11
-132.863748
 21
98.974245
  0
LINE
  8
ゴム等
  6
CONTINUOUS
 10
-131.858865
 20
92.90286
 11
-132.819408
 21
94.811843
  0
LINE
  8
ゴム等
  6
CONTINUOUS
 10
-132.819408
 20
94.811843
 11
-132.993067
 21
95.09007
  0
LINE
  8
ゴム等
  6
CONTINUOUS
 10
-133.007203
 20
95.170598
 11
-134.050185
 21
97.787805
  0
LINE
  8
ゴム等
  6
CONTINUOUS
 10
-129.887785
 20
97.743465
 11
-77.750185
 21
97.743465
  0
LINE
  8
ゴム等
  6
CONTINUOUS
 10
-130.24654
 20
97.93126
 11
-77.750185
 21
97.93126
  0
LINE
  8
ゴム等
  6
CONTINUOUS
 10
-132.819408
 20
94.811843
 11
-132.819408
 21
42.674245
  0
LINE
  8
ゴム等
  6
CONTINUOUS
 10
-133.007203
 20
95.170598
 11
-133.007203
 21
42.674245
  0
LINE
  8
ゴム等
  6
CONTINUOUS
 10
-133.007203
 20
95.170598
 11
-80.510847
 21
42.674245
  0
LINE
  8
ゴム等
  6
CONTINUOUS
 10
-132.819408
 20
94.811843
 11
-80.681808
 21
42.674245
  0
LINE
  8
ゴム等
  6
CONTINUOUS
 10
-129.887785
 20
97.743465
 11
-77.750185
 21
45.605868
  0
LINE
  8
ゴム等
  6
CONTINUOUS
 10
-130.24654
 20
97.93126
 11
-77.750185
 21
45.434908
  0
LINE
  8
ゴム等
  6
CONTINUOUS
 10
-27.52157
 20
-11.434433
 11
-25.612585
 21
-12.394975
  0
LINE
  8
ゴム等
  6
CONTINUOUS
 10
-25.612585
 20
-12.394975
 11
-25.334357
 21
-12.568635
  0
LINE
  8
ゴム等
  6
CONTINUOUS
 10
-25.25383
 20
-12.58277
 11
-22.636622
 21
-13.625755
  0
LINE
  8
ゴム等
  6
CONTINUOUS
 10
-23.641505
 20
-7.55437
 11
-22.680962
 21
-9.463353
  0
LINE
  8
ゴム等
  6
CONTINUOUS
 10
-22.680962
 20
-9.463353
 11
-22.507302
 21
-9.74158
  0
LINE
  8
ゴム等
  6
CONTINUOUS
 10
-22.493167
 20
-9.822108
 11
-21.450185
 21
-12.439315
  0
LINE
  8
ゴム等
  6
CONTINUOUS
 10
-25.612585
 20
-12.394975
 11
-77.750185
 21
-12.394975
  0
LINE
  8
ゴム等
  6
CONTINUOUS
 10
-25.25383
 20
-12.58277
 11
-77.750185
 21
-12.58277
  0
LINE
  8
ゴム等
  6
CONTINUOUS
 10
-22.680962
 20
-9.463353
 11
-22.680962
 21
42.674245
  0
LINE
  8
ゴム等
  6
CONTINUOUS
 10
-22.493167
 20
-9.822108
 11
-22.493167
 21
42.674245
  0
LINE
  8
ゴム等
  6
CONTINUOUS
 10
-22.493167
 20
-9.822108
 11
-74.989523
 21
42.674245
  0
LINE
  8
ゴム等
  6
CONTINUOUS
 10
-22.680962
 20
-9.463353
 11
-74.818563
 21
42.674245
  0
LINE
  8
ゴム等
  6
CONTINUOUS
 10
-25.612585
 20
-12.394975
 11
-77.750185
 21
39.742622
  0
LINE
  8
ゴム等
  6
CONTINUOUS
 10
-25.25383
 20
-12.58277
 11
-77.750185
 21
39.913582
  0
LINE
  8
ゴム等
  6
CONTINUOUS
 10
-27.52157
 20
96.782922
 11
-25.612585
 21
97.743465
  0
LINE
  8
ゴム等
  6
CONTINUOUS
 10
-25.612585
 20
97.743465
 11
-25.334357
 21
97.917125
  0
LINE
  8
ゴム等
  6
CONTINUOUS
 10
-25.25383
 20
97.93126
 11
-22.636622
 21
98.974245
  0
LINE
  8
ゴム等
  6
CONTINUOUS
 10
-23.641505
 20
92.90286
 11
-22.680962
 21
94.811843
  0
LINE
  8
ゴム等
  6
CONTINUOUS
 10
-22.680962
 20
94.811843
 11
-22.507302
 21
95.09007
  0
LINE
  8
ゴム等
  6
CONTINUOUS
 10
-22.493167
 20
95.170598
 11
-21.450185
 21
97.787805
  0
LINE
  8
ゴム等
  6
CONTINUOUS
 10
-25.612585
 20
97.743465
 11
-77.750185
 21
97.743465
  0
LINE
  8
ゴム等
  6
CONTINUOUS
 10
-25.25383
 20
97.93126
 11
-77.750185
 21
97.93126
  0
LINE
  8
ゴム等
  6
CONTINUOUS
 10
-22.680962
 20
94.811843
 11
-22.680962
 21
42.674245
  0
LINE
  8
ゴム等
  6
CONTINUOUS
 10
-22.493167
 20
95.170598
 11
-22.493167
 21
42.674245
  0
LINE
  8
ゴム等
  6
CONTINUOUS
 10
-22.493167
 20
95.170598
 11
-74.989523
 21
42.674245
  0
LINE
  8
ゴム等
  6
CONTINUOUS
 10
-22.680962
 20
94.811843
 11
-74.818563
 21
42.674245
  0
LINE
  8
ゴム等
  6
CONTINUOUS
 10
-25.612585
 20
97.743465
 11
-77.750185
 21
45.605868
  0
LINE
  8
ゴム等
  6
CONTINUOUS
 10
-25.25383
 20
97.93126
 11
-77.750185
 21
45.434908
  0
LINE
  8
ゴム等
  6
CONTINUOUS
 10
-79.700185
 20
-11.434433
 11
-79.700185
 21
36.84418
  0
LINE
  8
ゴム等
  6
CONTINUOUS
 10
-75.800185
 20
-11.434433
 11
-75.800185
 21
36.84418
  0
LINE
  8
ゴム等
  6
CONTINUOUS
 10
-23.641505
 20
44.624245
 11
-71.920118
 21
44.624247
  0
LINE
  8
ゴム等
  6
CONTINUOUS
 10
-23.641505
 20
40.724245
 11
-71.920118
 21
40.724247
  0
LINE
  8
ゴム等
  6
CONTINUOUS
 10
-75.800185
 20
96.782922
 11
-75.80018
 21
48.50431
  0
LINE
  8
ゴム等
  6
CONTINUOUS
 10
-79.700185
 20
96.782922
 11
-79.70018
 21
48.50431
  0
LINE
  8
ゴム等
  6
CONTINUOUS
 10
-131.858865
 20
40.724245
 11
-83.580253
 21
40.724237
  0
LINE
  8
ゴム等
  6
CONTINUOUS
 10
-131.858865
 20
44.624245
 11
-83.580253
 21
44.624237
  0
LINE
  8
ゴム等
  6
CONTINUOUS
 10
-23.641505
 20
-7.55437
 11
-71.920122
 21
40.724247
  0
LINE
  8
ゴム等
  6
CONTINUOUS
 10
-23.641505
 20
92.90286
 11
-71.920118
 21
44.624247
  0
LINE
  8
ゴム等
  6
CONTINUOUS
 10
-27.52157
 20
96.782922
 11
-75.80018
 21
48.504315
  0
LINE
  8
ゴム等
  6
CONTINUOUS
 10
-127.9788
 20
96.782922
 11
-79.70018
 21
48.504305
  0
LINE
  8
ゴム等
  6
CONTINUOUS
 10
-131.858865
 20
92.90286
 11
-83.580242
 21
44.624237
  0
LINE
  8
ゴム等
  6
CONTINUOUS
 10
-131.858865
 20
-7.55437
 11
-83.580257
 21
40.724237
  0
LINE
  8
ゴム等
  6
CONTINUOUS
 10
-27.52157
 20
-11.434433
 11
-75.800185
 21
36.84418
  0
LINE
  8
ゴム等
  6
CONTINUOUS
 10
-127.9788
 20
-11.434433
 11
-79.700185
 21
36.84418
  0
LINE
  8
ゴム等
  6
CONTINUOUS
 10
-76.925185
 20
38.917622
 11
-76.925185
 21
-12.394975
  0
LINE
  8
ゴム等
  6
CONTINUOUS
 10
-78.575185
 20
38.917622
 11
-78.575185
 21
-12.394975
  0
LINE
  8
ゴム等
  6
CONTINUOUS
 10
-27.52157
 20
-11.434433
 11
-75.800185
 21
-11.434433
  0
LINE
  8
ゴム等
  6
CONTINUOUS
 10
-127.9788
 20
-11.434433
 11
-79.700185
 21
-11.434433
  0
LINE
  8
ゴム等
  6
CONTINUOUS
 10
-73.99356
 20
43.499247
 11
-22.680962
 21
43.499245
  0
LINE
  8
ゴム等
  6
CONTINUOUS
 10
-73.993565
 20
41.849247
 11
-22.680962
 21
41.849245
  0
LINE
  8
ゴム等
  6
CONTINUOUS
 10
-23.641505
 20
-7.55437
 11
-23.641505
 21
40.724245
  0
LINE
  8
ゴム等
  6
CONTINUOUS
 10
-23.641505
 20
92.90286
 11
-23.641505
 21
44.624245
  0
LINE
  8
ゴム等
  6
CONTINUOUS
 10
-76.92518
 20
46.430873
 11
-76.925185
 21
97.743465
  0
LINE
  8
ゴム等
  6
CONTINUOUS
 10
-78.57518
 20
46.430862
 11
-78.575185
 21
97.743465
  0
LINE
  8
ゴム等
  6
CONTINUOUS
 10
-27.52157
 20
96.782922
 11
-75.800185
 21
96.782922
  0
LINE
  8
ゴム等
  6
CONTINUOUS
 10
-127.9788
 20
96.782922
 11
-79.700185
 21
96.782922
  0
LINE
  8
ゴム等
  6
CONTINUOUS
 10
-81.335855
 20
41.849237
 11
-132.819408
 21
41.849245
  0
LINE
  8
ゴム等
  6
CONTINUOUS
 10
-81.5068
 20
43.499237
 11
-132.819408
 21
43.499245
  0
LINE
  8
ゴム等
  6
CONTINUOUS
 10
-131.858865
 20
92.90286
 11
-131.858865
 21
44.624245
  0
LINE
  8
ゴム等
  6
CONTINUOUS
 10
-131.858865
 20
-7.55437
 11
-131.858865
 21
40.724245
  0
LINE
  8
ゴム等
  6
CONTINUOUS
 10
62.811483
 20
-99.195407
 11
60.850735
 21
-99.699252
  0
LINE
  8
ゴム等
  6
CONTINUOUS
 10
60.850735
 20
-99.699252
 11
60.491963
 21
-99.776832
  0
LINE
  8
ゴム等
  6
CONTINUOUS
 10
60.491963
 20
-99.776832
 11
57.77712
 21
-100.855165
  0
LINE
  8
ゴム等
  6
CONTINUOUS
 10
60.850735
 20
-99.699252
 11
112.988185
 21
-47.5618
  0
LINE
  8
ゴム等
  6
CONTINUOUS
 10
60.491963
 20
-99.776832
 11
112.988185
 21
-47.280608
  0
LINE
  8
ゴム等
  6
CONTINUOUS
 10
60.850735
 20
-99.699252
 11
112.988185
 21
-99.699252
  0
LINE
  8
ゴム等
  6
CONTINUOUS
 10
60.491963
 20
-99.776832
 11
112.988185
 21
-99.776832
  0
LINE
  8
ゴム等
  6
CONTINUOUS
 10
163.164888
 20
-99.195407
 11
165.125635
 21
-99.699252
  0
LINE
  8
ゴム等
  6
CONTINUOUS
 10
165.125635
 20
-99.699252
 11
165.484408
 21
-99.776832
  0
LINE
  8
ゴム等
  6
CONTINUOUS
 10
165.484408
 20
-99.776832
 11
168.19925
 21
-100.855165
  0
LINE
  8
ゴム等
  6
CONTINUOUS
 10
165.125635
 20
-99.699252
 11
112.988185
 21
-47.5618
  0
LINE
  8
ゴム等
  6
CONTINUOUS
 10
165.484408
 20
-99.776832
 11
112.988185
 21
-47.280608
  0
LINE
  8
ゴム等
  6
CONTINUOUS
 10
165.125635
 20
-99.699252
 11
112.988185
 21
-99.699252
  0
LINE
  8
ゴム等
  6
CONTINUOUS
 10
165.484408
 20
-99.776832
 11
112.988185
 21
-99.776832
  0
LINE
  8
ゴム等
  6
DOT
 10
62.811483
 20
-74.195405
 11
60.850735
 21
-74.69925
  0
LINE
  8
ゴム等
  6
DOT
 10
60.850735
 20
-74.69925
 11
60.491963
 21
-74.77683
  0
LINE
  8
ゴム等
  6
DOT
 10
60.491963
 20
-74.77683
 11
57.77712
 21
-75.855163
  0
LINE
  8
ゴム等
  6
DOT
 10
112.988185
 20
-20.644095
 11
112.988185
 21
-24.0187
  0
LINE
  8
ゴム等
  6
DOT
 10
112.988185
 20
-20.644095
 11
112.988185
 21
-24.0187
  0
LINE
  8
ゴム等
  6
DOT
 10
112.988185
 20
-20.644095
 11
112.988185
 21
-24.0187
  0
LINE
  8
ゴム等
  6
DOT
 10
112.988185
 20
-20.644095
 11
112.988185
 21
-24.0187
  0
LINE
  8
ゴム等
  6
DOT
 10
112.988185
 20
-20.644095
 11
112.988185
 21
-24.0187
  0
LINE
  8
ゴム等
  6
DOT
 10
112.988185
 20
-20.644095
 11
112.988185
 21
-24.0187
  0
LINE
  8
ゴム等
  6
DOT
 10
112.988185
 20
-20.644095
 11
112.988185
 21
-24.0187
  0
LINE
  8
ゴム等
  6
DOT
 10
112.988185
 20
-20.644095
 11
112.988185
 21
-24.0187
  0
LINE
  8
ゴム等
  6
DOT
 10
60.850735
 20
-74.69925
 11
112.988185
 21
-22.561798
  0
LINE
  8
ゴム等
  6
DOT
 10
60.491963
 20
-74.77683
 11
112.988185
 21
-22.280605
  0
LINE
  8
ゴム等
  6
DOT
 10
62.811483
 20
-74.195405
 11
112.988185
 21
-24.0187
  0
LINE
  8
ゴム等
  6
DOT
 10
60.850735
 20
-74.69925
 11
112.988185
 21
-74.69925
  0
LINE
  8
ゴム等
  6
DOT
 10
60.491963
 20
-74.77683
 11
112.988185
 21
-74.77683
  0
LINE
  8
ゴム等
  6
DOT
 10
62.811483
 20
-74.195405
 11
112.988185
 21
-74.195405
  0
LINE
  8
ゴム等
  6
DOT
 10
163.164888
 20
-74.195405
 11
165.125635
 21
-74.69925
  0
LINE
  8
ゴム等
  6
DOT
 10
165.125635
 20
-74.69925
 11
165.484408
 21
-74.77683
  0
LINE
  8
ゴム等
  6
DOT
 10
165.484408
 20
-74.77683
 11
168.19925
 21
-75.855163
  0
LINE
  8
ゴム等
  6
DOT
 10
165.125635
 20
-74.69925
 11
112.988185
 21
-22.561798
  0
LINE
  8
ゴム等
  6
DOT
 10
165.484408
 20
-74.77683
 11
112.988185
 21
-22.280605
  0
LINE
  8
ゴム等
  6
DOT
 10
163.164888
 20
-74.195405
 11
112.988185
 21
-24.0187
  0
LINE
  8
ゴム等
  6
DOT
 10
165.125635
 20
-74.69925
 11
112.988185
 21
-74.69925
  0
LINE
  8
ゴム等
  6
DOT
 10
165.484408
 20
-74.77683
 11
112.988185
 21
-74.77683
  0
LINE
  8
ゴム等
  6
DOT
 10
163.164888
 20
-74.195405
 11
112.988185
 21
-74.195405
  0
LINE
  8
ゴム等
  6
CONTINUOUS
 10
-27.573482
 20
-99.195407
 11
-75.800185
 21
-50.968703
  0
LINE
  8
ゴム等
  6
CONTINUOUS
 10
-127.926887
 20
-99.195407
 11
-79.700185
 21
-50.968703
  0
LINE
  8
ゴム等
  6
CONTINUOUS
 10
-75.800185
 20
-50.968703
 11
-75.800185
 21
-99.195407
  0
LINE
  8
ゴム等
  6
CONTINUOUS
 10
-79.700185
 20
-50.968703
 11
-79.700185
 21
-99.195407
  0
LINE
  8
ゴム等
  6
CONTINUOUS
 10
-78.575185
 20
-48.3868
 11
-78.575185
 21
-99.699252
  0
LINE
  8
ゴム等
  6
CONTINUOUS
 10
-76.925185
 20
-48.3868
 11
-76.925185
 21
-99.699252
  0
LINE
  8
ゴム等
  6
CONTINUOUS
 10
-127.926887
 20
-99.195407
 11
-79.700185
 21
-99.195407
  0
LINE
  8
ゴム等
  6
CONTINUOUS
 10
-27.573482
 20
-99.195407
 11
-75.800185
 21
-99.195407
  0
LINE
  8
ゴム等
  6
CONTINUOUS
 10
114.938185
 20
-50.968703
 11
114.938185
 21
-99.195407
  0
LINE
  8
ゴム等
  6
CONTINUOUS
 10
111.038185
 20
-50.968703
 11
111.038185
 21
-99.195407
  0
LINE
  8
ゴム等
  6
CONTINUOUS
 10
112.163185
 20
-48.3868
 11
112.163185
 21
-99.699252
  0
LINE
  8
ゴム等
  6
CONTINUOUS
 10
113.813185
 20
-48.3868
 11
113.813185
 21
-99.699252
  0
LINE
  8
ゴム等
  6
CONTINUOUS
 10
62.811483
 20
-99.195407
 11
111.038185
 21
-50.968703
  0
LINE
  8
ゴム等
  6
CONTINUOUS
 10
163.164888
 20
-99.195407
 11
114.938185
 21
-50.968703
  0
LINE
  8
ゴム等
  6
CONTINUOUS
 10
112.988185
 20
-45.644098
 11
112.988185
 21
-47.5618
  0
LINE
  8
ゴム等
  6
CONTINUOUS
 10
163.164888
 20
-99.195407
 11
114.938185
 21
-99.195407
  0
LINE
  8
ゴム等
  6
CONTINUOUS
 10
62.811483
 20
-99.195407
 11
111.038185
 21
-99.195407
  0
LINE
  8
ゴム等
  6
DOT
 10
114.938185
 20
-25.9687
 11
114.938185
 21
-74.195405
  0
LINE
  8
ゴム等
  6
DOT
 10
111.038185
 20
-25.9687
 11
111.038185
 21
-74.195405
  0
LINE
  8
ゴム等
  6
DOT
 10
112.163185
 20
-23.386798
 11
112.163185
 21
-74.69925
  0
LINE
  8
ゴム等
  6
DOT
 10
113.813185
 20
-23.386798
 11
113.813185
 21
-74.69925
  0
CIRCLE
  8
ボルト／ビス
  6
CONTINUOUS
 10
-130.894963
 20
-106.076008
 40
0.25
  0
CIRCLE
  8
ボルト／ビス
  6
CONTINUOUS
 10
-130.894963
 20
-106.076008
 40
0.2
  0
CIRCLE
  8
ボルト／ビス
  6
CONTINUOUS
 10
-130.894963
 20
-109.291007
 40
0.25
  0
CIRCLE
  8
ボルト／ビス
  6
CONTINUOUS
 10
-130.894963
 20
-109.291007
 40
0.2
  0
CIRCLE
  8
ボルト／ビス
  6
CONTINUOUS
 10
-24.605408
 20
-106.076008
 40
0.25
  0
CIRCLE
  8
ボルト／ビス
  6
CONTINUOUS
 10
-24.605408
 20
-106.076008
 40
0.2
  0
CIRCLE
  8
ボルト／ビス
  6
CONTINUOUS
 10
-24.605408
 20
-109.291007
 40
0.25
  0
CIRCLE
  8
ボルト／ビス
  6
CONTINUOUS
 10
-24.605408
 20
-109.291007
 40
0.2
  0
CIRCLE
  8
ボルト／ビス
  6
CONTINUOUS
 10
59.843407
 20
-106.076008
 40
0.25
  0
CIRCLE
  8
ボルト／ビス
  6
CONTINUOUS
 10
59.843407
 20
-106.076008
 40
0.2
  0
CIRCLE
  8
ボルト／ビス
  6
CONTINUOUS
 10
59.843407
 20
-109.291007
 40
0.25
  0
CIRCLE
  8
ボルト／ビス
  6
CONTINUOUS
 10
59.843407
 20
-109.291007
 40
0.2
  0
CIRCLE
  8
ボルト／ビス
  6
CONTINUOUS
 10
166.132963
 20
-106.076008
 40
0.25
  0
CIRCLE
  8
ボルト／ビス
  6
CONTINUOUS
 10
166.132963
 20
-106.076008
 40
0.2
  0
CIRCLE
  8
ボルト／ビス
  6
CONTINUOUS
 10
166.132963
 20
-109.291007
 40
0.25
  0
CIRCLE
  8
ボルト／ビス
  6
CONTINUOUS
 10
166.132963
 20
-109.291007
 40
0.2
  0
TEXT
  7
TextStyle03
  8
文字
  6
CONTINUOUS
 10
-18.15
 20
11.4
  1
ﾊﾞﾗﾝｽｽﾃｰ
 40
3.0
 72
     5
 11
-4.8375
 21
11.4
  0
TEXT
  7
TextStyle03
  8
文字
  6
CONTINUOUS
 10
14.825
 20
-5.1
  1
は排水穴位置を示す
 40
3.0
 72
     5
 11
44.825
 21
-5.1
  0
TEXT
  7
TextStyle03
  8
文字
  6
CONTINUOUS
 10
14.825
 20
-12.95
  1
はケーシング位置を示す
 40
3.0
 72
     5
 11
51.575
 21
-12.95
  0
TEXT
  7
TextStyle03
  8
文字
  6
CONTINUOUS
 10
14.825
 20
-16.325
  1
４ヶ所中1ヶ所に設定
 40
3.0
 72
     5
 11
46.5125
 21
-16.325
  0
TEXT
  7
TextStyle03
  8
文字
  6
CONTINUOUS
 10
-85.925
 20
-23.825
  1
可動装置側
 40
3.0
 72
     5
 11
-69.425
 21
-23.825
  0
TEXT
  7
TextStyle03
  8
文字
  6
CONTINUOUS
 10
-85.925
 20
106.5
  1
可動装置側
 40
3.0
 72
     5
 11
-69.425
 21
106.5
  0
TEXT
  7
TextStyle03
  8
文字
  6
CONTINUOUS
 10
-150.6625
 20
74.4
  1
ﾊﾞﾗﾝｽｽﾃｰ
 40
3.0
 72
     5
 11
-137.35
 21
74.4
  0
TEXT
  7
TextStyle03
  8
文字
  6
CONTINUOUS
 10
-160.725
 20
-17.075
  1
アンカーピッチ
 40
3.0
 50
90.0
 72
     5
 11
-160.725
 21
6.175
  0
TEXT
  7
TextStyle03
  8
文字
  6
CONTINUOUS
 10
-140.0
 20
124.425
  1
アンカーピッチ
 40
3.0
 72
     5
 11
-116.75
 21
124.425
  0
TEXT
  7
TextStyle03
  8
文字
  6
CONTINUOUS
 10
121.625
 20
72.325
  1
ガラス寸法
 40
3.0
 72
     5
 11
138.125
 21
72.325
  0
TEXT
  7
TextStyle03
  8
文字
  6
CONTINUOUS
 10
145.125
 20
21.25
  1
本図×４枚
 40
3.0
 72
     5
 11
161.625
 21
21.25
  0
TEXT
  7
TextStyle03
  8
文字
  6
CONTINUOUS
 10
145.125
 20
17.875
  1
逆図×４枚
 40
3.0
 72
     5
 11
161.625
 21
17.875
  0
TEXT
  7
TextStyle03
  8
文字
  6
CONTINUOUS
 10
9.15
 20
-30.3
  1
アームユニット数　４ヶ所
 40
3.0
 72
     5
 11
49.275
 21
-30.3
  0
TEXT
  7
TextStyle03
  8
文字
  6
CONTINUOUS
 10
9.225
 20
-23.475
  1
アンカー数量　１２ヶ所
 40
3.0
 72
     5
 11
45.975
 21
-23.475
  0
TEXT
  7
TextStyle03
  8
文字
  6
CONTINUOUS
 10
66.825
 20
97.05
  1
ＮＳコード：ＮＳ４Ｇ
 40
5.0
 72
     5
 11
122.45
 21
97.05
  0
TEXT
  7
TextStyle03
  8
文字
  6
CONTINUOUS
 10
68.425
 20
120.175
  1
シリーズ：ＤＦ４
 40
5.0
 72
     5
 11
112.8
 21
120.175
  0
TEXT
  7
TextStyle03
  8
文字
  6
CONTINUOUS
 10
68.425
 20
114.55
  1
　　　　　四角錘（上下可動）2000×2000タイプ
 40
5.0
 72
     5
 11
191.55
 21
114.55
  0
TEXT
  7
TextStyle03
  8
文字
  6
CONTINUOUS
 10
68.425
 20
108.925
  1
図面名　：外観姿図
 40
5.0
 72
     5
 11
118.425
 21
108.925
  0
TEXT
  7
TextStyle03
  8
文字
  6
CONTINUOUS
 10
68.425
 20
103.3
  1
　　　　　　
 40
5.0
 72
     5
 11
101.55
 21
103.3
  0
INSERT
  2
*DIM_0002
  8
寸法
  6
CONTINUOUS
 10
0.0
 20
0.0
  0
INSERT
  2
*DIM_0003
  8
寸法
  6
CONTINUOUS
 10
0.0
 20
0.0
  0
INSERT
  2
*GRP_0004
  8
寸法
  6
CONTINUOUS
 10
0.0
 20
0.0
  0
INSERT
  2
*DIM_0005
  8
寸法
  6
CONTINUOUS
 10
0.0
 20
0.0
  0
INSERT
  2
*DIM_0006
  8
寸法
  6
CONTINUOUS
 10
0.0
 20
0.0
  0
INSERT
  2
*DIM_0007
  8
寸法
  6
CONTINUOUS
 10
0.0
 20
0.0
  0
INSERT
  2
*DIM_0008
  8
寸法
  6
CONTINUOUS
 10
0.0
 20
0.0
  0
INSERT
  2
*DIM_0009
  8
寸法
  6
CONTINUOUS
 10
0.0
 20
0.0
  0
INSERT
  2
*DIM_0010
  8
寸法
  6
CONTINUOUS
 10
0.0
 20
0.0
  0
INSERT
  2
*DIM_0023
  8
寸法
  6
CONTINUOUS
 10
0.0
 20
0.0
  0
INSERT
  2
*DIM_0024
  8
寸法
  6
CONTINUOUS
 10
0.0
 20
0.0
  0
INSERT
  2
*GRP_0025
  8
寸法
  6
CONTINUOUS
 10
0.0
 20
0.0
  0
INSERT
  2
*DIM_0026
  8
寸法
  6
CONTINUOUS
 10
0.0
 20
0.0
  0
INSERT
  2
*DIM_0027
  8
寸法
  6
CONTINUOUS
 10
0.0
 20
0.0
  0
INSERT
  2
*DIM_0028
  8
寸法
  6
CONTINUOUS
 10
0.0
 20
0.0
  0
INSERT
  2
*DIM_0029
  8
寸法
  6
CONTINUOUS
 10
0.0
 20
0.0
  0
INSERT
  2
*DIM_0030
  8
寸法
  6
CONTINUOUS
 10
0.0
 20
0.0
  0
INSERT
  2
*DIM_0031
  8
寸法
  6
CONTINUOUS
 10
0.0
 20
0.0
  0
LINE
  8
曲げ物
  6
CONTINUOUS
 10
166.707378
 20
14.037867
 11
116.187378
 21
14.037867
  0
LINE
  8
曲げ物
  6
CONTINUOUS
 10
116.187378
 20
14.037867
 11
166.707378
 21
85.483627
  0
LINE
  8
曲げ物
  6
CONTINUOUS
 10
166.707378
 20
14.037867
 11
166.707378
 21
85.483627
  0
ENDSEC
  0
EOF
