  0
SECTION
  2
HEADER
  9
$EXTMIN
 10
-210.0
 20
-148.5
  9
$EXTMAX
 10
210.0
 20
148.5
  9
$PDMODE
 70
    32
  9
$PDSIZE
 40
1.5
  9
$LTSCALE
 40
10.0
  0
ENDSEC
  0
SECTION
  2
TABLES
  0
TABLE
  2
LTYPE
 70
    15
  0
LTYPE
  2
CONTINUOUS
 70
    64
  3
実線
 72
    65
 73
     0
 40
0.0
  0
LTYPE
  2
DASHED
 70
    64
  3
破線A
 72
    65
 73
     2
 40
0.6
 49
0.4
 49
-0.2
  0
LTYPE
  2
DASHEDX2
 70
    64
  3
破線B
 72
    65
 73
     2
 40
1.3
 49
0.9
 49
-0.4
  0
LTYPE
  2
DASHDOT
 70
    64
  3
１点鎖線A
 72
    65
 73
     4
 40
0.5375
 49
0.375
 49
-0.05
 49
0.0625
 49
-0.05
  0
LTYPE
  2
DASHDOTX2
 70
    64
  3
１点鎖線B
 72
    65
 73
     4
 40
1.075
 49
0.75
 49
-0.1
 49
0.125
 49
-0.1
  0
LTYPE
  2
DIVIDE2
 70
    64
  3
２点鎖線A
 72
    65
 73
     6
 40
0.5125
 49
0.3
 49
-0.0375
 49
0.05
 49
-0.0375
 49
0.05
 49
-0.0375
  0
LTYPE
  2
DIVIDE
 70
    64
  3
２点鎖線B
 72
    65
 73
     6
 40
1.05
 49
0.55
 49
-0.1
 49
0.1
 49
-0.1
 49
0.1
 49
-0.1
  0
LTYPE
  2
DOT
 70
    64
  3
点線A
 72
    65
 73
     2
 40
0.1125
 49
0.0625
 49
-0.05
  0
LTYPE
  2
DOTX2
 70
    64
  3
点線B
 72
    65
 73
     2
 40
0.275
 49
0.15
 49
-0.125
  0
LTYPE
  2
CONTINUOUS
 70
    64
  3
実線
 72
    65
 73
     0
 40
0.0
  0
LTYPE
  2
CONTINUOUS
 70
    64
  3
実線
 72
    65
 73
     0
 40
0.0
  0
LTYPE
  2
CONTINUOUS
 70
    64
  3
実線
 72
    65
 73
     0
 40
0.0
  0
LTYPE
  2
CONTINUOUS
 70
    64
  3
実線
 72
    65
 73
     0
 40
0.0
  0
LTYPE
  2
CONTINUOUS
 70
    64
  3
実線
 72
    65
 73
     0
 40
0.0
  0
LTYPE
  2
CONTINUOUS
 70
    64
  3
実線
 72
    65
 73
     0
 40
0.0
  0
ENDTAB
  0
TABLE
  2
LAYER
 70
    34
  0
LAYER
  2
通り芯
 70
     0
 62
    15
  6
CONTINUOUS
  0
LAYER
  2
補助線
 70
     0
 62
    16
  6
DOT
  0
LAYER
  2
躯体
 70
     0
 62
    31
  6
CONTINUOUS
  0
LAYER
  2
型材
 70
     0
 62
    32
  6
CONTINUOUS
  0
LAYER
  2
型材断面
 70
     0
 62
    47
  6
CONTINUOUS
  0
LAYER
  2
ガラス
 70
     0
 62
    48
  6
CONTINUOUS
  0
LAYER
  2
ゴム等
 70
     0
 62
    63
  6
CONTINUOUS
  0
LAYER
  2
ボルト／ビス
 70
     0
 62
    64
  6
CONTINUOUS
  0
LAYER
  2
文字
 70
     0
 62
    79
  6
CONTINUOUS
  0
LAYER
  2
寸法
 70
     0
 62
    80
  6
CONTINUOUS
  0
LAYER
  2
ﾊｯﾁﾝｸﾞ
 70
     0
 62
    95
  6
CONTINUOUS
  0
LAYER
  2
別途部材
 70
     0
 62
    96
  6
CONTINUOUS
  0
LAYER
  2
曲げ物
 70
     0
 62
   111
  6
CONTINUOUS
  0
LAYER
  2
鉄骨等
 70
     0
 62
   112
  6
CONTINUOUS
  0
LAYER
  2
St
 70
     0
 62
   127
  6
CONTINUOUS
  0
LAYER
  2
その他部品等
 70
     0
 62
   128
  6
CONTINUOUS
  0
LAYER
  2
ｶﾞｽｹｯﾄ
 70
     0
 62
   143
  6
CONTINUOUS
  0
LAYER
  2
ｽｹｯﾁ
 70
     0
 62
    14
  6
CONTINUOUS
  0
LAYER
  2
0
 70
     0
 62
    17
  6
CONTINUOUS
  0
LAYER
  2
1
 70
     0
 62
    30
  6
CONTINUOUS
  0
LAYER
  2
4
 70
     0
 62
    33
  6
CONTINUOUS
  0
LAYER
  2
ﾚｲﾔ3
 70
     0
 62
    46
  6
CONTINUOUS
  0
LAYER
  2
外形線
 70
     0
 62
    49
  6
CONTINUOUS
  0
LAYER
  2
部品
 70
     0
 62
    14
  6
CONTINUOUS
  0
LAYER
  2
サッシ芯
 70
     0
 62
    17
  6
DASHDOTX2
  0
LAYER
  2
寸法線
 70
     0
 62
    62
  6
CONTINUOUS
  0
LAYER
  2
姿図外形線
 70
     0
 62
    65
  6
CONTINUOUS
  0
LAYER
  2
姿補助線
 70
     0
 62
    30
  6
CONTINUOUS
  0
LAYER
  2
透視線
 70
     0
 62
    78
  6
DOT
  0
LAYER
  2
用紙
 70
     0
 62
    81
  6
CONTINUOUS
  0
LAYER
  2
実線図枠
 70
     0
 62
    94
  6
CONTINUOUS
  0
LAYER
  2
補助図枠
 70
     0
 62
    97
  6
CONTINUOUS
  0
LAYER
  2
建具記号
 70
     0
 62
   110
  6
CONTINUOUS
  0
LAYER
  2
補助文字
 70
     0
 62
   113
  6
CONTINUOUS
  0
ENDTAB
  0
TABLE
  2
STYLE
 70
    10
  0
STYLE
  2
STANDARD
 70
     0
 40
1.0
 41
1.0
 42
1.0
 50
0.0
 71
     0
  3
TXT
  4
BIGFONT
  0
STYLE
  2
TATE
 70
     4
 40
1.0
 41
1.0
 42
1.0
 50
0.0
 71
     0
  3
TXT
  4
BIGFONT
  0
STYLE
  2
TextStyle03
 70
     0
 40
1.0
 41
1.0
 42
1.0
 50
0.0
 71
     0
  3
MONOTXT
  4
BIGFONT
  0
STYLE
  2
TextStyle04
 70
     0
 40
1.0
 41
1.0
 42
1.0
 50
0.0
 71
     0
  3
MONOTXT
  4
BIGFONT
  0
STYLE
  2
TextStyle05
 70
     0
 40
1.0
 41
1.0
 42
1.0
 50
0.0
 71
     0
  3
MONOTXT
  4
BIGFONT
  0
STYLE
  2
TextStyle06
 70
     0
 40
1.0
 41
1.0
 42
1.0
 50
0.0
 71
     0
  3
MONOTXT
  4
BIGFONT
  0
STYLE
  2
TextStyle07
 70
     0
 40
1.0
 41
1.0
 42
1.0
 50
0.0
 71
     0
  3
MONOTXT
  4
BIGFONT
  0
STYLE
  2
TextStyle08
 70
     0
 40
1.0
 41
1.0
 42
1.0
 50
0.0
 71
     0
  3
MONOTXT
  4
BIGFONT
  0
STYLE
  2
TextStyle09
 70
     0
 40
1.0
 41
1.0
 42
1.0
 50
0.0
 71
     0
  3
MONOTXT
  4
BIGFONT
  0
STYLE
  2
TextStyle10
 70
     0
 40
1.0
 41
1.0
 42
1.0
 50
0.0
 71
     0
  3
MONOTXT
  4
BIGFONT
  0
ENDTAB
  0
ENDSEC
  0
SECTION
  2
BLOCKS
  0
BLOCK
  2
*GRP_0001
 70
    65
 10
0.0
 20
0.0
  0
LINE
  8
型材断面
  6
CONTINUOUS
 10
195.0
 20
133.5
 11
195.0
 21
-133.5
  0
LINE
  8
型材断面
  6
CONTINUOUS
 10
195.0
 20
-133.5
 11
-185.0
 21
-133.5
  0
LINE
  8
型材断面
  6
CONTINUOUS
 10
-185.0
 20
-133.5
 11
-185.0
 21
133.5
  0
LINE
  8
型材断面
  6
CONTINUOUS
 10
195.0
 20
133.5
 11
-185.0
 21
133.5
  0
LINE
  8
型材断面
  6
CONTINUOUS
 10
145.0
 20
-133.5
 11
145.0
 21
-118.5
  0
LINE
  8
型材断面
  6
CONTINUOUS
 10
195.0
 20
-118.5
 11
145.0
 21
-118.5
  0
ENDBLK
  0
BLOCK
  2
*GRP_0002
 70
    65
 10
0.0
 20
0.0
  0
POLYLINE
  8
寸法
  6
BYBLOCK
 62
     0
 66
     1
  0
VERTEX
  8
寸法
 10
-35.989525
 20
18.958217
  0
VERTEX
  8
寸法
 10
-29.573023
 20
12.541715
  0
VERTEX
  8
寸法
 10
-23.665895
 20
12.541715
  0
SEQEND
  0
ENDBLK
  0
BLOCK
  2
*GRP_0003
 70
    65
 10
0.0
 20
0.0
  0
POLYLINE
  8
寸法
  6
BYBLOCK
 62
     0
 66
     1
  0
VERTEX
  8
寸法
 10
-119.510845
 20
69.855272
  0
VERTEX
  8
寸法
 10
-125.927348
 20
76.271775
  0
VERTEX
  8
寸法
 10
-131.834475
 20
76.271775
  0
SEQEND
  0
ENDBLK
  0
BLOCK
  2
*DIM_0004
 70
    65
 10
0.0
 20
0.0
  0
LINE
  8
寸法
  6
CONTINUOUS
 10
-148.005188
 20
42.674245
 11
-158.935942
 21
42.67425
  0
LINE
  8
寸法
  6
CONTINUOUS
 10
-148.00519
 20
7.674245
 11
-158.935945
 21
7.67425
  0
LINE
  8
寸法
  6
CONTINUOUS
 10
-158.935942
 20
42.67425
 11
-158.935945
 21
7.67425
  0
POINT
  8
寸法
 10
-158.935945
 20
7.67425
  0
TEXT
  7
TextStyle03
  8
寸法
  6
CONTINUOUS
 10
-159.325
 20
22.7125
  1
700
 40
3.0
 50
90.0
 72
     5
 11
-159.325
 21
27.5875
  0
ENDBLK
  0
BLOCK
  2
*DIM_0005
 70
    65
 10
0.0
 20
0.0
  0
LINE
  8
寸法
  6
CONTINUOUS
 10
-112.750185
 20
112.929245
 11
-112.750185
 21
123.86
  0
LINE
  8
寸法
  6
CONTINUOUS
 10
-77.750185
 20
112.929245
 11
-77.750185
 21
123.86
  0
LINE
  8
寸法
  6
CONTINUOUS
 10
-112.750185
 20
123.86
 11
-77.750185
 21
123.86
  0
POINT
  8
寸法
 10
-112.750185
 20
123.86
  0
POINT
  8
寸法
 10
-77.750185
 20
123.86
  0
TEXT
  7
TextStyle03
  8
寸法
  6
CONTINUOUS
 10
-97.7125
 20
124.225
  1
700
 40
3.0
 72
     5
 11
-92.8375
 21
124.225
  0
ENDBLK
  0
BLOCK
  2
*DIM_0006
 70
    65
 10
0.0
 20
0.0
  0
LINE
  8
寸法
  6
CONTINUOUS
 10
-77.750185
 20
112.929245
 11
-77.750185
 21
123.86
  0
LINE
  8
寸法
  6
CONTINUOUS
 10
-42.750185
 20
112.929245
 11
-42.750185
 21
123.86
  0
LINE
  8
寸法
  6
CONTINUOUS
 10
-77.750185
 20
123.86
 11
-42.750185
 21
123.86
  0
POINT
  8
寸法
 10
-42.750185
 20
123.86
  0
TEXT
  7
TextStyle03
  8
寸法
  6
CONTINUOUS
 10
-62.7125
 20
124.225
  1
700
 40
3.0
 72
     5
 11
-57.8375
 21
124.225
  0
ENDBLK
  0
BLOCK
  2
*DIM_0007
 70
    65
 10
0.0
 20
0.0
  0
LINE
  8
寸法
  6
CONTINUOUS
 10
-32.43443
 20
87.674247
 11
-11.885002
 21
87.674247
  0
LINE
  8
寸法
  6
CONTINUOUS
 10
-24.410555
 20
82.124247
 11
-11.885002
 21
82.124247
  0
LINE
  8
寸法
  6
CONTINUOUS
 10
-11.885002
 20
87.674247
 11
-11.885002
 21
82.124247
  0
POINT
  8
寸法
 10
-11.885002
 20
87.674247
  0
POINT
  8
寸法
 10
-11.885002
 20
82.124247
  0
TEXT
  7
TextStyle03
  8
寸法
  6
CONTINUOUS
 10
-12.275
 20
82.4375
  1
111
 40
3.0
 50
90.0
 72
     5
 11
-12.275
 21
87.3125
  0
ENDBLK
  0
BLOCK
  2
*DIM_0008
 70
    65
 10
0.0
 20
0.0
  0
LINE
  8
寸法
  6
CONTINUOUS
 10
-148.005185
 20
72.674245
 11
-158.93594
 21
72.674247
  0
LINE
  8
寸法
  6
CONTINUOUS
 10
-148.005188
 20
42.674245
 11
-158.935942
 21
42.674247
  0
LINE
  8
寸法
  6
CONTINUOUS
 10
-158.93594
 20
72.674247
 11
-158.935942
 21
42.674247
  0
POINT
  8
寸法
 10
-158.93594
 20
72.674247
  0
POINT
  8
寸法
 10
-158.935942
 20
42.674247
  0
TEXT
  7
TextStyle03
  8
寸法
  6
CONTINUOUS
 10
-159.325
 20
55.2125
  1
600
 40
3.0
 50
90.0
 72
     5
 11
-159.325
 21
60.0875
  0
ENDBLK
  0
BLOCK
  2
*DIM_0009
 70
    65
 10
0.0
 20
0.0
  0
LINE
  8
寸法
  6
CONTINUOUS
 10
-32.43443
 20
-2.325757
 11
-11.885002
 21
-2.325757
  0
LINE
  8
寸法
  6
CONTINUOUS
 10
-24.410555
 20
3.224243
 11
-11.885002
 21
3.224243
  0
LINE
  8
寸法
  6
CONTINUOUS
 10
-11.885002
 20
-2.325757
 11
-11.885002
 21
3.224243
  0
POINT
  8
寸法
 10
-11.885002
 20
-2.325757
  0
POINT
  8
寸法
 10
-11.885002
 20
3.224243
  0
TEXT
  7
TextStyle03
  8
寸法
  6
CONTINUOUS
 10
-12.275
 20
-2.0125
  1
111
 40
3.0
 50
90.0
 72
     5
 11
-12.275
 21
2.8625
  0
ENDBLK
  0
BLOCK
  2
*DIM_0010
 70
    65
 10
0.0
 20
0.0
  0
LINE
  8
寸法
  6
CONTINUOUS
 10
-80.250185
 20
-50.84318
 11
-80.250185
 21
-44.22983
  0
LINE
  8
寸法
  6
CONTINUOUS
 10
-75.250185
 20
-50.84318
 11
-75.250185
 21
-44.22983
  0
LINE
  8
寸法
  6
CONTINUOUS
 10
-80.250185
 20
-44.22983
 11
-75.250185
 21
-44.22983
  0
POINT
  8
寸法
 10
-80.250185
 20
-44.22983
  0
POINT
  8
寸法
 10
-75.250185
 20
-44.22983
  0
TEXT
  7
TextStyle03
  8
寸法
  6
CONTINUOUS
 10
-80.2125
 20
-43.875
  1
100
 40
3.0
 72
     5
 11
-75.3375
 21
-43.875
  0
ENDBLK
  0
BLOCK
  2
*DIM_0011
 70
    65
 10
0.0
 20
0.0
  0
LINE
  8
寸法
  6
CONTINUOUS
 10
-67.773117
 20
-49.343215
 11
-67.051725
 21
-49.343215
  0
LINE
  8
寸法
  6
CONTINUOUS
 10
-74.250185
 20
-51.84318
 11
-67.051725
 21
-51.84318
  0
LINE
  8
寸法
  6
CONTINUOUS
 10
-67.051725
 20
-49.343215
 11
-67.051725
 21
-51.84318
  0
POINT
  8
寸法
 10
-67.051725
 20
-49.343215
  0
POINT
  8
寸法
 10
-67.051725
 20
-51.84318
  0
TEXT
  7
TextStyle03
  8
寸法
  6
CONTINUOUS
 10
-64.075
 20
-52.19375
  1
50
 40
3.0
 50
90.0
 72
     5
 11
-64.075
 21
-49.00625
  0
ENDBLK
  0
BLOCK
  2
*DIM_0012
 70
    65
 10
0.0
 20
0.0
  0
LINE
  8
寸法
  6
CONTINUOUS
 10
-26.450185
 20
-99.855165
 11
-26.450185
 21
-36.493875
  0
LINE
  8
寸法
  6
CONTINUOUS
 10
-32.750185
 20
-36.493875
 11
-26.450185
 21
-36.493875
  0
POINT
  8
寸法
 10
-32.750185
 20
-36.493875
  0
POINT
  8
寸法
 10
-26.450185
 20
-36.493875
  0
TEXT
  7
TextStyle03
  8
寸法
  6
CONTINUOUS
 10
-32.0625
 20
-36.125
  1
126
 40
3.0
 72
     5
 11
-27.1875
 21
-36.125
  0
ENDBLK
  0
BLOCK
  2
*DIM_0013
 70
    65
 10
0.0
 20
0.0
  0
LINE
  8
寸法
  6
CONTINUOUS
 10
-129.050185
 20
-99.855165
 11
-129.050185
 21
-36.493875
  0
LINE
  8
寸法
  6
CONTINUOUS
 10
-122.750185
 20
-36.493875
 11
-129.050185
 21
-36.493875
  0
POINT
  8
寸法
 10
-122.750185
 20
-36.493875
  0
POINT
  8
寸法
 10
-129.050185
 20
-36.493875
  0
TEXT
  7
TextStyle03
  8
寸法
  6
CONTINUOUS
 10
-128.3625
 20
-36.125
  1
126
 40
3.0
 72
     5
 11
-123.4875
 21
-36.125
  0
ENDBLK
  0
BLOCK
  2
*DIM_0014
 70
    65
 10
0.0
 20
0.0
  0
LINE
  8
寸法
  6
CONTINUOUS
 10
-122.750185
 20
-39.773415
 11
-122.750185
 21
-36.493875
  0
LINE
  8
寸法
  6
CONTINUOUS
 10
-32.750185
 20
-39.773415
 11
-32.750185
 21
-36.493875
  0
LINE
  8
寸法
  6
CONTINUOUS
 10
-122.750185
 20
-36.493875
 11
-32.750185
 21
-36.493875
  0
POINT
  8
寸法
 10
-122.750185
 20
-36.493875
  0
POINT
  8
寸法
 10
-32.750185
 20
-36.493875
  0
TEXT
  7
TextStyle03
  8
寸法
  6
CONTINUOUS
 10
-89.49375
 20
-36.125
  1
呼称寸法　1800
 40
3.0
 72
     5
 11
-66.05625
 21
-36.125
  0
ENDBLK
  0
BLOCK
  2
*DIM_0015
 70
    65
 10
0.0
 20
0.0
  0
LINE
  8
寸法
  6
CONTINUOUS
 10
-76.750185
 20
-49.343215
 11
-7.166423
 21
-49.343215
  0
LINE
  8
寸法
  6
CONTINUOUS
 10
-7.166423
 20
-100.855165
 11
-7.166423
 21
-49.343215
  0
POINT
  8
寸法
 10
-7.166423
 20
-100.855165
  0
POINT
  8
寸法
 10
-7.166423
 20
-49.343215
  0
TEXT
  7
TextStyle03
  8
寸法
  6
CONTINUOUS
 10
-7.55
 20
-80.06875
  1
1030.2
 40
3.0
 50
90.0
 72
     5
 11
-7.55
 21
-70.13125
  0
ENDBLK
  0
BLOCK
  2
*GRP_0016
 70
    65
 10
0.0
 20
0.0
  0
ARC
  8
型材断面
  6
DOT
 62
    47
 10
165.968186
 20
-85.565166
 40
0.015
 50
270.0
 51
360.0
  0
ARC
  8
型材断面
  6
DOT
 62
    47
 10
166.818186
 20
-84.790166
 40
0.015
 50
270.0
 51
360.0
  0
LINE
  8
型材断面
  6
DOT
 62
    47
 10
166.833185
 20
-84.790165
 11
166.833185
 21
-81.605165
  0
LINE
  8
型材断面
  6
DOT
 62
    47
 10
165.983182
 20
-85.195162
 11
165.968182
 21
-85.180163
  0
LINE
  8
型材断面
  6
DOT
 62
    47
 10
165.968182
 20
-85.180163
 11
165.983182
 21
-85.165165
  0
LINE
  8
型材断面
  6
DOT
 62
    47
 10
165.983182
 20
-85.565165
 11
165.983182
 21
-85.195162
  0
LINE
  8
型材断面
  6
DOT
 10
166.833185
 20
-81.605165
 11
166.921482
 21
-81.516867
  0
LINE
  8
型材断面
  6
DOT
 62
    47
 10
165.983182
 20
-85.165165
 11
165.983182
 21
-84.805163
  0
LINE
  8
型材断面
  6
DOT
 10
166.833185
 20
-81.605165
 11
115.533185
 21
-81.605165
  0
LINE
  8
型材断面
  6
DOT
 62
    47
 10
165.968182
 20
-85.580165
 11
115.533185
 21
-85.580165
  0
LINE
  8
型材断面
  6
DOT
 62
    47
 10
166.818185
 20
-84.805163
 11
115.533185
 21
-84.805163
  0
ARC
  8
型材断面
  6
DOT
 62
    47
 10
65.098184
 20
-85.565166
 40
0.015
 50
180.0
 51
270.0
  0
ARC
  8
型材断面
  6
DOT
 62
    47
 10
64.248184
 20
-84.790166
 40
0.015
 50
180.0
 51
270.0
  0
LINE
  8
型材断面
  6
DOT
 62
    47
 10
64.233185
 20
-84.790165
 11
64.233185
 21
-81.605165
  0
LINE
  8
型材断面
  6
DOT
 62
    47
 10
65.083187
 20
-85.195162
 11
65.098187
 21
-85.180163
  0
LINE
  8
型材断面
  6
DOT
 62
    47
 10
65.098187
 20
-85.180163
 11
65.083187
 21
-85.165165
  0
LINE
  8
型材断面
  6
DOT
 62
    47
 10
65.083187
 20
-85.565165
 11
65.083187
 21
-85.195162
  0
LINE
  8
型材断面
  6
DOT
 10
64.233185
 20
-81.605165
 11
64.144888
 21
-81.516867
  0
LINE
  8
型材断面
  6
DOT
 62
    47
 10
65.083187
 20
-85.165165
 11
65.083187
 21
-84.805163
  0
LINE
  8
型材断面
  6
DOT
 10
64.233185
 20
-81.605165
 11
115.533185
 21
-81.605165
  0
LINE
  8
型材断面
  6
DOT
 62
    47
 10
65.098187
 20
-85.580165
 11
115.533185
 21
-85.580165
  0
LINE
  8
型材断面
  6
DOT
 62
    47
 10
64.248185
 20
-84.805163
 11
115.533185
 21
-84.805163
  0
LINE
  8
型材断面
  6
DOT
 10
115.533185
 20
-30.093215
 11
115.533185
 21
-31.394098
  0
LINE
  8
型材断面
  6
DOT
 10
115.533185
 20
-30.093215
 11
115.533185
 21
-31.394098
  0
LINE
  8
型材断面
  6
DOT
 10
115.533185
 20
-30.093215
 11
115.533185
 21
-31.394098
  0
LINE
  8
型材断面
  6
DOT
 10
115.533185
 20
-30.093215
 11
115.533185
 21
-31.394098
  0
LINE
  8
型材断面
  6
DOT
 10
115.533185
 20
-30.09318
 11
113.033185
 21
-32.59318
  0
LINE
  8
型材断面
  6
DOT
 10
115.533185
 20
-31.498862
 11
114.438865
 21
-32.59318
  0
LINE
  8
型材断面
  6
DOT
 10
113.033185
 20
-32.59318
 11
114.438865
 21
-32.59318
  0
LINE
  8
型材断面
  6
DOT
 10
118.033185
 20
-32.59318
 11
116.627505
 21
-32.59318
  0
LINE
  8
型材断面
  6
DOT
 10
115.533185
 20
-31.498862
 11
116.627505
 21
-32.59318
  0
LINE
  8
型材断面
  6
DOT
 10
115.533185
 20
-30.09318
 11
118.033185
 21
-32.59318
  0
LINE
  8
型材断面
  6
DOT
 10
166.921482
 20
-81.516867
 11
117.997797
 21
-32.59318
  0
LINE
  8
型材断面
  6
DOT
 10
165.74425
 20
-81.605165
 11
116.73227
 21
-32.59318
  0
LINE
  8
型材断面
  6
DOT
 10
64.144888
 20
-81.516867
 11
113.068572
 21
-32.59318
  0
LINE
  8
型材断面
  6
DOT
 10
65.32212
 20
-81.605165
 11
114.3341
 21
-32.59318
  0
LINE
  8
ガラス
  6
DOT
 10
101.92903
 20
-60.412935
 11
98.056395
 21
-64.28557
  0
LINE
  8
ガラス
  6
DOT
 10
101.048707
 20
-62.011293
 11
99.654753
 21
-63.405248
  0
LINE
  8
ガラス
  6
DOT
 10
100.330673
 20
-61.293257
 11
98.936717
 21
-62.687212
  0
LINE
  8
ガラス
  6
DOT
 10
133.355875
 20
-60.412935
 11
129.48324
 21
-64.28557
  0
LINE
  8
ガラス
  6
DOT
 10
132.475553
 20
-62.011293
 11
131.081597
 21
-63.405248
  0
LINE
  8
ガラス
  6
DOT
 10
131.757518
 20
-61.293257
 11
130.363563
 21
-62.687212
  0
LINE
  8
ゴム等
  6
DOT
 10
160.709887
 20
-79.945407
 11
162.670635
 21
-80.449252
  0
LINE
  8
ゴム等
  6
DOT
 10
162.670635
 20
-80.449252
 11
163.029407
 21
-80.526832
  0
LINE
  8
ゴム等
  6
DOT
 10
163.029407
 20
-80.526832
 11
165.74425
 21
-81.605165
  0
LINE
  8
ゴム等
  6
DOT
 10
162.670635
 20
-80.449252
 11
115.533185
 21
-80.449252
  0
LINE
  8
ゴム等
  6
DOT
 10
163.029407
 20
-80.526832
 11
115.533185
 21
-80.526832
  0
LINE
  8
ゴム等
  6
DOT
 10
160.709887
 20
-79.945407
 11
117.483185
 21
-79.945407
  0
LINE
  8
ゴム等
  6
DOT
 10
70.356482
 20
-79.945407
 11
68.395735
 21
-80.449252
  0
LINE
  8
ゴム等
  6
DOT
 10
68.395735
 20
-80.449252
 11
68.036962
 21
-80.526832
  0
LINE
  8
ゴム等
  6
DOT
 10
68.036962
 20
-80.526832
 11
65.32212
 21
-81.605165
  0
LINE
  8
ゴム等
  6
DOT
 10
68.395735
 20
-80.449252
 11
115.533185
 21
-80.449252
  0
LINE
  8
ゴム等
  6
DOT
 10
68.036962
 20
-80.526832
 11
115.533185
 21
-80.526832
  0
LINE
  8
ゴム等
  6
DOT
 10
70.356482
 20
-79.945407
 11
113.583185
 21
-79.945407
  0
LINE
  8
ゴム等
  6
DOT
 10
115.533185
 20
-31.394098
 11
115.533185
 21
-34.768703
  0
LINE
  8
ゴム等
  6
DOT
 10
115.533185
 20
-31.394098
 11
115.533185
 21
-34.768703
  0
LINE
  8
ゴム等
  6
DOT
 10
115.533185
 20
-31.394098
 11
115.533185
 21
-34.768703
  0
LINE
  8
ゴム等
  6
DOT
 10
115.533185
 20
-31.394098
 11
115.533185
 21
-34.768703
  0
LINE
  8
ゴム等
  6
DOT
 10
115.533185
 20
-31.394098
 11
115.533185
 21
-34.768703
  0
LINE
  8
ゴム等
  6
DOT
 10
115.533185
 20
-31.394098
 11
115.533185
 21
-34.768703
  0
LINE
  8
ゴム等
  6
DOT
 10
115.533185
 20
-31.394098
 11
115.533185
 21
-34.768703
  0
LINE
  8
ゴム等
  6
DOT
 10
115.533185
 20
-31.394098
 11
115.533185
 21
-34.768703
  0
LINE
  8
ゴム等
  6
DOT
 10
117.483185
 20
-36.718703
 11
117.483185
 21
-79.945407
  0
LINE
  8
ゴム等
  6
DOT
 10
113.583185
 20
-36.718703
 11
113.583185
 21
-79.945407
  0
LINE
  8
ゴム等
  6
DOT
 10
114.708185
 20
-34.1368
 11
114.708185
 21
-80.449252
  0
LINE
  8
ゴム等
  6
DOT
 10
116.358185
 20
-34.1368
 11
116.358185
 21
-80.449252
  0
LINE
  8
ゴム等
  6
DOT
 10
162.670635
 20
-80.449252
 11
115.533185
 21
-33.3118
  0
LINE
  8
ゴム等
  6
DOT
 10
163.029407
 20
-80.526832
 11
115.533185
 21
-33.030608
  0
LINE
  8
ゴム等
  6
DOT
 10
160.709887
 20
-79.945407
 11
117.483185
 21
-36.718703
  0
LINE
  8
ゴム等
  6
DOT
 10
68.395735
 20
-80.449252
 11
115.533185
 21
-33.3118
  0
LINE
  8
ゴム等
  6
DOT
 10
68.036962
 20
-80.526832
 11
115.533185
 21
-33.030608
  0
LINE
  8
ゴム等
  6
DOT
 10
70.356482
 20
-79.945407
 11
113.583185
 21
-36.718703
  0
ENDBLK
  0
BLOCK
  2
*GRP_0017
 70
    65
 10
0.0
 20
0.0
  0
LINE
  8
補助線
  6
BYBLOCK
 62
    64
 10
153.44628
 20
-106.751108
 11
153.61997
 21
-106.930912
  0
LINE
  8
補助線
  6
BYBLOCK
 62
    64
 10
153.623027
 20
-106.754165
 11
153.443223
 21
-106.927855
  0
LINE
  8
補助線
  6
BYBLOCK
 62
    64
 10
142.051785
 20
-94.955962
 11
141.878088
 21
-94.776155
  0
LINE
  8
補助線
  6
BYBLOCK
 62
    64
 10
142.054835
 20
-94.77921
 11
141.875033
 21
-94.952908
  0
LINE
  8
補助線
  6
BYBLOCK
 62
    64
 10
130.483533
 20
-82.981065
 11
130.309835
 21
-82.801265
  0
LINE
  8
補助線
  6
BYBLOCK
 62
    64
 10
130.486585
 20
-82.804317
 11
130.306783
 21
-82.978015
  0
LINE
  8
型材断面
  6
CONTINUOUS
 10
154.77954
 20
-106.332135
 11
154.761215
 21
-107.392635
  0
LINE
  8
型材断面
  6
CONTINUOUS
 10
154.761215
 20
-107.392635
 11
154.042
 21
-108.087425
  0
LINE
  8
型材断面
  6
CONTINUOUS
 10
154.042
 20
-108.087425
 11
152.9815
 21
-108.0691
  0
LINE
  8
型材断面
  6
CONTINUOUS
 10
130.948305
 20
-81.66307
 11
129.887805
 21
-81.644755
  0
LINE
  8
型材断面
  6
CONTINUOUS
 10
129.887805
 20
-81.644755
 11
129.168587
 21
-82.339545
  0
LINE
  8
型材断面
  6
CONTINUOUS
 10
129.168587
 20
-82.339545
 11
129.150273
 21
-83.400045
  0
LINE
  8
型材断面
  6
CONTINUOUS
 10
154.77954
 20
-106.332135
 11
130.948425
 21
-81.663072
  0
LINE
  8
型材断面
  6
CONTINUOUS
 10
152.9815
 20
-108.0691
 11
129.150275
 21
-83.399935
  0
LINE
  8
ボルト／ビス
  6
CONTINUOUS
 62
    64
 10
153.865315
 20
-106.5201
 11
153.977135
 21
-106.968243
  0
LINE
  8
ボルト／ビス
  6
CONTINUOUS
 62
    64
 10
153.865315
 20
-106.5201
 11
153.421307
 21
-106.392872
  0
LINE
  8
ボルト／ビス
  6
CONTINUOUS
 62
    64
 10
153.200935
 20
-107.16192
 11
153.644943
 21
-107.289148
  0
LINE
  8
ボルト／ビス
  6
CONTINUOUS
 62
    64
 10
153.200935
 20
-107.16192
 11
153.089115
 21
-106.713778
  0
CIRCLE
  8
ボルト／ビス
  6
CONTINUOUS
 62
    64
 10
153.533125
 20
-106.84101
 40
0.4
  0
LINE
  8
ボルト／ビス
  6
CONTINUOUS
 62
    64
 10
153.421307
 20
-106.392872
 11
153.089115
 21
-106.713778
  0
LINE
  8
ボルト／ビス
  6
CONTINUOUS
 62
    64
 10
153.977135
 20
-106.968243
 11
153.644943
 21
-107.289148
  0
LINE
  8
ボルト／ビス
  6
CONTINUOUS
 62
    64
 10
142.297127
 20
-94.545153
 11
141.853115
 21
-94.417918
  0
LINE
  8
ボルト／ビス
  6
CONTINUOUS
 62
    64
 10
142.297127
 20
-94.545153
 11
142.408948
 21
-94.99329
  0
LINE
  8
ボルト／ビス
  6
CONTINUOUS
 62
    64
 10
141.632742
 20
-95.186965
 11
141.520925
 21
-94.738825
  0
LINE
  8
ボルト／ビス
  6
CONTINUOUS
 62
    64
 10
141.632742
 20
-95.186965
 11
142.076752
 21
-95.314197
  0
CIRCLE
  8
ボルト／ビス
  6
CONTINUOUS
 62
    64
 10
141.964933
 20
-94.866057
 40
0.4
  0
LINE
  8
ボルト／ビス
  6
CONTINUOUS
 62
    64
 10
142.408948
 20
-94.99329
 11
142.076752
 21
-95.314197
  0
LINE
  8
ボルト／ビス
  6
CONTINUOUS
 62
    64
 10
141.853115
 20
-94.417918
 11
141.520925
 21
-94.738825
  0
LINE
  8
ボルト／ビス
  6
CONTINUOUS
 62
    64
 10
130.728875
 20
-82.570255
 11
130.284863
 21
-82.443025
  0
LINE
  8
ボルト／ビス
  6
CONTINUOUS
 62
    64
 10
130.728875
 20
-82.570255
 11
130.840692
 21
-83.018395
  0
LINE
  8
ボルト／ビス
  6
CONTINUOUS
 62
    64
 10
130.064493
 20
-83.212075
 11
129.952675
 21
-82.763933
  0
LINE
  8
ボルト／ビス
  6
CONTINUOUS
 62
    64
 10
130.064493
 20
-83.212075
 11
130.508508
 21
-83.339305
  0
CIRCLE
  8
ボルト／ビス
  6
CONTINUOUS
 62
    64
 10
130.396685
 20
-82.891165
 40
0.4
  0
LINE
  8
ボルト／ビス
  6
CONTINUOUS
 62
    64
 10
130.840692
 20
-83.018395
 11
130.508508
 21
-83.339305
  0
LINE
  8
ボルト／ビス
  6
CONTINUOUS
 62
    64
 10
130.284863
 20
-82.443025
 11
129.952675
 21
-82.763933
  0
ENDBLK
  0
BLOCK
  2
*GRP_0018
 70
    65
 10
0.0
 20
0.0
  0
LINE
  8
補助線
  6
BYBLOCK
 62
    64
 10
130.48359
 20
-106.751108
 11
130.3099
 21
-106.930912
  0
LINE
  8
補助線
  6
BYBLOCK
 62
    64
 10
130.306842
 20
-106.754165
 11
130.486648
 21
-106.927855
  0
LINE
  8
補助線
  6
BYBLOCK
 62
    64
 10
141.878085
 20
-94.955962
 11
142.051783
 21
-94.776155
  0
LINE
  8
補助線
  6
BYBLOCK
 62
    64
 10
141.875035
 20
-94.77921
 11
142.054838
 21
-94.952908
  0
LINE
  8
補助線
  6
BYBLOCK
 62
    64
 10
153.446337
 20
-82.981065
 11
153.620035
 21
-82.801265
  0
LINE
  8
補助線
  6
BYBLOCK
 62
    64
 10
153.443285
 20
-82.804317
 11
153.623087
 21
-82.978015
  0
LINE
  8
型材断面
  6
CONTINUOUS
 10
129.15033
 20
-106.332135
 11
129.168655
 21
-107.392635
  0
LINE
  8
型材断面
  6
CONTINUOUS
 10
129.168655
 20
-107.392635
 11
129.88787
 21
-108.087425
  0
LINE
  8
型材断面
  6
CONTINUOUS
 10
129.88787
 20
-108.087425
 11
130.94837
 21
-108.0691
  0
LINE
  8
型材断面
  6
CONTINUOUS
 10
152.981565
 20
-81.66307
 11
154.042065
 21
-81.644755
  0
LINE
  8
型材断面
  6
CONTINUOUS
 10
154.042065
 20
-81.644755
 11
154.761283
 21
-82.339545
  0
LINE
  8
型材断面
  6
CONTINUOUS
 10
154.761283
 20
-82.339545
 11
154.779598
 21
-83.400045
  0
LINE
  8
型材断面
  6
CONTINUOUS
 10
129.15033
 20
-106.332135
 11
152.981445
 21
-81.663072
  0
LINE
  8
型材断面
  6
CONTINUOUS
 10
130.94837
 20
-108.0691
 11
154.779595
 21
-83.399935
  0
LINE
  8
ボルト／ビス
  6
CONTINUOUS
 62
    64
 10
130.064555
 20
-106.5201
 11
129.952735
 21
-106.968243
  0
LINE
  8
ボルト／ビス
  6
CONTINUOUS
 62
    64
 10
130.064555
 20
-106.5201
 11
130.508562
 21
-106.392872
  0
LINE
  8
ボルト／ビス
  6
CONTINUOUS
 62
    64
 10
130.728935
 20
-107.16192
 11
130.284928
 21
-107.289148
  0
LINE
  8
ボルト／ビス
  6
CONTINUOUS
 62
    64
 10
130.728935
 20
-107.16192
 11
130.840755
 21
-106.713778
  0
CIRCLE
  8
ボルト／ビス
  6
CONTINUOUS
 62
    64
 10
130.396745
 20
-106.84101
 40
0.4
  0
LINE
  8
ボルト／ビス
  6
CONTINUOUS
 62
    64
 10
130.508562
 20
-106.392872
 11
130.840755
 21
-106.713778
  0
LINE
  8
ボルト／ビス
  6
CONTINUOUS
 62
    64
 10
129.952735
 20
-106.968243
 11
130.284928
 21
-107.289148
  0
LINE
  8
ボルト／ビス
  6
CONTINUOUS
 62
    64
 10
141.632742
 20
-94.545153
 11
142.076755
 21
-94.417918
  0
LINE
  8
ボルト／ビス
  6
CONTINUOUS
 62
    64
 10
141.632742
 20
-94.545153
 11
141.520923
 21
-94.99329
  0
LINE
  8
ボルト／ビス
  6
CONTINUOUS
 62
    64
 10
142.297127
 20
-95.186965
 11
142.408945
 21
-94.738825
  0
LINE
  8
ボルト／ビス
  6
CONTINUOUS
 62
    64
 10
142.297127
 20
-95.186965
 11
141.853118
 21
-95.314197
  0
CIRCLE
  8
ボルト／ビス
  6
CONTINUOUS
 62
    64
 10
141.964938
 20
-94.866057
 40
0.4
  0
LINE
  8
ボルト／ビス
  6
CONTINUOUS
 62
    64
 10
141.520923
 20
-94.99329
 11
141.853118
 21
-95.314197
  0
LINE
  8
ボルト／ビス
  6
CONTINUOUS
 62
    64
 10
142.076755
 20
-94.417918
 11
142.408945
 21
-94.738825
  0
LINE
  8
ボルト／ビス
  6
CONTINUOUS
 62
    64
 10
153.200995
 20
-82.570255
 11
153.645008
 21
-82.443025
  0
LINE
  8
ボルト／ビス
  6
CONTINUOUS
 62
    64
 10
153.200995
 20
-82.570255
 11
153.089178
 21
-83.018395
  0
LINE
  8
ボルト／ビス
  6
CONTINUOUS
 62
    64
 10
153.865378
 20
-83.212075
 11
153.977195
 21
-82.763933
  0
LINE
  8
ボルト／ビス
  6
CONTINUOUS
 62
    64
 10
153.865378
 20
-83.212075
 11
153.421363
 21
-83.339305
  0
CIRCLE
  8
ボルト／ビス
  6
CONTINUOUS
 62
    64
 10
153.533185
 20
-82.891165
 40
0.4
  0
LINE
  8
ボルト／ビス
  6
CONTINUOUS
 62
    64
 10
153.089178
 20
-83.018395
 11
153.421363
 21
-83.339305
  0
LINE
  8
ボルト／ビス
  6
CONTINUOUS
 62
    64
 10
153.645008
 20
-82.443025
 11
153.977195
 21
-82.763933
  0
ENDBLK
  0
BLOCK
  2
*GRP_0019
 70
    65
 10
0.0
 20
0.0
  0
LINE
  8
補助線
  6
BYBLOCK
 62
    64
 10
77.59009
 20
-106.751108
 11
77.4164
 21
-106.930912
  0
LINE
  8
補助線
  6
BYBLOCK
 62
    64
 10
77.413342
 20
-106.754165
 11
77.593147
 21
-106.927855
  0
LINE
  8
補助線
  6
BYBLOCK
 62
    64
 10
88.984585
 20
-94.955962
 11
89.158282
 21
-94.776155
  0
LINE
  8
補助線
  6
BYBLOCK
 62
    64
 10
88.981535
 20
-94.77921
 11
89.161338
 21
-94.952908
  0
LINE
  8
補助線
  6
BYBLOCK
 62
    64
 10
100.552837
 20
-82.981065
 11
100.726535
 21
-82.801265
  0
LINE
  8
補助線
  6
BYBLOCK
 62
    64
 10
100.549785
 20
-82.804317
 11
100.729587
 21
-82.978015
  0
LINE
  8
型材断面
  6
CONTINUOUS
 10
76.25683
 20
-106.332135
 11
76.275155
 21
-107.392635
  0
LINE
  8
型材断面
  6
CONTINUOUS
 10
76.275155
 20
-107.392635
 11
76.99437
 21
-108.087425
  0
LINE
  8
型材断面
  6
CONTINUOUS
 10
76.99437
 20
-108.087425
 11
78.05487
 21
-108.0691
  0
LINE
  8
型材断面
  6
CONTINUOUS
 10
100.088065
 20
-81.66307
 11
101.148565
 21
-81.644755
  0
LINE
  8
型材断面
  6
CONTINUOUS
 10
101.148565
 20
-81.644755
 11
101.867783
 21
-82.339545
  0
LINE
  8
型材断面
  6
CONTINUOUS
 10
101.867783
 20
-82.339545
 11
101.886097
 21
-83.400045
  0
LINE
  8
型材断面
  6
CONTINUOUS
 10
76.25683
 20
-106.332135
 11
100.087945
 21
-81.663072
  0
LINE
  8
型材断面
  6
CONTINUOUS
 10
78.05487
 20
-108.0691
 11
101.886095
 21
-83.399935
  0
LINE
  8
ボルト／ビス
  6
CONTINUOUS
 62
    64
 10
77.171055
 20
-106.5201
 11
77.059235
 21
-106.968243
  0
LINE
  8
ボルト／ビス
  6
CONTINUOUS
 62
    64
 10
77.171055
 20
-106.5201
 11
77.615063
 21
-106.392872
  0
LINE
  8
ボルト／ビス
  6
CONTINUOUS
 62
    64
 10
77.835435
 20
-107.16192
 11
77.391427
 21
-107.289148
  0
LINE
  8
ボルト／ビス
  6
CONTINUOUS
 62
    64
 10
77.835435
 20
-107.16192
 11
77.947255
 21
-106.713778
  0
CIRCLE
  8
ボルト／ビス
  6
CONTINUOUS
 62
    64
 10
77.503245
 20
-106.84101
 40
0.4
  0
LINE
  8
ボルト／ビス
  6
CONTINUOUS
 62
    64
 10
77.615063
 20
-106.392872
 11
77.947255
 21
-106.713778
  0
LINE
  8
ボルト／ビス
  6
CONTINUOUS
 62
    64
 10
77.059235
 20
-106.968243
 11
77.391427
 21
-107.289148
  0
LINE
  8
ボルト／ビス
  6
CONTINUOUS
 62
    64
 10
88.739243
 20
-94.545153
 11
89.183255
 21
-94.417918
  0
LINE
  8
ボルト／ビス
  6
CONTINUOUS
 62
    64
 10
88.739243
 20
-94.545153
 11
88.627422
 21
-94.99329
  0
LINE
  8
ボルト／ビス
  6
CONTINUOUS
 62
    64
 10
89.403628
 20
-95.186965
 11
89.515445
 21
-94.738825
  0
LINE
  8
ボルト／ビス
  6
CONTINUOUS
 62
    64
 10
89.403628
 20
-95.186965
 11
88.959618
 21
-95.314197
  0
CIRCLE
  8
ボルト／ビス
  6
CONTINUOUS
 62
    64
 10
89.071437
 20
-94.866057
 40
0.4
  0
LINE
  8
ボルト／ビス
  6
CONTINUOUS
 62
    64
 10
88.627422
 20
-94.99329
 11
88.959618
 21
-95.314197
  0
LINE
  8
ボルト／ビス
  6
CONTINUOUS
 62
    64
 10
89.183255
 20
-94.417918
 11
89.515445
 21
-94.738825
  0
LINE
  8
ボルト／ビス
  6
CONTINUOUS
 62
    64
 10
100.307495
 20
-82.570255
 11
100.751507
 21
-82.443025
  0
LINE
  8
ボルト／ビス
  6
CONTINUOUS
 62
    64
 10
100.307495
 20
-82.570255
 11
100.195678
 21
-83.018395
  0
LINE
  8
ボルト／ビス
  6
CONTINUOUS
 62
    64
 10
100.971877
 20
-83.212075
 11
101.083695
 21
-82.763933
  0
LINE
  8
ボルト／ビス
  6
CONTINUOUS
 62
    64
 10
100.971877
 20
-83.212075
 11
100.527863
 21
-83.339305
  0
CIRCLE
  8
ボルト／ビス
  6
CONTINUOUS
 62
    64
 10
100.639685
 20
-82.891165
 40
0.4
  0
LINE
  8
ボルト／ビス
  6
CONTINUOUS
 62
    64
 10
100.195678
 20
-83.018395
 11
100.527863
 21
-83.339305
  0
LINE
  8
ボルト／ビス
  6
CONTINUOUS
 62
    64
 10
100.751507
 20
-82.443025
 11
101.083695
 21
-82.763933
  0
ENDBLK
  0
BLOCK
  2
*GRP_0020
 70
    65
 10
0.0
 20
0.0
  0
LINE
  8
補助線
  6
BYBLOCK
 62
    64
 10
100.55278
 20
-106.751108
 11
100.72647
 21
-106.930912
  0
LINE
  8
補助線
  6
BYBLOCK
 62
    64
 10
100.729528
 20
-106.754165
 11
100.549722
 21
-106.927855
  0
LINE
  8
補助線
  6
BYBLOCK
 62
    64
 10
89.158285
 20
-94.955962
 11
88.984588
 21
-94.776155
  0
LINE
  8
補助線
  6
BYBLOCK
 62
    64
 10
89.161335
 20
-94.77921
 11
88.981532
 21
-94.952908
  0
LINE
  8
補助線
  6
BYBLOCK
 62
    64
 10
77.590033
 20
-82.981065
 11
77.416335
 21
-82.801265
  0
LINE
  8
補助線
  6
BYBLOCK
 62
    64
 10
77.593085
 20
-82.804317
 11
77.413283
 21
-82.978015
  0
LINE
  8
型材断面
  6
CONTINUOUS
 10
101.88604
 20
-106.332135
 11
101.867715
 21
-107.392635
  0
LINE
  8
型材断面
  6
CONTINUOUS
 10
101.867715
 20
-107.392635
 11
101.1485
 21
-108.087425
  0
LINE
  8
型材断面
  6
CONTINUOUS
 10
101.1485
 20
-108.087425
 11
100.088
 21
-108.0691
  0
LINE
  8
型材断面
  6
CONTINUOUS
 10
78.054805
 20
-81.66307
 11
76.994305
 21
-81.644755
  0
LINE
  8
型材断面
  6
CONTINUOUS
 10
76.994305
 20
-81.644755
 11
76.275087
 21
-82.339545
  0
LINE
  8
型材断面
  6
CONTINUOUS
 10
76.275087
 20
-82.339545
 11
76.256773
 21
-83.400045
  0
LINE
  8
型材断面
  6
CONTINUOUS
 10
101.88604
 20
-106.332135
 11
78.054925
 21
-81.663072
  0
LINE
  8
型材断面
  6
CONTINUOUS
 10
100.088
 20
-108.0691
 11
76.256775
 21
-83.399935
  0
LINE
  8
ボルト／ビス
  6
CONTINUOUS
 62
    64
 10
100.971815
 20
-106.5201
 11
101.083635
 21
-106.968243
  0
LINE
  8
ボルト／ビス
  6
CONTINUOUS
 62
    64
 10
100.971815
 20
-106.5201
 11
100.527808
 21
-106.392872
  0
LINE
  8
ボルト／ビス
  6
CONTINUOUS
 62
    64
 10
100.307435
 20
-107.16192
 11
100.751442
 21
-107.289148
  0
LINE
  8
ボルト／ビス
  6
CONTINUOUS
 62
    64
 10
100.307435
 20
-107.16192
 11
100.195615
 21
-106.713778
  0
CIRCLE
  8
ボルト／ビス
  6
CONTINUOUS
 62
    64
 10
100.639625
 20
-106.84101
 40
0.4
  0
LINE
  8
ボルト／ビス
  6
CONTINUOUS
 62
    64
 10
100.527808
 20
-106.392872
 11
100.195615
 21
-106.713778
  0
LINE
  8
ボルト／ビス
  6
CONTINUOUS
 62
    64
 10
101.083635
 20
-106.968243
 11
100.751442
 21
-107.289148
  0
LINE
  8
ボルト／ビス
  6
CONTINUOUS
 62
    64
 10
89.403628
 20
-94.545153
 11
88.959615
 21
-94.417918
  0
LINE
  8
ボルト／ビス
  6
CONTINUOUS
 62
    64
 10
89.403628
 20
-94.545153
 11
89.515447
 21
-94.99329
  0
LINE
  8
ボルト／ビス
  6
CONTINUOUS
 62
    64
 10
88.739243
 20
-95.186965
 11
88.627425
 21
-94.738825
  0
LINE
  8
ボルト／ビス
  6
CONTINUOUS
 62
    64
 10
88.739243
 20
-95.186965
 11
89.183252
 21
-95.314197
  0
CIRCLE
  8
ボルト／ビス
  6
CONTINUOUS
 62
    64
 10
89.071433
 20
-94.866057
 40
0.4
  0
LINE
  8
ボルト／ビス
  6
CONTINUOUS
 62
    64
 10
89.515447
 20
-94.99329
 11
89.183252
 21
-95.314197
  0
LINE
  8
ボルト／ビス
  6
CONTINUOUS
 62
    64
 10
88.959615
 20
-94.417918
 11
88.627425
 21
-94.738825
  0
LINE
  8
ボルト／ビス
  6
CONTINUOUS
 62
    64
 10
77.835375
 20
-82.570255
 11
77.391362
 21
-82.443025
  0
LINE
  8
ボルト／ビス
  6
CONTINUOUS
 62
    64
 10
77.835375
 20
-82.570255
 11
77.947192
 21
-83.018395
  0
LINE
  8
ボルト／ビス
  6
CONTINUOUS
 62
    64
 10
77.170992
 20
-83.212075
 11
77.059175
 21
-82.763933
  0
LINE
  8
ボルト／ビス
  6
CONTINUOUS
 62
    64
 10
77.170992
 20
-83.212075
 11
77.615007
 21
-83.339305
  0
CIRCLE
  8
ボルト／ビス
  6
CONTINUOUS
 62
    64
 10
77.503185
 20
-82.891165
 40
0.4
  0
LINE
  8
ボルト／ビス
  6
CONTINUOUS
 62
    64
 10
77.947192
 20
-83.018395
 11
77.615007
 21
-83.339305
  0
LINE
  8
ボルト／ビス
  6
CONTINUOUS
 62
    64
 10
77.391362
 20
-82.443025
 11
77.059175
 21
-82.763933
  0
ENDBLK
  0
BLOCK
  2
*DIM_0021
 70
    65
 10
0.0
 20
0.0
  0
LINE
  8
寸法
  6
CONTINUOUS
 10
139.16728
 20
9.037867
 11
139.16728
 21
0.468182
  0
LINE
  8
寸法
  6
CONTINUOUS
 10
93.64728
 20
9.037867
 11
93.64728
 21
0.468182
  0
LINE
  8
寸法
  6
CONTINUOUS
 10
139.16728
 20
0.468182
 11
93.64728
 21
0.468182
  0
POINT
  8
寸法
 10
139.16728
 20
0.468182
  0
POINT
  8
寸法
 10
93.64728
 20
0.468182
  0
TEXT
  7
TextStyle03
  8
寸法
  6
CONTINUOUS
 10
112.275
 20
0.825
  1
910.4
 40
3.0
 72
     5
 11
120.525
 21
0.825
  0
ENDBLK
  0
BLOCK
  2
*DIM_0022
 70
    65
 10
0.0
 20
0.0
  0
LINE
  8
寸法
  6
CONTINUOUS
 10
144.16728
 20
78.41259
 11
154.120455
 21
78.41259
  0
LINE
  8
寸法
  6
CONTINUOUS
 10
144.16728
 20
14.037867
 11
154.120455
 21
14.037867
  0
LINE
  8
寸法
  6
CONTINUOUS
 10
154.120455
 20
78.41259
 11
154.120455
 21
14.037867
  0
POINT
  8
寸法
 10
154.120455
 20
78.41259
  0
POINT
  8
寸法
 10
154.120455
 20
14.037867
  0
TEXT
  7
TextStyle03
  8
寸法
  6
CONTINUOUS
 10
153.725
 20
41.25625
  1
1287.5
 40
3.0
 50
90.0
 72
     5
 11
153.725
 21
51.19375
  0
ENDBLK
  0
BLOCK
  2
*DIM_0023
 70
    65
 10
0.0
 20
0.0
  0
LINE
  8
寸法
  6
CONTINUOUS
 10
-21.450185
 20
-100.855165
 11
-7.166423
 21
-100.855165
  0
LINE
  8
寸法
  6
CONTINUOUS
 10
-23.605408
 20
-110.655165
 11
-7.166423
 21
-110.655165
  0
LINE
  8
寸法
  6
CONTINUOUS
 10
-7.166423
 20
-100.855165
 11
-7.166423
 21
-110.655165
  0
POINT
  8
寸法
 10
-7.166423
 20
-100.855165
  0
POINT
  8
寸法
 10
-7.166423
 20
-110.655165
  0
TEXT
  7
TextStyle03
  8
寸法
  6
CONTINUOUS
 10
-7.55
 20
-108.2125
  1
196
 40
3.0
 50
90.0
 72
     5
 11
-7.55
 21
-103.3375
  0
ENDBLK
  0
ENDSEC
  0
SECTION
  2
ENTITIES
  0
POLYLINE
  8
通り芯
  6
CONTINUOUS
 66
     1
 70
     1
  0
VERTEX
  8
通り芯
 10
-210.0
 20
-148.5
  0
VERTEX
  8
通り芯
 10
210.0
 20
-148.5
  0
VERTEX
  8
通り芯
 10
210.0
 20
148.5
  0
VERTEX
  8
通り芯
 10
-210.0
 20
148.5
  0
SEQEND
  0
INSERT
  2
*GRP_0001
  8
型材断面
  6
CONTINUOUS
 10
0.0
 20
0.0
  0
LINE
  8
型材断面
  6
CONTINUOUS
 10
-79.155865
 20
42.674245
 11
-80.250185
 21
41.579927
  0
LINE
  8
型材断面
  6
CONTINUOUS
 10
-80.250185
 20
41.579927
 11
-80.250185
 21
40.174247
  0
LINE
  8
型材断面
  6
CONTINUOUS
 10
-78.844505
 20
40.174245
 11
-80.250185
 21
40.174247
  0
LINE
  8
型材断面
  6
CONTINUOUS
 10
-77.750185
 20
41.268565
 11
-78.844507
 21
40.174245
  0
LINE
  8
型材断面
  6
CONTINUOUS
 10
-77.750185
 20
42.674245
 11
-80.250185
 21
40.174247
  0
LINE
  8
型材断面
  6
CONTINUOUS
 10
-79.155865
 20
42.674245
 11
-80.250185
 21
43.768563
  0
LINE
  8
型材断面
  6
CONTINUOUS
 10
-80.250185
 20
43.768563
 11
-80.250185
 21
45.174243
  0
LINE
  8
型材断面
  6
CONTINUOUS
 10
-78.844505
 20
45.174245
 11
-80.250185
 21
45.174243
  0
LINE
  8
型材断面
  6
CONTINUOUS
 10
-77.750185
 20
44.079925
 11
-78.844507
 21
45.174245
  0
LINE
  8
型材断面
  6
CONTINUOUS
 10
-77.750185
 20
42.674245
 11
-80.250185
 21
45.174243
  0
LINE
  8
型材断面
  6
CONTINUOUS
 10
-76.344505
 20
42.674245
 11
-75.250185
 21
41.579927
  0
LINE
  8
型材断面
  6
CONTINUOUS
 10
-75.250185
 20
41.579927
 11
-75.250185
 21
40.174247
  0
LINE
  8
型材断面
  6
CONTINUOUS
 10
-76.655865
 20
40.174245
 11
-75.250185
 21
40.174247
  0
LINE
  8
型材断面
  6
CONTINUOUS
 10
-77.750185
 20
41.268565
 11
-76.655862
 21
40.174245
  0
LINE
  8
型材断面
  6
CONTINUOUS
 10
-77.750185
 20
42.674245
 11
-75.250185
 21
40.174247
  0
LINE
  8
型材断面
  6
CONTINUOUS
 10
-76.344505
 20
42.674245
 11
-75.250185
 21
43.768563
  0
LINE
  8
型材断面
  6
CONTINUOUS
 10
-75.250185
 20
43.768563
 11
-75.250185
 21
45.174243
  0
LINE
  8
型材断面
  6
CONTINUOUS
 10
-76.655865
 20
45.174245
 11
-75.250185
 21
45.174243
  0
LINE
  8
型材断面
  6
CONTINUOUS
 10
-77.750185
 20
44.079925
 11
-76.655862
 21
45.174245
  0
LINE
  8
型材断面
  6
CONTINUOUS
 10
-77.750185
 20
42.674245
 11
-75.250185
 21
45.174243
  0
LINE
  8
型材断面
  6
CONTINUOUS
 10
10.516347
 20
-1.556797
 11
8.272903
 21
-5.442558
  0
LINE
  8
型材断面
  6
CONTINUOUS
 10
10.516347
 20
-1.556797
 11
12.759793
 21
-5.442558
  0
LINE
  8
型材断面
  6
CONTINUOUS
 10
12.759793
 20
-5.442558
 11
8.272903
 21
-5.442558
  0
LINE
  8
型材断面
  6
CONTINUOUS
 10
10.516347
 20
-9.246345
 11
11.410433
 21
-13.132105
  0
LINE
  8
型材断面
  6
CONTINUOUS
 10
10.516347
 20
-9.246345
 11
9.622263
 21
-13.132105
  0
LINE
  8
型材断面
  6
CONTINUOUS
 10
9.622263
 20
-13.132105
 11
11.410433
 21
-13.132105
  0
LINE
  8
型材断面
  6
CONTINUOUS
 10
1.482467
 20
-6.85045
 11
54.139148
 21
-6.85045
  0
LINE
  8
型材断面
  6
CONTINUOUS
 10
1.482467
 20
-18.050443
 11
54.139148
 21
-18.050443
  0
LINE
  8
型材断面
  6
CONTINUOUS
 10
1.482467
 20
-24.890387
 11
54.139148
 21
-24.890387
  0
LINE
  8
型材断面
  6
CONTINUOUS
 10
1.482467
 20
-31.730332
 11
54.139148
 21
-31.730332
  0
ARC
  8
型材断面
  6
CONTINUOUS
 62
    47
 10
-27.315184
 20
-104.815165
 40
0.015
 50
270.0
 51
360.0
  0
ARC
  8
型材断面
  6
CONTINUOUS
 62
    47
 10
-26.465184
 20
-104.040165
 40
0.015
 50
270.0
 51
360.0
  0
LINE
  8
型材断面
  6
CONTINUOUS
 62
    47
 10
-26.450185
 20
-104.040165
 11
-26.450185
 21
-100.855165
  0
LINE
  8
型材断面
  6
CONTINUOUS
 62
    47
 10
-27.300187
 20
-104.445162
 11
-27.315187
 21
-104.430163
  0
LINE
  8
型材断面
  6
CONTINUOUS
 62
    47
 10
-27.315187
 20
-104.430163
 11
-27.300187
 21
-104.415165
  0
LINE
  8
型材断面
  6
CONTINUOUS
 62
    47
 10
-27.300187
 20
-104.815165
 11
-27.300187
 21
-104.445162
  0
LINE
  8
型材断面
  6
CONTINUOUS
 10
-26.450185
 20
-100.855165
 11
-26.361888
 21
-100.766867
  0
LINE
  8
型材断面
  6
CONTINUOUS
 62
    47
 10
-27.300187
 20
-104.415165
 11
-27.300187
 21
-104.055163
  0
LINE
  8
型材断面
  6
CONTINUOUS
 10
-26.450185
 20
-100.855165
 11
-77.750185
 21
-100.855165
  0
LINE
  8
型材断面
  6
CONTINUOUS
 62
    47
 10
-27.315187
 20
-104.830165
 11
-77.750185
 21
-104.830165
  0
LINE
  8
型材断面
  6
CONTINUOUS
 62
    47
 10
-26.465185
 20
-104.055163
 11
-77.750185
 21
-104.055163
  0
LINE
  8
型材断面
  6
CONTINUOUS
 10
-24.726307
 20
42.674245
 11
-20.840547
 21
40.4308
  0
LINE
  8
型材断面
  6
CONTINUOUS
 10
-24.726307
 20
42.674245
 11
-20.840547
 21
44.91769
  0
LINE
  8
型材断面
  6
CONTINUOUS
 10
-20.840547
 20
44.91769
 11
-20.840547
 21
40.4308
  0
ARC
  8
型材断面
  6
CONTINUOUS
 62
    47
 10
-128.185186
 20
-104.815165
 40
0.015
 50
180.0
 51
270.0
  0
ARC
  8
型材断面
  6
CONTINUOUS
 62
    47
 10
-129.035186
 20
-104.040165
 40
0.015
 50
180.0
 51
270.0
  0
LINE
  8
型材断面
  6
CONTINUOUS
 62
    47
 10
-129.050185
 20
-104.040165
 11
-129.050185
 21
-100.855165
  0
LINE
  8
型材断面
  6
CONTINUOUS
 62
    47
 10
-128.200183
 20
-104.445162
 11
-128.185182
 21
-104.430163
  0
LINE
  8
型材断面
  6
CONTINUOUS
 62
    47
 10
-128.185182
 20
-104.430163
 11
-128.200183
 21
-104.415165
  0
LINE
  8
型材断面
  6
CONTINUOUS
 62
    47
 10
-128.200183
 20
-104.815165
 11
-128.200183
 21
-104.445162
  0
LINE
  8
型材断面
  6
CONTINUOUS
 10
-129.050185
 20
-100.855165
 11
-129.138483
 21
-100.766867
  0
LINE
  8
型材断面
  6
CONTINUOUS
 62
    47
 10
-128.200183
 20
-104.415165
 11
-128.200183
 21
-104.055163
  0
LINE
  8
型材断面
  6
CONTINUOUS
 10
-129.050185
 20
-100.855165
 11
-77.750185
 21
-100.855165
  0
LINE
  8
型材断面
  6
CONTINUOUS
 62
    47
 10
-128.185182
 20
-104.830165
 11
-77.750185
 21
-104.830165
  0
LINE
  8
型材断面
  6
CONTINUOUS
 62
    47
 10
-129.035185
 20
-104.055163
 11
-77.750185
 21
-104.055163
  0
LINE
  8
型材断面
  6
CONTINUOUS
 10
-130.774063
 20
42.674245
 11
-134.659822
 21
40.4308
  0
LINE
  8
型材断面
  6
CONTINUOUS
 10
-130.774063
 20
42.674245
 11
-134.659822
 21
44.91769
  0
LINE
  8
型材断面
  6
CONTINUOUS
 10
-134.659822
 20
44.91769
 11
-134.659822
 21
40.4308
  0
LINE
  8
型材断面
  6
DASHDOT
 10
-122.750185
 20
42.674245
 11
-32.750185
 21
42.674245
  0
LINE
  8
型材断面
  6
CONTINUOUS
 10
-77.750185
 20
95.69812
 11
-79.99363
 21
99.58388
  0
LINE
  8
型材断面
  6
CONTINUOUS
 10
-77.750185
 20
95.69812
 11
-75.50674
 21
99.58388
  0
LINE
  8
型材断面
  6
CONTINUOUS
 10
-75.50674
 20
99.58388
 11
-79.99363
 21
99.58388
  0
POLYLINE
  8
型材断面
  6
CONTINUOUS
 66
     1
 70
     1
  0
VERTEX
  8
型材断面
 10
-68.343787
 20
105.279602
  0
VERTEX
  8
型材断面
 10
-86.899
 20
105.279602
  0
VERTEX
  8
型材断面
 10
-86.899
 20
100.487567
  0
VERTEX
  8
型材断面
 10
-68.343787
 20
100.487567
  0
SEQEND
  0
LINE
  8
型材断面
  6
CONTINUOUS
 10
-24.72631
 20
82.124247
 11
-20.84055
 21
81.230163
  0
LINE
  8
型材断面
  6
CONTINUOUS
 10
-24.72631
 20
82.124247
 11
-20.84055
 21
83.018333
  0
LINE
  8
型材断面
  6
CONTINUOUS
 10
-20.84055
 20
83.018333
 11
-20.84055
 21
81.230163
  0
LINE
  8
型材断面
  6
CONTINUOUS
 10
-26.450185
 20
93.974245
 11
-77.750185
 21
93.974245
  0
LINE
  8
型材断面
  6
CONTINUOUS
 10
-26.450185
 20
93.974245
 11
-26.450185
 21
42.674245
  0
LINE
  8
型材断面
  6
CONTINUOUS
 10
-26.450185
 20
92.787805
 11
-75.250185
 21
43.987808
  0
LINE
  8
型材断面
  6
CONTINUOUS
 10
-26.450185
 20
93.974245
 11
-75.250185
 21
45.174243
  0
LINE
  8
型材断面
  6
CONTINUOUS
 10
-27.636622
 20
93.974245
 11
-76.43662
 21
45.174245
  0
LINE
  8
型材断面
  6
CONTINUOUS
 10
-130.77406
 20
82.124247
 11
-134.65982
 21
81.230163
  0
LINE
  8
型材断面
  6
CONTINUOUS
 10
-130.77406
 20
82.124247
 11
-134.65982
 21
83.018333
  0
LINE
  8
型材断面
  6
CONTINUOUS
 10
-134.65982
 20
83.018333
 11
-134.65982
 21
81.230163
  0
LINE
  8
型材断面
  6
CONTINUOUS
 10
-129.050185
 20
93.974245
 11
-77.750185
 21
93.974245
  0
LINE
  8
型材断面
  6
CONTINUOUS
 10
-129.050185
 20
93.974245
 11
-129.050185
 21
42.674245
  0
LINE
  8
型材断面
  6
CONTINUOUS
 10
-129.050185
 20
92.787805
 11
-80.250185
 21
43.987808
  0
LINE
  8
型材断面
  6
CONTINUOUS
 10
-129.050185
 20
93.974245
 11
-80.250185
 21
45.174243
  0
LINE
  8
型材断面
  6
CONTINUOUS
 10
-127.863748
 20
93.974245
 11
-79.06375
 21
45.174245
  0
LINE
  8
型材断面
  6
DASHDOT
 10
-122.750185
 20
87.674245
 11
-32.750185
 21
87.674245
  0
LINE
  8
型材断面
  6
CONTINUOUS
 10
-77.750185
 20
-10.34963
 11
-79.99363
 21
-14.23539
  0
LINE
  8
型材断面
  6
CONTINUOUS
 10
-77.750185
 20
-10.34963
 11
-75.50674
 21
-14.23539
  0
LINE
  8
型材断面
  6
CONTINUOUS
 10
-75.50674
 20
-14.23539
 11
-79.99363
 21
-14.23539
  0
POLYLINE
  8
型材断面
  6
CONTINUOUS
 66
     1
 70
     1
  0
VERTEX
  8
型材断面
 10
-68.343787
 20
-15.054853
  0
VERTEX
  8
型材断面
 10
-86.899
 20
-15.054853
  0
VERTEX
  8
型材断面
 10
-86.899
 20
-19.846887
  0
VERTEX
  8
型材断面
 10
-68.343787
 20
-19.846887
  0
SEQEND
  0
LINE
  8
型材断面
  6
CONTINUOUS
 10
-24.72631
 20
3.224243
 11
-20.84055
 21
4.118327
  0
LINE
  8
型材断面
  6
CONTINUOUS
 10
-24.72631
 20
3.224243
 11
-20.84055
 21
2.330157
  0
LINE
  8
型材断面
  6
CONTINUOUS
 10
-20.84055
 20
2.330157
 11
-20.84055
 21
4.118327
  0
LINE
  8
型材断面
  6
CONTINUOUS
 10
-26.450185
 20
-8.625755
 11
-77.750185
 21
-8.625755
  0
LINE
  8
型材断面
  6
CONTINUOUS
 10
-26.450185
 20
-8.625755
 11
-26.450185
 21
42.674245
  0
LINE
  8
型材断面
  6
CONTINUOUS
 10
-26.450185
 20
-7.439315
 11
-75.250185
 21
41.360683
  0
LINE
  8
型材断面
  6
CONTINUOUS
 10
-26.450185
 20
-8.625755
 11
-75.250185
 21
40.174247
  0
LINE
  8
型材断面
  6
CONTINUOUS
 10
-27.636622
 20
-8.625755
 11
-76.43662
 21
40.174245
  0
LINE
  8
型材断面
  6
CONTINUOUS
 10
-130.77406
 20
3.224243
 11
-134.65982
 21
4.118327
  0
LINE
  8
型材断面
  6
CONTINUOUS
 10
-130.77406
 20
3.224243
 11
-134.65982
 21
2.330157
  0
LINE
  8
型材断面
  6
CONTINUOUS
 10
-134.65982
 20
2.330157
 11
-134.65982
 21
4.118327
  0
LINE
  8
型材断面
  6
CONTINUOUS
 10
-129.050185
 20
-8.625755
 11
-77.750185
 21
-8.625755
  0
LINE
  8
型材断面
  6
CONTINUOUS
 10
-129.050185
 20
-8.625755
 11
-129.050185
 21
42.674245
  0
LINE
  8
型材断面
  6
CONTINUOUS
 10
-129.050185
 20
-7.439315
 11
-80.250185
 21
41.360683
  0
LINE
  8
型材断面
  6
CONTINUOUS
 10
-129.050185
 20
-8.625755
 11
-80.250185
 21
40.174247
  0
LINE
  8
型材断面
  6
CONTINUOUS
 10
-127.863748
 20
-8.625755
 11
-79.06375
 21
40.174245
  0
LINE
  8
型材断面
  6
DASHDOT
 10
-122.750185
 20
-2.325755
 11
-32.750185
 21
-2.325755
  0
LINE
  8
型材断面
  6
DOT
 10
-37.766423
 20
87.674245
 11
-37.766423
 21
-2.325755
  0
LINE
  8
型材断面
  6
DOT
 10
-35.766423
 20
87.674245
 11
-35.766423
 21
-2.325755
  0
LINE
  8
型材断面
  6
DOT
 10
-117.733947
 20
87.674245
 11
-117.733947
 21
-2.325755
  0
LINE
  8
型材断面
  6
DOT
 10
-119.733947
 20
87.674245
 11
-119.733947
 21
-2.325755
  0
LINE
  8
型材断面
  6
CONTINUOUS
 10
-77.750185
 20
-49.343215
 11
-77.750185
 21
-50.644098
  0
LINE
  8
型材断面
  6
CONTINUOUS
 10
-77.750185
 20
-49.343215
 11
-77.750185
 21
-50.644098
  0
LINE
  8
型材断面
  6
CONTINUOUS
 10
-77.750185
 20
-49.343215
 11
-77.750185
 21
-50.644098
  0
LINE
  8
型材断面
  6
CONTINUOUS
 10
-77.750185
 20
-49.343215
 11
-77.750185
 21
-50.644098
  0
LINE
  8
型材断面
  6
CONTINUOUS
 10
-77.750185
 20
-49.34318
 11
-80.250185
 21
-51.84318
  0
LINE
  8
型材断面
  6
CONTINUOUS
 10
-77.750185
 20
-50.748862
 11
-78.844505
 21
-51.84318
  0
LINE
  8
型材断面
  6
CONTINUOUS
 10
-80.250185
 20
-51.84318
 11
-78.844505
 21
-51.84318
  0
LINE
  8
型材断面
  6
CONTINUOUS
 10
-75.250185
 20
-51.84318
 11
-76.655865
 21
-51.84318
  0
LINE
  8
型材断面
  6
CONTINUOUS
 10
-77.750185
 20
-50.748862
 11
-76.655865
 21
-51.84318
  0
LINE
  8
型材断面
  6
CONTINUOUS
 10
-77.750185
 20
-49.34318
 11
-75.250185
 21
-51.84318
  0
LINE
  8
型材断面
  6
CONTINUOUS
 10
-26.361888
 20
-100.766867
 11
-75.285573
 21
-51.84318
  0
LINE
  8
型材断面
  6
CONTINUOUS
 10
-27.53912
 20
-100.855165
 11
-76.5511
 21
-51.84318
  0
LINE
  8
型材断面
  6
CONTINUOUS
 10
-129.138483
 20
-100.766867
 11
-80.214797
 21
-51.84318
  0
LINE
  8
型材断面
  6
CONTINUOUS
 10
-127.96125
 20
-100.855165
 11
-78.94927
 21
-51.84318
  0
ARC
  8
型材断面
  6
CONTINUOUS
 62
    47
 10
165.968186
 20
-104.815165
 40
0.015
 50
270.0
 51
360.0
  0
ARC
  8
型材断面
  6
CONTINUOUS
 62
    47
 10
166.818186
 20
-104.040165
 40
0.015
 50
270.0
 51
360.0
  0
LINE
  8
型材断面
  6
CONTINUOUS
 62
    47
 10
166.833185
 20
-104.040165
 11
166.833185
 21
-100.855165
  0
LINE
  8
型材断面
  6
CONTINUOUS
 62
    47
 10
165.983182
 20
-104.445162
 11
165.968182
 21
-104.430163
  0
LINE
  8
型材断面
  6
CONTINUOUS
 62
    47
 10
165.968182
 20
-104.430163
 11
165.983182
 21
-104.415165
  0
LINE
  8
型材断面
  6
CONTINUOUS
 62
    47
 10
165.983182
 20
-104.815165
 11
165.983182
 21
-104.445162
  0
LINE
  8
型材断面
  6
CONTINUOUS
 10
166.833185
 20
-100.855165
 11
166.921482
 21
-100.766867
  0
LINE
  8
型材断面
  6
CONTINUOUS
 62
    47
 10
165.983182
 20
-104.415165
 11
165.983182
 21
-104.055163
  0
LINE
  8
型材断面
  6
CONTINUOUS
 10
166.833185
 20
-100.855165
 11
115.533185
 21
-100.855165
  0
LINE
  8
型材断面
  6
CONTINUOUS
 62
    47
 10
165.968182
 20
-104.830165
 11
115.533185
 21
-104.830165
  0
LINE
  8
型材断面
  6
CONTINUOUS
 62
    47
 10
166.818185
 20
-104.055163
 11
115.533185
 21
-104.055163
  0
ARC
  8
型材断面
  6
CONTINUOUS
 62
    47
 10
65.098184
 20
-104.815165
 40
0.015
 50
180.0
 51
270.0
  0
ARC
  8
型材断面
  6
CONTINUOUS
 62
    47
 10
64.248184
 20
-104.040165
 40
0.015
 50
180.0
 51
270.0
  0
LINE
  8
型材断面
  6
CONTINUOUS
 62
    47
 10
64.233185
 20
-104.040165
 11
64.233185
 21
-100.855165
  0
LINE
  8
型材断面
  6
CONTINUOUS
 62
    47
 10
65.083187
 20
-104.445162
 11
65.098187
 21
-104.430163
  0
LINE
  8
型材断面
  6
CONTINUOUS
 62
    47
 10
65.098187
 20
-104.430163
 11
65.083187
 21
-104.415165
  0
LINE
  8
型材断面
  6
CONTINUOUS
 62
    47
 10
65.083187
 20
-104.815165
 11
65.083187
 21
-104.445162
  0
LINE
  8
型材断面
  6
CONTINUOUS
 10
64.233185
 20
-100.855165
 11
64.144888
 21
-100.766867
  0
LINE
  8
型材断面
  6
CONTINUOUS
 62
    47
 10
65.083187
 20
-104.415165
 11
65.083187
 21
-104.055163
  0
LINE
  8
型材断面
  6
CONTINUOUS
 10
64.233185
 20
-100.855165
 11
115.533185
 21
-100.855165
  0
LINE
  8
型材断面
  6
CONTINUOUS
 62
    47
 10
65.098187
 20
-104.830165
 11
115.533185
 21
-104.830165
  0
LINE
  8
型材断面
  6
CONTINUOUS
 62
    47
 10
64.248185
 20
-104.055163
 11
115.533185
 21
-104.055163
  0
LINE
  8
型材断面
  6
CONTINUOUS
 10
115.533185
 20
-49.343215
 11
115.533185
 21
-50.644098
  0
LINE
  8
型材断面
  6
CONTINUOUS
 10
115.533185
 20
-49.343215
 11
115.533185
 21
-50.644098
  0
LINE
  8
型材断面
  6
CONTINUOUS
 10
115.533185
 20
-49.343215
 11
115.533185
 21
-50.644098
  0
LINE
  8
型材断面
  6
CONTINUOUS
 10
115.533185
 20
-49.343215
 11
115.533185
 21
-50.644098
  0
LINE
  8
型材断面
  6
CONTINUOUS
 10
115.533185
 20
-49.34318
 11
113.033185
 21
-51.84318
  0
LINE
  8
型材断面
  6
CONTINUOUS
 10
115.533185
 20
-50.748862
 11
114.438865
 21
-51.84318
  0
LINE
  8
型材断面
  6
CONTINUOUS
 10
113.033185
 20
-51.84318
 11
114.438865
 21
-51.84318
  0
LINE
  8
型材断面
  6
CONTINUOUS
 10
118.033185
 20
-51.84318
 11
116.627505
 21
-51.84318
  0
LINE
  8
型材断面
  6
CONTINUOUS
 10
115.533185
 20
-50.748862
 11
116.627505
 21
-51.84318
  0
LINE
  8
型材断面
  6
CONTINUOUS
 10
115.533185
 20
-49.34318
 11
118.033185
 21
-51.84318
  0
LINE
  8
型材断面
  6
CONTINUOUS
 10
166.921482
 20
-100.766867
 11
117.997797
 21
-51.84318
  0
LINE
  8
型材断面
  6
CONTINUOUS
 10
165.74425
 20
-100.855165
 11
116.73227
 21
-51.84318
  0
LINE
  8
型材断面
  6
CONTINUOUS
 10
64.144888
 20
-100.766867
 11
113.068572
 21
-51.84318
  0
LINE
  8
型材断面
  6
CONTINUOUS
 10
65.32212
 20
-100.855165
 11
114.3341
 21
-51.84318
  0
INSERT
  2
*GRP_0017
  8
型材断面
  6
CONTINUOUS
 10
0.0
 20
0.0
  0
INSERT
  2
*GRP_0018
  8
型材断面
  6
CONTINUOUS
 10
0.0
 20
0.0
  0
INSERT
  2
*GRP_0019
  8
型材断面
  6
CONTINUOUS
 10
0.0
 20
0.0
  0
INSERT
  2
*GRP_0020
  8
型材断面
  6
CONTINUOUS
 10
0.0
 20
0.0
  0
LINE
  8
型材断面
  6
CONTINUOUS
 10
95.516638
 20
71.152485
 11
119.44826
 21
71.152485
  0
LINE
  8
型材断面
  6
DASHDOT
 10
-77.750185
 20
-110.860337
 11
-77.750185
 21
87.674245
  0
LINE
  8
型材断面
  6
DASHDOT
 10
-32.750185
 20
-110.860337
 11
-32.750185
 21
87.674245
  0
LINE
  8
型材断面
  6
DASHDOT
 10
-122.750185
 20
-110.860337
 11
-122.750185
 21
87.674245
  0
LINE
  8
型材断面
  6
CONTINUOUS
 10
-126.144963
 20
-110.655165
 11
-126.144963
 21
-111.160165
  0
LINE
  8
型材断面
  6
CONTINUOUS
 10
-126.894963
 20
-110.655165
 11
-126.144963
 21
-110.655165
  0
LINE
  8
型材断面
  6
CONTINUOUS
 10
-126.894963
 20
-110.655165
 11
-126.894963
 21
-104.830165
  0
LINE
  8
型材断面
  6
CONTINUOUS
 10
-126.894963
 20
-110.655165
 11
-77.750185
 21
-110.655165
  0
LINE
  8
型材断面
  6
CONTINUOUS
 10
-126.144963
 20
-111.160165
 11
-77.750185
 21
-111.160165
  0
LINE
  8
型材断面
  6
CONTINUOUS
 10
-29.355408
 20
-110.655165
 11
-29.355408
 21
-111.160165
  0
LINE
  8
型材断面
  6
CONTINUOUS
 10
-28.605408
 20
-110.655165
 11
-29.355408
 21
-110.655165
  0
LINE
  8
型材断面
  6
CONTINUOUS
 10
-28.605408
 20
-110.655165
 11
-28.605408
 21
-104.830165
  0
LINE
  8
型材断面
  6
CONTINUOUS
 10
-28.605408
 20
-110.655165
 11
-77.750185
 21
-110.655165
  0
LINE
  8
型材断面
  6
CONTINUOUS
 10
-29.355408
 20
-111.160165
 11
-77.750185
 21
-111.160165
  0
LINE
  8
型材断面
  6
CONTINUOUS
 10
67.138408
 20
-110.655165
 11
67.138408
 21
-111.160165
  0
LINE
  8
型材断面
  6
CONTINUOUS
 10
66.388408
 20
-110.655165
 11
67.138408
 21
-110.655165
  0
LINE
  8
型材断面
  6
CONTINUOUS
 10
66.388408
 20
-110.655165
 11
66.388408
 21
-104.830165
  0
LINE
  8
型材断面
  6
CONTINUOUS
 10
66.388408
 20
-110.655165
 11
115.533185
 21
-110.655165
  0
LINE
  8
型材断面
  6
CONTINUOUS
 10
67.138408
 20
-111.160165
 11
115.533185
 21
-111.160165
  0
LINE
  8
型材断面
  6
CONTINUOUS
 10
163.927962
 20
-110.655165
 11
163.927962
 21
-111.160165
  0
LINE
  8
型材断面
  6
CONTINUOUS
 10
164.677962
 20
-110.655165
 11
163.927962
 21
-110.655165
  0
LINE
  8
型材断面
  6
CONTINUOUS
 10
164.677962
 20
-110.655165
 11
164.677962
 21
-104.830165
  0
LINE
  8
型材断面
  6
CONTINUOUS
 10
164.677962
 20
-110.655165
 11
115.533185
 21
-110.655165
  0
LINE
  8
型材断面
  6
CONTINUOUS
 10
163.927962
 20
-111.160165
 11
115.533185
 21
-111.160165
  0
LINE
  8
ガラス
  6
CONTINUOUS
 10
-86.930325
 20
74.035193
 11
-90.80296
 21
70.162558
  0
LINE
  8
ガラス
  6
CONTINUOUS
 10
-88.528683
 20
73.15487
 11
-89.922638
 21
71.760915
  0
LINE
  8
ガラス
  6
CONTINUOUS
 10
-64.676722
 20
74.035193
 11
-68.549358
 21
70.162558
  0
LINE
  8
ガラス
  6
CONTINUOUS
 10
-66.27508
 20
73.15487
 11
-67.669035
 21
71.760915
  0
LINE
  8
ガラス
  6
CONTINUOUS
 10
-86.930325
 20
13.625007
 11
-90.80296
 21
9.752372
  0
LINE
  8
ガラス
  6
CONTINUOUS
 10
-88.528683
 20
12.744685
 11
-89.922638
 21
11.35073
  0
LINE
  8
ガラス
  6
CONTINUOUS
 10
-64.676722
 20
13.625007
 11
-68.549358
 21
9.752372
  0
LINE
  8
ガラス
  6
CONTINUOUS
 10
-66.27508
 20
12.744685
 11
-67.669035
 21
11.35073
  0
LINE
  8
ガラス
  6
CONTINUOUS
 10
-44.643925
 20
32.178015
 11
-48.51656
 21
28.30538
  0
LINE
  8
ガラス
  6
CONTINUOUS
 10
-46.242282
 20
31.297693
 11
-47.636237
 21
29.903737
  0
LINE
  8
ガラス
  6
CONTINUOUS
 10
-44.643925
 20
56.270468
 11
-48.51656
 21
52.397833
  0
LINE
  8
ガラス
  6
CONTINUOUS
 10
-46.242282
 20
55.390145
 11
-47.636237
 21
53.99619
  0
LINE
  8
ガラス
  6
CONTINUOUS
 10
-109.88609
 20
32.178015
 11
-113.758725
 21
28.30538
  0
LINE
  8
ガラス
  6
CONTINUOUS
 10
-111.484447
 20
31.297693
 11
-112.878402
 21
29.903737
  0
LINE
  8
ガラス
  6
CONTINUOUS
 10
-109.88609
 20
56.270468
 11
-113.758725
 21
52.397833
  0
LINE
  8
ガラス
  6
CONTINUOUS
 10
-111.484447
 20
55.390145
 11
-112.878402
 21
53.99619
  0
LINE
  8
ガラス
  6
CONTINUOUS
 10
-91.35434
 20
-79.662935
 11
-95.226975
 21
-83.53557
  0
LINE
  8
ガラス
  6
CONTINUOUS
 10
-92.234663
 20
-81.261293
 11
-93.628618
 21
-82.655248
  0
LINE
  8
ガラス
  6
CONTINUOUS
 10
-92.952697
 20
-80.543257
 11
-94.346652
 21
-81.937212
  0
LINE
  8
ガラス
  6
CONTINUOUS
 10
-59.927495
 20
-79.662935
 11
-63.80013
 21
-83.53557
  0
LINE
  8
ガラス
  6
CONTINUOUS
 10
-60.807817
 20
-81.261293
 11
-62.201772
 21
-82.655248
  0
LINE
  8
ガラス
  6
CONTINUOUS
 10
-61.525853
 20
-80.543257
 11
-62.919808
 21
-81.937212
  0
LINE
  8
ガラス
  6
CONTINUOUS
 10
-65.557045
 20
72.436835
 11
-66.951
 21
71.04288
  0
LINE
  8
ガラス
  6
CONTINUOUS
 10
-87.810647
 20
72.436835
 11
-89.204602
 21
71.04288
  0
LINE
  8
ガラス
  6
CONTINUOUS
 10
-110.766413
 20
54.67211
 11
-112.160368
 21
53.278155
  0
LINE
  8
ガラス
  6
CONTINUOUS
 10
-110.766413
 20
30.579658
 11
-112.160368
 21
29.185702
  0
LINE
  8
ガラス
  6
CONTINUOUS
 10
-87.810647
 20
12.02665
 11
-89.204602
 21
10.632695
  0
LINE
  8
ガラス
  6
CONTINUOUS
 10
-65.557045
 20
12.02665
 11
-66.951
 21
10.632695
  0
LINE
  8
ガラス
  6
CONTINUOUS
 10
-45.524248
 20
30.579658
 11
-46.918203
 21
29.185702
  0
LINE
  8
ガラス
  6
CONTINUOUS
 10
-45.524248
 20
54.67211
 11
-46.918203
 21
53.278155
  0
LINE
  8
ガラス
  6
CONTINUOUS
 10
101.92903
 20
-79.662935
 11
98.056395
 21
-83.53557
  0
LINE
  8
ガラス
  6
CONTINUOUS
 10
101.048707
 20
-81.261293
 11
99.654753
 21
-82.655248
  0
LINE
  8
ガラス
  6
CONTINUOUS
 10
100.330673
 20
-80.543257
 11
98.936717
 21
-81.937212
  0
LINE
  8
ガラス
  6
CONTINUOUS
 10
133.355875
 20
-79.662935
 11
129.48324
 21
-83.53557
  0
LINE
  8
ガラス
  6
CONTINUOUS
 10
132.475553
 20
-81.261293
 11
131.081597
 21
-82.655248
  0
LINE
  8
ガラス
  6
CONTINUOUS
 10
131.757518
 20
-80.543257
 11
130.363563
 21
-81.937212
  0
INSERT
  2
*GRP_0016
  8
ガラス
  6
DOT
 10
0.0
 20
0.0
  0
LINE
  8
ゴム等
  6
CONTINUOUS
 10
-32.573482
 20
-99.195407
 11
-30.612735
 21
-99.699252
  0
LINE
  8
ゴム等
  6
CONTINUOUS
 10
-30.612735
 20
-99.699252
 11
-30.253963
 21
-99.776832
  0
LINE
  8
ゴム等
  6
CONTINUOUS
 10
-30.253963
 20
-99.776832
 11
-27.53912
 21
-100.855165
  0
LINE
  8
ゴム等
  6
CONTINUOUS
 10
-30.612735
 20
-99.699252
 11
-77.750185
 21
-99.699252
  0
LINE
  8
ゴム等
  6
CONTINUOUS
 10
-30.253963
 20
-99.776832
 11
-77.750185
 21
-99.776832
  0
LINE
  8
ゴム等
  6
CONTINUOUS
 10
-28.641505
 20
44.624245
 11
-71.920118
 21
44.624247
  0
LINE
  8
ゴム等
  6
CONTINUOUS
 10
-28.641505
 20
40.724245
 11
-71.920118
 21
40.724247
  0
LINE
  8
ゴム等
  6
CONTINUOUS
 10
-73.99356
 20
43.499247
 11
-27.680962
 21
43.499245
  0
LINE
  8
ゴム等
  6
CONTINUOUS
 10
-73.993565
 20
41.849247
 11
-27.680962
 21
41.849245
  0
LINE
  8
ゴム等
  6
CONTINUOUS
 10
-32.573482
 20
-99.195407
 11
-75.800185
 21
-99.195407
  0
LINE
  8
ゴム等
  6
CONTINUOUS
 10
-122.926887
 20
-99.195407
 11
-124.887635
 21
-99.699252
  0
LINE
  8
ゴム等
  6
CONTINUOUS
 10
-124.887635
 20
-99.699252
 11
-125.246407
 21
-99.776832
  0
LINE
  8
ゴム等
  6
CONTINUOUS
 10
-125.246407
 20
-99.776832
 11
-127.96125
 21
-100.855165
  0
LINE
  8
ゴム等
  6
CONTINUOUS
 10
-124.887635
 20
-99.699252
 11
-77.750185
 21
-99.699252
  0
LINE
  8
ゴム等
  6
CONTINUOUS
 10
-125.246407
 20
-99.776832
 11
-77.750185
 21
-99.776832
  0
LINE
  8
ゴム等
  6
CONTINUOUS
 10
-126.858865
 20
40.724245
 11
-83.580253
 21
40.724237
  0
LINE
  8
ゴム等
  6
CONTINUOUS
 10
-126.858865
 20
44.624245
 11
-83.580253
 21
44.624237
  0
LINE
  8
ゴム等
  6
CONTINUOUS
 10
-81.335855
 20
41.849237
 11
-127.819408
 21
41.849245
  0
LINE
  8
ゴム等
  6
CONTINUOUS
 10
-81.5068
 20
43.499237
 11
-127.819408
 21
43.499245
  0
LINE
  8
ゴム等
  6
CONTINUOUS
 10
-122.926887
 20
-99.195407
 11
-79.700185
 21
-99.195407
  0
LINE
  8
ゴム等
  6
CONTINUOUS
 10
-75.800185
 20
91.782922
 11
-75.80018
 21
48.50431
  0
LINE
  8
ゴム等
  6
CONTINUOUS
 10
-79.700185
 20
91.782922
 11
-79.70018
 21
48.50431
  0
LINE
  8
ゴム等
  6
CONTINUOUS
 10
-76.92518
 20
46.430873
 11
-76.925185
 21
92.743465
  0
LINE
  8
ゴム等
  6
CONTINUOUS
 10
-78.57518
 20
46.430862
 11
-78.575185
 21
92.743465
  0
LINE
  8
ゴム等
  6
CONTINUOUS
 10
-32.52157
 20
91.782922
 11
-30.612585
 21
92.743465
  0
LINE
  8
ゴム等
  6
CONTINUOUS
 10
-30.612585
 20
92.743465
 11
-30.334357
 21
92.917125
  0
LINE
  8
ゴム等
  6
CONTINUOUS
 10
-30.25383
 20
92.93126
 11
-27.636622
 21
93.974245
  0
LINE
  8
ゴム等
  6
CONTINUOUS
 10
-28.641505
 20
87.90286
 11
-27.680962
 21
89.811843
  0
LINE
  8
ゴム等
  6
CONTINUOUS
 10
-27.680962
 20
89.811843
 11
-27.507302
 21
90.09007
  0
LINE
  8
ゴム等
  6
CONTINUOUS
 10
-27.493167
 20
90.170598
 11
-26.450185
 21
92.787805
  0
LINE
  8
ゴム等
  6
CONTINUOUS
 10
-30.612585
 20
92.743465
 11
-77.750185
 21
92.743465
  0
LINE
  8
ゴム等
  6
CONTINUOUS
 10
-30.25383
 20
92.93126
 11
-77.750185
 21
92.93126
  0
LINE
  8
ゴム等
  6
CONTINUOUS
 10
-27.680962
 20
89.811843
 11
-27.680962
 21
42.674245
  0
LINE
  8
ゴム等
  6
CONTINUOUS
 10
-27.493167
 20
90.170598
 11
-27.493167
 21
42.674245
  0
LINE
  8
ゴム等
  6
CONTINUOUS
 10
-27.493167
 20
90.170598
 11
-74.989523
 21
42.674245
  0
LINE
  8
ゴム等
  6
CONTINUOUS
 10
-27.680962
 20
89.811843
 11
-74.818563
 21
42.674245
  0
LINE
  8
ゴム等
  6
CONTINUOUS
 10
-30.612585
 20
92.743465
 11
-77.750185
 21
45.605868
  0
LINE
  8
ゴム等
  6
CONTINUOUS
 10
-30.25383
 20
92.93126
 11
-77.750185
 21
45.434908
  0
LINE
  8
ゴム等
  6
CONTINUOUS
 10
-28.641505
 20
87.90286
 11
-71.920118
 21
44.624247
  0
LINE
  8
ゴム等
  6
CONTINUOUS
 10
-32.52157
 20
91.782922
 11
-75.80018
 21
48.504315
  0
LINE
  8
ゴム等
  6
CONTINUOUS
 10
-28.641505
 20
87.90286
 11
-28.641505
 21
44.624245
  0
LINE
  8
ゴム等
  6
CONTINUOUS
 10
-32.52157
 20
91.782922
 11
-75.800185
 21
91.782922
  0
LINE
  8
ゴム等
  6
CONTINUOUS
 10
-122.9788
 20
91.782922
 11
-124.887785
 21
92.743465
  0
LINE
  8
ゴム等
  6
CONTINUOUS
 10
-124.887785
 20
92.743465
 11
-125.166013
 21
92.917125
  0
LINE
  8
ゴム等
  6
CONTINUOUS
 10
-125.24654
 20
92.93126
 11
-127.863748
 21
93.974245
  0
LINE
  8
ゴム等
  6
CONTINUOUS
 10
-126.858865
 20
87.90286
 11
-127.819408
 21
89.811843
  0
LINE
  8
ゴム等
  6
CONTINUOUS
 10
-127.819408
 20
89.811843
 11
-127.993067
 21
90.09007
  0
LINE
  8
ゴム等
  6
CONTINUOUS
 10
-128.007203
 20
90.170598
 11
-129.050185
 21
92.787805
  0
LINE
  8
ゴム等
  6
CONTINUOUS
 10
-124.887785
 20
92.743465
 11
-77.750185
 21
92.743465
  0
LINE
  8
ゴム等
  6
CONTINUOUS
 10
-125.24654
 20
92.93126
 11
-77.750185
 21
92.93126
  0
LINE
  8
ゴム等
  6
CONTINUOUS
 10
-127.819408
 20
89.811843
 11
-127.819408
 21
42.674245
  0
LINE
  8
ゴム等
  6
CONTINUOUS
 10
-128.007203
 20
90.170598
 11
-128.007203
 21
42.674245
  0
LINE
  8
ゴム等
  6
CONTINUOUS
 10
-128.007203
 20
90.170598
 11
-80.510847
 21
42.674245
  0
LINE
  8
ゴム等
  6
CONTINUOUS
 10
-127.819408
 20
89.811843
 11
-80.681808
 21
42.674245
  0
LINE
  8
ゴム等
  6
CONTINUOUS
 10
-124.887785
 20
92.743465
 11
-77.750185
 21
45.605868
  0
LINE
  8
ゴム等
  6
CONTINUOUS
 10
-125.24654
 20
92.93126
 11
-77.750185
 21
45.434908
  0
LINE
  8
ゴム等
  6
CONTINUOUS
 10
-122.9788
 20
91.782922
 11
-79.70018
 21
48.504305
  0
LINE
  8
ゴム等
  6
CONTINUOUS
 10
-126.858865
 20
87.90286
 11
-83.580242
 21
44.624237
  0
LINE
  8
ゴム等
  6
CONTINUOUS
 10
-122.9788
 20
91.782922
 11
-79.700185
 21
91.782922
  0
LINE
  8
ゴム等
  6
CONTINUOUS
 10
-126.858865
 20
87.90286
 11
-126.858865
 21
44.624245
  0
LINE
  8
ゴム等
  6
CONTINUOUS
 10
-79.700185
 20
-6.434433
 11
-79.700185
 21
36.84418
  0
LINE
  8
ゴム等
  6
CONTINUOUS
 10
-75.800185
 20
-6.434433
 11
-75.800185
 21
36.84418
  0
LINE
  8
ゴム等
  6
CONTINUOUS
 10
-76.925185
 20
38.917622
 11
-76.925185
 21
-7.394975
  0
LINE
  8
ゴム等
  6
CONTINUOUS
 10
-78.575185
 20
38.917622
 11
-78.575185
 21
-7.394975
  0
LINE
  8
ゴム等
  6
CONTINUOUS
 10
-32.52157
 20
-6.434433
 11
-30.612585
 21
-7.394975
  0
LINE
  8
ゴム等
  6
CONTINUOUS
 10
-30.612585
 20
-7.394975
 11
-30.334357
 21
-7.568635
  0
LINE
  8
ゴム等
  6
CONTINUOUS
 10
-30.25383
 20
-7.58277
 11
-27.636622
 21
-8.625755
  0
LINE
  8
ゴム等
  6
CONTINUOUS
 10
-28.641505
 20
-2.55437
 11
-27.680962
 21
-4.463353
  0
LINE
  8
ゴム等
  6
CONTINUOUS
 10
-27.680962
 20
-4.463353
 11
-27.507302
 21
-4.74158
  0
LINE
  8
ゴム等
  6
CONTINUOUS
 10
-27.493167
 20
-4.822108
 11
-26.450185
 21
-7.439315
  0
LINE
  8
ゴム等
  6
CONTINUOUS
 10
-30.612585
 20
-7.394975
 11
-77.750185
 21
-7.394975
  0
LINE
  8
ゴム等
  6
CONTINUOUS
 10
-30.25383
 20
-7.58277
 11
-77.750185
 21
-7.58277
  0
LINE
  8
ゴム等
  6
CONTINUOUS
 10
-27.680962
 20
-4.463353
 11
-27.680962
 21
42.674245
  0
LINE
  8
ゴム等
  6
CONTINUOUS
 10
-27.493167
 20
-4.822108
 11
-27.493167
 21
42.674245
  0
LINE
  8
ゴム等
  6
CONTINUOUS
 10
-27.493167
 20
-4.822108
 11
-74.989523
 21
42.674245
  0
LINE
  8
ゴム等
  6
CONTINUOUS
 10
-27.680962
 20
-4.463353
 11
-74.818563
 21
42.674245
  0
LINE
  8
ゴム等
  6
CONTINUOUS
 10
-30.612585
 20
-7.394975
 11
-77.750185
 21
39.742622
  0
LINE
  8
ゴム等
  6
CONTINUOUS
 10
-30.25383
 20
-7.58277
 11
-77.750185
 21
39.913582
  0
LINE
  8
ゴム等
  6
CONTINUOUS
 10
-28.641505
 20
-2.55437
 11
-71.920122
 21
40.724247
  0
LINE
  8
ゴム等
  6
CONTINUOUS
 10
-32.52157
 20
-6.434433
 11
-75.800185
 21
36.84418
  0
LINE
  8
ゴム等
  6
CONTINUOUS
 10
-32.52157
 20
-6.434433
 11
-75.800185
 21
-6.434433
  0
LINE
  8
ゴム等
  6
CONTINUOUS
 10
-28.641505
 20
-2.55437
 11
-28.641505
 21
40.724245
  0
LINE
  8
ゴム等
  6
CONTINUOUS
 10
-122.9788
 20
-6.434433
 11
-124.887785
 21
-7.394975
  0
LINE
  8
ゴム等
  6
CONTINUOUS
 10
-124.887785
 20
-7.394975
 11
-125.166013
 21
-7.568635
  0
LINE
  8
ゴム等
  6
CONTINUOUS
 10
-125.24654
 20
-7.58277
 11
-127.863748
 21
-8.625755
  0
LINE
  8
ゴム等
  6
CONTINUOUS
 10
-126.858865
 20
-2.55437
 11
-127.819408
 21
-4.463353
  0
LINE
  8
ゴム等
  6
CONTINUOUS
 10
-127.819408
 20
-4.463353
 11
-127.993067
 21
-4.74158
  0
LINE
  8
ゴム等
  6
CONTINUOUS
 10
-128.007203
 20
-4.822108
 11
-129.050185
 21
-7.439315
  0
LINE
  8
ゴム等
  6
CONTINUOUS
 10
-124.887785
 20
-7.394975
 11
-77.750185
 21
-7.394975
  0
LINE
  8
ゴム等
  6
CONTINUOUS
 10
-125.24654
 20
-7.58277
 11
-77.750185
 21
-7.58277
  0
LINE
  8
ゴム等
  6
CONTINUOUS
 10
-127.819408
 20
-4.463353
 11
-127.819408
 21
42.674245
  0
LINE
  8
ゴム等
  6
CONTINUOUS
 10
-128.007203
 20
-4.822108
 11
-128.007203
 21
42.674245
  0
LINE
  8
ゴム等
  6
CONTINUOUS
 10
-128.007203
 20
-4.822108
 11
-80.510847
 21
42.674245
  0
LINE
  8
ゴム等
  6
CONTINUOUS
 10
-127.819408
 20
-4.463353
 11
-80.681808
 21
42.674245
  0
LINE
  8
ゴム等
  6
CONTINUOUS
 10
-124.887785
 20
-7.394975
 11
-77.750185
 21
39.742622
  0
LINE
  8
ゴム等
  6
CONTINUOUS
 10
-125.24654
 20
-7.58277
 11
-77.750185
 21
39.913582
  0
LINE
  8
ゴム等
  6
CONTINUOUS
 10
-126.858865
 20
-2.55437
 11
-83.580257
 21
40.724237
  0
LINE
  8
ゴム等
  6
CONTINUOUS
 10
-122.9788
 20
-6.434433
 11
-79.700185
 21
36.84418
  0
LINE
  8
ゴム等
  6
CONTINUOUS
 10
-122.9788
 20
-6.434433
 11
-79.700185
 21
-6.434433
  0
LINE
  8
ゴム等
  6
CONTINUOUS
 10
-126.858865
 20
-2.55437
 11
-126.858865
 21
40.724245
  0
LINE
  8
ゴム等
  6
CONTINUOUS
 10
-77.750185
 20
-50.644098
 11
-77.750185
 21
-54.018703
  0
LINE
  8
ゴム等
  6
CONTINUOUS
 10
-77.750185
 20
-50.644098
 11
-77.750185
 21
-54.018703
  0
LINE
  8
ゴム等
  6
CONTINUOUS
 10
-77.750185
 20
-50.644098
 11
-77.750185
 21
-54.018703
  0
LINE
  8
ゴム等
  6
CONTINUOUS
 10
-77.750185
 20
-50.644098
 11
-77.750185
 21
-54.018703
  0
LINE
  8
ゴム等
  6
CONTINUOUS
 10
-77.750185
 20
-50.644098
 11
-77.750185
 21
-54.018703
  0
LINE
  8
ゴム等
  6
CONTINUOUS
 10
-77.750185
 20
-50.644098
 11
-77.750185
 21
-54.018703
  0
LINE
  8
ゴム等
  6
CONTINUOUS
 10
-77.750185
 20
-50.644098
 11
-77.750185
 21
-54.018703
  0
LINE
  8
ゴム等
  6
CONTINUOUS
 10
-77.750185
 20
-50.644098
 11
-77.750185
 21
-54.018703
  0
LINE
  8
ゴム等
  6
CONTINUOUS
 10
-75.800185
 20
-55.968703
 11
-75.800185
 21
-99.195407
  0
LINE
  8
ゴム等
  6
CONTINUOUS
 10
-79.700185
 20
-55.968703
 11
-79.700185
 21
-99.195407
  0
LINE
  8
ゴム等
  6
CONTINUOUS
 10
-78.575185
 20
-53.3868
 11
-78.575185
 21
-99.699252
  0
LINE
  8
ゴム等
  6
CONTINUOUS
 10
-76.925185
 20
-53.3868
 11
-76.925185
 21
-99.699252
  0
LINE
  8
ゴム等
  6
CONTINUOUS
 10
-30.612735
 20
-99.699252
 11
-77.750185
 21
-52.5618
  0
LINE
  8
ゴム等
  6
CONTINUOUS
 10
-30.253963
 20
-99.776832
 11
-77.750185
 21
-52.280608
  0
LINE
  8
ゴム等
  6
CONTINUOUS
 10
-32.573482
 20
-99.195407
 11
-75.800185
 21
-55.968703
  0
LINE
  8
ゴム等
  6
CONTINUOUS
 10
-124.887635
 20
-99.699252
 11
-77.750185
 21
-52.5618
  0
LINE
  8
ゴム等
  6
CONTINUOUS
 10
-125.246407
 20
-99.776832
 11
-77.750185
 21
-52.280608
  0
LINE
  8
ゴム等
  6
CONTINUOUS
 10
-122.926887
 20
-99.195407
 11
-79.700185
 21
-55.968703
  0
LINE
  8
ゴム等
  6
CONTINUOUS
 10
160.709887
 20
-99.195407
 11
162.670635
 21
-99.699252
  0
LINE
  8
ゴム等
  6
CONTINUOUS
 10
162.670635
 20
-99.699252
 11
163.029407
 21
-99.776832
  0
LINE
  8
ゴム等
  6
CONTINUOUS
 10
163.029407
 20
-99.776832
 11
165.74425
 21
-100.855165
  0
LINE
  8
ゴム等
  6
CONTINUOUS
 10
162.670635
 20
-99.699252
 11
115.533185
 21
-99.699252
  0
LINE
  8
ゴム等
  6
CONTINUOUS
 10
163.029407
 20
-99.776832
 11
115.533185
 21
-99.776832
  0
LINE
  8
ゴム等
  6
CONTINUOUS
 10
160.709887
 20
-99.195407
 11
117.483185
 21
-99.195407
  0
LINE
  8
ゴム等
  6
CONTINUOUS
 10
70.356482
 20
-99.195407
 11
68.395735
 21
-99.699252
  0
LINE
  8
ゴム等
  6
CONTINUOUS
 10
68.395735
 20
-99.699252
 11
68.036962
 21
-99.776832
  0
LINE
  8
ゴム等
  6
CONTINUOUS
 10
68.036962
 20
-99.776832
 11
65.32212
 21
-100.855165
  0
LINE
  8
ゴム等
  6
CONTINUOUS
 10
68.395735
 20
-99.699252
 11
115.533185
 21
-99.699252
  0
LINE
  8
ゴム等
  6
CONTINUOUS
 10
68.036962
 20
-99.776832
 11
115.533185
 21
-99.776832
  0
LINE
  8
ゴム等
  6
CONTINUOUS
 10
70.356482
 20
-99.195407
 11
113.583185
 21
-99.195407
  0
LINE
  8
ゴム等
  6
CONTINUOUS
 10
115.533185
 20
-50.644098
 11
115.533185
 21
-54.018703
  0
LINE
  8
ゴム等
  6
CONTINUOUS
 10
115.533185
 20
-50.644098
 11
115.533185
 21
-54.018703
  0
LINE
  8
ゴム等
  6
CONTINUOUS
 10
115.533185
 20
-50.644098
 11
115.533185
 21
-54.018703
  0
LINE
  8
ゴム等
  6
CONTINUOUS
 10
115.533185
 20
-50.644098
 11
115.533185
 21
-54.018703
  0
LINE
  8
ゴム等
  6
CONTINUOUS
 10
115.533185
 20
-50.644098
 11
115.533185
 21
-54.018703
  0
LINE
  8
ゴム等
  6
CONTINUOUS
 10
115.533185
 20
-50.644098
 11
115.533185
 21
-54.018703
  0
LINE
  8
ゴム等
  6
CONTINUOUS
 10
115.533185
 20
-50.644098
 11
115.533185
 21
-54.018703
  0
LINE
  8
ゴム等
  6
CONTINUOUS
 10
115.533185
 20
-50.644098
 11
115.533185
 21
-54.018703
  0
LINE
  8
ゴム等
  6
CONTINUOUS
 10
117.483185
 20
-55.968703
 11
117.483185
 21
-99.195407
  0
LINE
  8
ゴム等
  6
CONTINUOUS
 10
113.583185
 20
-55.968703
 11
113.583185
 21
-99.195407
  0
LINE
  8
ゴム等
  6
CONTINUOUS
 10
114.708185
 20
-53.3868
 11
114.708185
 21
-99.699252
  0
LINE
  8
ゴム等
  6
CONTINUOUS
 10
116.358185
 20
-53.3868
 11
116.358185
 21
-99.699252
  0
LINE
  8
ゴム等
  6
CONTINUOUS
 10
162.670635
 20
-99.699252
 11
115.533185
 21
-52.5618
  0
LINE
  8
ゴム等
  6
CONTINUOUS
 10
163.029407
 20
-99.776832
 11
115.533185
 21
-52.280608
  0
LINE
  8
ゴム等
  6
CONTINUOUS
 10
160.709887
 20
-99.195407
 11
117.483185
 21
-55.968703
  0
LINE
  8
ゴム等
  6
CONTINUOUS
 10
68.395735
 20
-99.699252
 11
115.533185
 21
-52.5618
  0
LINE
  8
ゴム等
  6
CONTINUOUS
 10
68.036962
 20
-99.776832
 11
115.533185
 21
-52.280608
  0
LINE
  8
ゴム等
  6
CONTINUOUS
 10
70.356482
 20
-99.195407
 11
113.583185
 21
-55.968703
  0
CIRCLE
  8
ボルト／ビス
  6
CONTINUOUS
 10
-125.894963
 20
-106.076008
 40
0.25
  0
CIRCLE
  8
ボルト／ビス
  6
CONTINUOUS
 10
-125.894963
 20
-106.076008
 40
0.2
  0
CIRCLE
  8
ボルト／ビス
  6
CONTINUOUS
 10
-125.894963
 20
-109.291007
 40
0.25
  0
CIRCLE
  8
ボルト／ビス
  6
CONTINUOUS
 10
-125.894963
 20
-109.291007
 40
0.2
  0
CIRCLE
  8
ボルト／ビス
  6
CONTINUOUS
 10
-29.605408
 20
-106.076008
 40
0.25
  0
CIRCLE
  8
ボルト／ビス
  6
CONTINUOUS
 10
-29.605408
 20
-106.076008
 40
0.2
  0
CIRCLE
  8
ボルト／ビス
  6
CONTINUOUS
 10
-29.605408
 20
-109.291007
 40
0.25
  0
CIRCLE
  8
ボルト／ビス
  6
CONTINUOUS
 10
-29.605408
 20
-109.291007
 40
0.2
  0
CIRCLE
  8
ボルト／ビス
  6
CONTINUOUS
 10
67.388408
 20
-106.076008
 40
0.25
  0
CIRCLE
  8
ボルト／ビス
  6
CONTINUOUS
 10
67.388408
 20
-106.076008
 40
0.2
  0
CIRCLE
  8
ボルト／ビス
  6
CONTINUOUS
 10
67.388408
 20
-109.291007
 40
0.25
  0
CIRCLE
  8
ボルト／ビス
  6
CONTINUOUS
 10
67.388408
 20
-109.291007
 40
0.2
  0
CIRCLE
  8
ボルト／ビス
  6
CONTINUOUS
 10
163.677962
 20
-106.076008
 40
0.25
  0
CIRCLE
  8
ボルト／ビス
  6
CONTINUOUS
 10
163.677962
 20
-106.076008
 40
0.2
  0
CIRCLE
  8
ボルト／ビス
  6
CONTINUOUS
 10
163.677962
 20
-109.291007
 40
0.25
  0
CIRCLE
  8
ボルト／ビス
  6
CONTINUOUS
 10
163.677962
 20
-109.291007
 40
0.2
  0
TEXT
  7
TextStyle03
  8
文字
  6
CONTINUOUS
 10
14.825
 20
-5.1
  1
は排水穴位置を示す
 40
3.0
 72
     5
 11
44.825
 21
-5.1
  0
TEXT
  7
TextStyle03
  8
文字
  6
CONTINUOUS
 10
14.825
 20
-12.95
  1
はケーシング位置を示す
 40
3.0
 72
     5
 11
51.575
 21
-12.95
  0
TEXT
  7
TextStyle03
  8
文字
  6
CONTINUOUS
 10
14.825
 20
-16.325
  1
４ヶ所中1ヶ所に設定
 40
3.0
 72
     5
 11
46.5125
 21
-16.325
  0
TEXT
  7
TextStyle03
  8
文字
  6
CONTINUOUS
 10
9.15
 20
-30.3
  1
アームユニット数　４ヶ所
 40
3.0
 72
     5
 11
49.275
 21
-30.3
  0
TEXT
  7
TextStyle03
  8
文字
  6
CONTINUOUS
 10
9.225
 20
-23.475
  1
アンカー数量　１２ヶ所
 40
3.0
 72
     5
 11
45.975
 21
-23.475
  0
TEXT
  7
TextStyle03
  8
文字
  6
CONTINUOUS
 10
66.825
 20
97.05
  1
ＮＳコード：ＮＳ４Ｇ
 40
5.0
 72
     5
 11
122.45
 21
97.05
  0
TEXT
  7
TextStyle03
  8
文字
  6
CONTINUOUS
 10
-23.15
 20
11.4
  1
ﾊﾞﾗﾝｽｽﾃｰ
 40
3.0
 72
     5
 11
-9.8375
 21
11.4
  0
TEXT
  7
TextStyle03
  8
文字
  6
CONTINUOUS
 10
-145.6625
 20
74.4
  1
ﾊﾞﾗﾝｽｽﾃｰ
 40
3.0
 72
     5
 11
-132.35
 21
74.4
  0
TEXT
  7
TextStyle03
  8
文字
  6
CONTINUOUS
 10
-155.725
 20
-17.075
  1
アンカーピッチ
 40
3.0
 50
90.0
 72
     5
 11
-155.725
 21
6.175
  0
TEXT
  7
TextStyle03
  8
文字
  6
CONTINUOUS
 10
-85.925
 20
101.5
  1
可動装置側
 40
3.0
 72
     5
 11
-69.425
 21
101.5
  0
TEXT
  7
TextStyle03
  8
文字
  6
CONTINUOUS
 10
-140.0
 20
119.425
  1
アンカーピッチ
 40
3.0
 72
     5
 11
-116.75
 21
119.425
  0
TEXT
  7
TextStyle03
  8
文字
  6
CONTINUOUS
 10
-85.925
 20
-18.825
  1
可動装置側
 40
3.0
 72
     5
 11
-69.425
 21
-18.825
  0
TEXT
  7
TextStyle03
  8
文字
  6
CONTINUOUS
 10
68.425
 20
120.175
  1
シリーズ：ＤＦ４
 40
5.0
 72
     5
 11
112.8
 21
120.175
  0
TEXT
  7
TextStyle03
  8
文字
  6
CONTINUOUS
 10
68.425
 20
114.55
  1
　　　　　四角錘（上下可動）1800×1800タイプ
 40
5.0
 72
     5
 11
191.55
 21
114.55
  0
TEXT
  7
TextStyle03
  8
文字
  6
CONTINUOUS
 10
68.425
 20
108.925
  1
図面名　：外観姿図
 40
5.0
 72
     5
 11
118.425
 21
108.925
  0
TEXT
  7
TextStyle03
  8
文字
  6
CONTINUOUS
 10
68.425
 20
103.3
  1
　　　　　　
 40
5.0
 72
     5
 11
101.55
 21
103.3
  0
TEXT
  7
TextStyle03
  8
文字
  6
CONTINUOUS
 10
99.1
 20
72.325
  1
ガラス寸法
 40
3.0
 72
     5
 11
115.6
 21
72.325
  0
TEXT
  7
TextStyle03
  8
文字
  6
CONTINUOUS
 10
117.6
 20
21.25
  1
本図×４枚
 40
3.0
 72
     5
 11
134.1
 21
21.25
  0
TEXT
  7
TextStyle03
  8
文字
  6
CONTINUOUS
 10
117.6
 20
17.875
  1
逆図×４枚
 40
3.0
 72
     5
 11
134.1
 21
17.875
  0
INSERT
  2
*GRP_0002
  8
寸法
  6
CONTINUOUS
 10
0.0
 20
0.0
  0
INSERT
  2
*GRP_0003
  8
寸法
  6
CONTINUOUS
 10
0.0
 20
0.0
  0
INSERT
  2
*DIM_0004
  8
寸法
  6
CONTINUOUS
 10
0.0
 20
0.0
  0
INSERT
  2
*DIM_0005
  8
寸法
  6
CONTINUOUS
 10
0.0
 20
0.0
  0
INSERT
  2
*DIM_0006
  8
寸法
  6
CONTINUOUS
 10
0.0
 20
0.0
  0
INSERT
  2
*DIM_0007
  8
寸法
  6
CONTINUOUS
 10
0.0
 20
0.0
  0
INSERT
  2
*DIM_0008
  8
寸法
  6
CONTINUOUS
 10
0.0
 20
0.0
  0
INSERT
  2
*DIM_0009
  8
寸法
  6
CONTINUOUS
 10
0.0
 20
0.0
  0
INSERT
  2
*DIM_0010
  8
寸法
  6
CONTINUOUS
 10
0.0
 20
0.0
  0
INSERT
  2
*DIM_0011
  8
寸法
  6
CONTINUOUS
 10
0.0
 20
0.0
  0
INSERT
  2
*DIM_0012
  8
寸法
  6
CONTINUOUS
 10
0.0
 20
0.0
  0
INSERT
  2
*DIM_0013
  8
寸法
  6
CONTINUOUS
 10
0.0
 20
0.0
  0
INSERT
  2
*DIM_0014
  8
寸法
  6
CONTINUOUS
 10
0.0
 20
0.0
  0
INSERT
  2
*DIM_0015
  8
寸法
  6
CONTINUOUS
 10
0.0
 20
0.0
  0
INSERT
  2
*DIM_0021
  8
寸法
  6
CONTINUOUS
 10
0.0
 20
0.0
  0
INSERT
  2
*DIM_0022
  8
寸法
  6
CONTINUOUS
 10
0.0
 20
0.0
  0
INSERT
  2
*DIM_0023
  8
寸法
  6
CONTINUOUS
 10
0.0
 20
0.0
  0
LINE
  8
曲げ物
  6
CONTINUOUS
 10
93.64728
 20
14.037867
 11
139.16728
 21
78.41259
  0
LINE
  8
曲げ物
  6
CONTINUOUS
 10
93.64728
 20
14.037867
 11
139.16728
 21
14.037867
  0
LINE
  8
曲げ物
  6
CONTINUOUS
 10
139.16728
 20
78.41259
 11
139.16728
 21
14.037867
  0
ENDSEC
  0
EOF
